999
DXF file: C:\Users\sesa63760\Dev\_Creo\CAD\MCADID0005508_3D-CAD\drw0001_1.dxf
999
Pro/ENGINEER 2019471 by Parametric Technology Corporation
  0
SECTION
  2
HEADER
  9
$ACADVER
  1
AC1024
  9
$DWGCODEPAGE
  3
ANSI_1252
  9
$EXTMAX
 10
82.8439854482
 20
117.1650651338
 30
0.0
  9
$EXTMIN
 10
0.0
 20
0.0
 30
0.0
  9
$LIMMIN
 10
0.0
 20
0.0
  9
$LIMMAX
 10
82.8439854482
 20
117.1650651338
  9
$VIEWCTR
 10
41.4219927241
 20
58.5825325669
  9
$VIEWSIZE
 40
117.1650651338
  9
$CLAYER
  8
0
  9
$LTSCALE
 40
7.637426468
  9
$CELTYPE
  6
BYLAYER
  9
$DIMSCALE
 40
1.0
  9
$DIMASZ
 40
0.986237922
  9
$DIMEXO
 40
1.0
  9
$DIMDLI
 40
5.2767673779
  9
$DIMEXE
 40
1.0
  9
$DIMCEN
 40
1.2497606948
  9
$DIMLFAC
 40
1.0
  9
$DIMBLK
  1
_FILLED
  9
$DIMALT
 70
0
  9
$DIMALTF
 40
0.0393700787
  9
$DIMTXT
 40
1.3807330908
  9
$DIMTOL
 70
1
  9
$DIMLIM
 70
0
  9
$DIMTFAC
 40
1.0
  9
$DIMTP
 40
0.01
  9
$DIMTM
 40
0.01
  9
$DIMGAP
 40
0.625
  9
$DIMDSEP
 70
46
  9
$AUNITS
 70
0
  9
$PDMODE
 70
3
  9
$PDSIZE
 40
0.3125
  9
$HANDSEED
  5
245
  9
$TILEMODE
 70
1
  9
$MEASUREMENT
 70
1
  9
$INSUNITS
 70
4
  0
ENDSEC
  0
SECTION
  2
CLASSES
  0
CLASS
  1
ACDBDICTIONARYWDFLT
  2
AcDbDictionaryWithDefault
  3
AutoCAD 2000
 90
0
 91
1
280
0
281
0
  0
CLASS
  1
ACDBPLACEHOLDER
  2
AcDbPlaceHolder
  3
AutoCAD 2000
 90
0
 91
1
280
0
281
0
  0
CLASS
  1
LAYOUT
  2
AcDbLayout
  3
AutoCAD 2000
 90
0
 91
0
280
0
281
0
  0
ENDSEC
  0
SECTION
  2
TABLES
  0
TABLE
  2
VPORT
  5
8
100
AcDbSymbolTable
 70
2
  0
VPORT
  5
1F4
100
AcDbSymbolTableRecord
100
AcDbViewportTableRecord
  2
*ACTIVE
 70
0
 10
0.0
 20
0.0
 11
1.0
 21
1.0
 12
41.4219927241
 22
58.5825325669
 13
0.0
 23
0.0
 14
1.0
 24
1.0
 15
0.0
 25
0.0
 16
0.0
 26
0.0
 36
1.0
 17
0.0
 27
0.0
 37
0.0
 40
117.1650651338
 41
0.7070707071
 42
50.0
 43
0.0
 44
0.0
 50
0.0
 51
0.0
 71
0
 72
100
 73
1
 74
1
 75
0
 76
0
 77
0
 78
0
  0
ENDTAB
  0
TABLE
  2
LTYPE
  5
5
100
AcDbSymbolTable
 70
6
  0
LTYPE
  5
14
100
AcDbSymbolTableRecord
100
AcDbLinetypeTableRecord
  2
BYBLOCK
 70
0
  3

 72
65
 73
0
 40
0.0
  0
LTYPE
  5
15
100
AcDbSymbolTableRecord
100
AcDbLinetypeTableRecord
  2
BYLAYER
 70
0
  3

 72
65
 73
0
 40
0.0
  0
LTYPE
  5
16
100
AcDbSymbolTableRecord
100
AcDbLinetypeTableRecord
  2
CONTINUOUS
 70
64
  3
Solid line
 72
65
 73
0
 40
0.0
  0
LTYPE
  5
1F5
100
AcDbSymbolTableRecord
100
AcDbLinetypeTableRecord
  2
CENTER
 70
64
  3
____ _ ____ _ ____ _ ____ _ ____ _ ____ _ ____
 72
65
 73
4
 40
0.6
 49
0.375
 74
0
 49
-0.075
 74
0
 49
0.075
 74
0
 49
-0.075
 74
0
  0
LTYPE
  5
1F6
100
AcDbSymbolTableRecord
100
AcDbLinetypeTableRecord
  2
HIDDEN
 70
64
  3
- - - - - - - - - - - - - - - - - - - -
 72
65
 73
2
 40
0.2
 49
0.1
 74
0
 49
-0.1
 74
0
  0
LTYPE
  5
1F7
100
AcDbSymbolTableRecord
100
AcDbLinetypeTableRecord
  2
PHANTOM
 70
64
  3
_____ _ _ _____ _ _ _____ _ _ _____
 72
65
 73
6
 40
0.8
 49
0.45
 74
0
 49
-0.05
 74
0
 49
0.1
 74
0
 49
-0.05
 74
0
 49
0.1
 74
0
 49
-0.05
 74
0
  0
LTYPE
  5
1F8
100
AcDbSymbolTableRecord
100
AcDbLinetypeTableRecord
  2
DOT
 70
64
  3
. . . . . . . . . . . . . . . . . . . .
 72
65
 73
2
 40
0.2
 49
0.1
 74
0
 49
-0.1
 74
0
  0
LTYPE
  5
1F9
100
AcDbSymbolTableRecord
100
AcDbLinetypeTableRecord
  2
DASHED
 70
64
  3
- - - - - - - - - - - - - - - - - - - -
 72
65
 73
2
 40
0.2
 49
0.1
 74
0
 49
-0.1
 74
0
  0
ENDTAB
  0
TABLE
  2
LAYER
  5
2
100
AcDbSymbolTable
 70
36
  0
LAYER
  5
10
100
AcDbSymbolTableRecord
100
AcDbLayerTableRecord
  2
0
 70
0
 62
7
  6
CONTINUOUS
370
-3
390
F
  0
LAYER
  5
1FA
100
AcDbSymbolTableRecord
100
AcDbLayerTableRecord
  2
DEFAULT_1
 70
0
 62
7
  6
CENTER
370
-3
390
F
  0
LAYER
  5
1FB
100
AcDbSymbolTableRecord
100
AcDbLayerTableRecord
  2
DEFAULT_2
 70
0
 62
7
  6
HIDDEN
370
-3
390
F
  0
LAYER
  5
1FC
100
AcDbSymbolTableRecord
100
AcDbLayerTableRecord
  2
DEFAULT_3
 70
0
 62
7
  6
PHANTOM
370
-3
390
F
  0
LAYER
  5
1FD
100
AcDbSymbolTableRecord
100
AcDbLayerTableRecord
  2
00_COMPONENTS
 70
0
 62
7
  6
CONTINUOUS
370
-3
390
F
  0
LAYER
  5
1FE
100
AcDbSymbolTableRecord
100
AcDbLayerTableRecord
  2
01_1_DEFAULT_DATUMS
 70
0
 62
7
  6
CONTINUOUS
370
-3
390
F
  0
LAYER
  5
1FF
100
AcDbSymbolTableRecord
100
AcDbLayerTableRecord
  2
01_PLANES
 70
0
 62
7
  6
CONTINUOUS
370
-3
390
F
  0
LAYER
  5
200
100
AcDbSymbolTableRecord
100
AcDbLayerTableRecord
  2
02_COORD_SYS
 70
0
 62
7
  6
CONTINUOUS
370
-3
390
F
  0
LAYER
  5
201
100
AcDbSymbolTableRecord
100
AcDbLayerTableRecord
  2
03_AXES
 70
0
 62
7
  6
CONTINUOUS
370
-3
390
F
  0
LAYER
  5
202
100
AcDbSymbolTableRecord
100
AcDbLayerTableRecord
  2
04_POINTS
 70
0
 62
7
  6
CONTINUOUS
370
-3
390
F
  0
LAYER
  5
203
100
AcDbSymbolTableRecord
100
AcDbLayerTableRecord
  2
05_CURVES
 70
0
 62
7
  6
CONTINUOUS
370
-3
390
F
  0
LAYER
  5
204
100
AcDbSymbolTableRecord
100
AcDbLayerTableRecord
  2
06_SURFS
 70
0
 62
7
  6
CONTINUOUS
370
-3
390
F
  0
LAYER
  5
205
100
AcDbSymbolTableRecord
100
AcDbLayerTableRecord
  2
07_COSMETICS
 70
0
 62
7
  6
CONTINUOUS
370
-3
390
F
  0
LAYER
  5
206
100
AcDbSymbolTableRecord
100
AcDbLayerTableRecord
  2
10_NOTES
 70
0
 62
7
  6
CONTINUOUS
370
-3
390
F
  0
LAYER
  5
207
100
AcDbSymbolTableRecord
100
AcDbLayerTableRecord
  2
11_NOTES_PUB
 70
0
 62
7
  6
CONTINUOUS
370
-3
390
F
  0
LAYER
  5
208
100
AcDbSymbolTableRecord
100
AcDbLayerTableRecord
  2
13_REF_GTOL
 70
0
 62
7
  6
CONTINUOUS
370
-3
390
F
  0
LAYER
  5
209
100
AcDbSymbolTableRecord
100
AcDbLayerTableRecord
  2
16_MISC
 70
0
 62
7
  6
CONTINUOUS
370
-3
390
F
  0
LAYER
  5
20A
100
AcDbSymbolTableRecord
100
AcDbLayerTableRecord
  2
17_NO_PRINT
 70
0
 62
7
  6
CONTINUOUS
370
-3
390
F
  0
LAYER
  5
20B
100
AcDbSymbolTableRecord
100
AcDbLayerTableRecord
  2
18_DATUM_CAMS_JOINTS
 70
0
 62
7
  6
CONTINUOUS
370
-3
390
F
  0
LAYER
  5
20C
100
AcDbSymbolTableRecord
100
AcDbLayerTableRecord
  2
19_DATUM_FUNCTIONAL
 70
0
 62
7
  6
CONTINUOUS
370
-3
390
F
  0
LAYER
  5
20D
100
AcDbSymbolTableRecord
100
AcDbLayerTableRecord
  2
20_DATUM_KINEMATIC_SCHEME
 70
0
 62
7
  6
CONTINUOUS
370
-3
390
F
  0
ENDTAB
  0
TABLE
  2
STYLE
  5
3
100
AcDbSymbolTable
 70
1
  0
STYLE
  5
11
100
AcDbSymbolTableRecord
100
AcDbTextStyleTableRecord
  2
STANDARD
 70
0
 40
0.0
 41
1.0
 50
0.0
 71
0
 42
0.2
  3
ARIAL.TTF
  4

  0
STYLE
  5
20E
100
AcDbSymbolTableRecord
100
AcDbTextStyleTableRecord
  2
TEXTSTYLE_1
 70
0
 40
0.0
 41
0.8
 50
0.0
 71
0
 42
0.2
  3
gdt
  4

  0
ENDTAB
  0
TABLE
  2
VIEW
  5
6
100
AcDbSymbolTable
 70
0
  0
ENDTAB
  0
TABLE
  2
UCS
  5
7
100
AcDbSymbolTable
 70
0
  0
ENDTAB
  0
TABLE
  2
APPID
  5
9
100
AcDbSymbolTable
 70
1
  0
APPID
  5
20F
100
AcDbSymbolTableRecord
100
AcDbRegAppTableRecord
  2
ACAD
 70
0
  0
ENDTAB
  0
TABLE
  2
BLOCK_RECORD
  5
1
100
AcDbSymbolTable
 70
0
  0
BLOCK_RECORD
  5
210
100
AcDbSymbolTableRecord
100
AcDbBlockTableRecord
  2
*Model_Space
  0
BLOCK_RECORD
  5
211
100
AcDbSymbolTableRecord
100
AcDbBlockTableRecord
  2
*Paper_Space
  0
BLOCK_RECORD
  5
212
100
AcDbSymbolTableRecord
100
AcDbBlockTableRecord
  2
_FILLED
  0
ENDTAB
  0
TABLE
  2
DIMSTYLE
  5
A
100
AcDbSymbolTable
 70
1
100
AcDbDimStyleTable
 71
0
  0
DIMSTYLE
105
213
100
AcDbSymbolTableRecord
100
AcDbDimStyleTableRecord
  2
STANDARD
 70
0
  3

  4

 40
1.0
 41
0.986237922
 42
1.0
 43
0.38
 44
1.0
 45
0.0
 46
0.0
 47
0.01
 48
0.01
140
1.3807330908
141
0.09
142
0.0
143
25.4
144
1.0
145
0.0
146
1.0
147
0.625
 71
1
 72
0
 73
0
 74
0
 75
0
 76
0
 77
1
 78
8
 79
2
170
0
171
1
172
0
173
0
174
0
175
0
176
0
177
0
178
0
270
2
179
2
271
2
272
2
273
2
274
2
275
0
280
0
281
0
282
0
283
1
284
8
285
0
286
0
287
3
288
0
340
11
278
46
341
212
342
212
343
212
344
212
  0
ENDTAB
  0
ENDSEC
  0
SECTION
  2
BLOCKS
  0
BLOCK
  5
20
100
AcDbEntity
  8
0
100
AcDbBlockBegin
  2
*Model_Space
 70
0
 10
0.0
 20
0.0
 30
0.0
  3
*Model_Space
  1

  0
ENDBLK
  5
21
100
AcDbEntity
  8
0
100
AcDbBlockEnd
  0
BLOCK
  5
1C
100
AcDbEntity
  8
0
100
AcDbBlockBegin
  2
*Paper_Space
 70
0
 10
0.0
 20
0.0
 30
0.0
  3
*Paper_Space
  1

  0
ENDBLK
  5
1D
100
AcDbEntity
  8
0
100
AcDbBlockEnd
  0
BLOCK
  5
214
100
AcDbEntity
  8
0
100
AcDbBlockBegin
  2
_FILLED
 70
64
 10
0.0
 20
0.0
  3
_FILLED
  1

  0
SOLID
  5
215
100
AcDbEntity
  8
0
  6
BYBLOCK
 62
0
100
AcDbTrace
 10
0.0
 20
0.0
 11
-1.0
 21
0.25
 12
-1.0
 22
-0.25
 13
-1.0
 23
-0.25
  0
ENDBLK
  5
216
100
AcDbEntity
  8
0
  6
BYBLOCK
 62
0
100
AcDbBlockEnd
  0
ENDSEC
  0
SECTION
  2
ENTITIES
  0
LWPOLYLINE
  5
217
100
AcDbEntity
  8
0
100
AcDbPolyline
 62
7
  6
BYLAYER
 90
3
 70
0
 10
28.0653640396
 20
78.2852334163
 10
27.5589357686
 20
77.1950078801
 10
27.503577418
 20
76.457972943
  0
LWPOLYLINE
  5
218
100
AcDbEntity
  8
0
100
AcDbPolyline
 62
7
  6
BYLAYER
 90
3
 70
0
 10
27.5028640396
 20
73.1353438975
 10
27.1229920315
 20
72.3172934722
 10
27.0661342223
 20
71.558958437
  0
LINE
  5
219
100
AcDbEntity
  8
0
100
AcDbLine
 62
7
  6
BYLAYER
 10
27.0653640396
 20
71.5589585199
 11
27.0653640396
 21
17.6697989894
  0
LINE
  5
21A
100
AcDbEntity
  8
0
100
AcDbLine
 62
7
  6
BYLAYER
 10
27.5028640396
 20
76.4579730227
 11
27.5028640396
 21
71.5589585199
  0
LINE
  5
21B
100
AcDbEntity
  8
0
100
AcDbLine
 62
7
  6
BYLAYER
 10
28.0653640396
 20
79.6423324495
 11
28.0653640396
 21
76.4579730227
  0
LINE
  5
21C
100
AcDbEntity
  8
0
100
AcDbLine
 62
7
  6
BYLAYER
 10
36.0762605513
 20
107.1992315304
 11
36.0762605513
 21
82.7041590165
  0
LINE
  5
21D
100
AcDbEntity
  8
0
100
AcDbLine
 62
7
  6
BYLAYER
 10
40.2762605513
 20
107.1992315304
 11
40.2762605513
 21
82.7041590165
  0
LINE
  5
21E
100
AcDbEntity
  8
0
100
AcDbLine
 62
7
  6
BYLAYER
 10
56.0653640396
 20
79.6423324495
 11
56.0653640396
 21
76.4579730227
  0
LINE
  5
21F
100
AcDbEntity
  8
0
100
AcDbLine
 62
7
  6
BYLAYER
 10
56.6278640396
 20
76.4579730227
 11
56.6278640396
 21
71.5589585199
  0
LINE
  5
220
100
AcDbEntity
  8
0
100
AcDbLine
 62
7
  6
BYLAYER
 10
57.0653640396
 20
71.5589585199
 11
57.0653640396
 21
17.6697989894
  0
LWPOLYLINE
  5
221
100
AcDbEntity
  8
0
100
AcDbPolyline
 62
7
  6
BYLAYER
 90
7
 70
0
 10
36.0762605513
 20
87.003505584
 10
34.643426769
 20
86.6208472457
 10
31.4528992632
 20
84.7937160786
 10
29.5315703874
 20
82.4507645278
 10
29.1058860805
 20
79.8667493677
 10
30.2278235149
 20
77.3565923577
 10
32.7840714475
 20
75.2035125234
  0
LWPOLYLINE
  5
222
100
AcDbEntity
  8
0
100
AcDbPolyline
 62
7
  6
BYLAYER
 90
4
 70
0
 10
51.3423500537
 20
85.9798953235
 10
47.549091993
 20
87.4809098734
 10
42.6746527735
 20
88.1398819203
 10
40.2762605513
 20
87.9450131462
  0
LWPOLYLINE
  5
223
100
AcDbEntity
  8
0
100
AcDbPolyline
 62
7
  6
BYLAYER
 90
4
 70
0
 10
51.2577139234
 20
85.766008867
 10
47.57272156
 20
87.2574863391
 10
43.2380138463
 20
87.9336797651
 10
40.2762605513
 20
87.7892115726
  0
ARC
  5
224
100
AcDbEntity
  8
0
100
AcDbCircle
 62
7
  6
BYLAYER
 10
44.8495046091
 20
73.8324645323
 40
13.8318237008
100
AcDbArc
 50
61.359157039
 51
61.7545674067
  0
ARC
  5
225
100
AcDbEntity
  8
0
100
AcDbCircle
 62
7
  6
BYLAYER
 10
45.0473383198
 20
74.191455117
 40
13.421933569
100
AcDbArc
 50
60.0029558251
 51
61.3658017626
  0
ARC
  5
226
100
AcDbEntity
  8
0
100
AcDbCircle
 62
7
  6
BYLAYER
 10
45.1742664317
 20
74.4121769564
 40
13.1673187777
100
AcDbArc
 50
59.5162992352
 51
60.0011073007
  0
ARC
  5
227
100
AcDbEntity
  8
0
100
AcDbCircle
 62
7
  6
BYLAYER
 10
38.7173128822
 20
85.274803432
 40
13.1032615562
100
AcDbArc
 50
239.5163442019
 51
240.0011522675
  0
ARC
  5
228
100
AcDbEntity
  8
0
100
AcDbCircle
 62
7
  6
BYLAYER
 10
38.956459394
 20
85.6889864942
 40
12.1673143033
100
AcDbArc
 50
239.5163442019
 51
240.0011522675
  0
ARC
  5
229
100
AcDbEntity
  8
0
100
AcDbCircle
 62
7
  6
BYLAYER
 10
45.1742686853
 20
75.2286832391
 40
12.1673143033
100
AcDbArc
 50
59.5163442019
 51
60.0011522675
  0
ARC
  5
22A
100
AcDbEntity
  8
0
100
AcDbCircle
 62
7
  6
BYLAYER
 10
45.3763871519
 20
75.5699212584
 40
11.7707111383
100
AcDbArc
 50
58.2121297724
 51
59.5215667798
  0
ARC
  5
22B
100
AcDbEntity
  8
0
100
AcDbCircle
 62
7
  6
BYLAYER
 10
45.5191368847
 20
75.800707628
 40
11.4993446367
100
AcDbArc
 50
57.6225242348
 51
58.2109598217
  0
SPLINE
  5
22C
100
AcDbEntity
  8
0
100
AcDbSpline
 62
7
  6
BYLAYER
 70
0
 71
3
 72
17
 73
13
 74
0
 42
0.0000001
 43
0.0000001
 44
0.0000000001
 40
0.0
 40
0.0
 40
0.0
 40
0.0
 40
0.0428571351
 40
0.0874839364
 40
0.1353160071
 40
0.1872791416
 40
0.3045400115
 40
0.4382081091
 40
0.5825513186
 40
0.7297108723
 40
0.8713103985
 40
1.0
 40
1.0
 40
1.0
 40
1.0
 10
40.2762229872
 20
107.1992315977
 30
0.0
 10
40.2762470017
 20
107.2590094362
 30
0.0
 10
40.2602409763
 20
107.3815543892
 30
0.0
 10
40.1899814514
 20
107.5584998288
 30
0.0
 10
40.0759189178
 20
107.7262421525
 30
0.0
 10
39.8612525129
 20
107.9417232642
 30
0.0
 10
39.4954232077
 20
108.1644072835
 30
0.0
 10
38.9694330289
 20
108.340110793
 30
0.0
 10
38.3791442082
 20
108.423064878
 30
0.0
 10
37.772406764
 20
108.4062802215
 30
0.0
 10
37.1987581616
 20
108.2915089537
 30
0.0
 10
36.8467805279
 20
108.1462859091
 30
0.0
 10
36.6913301285
 20
108.0565371149
 30
0.0
  0
SPLINE
  5
22D
100
AcDbEntity
  8
0
100
AcDbSpline
 62
7
  6
BYLAYER
 70
0
 71
3
 72
25
 73
21
 74
0
 42
0.0000001
 43
0.0000001
 44
0.0000000001
 40
0.0
 40
0.0
 40
0.0
 40
0.0
 40
0.0623789134
 40
0.1287247098
 40
0.198314343
 40
0.2702916724
 40
0.3436682503
 40
0.4174014684
 40
0.4904271058
 40
0.5617143386
 40
0.6303117589
 40
0.6953992021
 40
0.7563466401
 40
0.8127838365
 40
0.8646841594
 40
0.9124584805
 40
0.9351027524
 40
0.9571078021
 40
0.9786681046
 40
1.0
 40
1.0
 40
1.0
 40
1.0
 10
52.6720099168
 20
11.5461876716
 30
0.0
 10
52.1331257833
 20
11.2350646292
 30
0.0
 10
50.9781772204
 20
10.665651677
 30
0.0
 10
49.1151783548
 20
9.9905529147
 30
0.0
 10
47.1018441853
 20
9.4795180146
 30
0.0
 10
44.981426707
 20
9.1432417905
 30
0.0
 10
42.798746348
 20
8.9889543645
 30
0.0
 10
40.6004264569
 20
9.0198654613
 30
0.0
 10
38.4333421023
 20
9.2353763484
 30
0.0
 10
36.3437024206
 20
9.6308836755
 30
0.0
 10
34.3758990218
 20
10.1980127007
 30
0.0
 10
32.5715191699
 20
10.924946149
 30
0.0
 10
30.9684796541
 20
11.7967952142
 30
0.0
 10
29.6002928464
 20
12.7966059533
 30
0.0
 10
28.4962840875
 20
13.9050260816
 30
0.0
 10
27.8052022148
 20
14.9219897896
 30
0.0
 10
27.4200844466
 20
15.7616279724
 30
0.0
 10
27.2159491046
 20
16.3914647219
 30
0.0
 10
27.0928193311
 20
17.0286449319
 30
0.0
 10
27.0654154018
 20
17.4570067262
 30
0.0
 10
27.06541493
 20
17.6697989521
 30
0.0
  0
SPLINE
  5
22E
100
AcDbEntity
  8
0
100
AcDbSpline
 62
7
  6
BYLAYER
 70
0
 71
3
 72
15
 73
11
 74
0
 42
0.0000001
 43
0.0000001
 44
0.0000000001
 40
0.0
 40
0.0
 40
0.0
 40
0.0
 40
0.1140843515
 40
0.2291654748
 40
0.3465994677
 40
0.467347843
 40
0.592387011
 40
0.72251991
 40
0.8583626955
 40
1.0
 40
1.0
 40
1.0
 40
1.0
 10
56.0653640396
 20
79.6423324495
 30
0.0
 10
56.0653640396
 20
79.9378382847
 30
0.0
 10
56.0156480936
 20
80.5325913169
 30
0.0
 10
55.7945691006
 20
81.4064973177
 30
0.0
 10
55.4341314944
 20
82.2513562792
 30
0.0
 10
54.9426547579
 20
83.0570868599
 30
0.0
 10
54.3298328313
 20
83.8169909715
 30
0.0
 10
53.6043197794
 20
84.5267247937
 30
0.0
 10
52.7745772871
 20
85.1823518147
 30
0.0
 10
52.1701191311
 20
85.5733074245
 30
0.0
 10
51.8539581074
 20
85.7594234466
 30
0.0
  0
SPLINE
  5
22F
100
AcDbEntity
  8
0
100
AcDbSpline
 62
7
  6
BYLAYER
 70
0
 71
3
 72
15
 73
11
 74
0
 42
0.0000001
 43
0.0000001
 44
0.0000000001
 40
0.0
 40
0.0
 40
0.0
 40
0.0
 40
0.1492050488
 40
0.2913749544
 40
0.4257718251
 40
0.5522644381
 40
0.6714193441
 40
0.7845232473
 40
0.8933095826
 40
1.0
 40
1.0
 40
1.0
 40
1.0
 10
36.0567390144
 20
87.3397785693
 30
0.0
 10
35.4887617501
 20
87.1785769798
 30
0.0
 10
34.3931129144
 20
86.8126843512
 30
0.0
 10
32.8552466359
 20
86.1168177616
 30
0.0
 10
31.4842233714
 20
85.2939355243
 30
0.0
 10
30.3049076713
 20
84.3525476372
 30
0.0
 10
29.340985272
 20
83.3013655806
 30
0.0
 10
28.6195394134
 20
82.1505731098
 30
0.0
 10
28.1682980628
 20
80.9204367744
 30
0.0
 10
28.0653640396
 20
80.0645105462
 30
0.0
 10
28.0653640396
 20
79.6423324495
 30
0.0
  0
SPLINE
  5
230
100
AcDbEntity
  8
0
100
AcDbSpline
 62
7
  6
BYLAYER
 70
0
 71
3
 72
11
 73
7
 74
0
 42
0.0000001
 43
0.0000001
 44
0.0000000001
 40
0.0
 40
0.0
 40
0.0
 40
0.0
 40
0.2896428702
 40
0.5491125874
 40
0.7822368
 40
1.0
 40
1.0
 40
1.0
 40
1.0
 10
36.6913301285
 20
108.0565371149
 30
0.0
 10
36.5992049178
 20
108.0033489171
 30
0.0
 10
36.4320457437
 20
107.8881697823
 30
0.0
 10
36.2322161556
 20
107.6782300551
 30
0.0
 10
36.1057693624
 20
107.4459253622
 30
0.0
 10
36.0763302447
 20
107.2792091478
 30
0.0
 10
36.0762981154
 20
107.1992314631
 30
0.0
  0
SPLINE
  5
231
100
AcDbEntity
  8
0
100
AcDbSpline
 62
7
  6
BYLAYER
 70
0
 71
3
 72
10
 73
6
 74
0
 42
0.0000001
 43
0.0000001
 44
0.0000000001
 40
0.0
 40
0.0
 40
0.0
 40
0.0
 40
0.2447069096
 40
0.491666618
 40
1.0
 40
1.0
 40
1.0
 40
1.0
 10
56.6278146058
 20
76.4579731025
 30
0.0
 10
56.6278145426
 20
76.6493276372
 30
0.0
 10
56.6049877438
 20
77.0342453043
 30
0.0
 10
56.4673120206
 20
77.8052813292
 30
0.0
 10
56.2625068035
 20
78.365946803
 30
0.0
 10
56.0891194874
 20
78.7236422273
 30
0.0
  0
SPLINE
  5
232
100
AcDbEntity
  8
0
100
AcDbSpline
 62
7
  6
BYLAYER
 70
0
 71
3
 72
9
 73
5
 74
0
 42
0.0000001
 43
0.0000001
 44
0.0000000001
 40
0.0
 40
0.0
 40
0.0
 40
0.0
 40
0.4940209908
 40
1.0
 40
1.0
 40
1.0
 40
1.0
 10
57.0653128568
 20
71.5589586031
 30
0.0
 10
57.0653126333
 20
71.8819244096
 30
0.0
 10
57.0012910154
 20
72.5371825925
 30
0.0
 10
56.8142988556
 20
73.1678951887
 30
0.0
 10
56.6932968262
 20
73.4757525163
 30
0.0
  0
SPLINE
  5
233
100
AcDbEntity
  8
0
100
AcDbSpline
 62
7
  6
BYLAYER
 70
0
 71
3
 72
15
 73
11
 74
0
 42
0.0000001
 43
0.0000001
 44
0.0000000001
 40
0.0
 40
0.0
 40
0.0
 40
0.0
 40
0.1080112355
 40
0.2180578126
 40
0.3319950925
 40
0.4513554305
 40
0.5772632247
 40
0.7104880168
 40
0.8514445522
 40
1.0
 40
1.0
 40
1.0
 40
1.0
 10
57.0653131492
 20
17.6697990266
 30
0.0
 10
57.0653137787
 20
17.385834387
 30
0.0
 10
57.0160626496
 20
16.811394622
 30
0.0
 10
56.7958997757
 20
15.9629452676
 30
0.0
 10
56.4326019246
 20
15.132744555
 30
0.0
 10
55.9306515478
 20
14.329277321
 30
0.0
 10
55.2958059907
 20
13.5597184593
 30
0.0
 10
54.5344024487
 20
12.8308689873
 30
0.0
 10
53.6540700446
 20
12.1496315453
 30
0.0
 10
53.0102423051
 20
11.7414650663
 30
0.0
 10
52.6720099168
 20
11.5461876716
 30
0.0
  0
SPLINE
  5
234
100
AcDbEntity
  8
0
100
AcDbSpline
 62
7
  6
BYLAYER
 70
0
 71
3
 72
15
 73
11
 74
0
 42
0.0000001
 43
0.0000001
 44
0.0000000001
 40
0.0
 40
0.0
 40
0.0
 40
0.0
 40
0.108297815
 40
0.2185890454
 40
0.3326912854
 40
0.4521127372
 40
0.5779715051
 40
0.7110424815
 40
0.8517542972
 40
1.0
 40
1.0
 40
1.0
 40
1.0
 10
28.0653990569
 20
79.6423324493
 30
0.0
 10
28.0653950807
 20
79.3805885616
 30
0.0
 10
28.1102210226
 20
78.8512403099
 30
0.0
 10
28.3105891981
 20
78.0690663917
 30
0.0
 10
28.6413354881
 20
77.3032720933
 30
0.0
 10
29.0984655978
 20
76.5615048202
 30
0.0
 10
29.6768728786
 20
75.8502538431
 30
0.0
 10
30.3709038338
 20
75.1756517621
 30
0.0
 10
31.1737690451
 20
74.5439456574
 30
0.0
 10
31.7613597291
 20
74.1645173787
 30
0.0
 10
32.0701258635
 20
73.9827545415
 30
0.0
  0
SPLINE
  5
235
100
AcDbEntity
  8
0
100
AcDbSpline
 62
7
  6
BYLAYER
 70
0
 71
3
 72
15
 73
11
 74
0
 42
0.0000001
 43
0.0000001
 44
0.0000000001
 40
0.0
 40
0.0
 40
0.0
 40
0.0
 40
0.1485551564
 40
0.2895094412
 40
0.4227332142
 40
0.5486413226
 40
0.6680023397
 40
0.7819401845
 40
0.8919876854
 40
1.0
 40
1.0
 40
1.0
 40
1.0
 10
32.1659103186
 20
70.7425548685
 30
0.0
 10
31.8502219498
 20
70.92481351
 30
0.0
 10
31.2493089145
 20
71.3057634584
 30
0.0
 10
30.4276590469
 20
71.9415845956
 30
0.0
 10
29.7170034698
 20
72.6218393734
 30
0.0
 10
29.1244690577
 20
73.3400998423
 30
0.0
 10
28.6559612932
 20
74.0900080224
 30
0.0
 10
28.3168762737
 20
74.8648768917
 30
0.0
 10
28.1113782477
 20
75.6567772598
 30
0.0
 10
28.0654112772
 20
76.1929333347
 30
0.0
 10
28.0654112277
 20
76.457973098
 30
0.0
  0
SPLINE
  5
236
100
AcDbEntity
  8
0
100
AcDbSpline
 62
7
  6
BYLAYER
 70
0
 71
3
 72
30
 73
26
 74
0
 42
0.0000001
 43
0.0000001
 44
0.0000000001
 40
0.0
 40
0.0
 40
0.0
 40
0.0
 40
0.0664961742
 40
0.1381851296
 40
0.213646235
 40
0.2911277647
 40
0.3687278618
 40
0.4445306069
 40
0.5167611833
 40
0.5839441522
 40
0.6153372989
 40
0.6451536691
 40
0.6733840371
 40
0.7000851182
 40
0.725383261
 40
0.7494851987
 40
0.7726765895
 40
0.795313024
 40
0.8177979122
 40
0.8405477977
 40
0.8639563739
 40
0.8883631994
 40
0.9140285119
 40
0.9411388998
 40
1.0
 40
1.0
 40
1.0
 40
1.0
 10
32.8730141559
 20
75.1516608663
 30
0.0
 10
33.4925810539
 20
74.7939618432
 30
0.0
 10
34.8457694743
 20
74.1616377692
 30
0.0
 10
37.0485507848
 20
73.4848291725
 30
0.0
 10
39.4337437979
 20
73.0616292764
 30
0.0
 10
41.9144161432
 20
72.9077535358
 30
0.0
 10
44.4005917188
 20
73.0285597576
 30
0.0
 10
46.802029484
 20
73.4197998571
 30
0.0
 10
49.0312810204
 20
74.0672306042
 30
0.0
 10
50.7169605137
 20
74.8181108878
 30
0.0
 10
51.9006731192
 20
75.5330685264
 30
0.0
 10
52.6774836809
 20
76.103443269
 30
0.0
 10
53.3559555166
 20
76.7150773781
 30
0.0
 10
53.9298616418
 20
77.3625109207
 30
0.0
 10
54.3934009658
 20
78.0402926879
 30
0.0
 10
54.7418060023
 20
78.742356189
 30
0.0
 10
54.9709269002
 20
79.4622684286
 30
0.0
 10
55.0776942755
 20
80.1928521232
 30
0.0
 10
55.0606965296
 20
80.9263299601
 30
0.0
 10
54.9199847584
 20
81.6547104609
 30
0.0
 10
54.6577891752
 20
82.3704357459
 30
0.0
 10
54.277212338
 20
83.0663770575
 30
0.0
 10
53.7828403176
 20
83.736479555
 30
0.0
 10
52.9562218161
 20
84.6108846724
 30
0.0
 10
52.2117900231
 20
85.1732282109
 30
0.0
 10
51.676976482
 20
85.5123469627
 30
0.0
  0
SPLINE
  5
237
100
AcDbEntity
  8
0
100
AcDbSpline
 62
7
  6
BYLAYER
 70
0
 71
3
 72
17
 73
13
 74
0
 42
0.0000001
 43
0.0000001
 44
0.0000000001
 40
0.0
 40
0.0
 40
0.0
 40
0.0
 40
0.128688448
 40
0.2702796817
 40
0.4174325464
 40
0.5617749928
 40
0.6954478191
 40
0.8127119577
 40
0.8646769781
 40
0.912510124
 40
0.9571398159
 40
1.0
 40
1.0
 40
1.0
 40
1.0
 10
39.6611909741
 20
81.846853432
 30
0.0
 10
39.5057420675
 20
81.7571054996
 30
0.0
 10
39.1537775351
 20
81.6118861042
 30
0.0
 10
38.580152399
 20
81.4971170204
 30
0.0
 10
37.9734376644
 20
81.4803216853
 30
0.0
 10
37.3831526751
 20
81.5632667697
 30
0.0
 10
36.8571462869
 20
81.7389588383
 30
0.0
 10
36.4913084013
 20
81.9616487869
 30
0.0
 10
36.2766173454
 20
82.1771195631
 30
0.0
 10
36.1625598969
 20
82.3448740185
 30
0.0
 10
36.0922774188
 20
82.5218213402
 30
0.0
 10
36.0762808247
 20
82.6443768216
 30
0.0
 10
36.0763045712
 20
82.7041588748
 30
0.0
  0
SPLINE
  5
238
100
AcDbEntity
  8
0
100
AcDbSpline
 62
7
  6
BYLAYER
 70
0
 71
3
 72
25
 73
21
 74
0
 42
0.0000001
 43
0.0000001
 44
0.0000000001
 40
0.0
 40
0.0
 40
0.0
 40
0.0
 40
0.021332098
 40
0.0428926904
 40
0.0648980869
 40
0.0875427303
 40
0.1353178202
 40
0.1872188258
 40
0.2436564332
 40
0.3046039271
 40
0.3696910247
 40
0.43828768
 40
0.5095738272
 40
0.5825982553
 40
0.6563302763
 40
0.7297061806
 40
0.8016834708
 40
0.8712733413
 40
0.9376202174
 40
1.0
 40
1.0
 40
1.0
 40
1.0
 10
56.0653168516
 20
76.4579729474
 30
0.0
 10
56.0653168888
 20
76.2593656637
 30
0.0
 10
56.0397402366
 20
75.859557921
 30
0.0
 10
55.9248141767
 20
75.2648514635
 30
0.0
 10
55.7342850687
 20
74.6769971526
 30
0.0
 10
55.3748346605
 20
73.8933260049
 30
0.0
 10
54.7298124304
 20
72.9441521916
 30
0.0
 10
53.6993881543
 20
71.9096252389
 30
0.0
 10
52.4224047557
 20
70.9764721984
 30
0.0
 10
50.9262357566
 20
70.1627541811
 30
0.0
 10
49.2421612815
 20
69.484292915
 30
0.0
 10
47.4055701214
 20
68.9549823205
 30
0.0
 10
45.4552744166
 20
68.5858493663
 30
0.0
 10
43.4327021141
 20
68.3847066704
 30
0.0
 10
41.3809728288
 20
68.3558489647
 30
0.0
 10
39.3438285559
 20
68.4998394344
 30
0.0
 10
37.3647819335
 20
68.8136853189
 30
0.0
 10
35.4856612173
 20
69.2906380679
 30
0.0
 10
33.7468457093
 20
69.9207256218
 30
0.0
 10
32.6688762239
 20
70.452173937
 30
0.0
 10
32.1659103186
 20
70.7425548685
 30
0.0
  0
SPLINE
  5
239
100
AcDbEntity
  8
0
100
AcDbSpline
 62
7
  6
BYLAYER
 70
0
 71
3
 72
11
 73
7
 74
0
 42
0.0000001
 43
0.0000001
 44
0.0000000001
 40
0.0
 40
0.0
 40
0.0
 40
0.0
 40
0.2177648073
 40
0.4508950352
 40
0.7103684932
 40
1.0
 40
1.0
 40
1.0
 40
1.0
 10
40.2762165315
 20
82.7041591582
 30
0.0
 10
40.2761847628
 20
82.6241809971
 30
0.0
 10
40.2467542429
 20
82.4574603578
 30
0.0
 10
40.1202978656
 20
82.2251548312
 30
0.0
 10
39.9204690486
 20
82.0152171518
 30
0.0
 10
39.7533124394
 20
81.9000394673
 30
0.0
 10
39.6611909741
 20
81.846853432
 30
0.0
  0
SPLINE
  5
23A
100
AcDbEntity
  8
0
100
AcDbSpline
 62
7
  6
BYLAYER
 70
0
 71
3
 72
25
 73
21
 74
0
 42
0.0000001
 43
0.0000001
 44
0.0000000001
 40
0.0
 40
0.0
 40
0.0
 40
0.0
 40
0.0623793416
 40
0.1287249208
 40
0.1983143044
 40
0.2702920694
 40
0.3436690218
 40
0.4174009908
 40
0.490425708
 40
0.5617124145
 40
0.6303096863
 40
0.6953973185
 40
0.7563451532
 40
0.8127828505
 40
0.8646837006
 40
0.9124584244
 40
0.9351027634
 40
0.9571079382
 40
0.9786681892
 40
1.0
 40
1.0
 40
1.0
 40
1.0
 10
32.1659103186
 20
73.9269142953
 30
0.0
 10
32.6688730192
 20
73.636535214
 30
0.0
 10
33.7468268432
 20
73.105089812
 30
0.0
 10
35.485624195
 20
72.4750097107
 30
0.0
 10
37.3647314367
 20
71.998047959
 30
0.0
 10
39.3437894426
 20
71.6842023869
 30
0.0
 10
41.3809481367
 20
71.5402026087
 30
0.0
 10
43.4326909334
 20
71.5690602241
 30
0.0
 10
45.4552724383
 20
71.770198855
 30
0.0
 10
47.4055833391
 20
72.1393332533
 30
0.0
 10
49.2421907124
 20
72.6686501902
 30
0.0
 10
50.9262780356
 20
73.3471206045
 30
0.0
 10
52.4224530274
 20
74.1608487422
 30
0.0
 10
53.6994360523
 20
75.0940095819
 30
0.0
 10
54.7298501648
 20
76.1285403319
 30
0.0
 10
55.3748741822
 20
77.0777071005
 30
0.0
 10
55.7342994038
 20
77.8613805226
 30
0.0
 10
55.9248385928
 20
78.4492236494
 30
0.0
 10
56.0397447244
 20
79.0439267332
 30
0.0
 10
56.0653260054
 20
79.4437277014
 30
0.0
 10
56.0653290224
 20
79.6423324497
 30
0.0
  0
SPLINE
  5
23B
100
AcDbEntity
  8
0
100
AcDbSpline
 62
7
  6
BYLAYER
 70
0
 71
3
 72
11
 73
7
 74
0
 42
0.0000001
 43
0.0000001
 44
0.0000000001
 40
0.0
 40
0.0
 40
0.0
 40
0.0
 40
0.2896428702
 40
0.5491125874
 40
0.7822368
 40
1.0
 40
1.0
 40
1.0
 40
1.0
 10
39.6611909741
 20
106.3419259459
 30
0.0
 10
39.7533161849
 20
106.3951141436
 30
0.0
 10
39.9204753589
 20
106.5102932785
 30
0.0
 10
40.1203049471
 20
106.7202330057
 30
0.0
 10
40.2467517403
 20
106.9525376985
 30
0.0
 10
40.2761908579
 20
107.119253913
 30
0.0
 10
40.2762229872
 20
107.1992315977
 30
0.0
  0
SPLINE
  5
23C
100
AcDbEntity
  8
0
100
AcDbSpline
 62
7
  6
BYLAYER
 70
0
 71
3
 72
17
 73
13
 74
0
 42
0.0000001
 43
0.0000001
 44
0.0000000001
 40
0.0
 40
0.0
 40
0.0
 40
0.0
 40
0.0428571351
 40
0.0874839364
 40
0.1353160071
 40
0.1872791416
 40
0.3045400115
 40
0.4382081091
 40
0.5825513186
 40
0.7297108723
 40
0.8713103985
 40
1.0
 40
1.0
 40
1.0
 40
1.0
 10
36.0762981154
 20
107.1992314631
 30
0.0
 10
36.076274101
 20
107.1394536246
 30
0.0
 10
36.0922801263
 20
107.0169086716
 30
0.0
 10
36.1625396512
 20
106.839963232
 30
0.0
 10
36.2766021849
 20
106.6722209083
 30
0.0
 10
36.4912685898
 20
106.4567397966
 30
0.0
 10
36.8570978949
 20
106.2340557773
 30
0.0
 10
37.3830880738
 20
106.0583522678
 30
0.0
 10
37.9733768944
 20
105.9753981828
 30
0.0
 10
38.5801143386
 20
105.9921828393
 30
0.0
 10
39.1537629411
 20
106.1069541071
 30
0.0
 10
39.5057405748
 20
106.2521771517
 30
0.0
 10
39.6611909741
 20
106.3419259459
 30
0.0
  0
SPLINE
  5
23D
100
AcDbEntity
  8
0
100
AcDbSpline
 62
7
  6
BYLAYER
 70
0
 71
3
 72
15
 73
11
 74
0
 42
0.0000001
 43
0.0000001
 44
0.0000000001
 40
0.0
 40
0.0
 40
0.0
 40
0.0
 40
0.1080111842
 40
0.2180577906
 40
0.3319951356
 40
0.4513555449
 40
0.5772633689
 40
0.7104881213
 40
0.8514445723
 40
1.0
 40
1.0
 40
1.0
 40
1.0
 10
56.6278147894
 20
71.5589585555
 30
0.0
 10
56.6278153721
 20
71.2832763483
 30
0.0
 10
56.5800005846
 20
70.7255911452
 30
0.0
 10
56.3662591136
 20
69.9018881379
 30
0.0
 10
56.0135574392
 20
69.0959011371
 30
0.0
 10
55.5262468145
 20
68.3158681469
 30
0.0
 10
54.9099175246
 20
67.5687546039
 30
0.0
 10
54.1707216065
 20
66.8611635621
 30
0.0
 10
53.3160659127
 20
66.1997957022
 30
0.0
 10
52.6910166452
 20
65.803534311
 30
0.0
 10
52.3626494121
 20
65.6139525322
 30
0.0
  0
SPLINE
  5
23E
100
AcDbEntity
  8
0
100
AcDbSpline
 62
7
  6
BYLAYER
 70
0
 71
3
 72
15
 73
11
 74
0
 42
0.0000001
 43
0.0000001
 44
0.0000000001
 40
0.0
 40
0.0
 40
0.0
 40
0.0
 40
0.1485547804
 40
0.2895088952
 40
0.4227326072
 40
0.5486406459
 40
0.6680016112
 40
0.781939534
 40
0.8919872614
 40
1.0
 40
1.0
 40
1.0
 40
1.0
 10
52.6720099168
 20
65.4353472021
 30
0.0
 10
53.0102408182
 20
65.6306237385
 30
0.0
 10
53.6540637137
 20
66.0387829977
 30
0.0
 10
54.5343856632
 20
66.7200160313
 30
0.0
 10
55.295786984
 20
67.4488555886
 30
0.0
 10
55.9306325407
 20
68.2184135443
 30
0.0
 10
56.4325938633
 20
69.0218789978
 30
0.0
 10
56.7958921134
 20
69.852086614
 30
0.0
 10
57.016063901
 20
70.7005427487
 30
0.0
 10
57.0653130533
 20
71.2749899843
 30
0.0
 10
57.0653128568
 20
71.5589586031
 30
0.0
  0
SPLINE
  5
23F
100
AcDbEntity
  8
0
100
AcDbSpline
 62
7
  6
BYLAYER
 70
0
 71
3
 72
25
 73
21
 74
0
 42
0.0000001
 43
0.0000001
 44
0.0000000001
 40
0.0
 40
0.0
 40
0.0
 40
0.0
 40
0.0213321396
 40
0.0428927518
 40
0.0648981582
 40
0.0875428062
 40
0.1353179259
 40
0.1872189722
 40
0.2436566309
 40
0.3046041838
 40
0.369691339
 40
0.4382880462
 40
0.5095742275
 40
0.5825986812
 40
0.6563308022
 40
0.7297067146
 40
0.8016839105
 40
0.8712736581
 40
0.9376204089
 40
1.0
 40
1.0
 40
1.0
 40
1.0
 10
27.5029134735
 20
76.457972943
 30
0.0
 10
27.5029135418
 20
76.2513847974
 30
0.0
 10
27.5295180266
 20
75.8355113682
 30
0.0
 10
27.6490620926
 20
75.2169076029
 30
0.0
 10
27.8472487121
 20
74.6054322378
 30
0.0
 10
28.2211434746
 20
73.790271488
 30
0.0
 10
28.8920869108
 20
72.8029587826
 30
0.0
 10
29.963919004
 20
71.7268639419
 30
0.0
 10
31.2922177304
 20
70.7562170354
 30
0.0
 10
32.8485093599
 20
69.9098049741
 30
0.0
 10
34.6002566978
 20
69.2040852606
 30
0.0
 10
36.5106486756
 20
68.65351022
 30
0.0
 10
38.5393134135
 20
68.2695496866
 30
0.0
 10
40.6431590458
 20
68.0603300903
 30
0.0
 10
42.7773325441
 20
68.0303192917
 30
0.0
 10
44.8963332342
 20
68.1801025326
 30
0.0
 10
46.9548988969
 20
68.5065670091
 30
0.0
 10
48.9095212806
 20
69.0026925195
 30
0.0
 10
50.7181986799
 20
69.6581063324
 30
0.0
 10
51.8394770612
 20
70.2109151404
 30
0.0
 10
52.3626494121
 20
70.512967035
 30
0.0
  0
SPLINE
  5
240
100
AcDbEntity
  8
0
100
AcDbSpline
 62
7
  6
BYLAYER
 70
0
 71
3
 72
25
 73
21
 74
0
 42
0.0000001
 43
0.0000001
 44
0.0000000001
 40
0.0
 40
0.0
 40
0.0
 40
0.0
 40
0.0623788903
 40
0.1287246319
 40
0.1983142449
 40
0.2702915648
 40
0.3436680948
 40
0.4174012324
 40
0.490426884
 40
0.5617141504
 40
0.6303116035
 40
0.6953990785
 40
0.7563465446
 40
0.8127837694
 40
0.8646841211
 40
0.9124584681
 40
0.9351027541
 40
0.9571078153
 40
0.9786681187
 40
1.0
 40
1.0
 40
1.0
 40
1.0
 10
52.3626494121
 20
65.6139525322
 30
0.0
 10
51.8394829258
 20
65.3119040235
 30
0.0
 10
50.7182210814
 20
64.7590992041
 30
0.0
 10
48.9095606229
 20
64.1036910296
 30
0.0
 10
46.9549495603
 20
63.6075612445
 30
0.0
 10
44.8963783603
 20
63.2810930405
 30
0.0
 10
42.7773608795
 20
63.1313052889
 30
0.0
 10
40.6431597566
 20
63.1613144392
 30
0.0
 10
38.5392822771
 20
63.370538867
 30
0.0
 10
36.5105895414
 20
63.7545101797
 30
0.0
 10
34.6001793833
 20
64.3050978293
 30
0.0
 10
32.8484262846
 20
65.0108289986
 30
0.0
 10
31.2921411572
 20
65.8572492206
 30
0.0
 10
29.9638589174
 20
66.8278990128
 30
0.0
 10
28.8920496188
 20
67.9039905786
 30
0.0
 10
28.2211238056
 20
68.891293327
 30
0.0
 10
27.8472384014
 20
69.7064425166
 30
0.0
 10
27.649057108
 20
70.3179093261
 30
0.0
 10
27.5295184194
 20
70.9365050477
 30
0.0
 10
27.5029137266
 20
71.3523728346
 30
0.0
 10
27.5029132899
 20
71.5589584843
 30
0.0
  0
SPLINE
  5
241
100
AcDbEntity
  8
0
100
AcDbSpline
 62
7
  6
BYLAYER
 70
0
 71
3
 72
25
 73
21
 74
0
 42
0.0000001
 43
0.0000001
 44
0.0000000001
 40
0.0
 40
0.0
 40
0.0
 40
0.0
 40
0.0213321661
 40
0.0428927874
 40
0.064898193
 40
0.0875428339
 40
0.135317945
 40
0.1872189788
 40
0.243656623
 40
0.3046041595
 40
0.369691293
 40
0.438287974
 40
0.5095741218
 40
0.5825985498
 40
0.6563307257
 40
0.7297066526
 40
0.8016838257
 40
0.8712735724
 40
0.9376203733
 40
1.0
 40
1.0
 40
1.0
 40
1.0
 10
27.0654152225
 20
71.5589584368
 30
0.0
 10
27.0654153698
 20
71.3461635166
 30
0.0
 10
27.0928191326
 20
70.9177957033
 30
0.0
 10
27.2159543206
 20
70.2806068306
 30
0.0
 10
27.4200956738
 20
69.6507611504
 30
0.0
 10
27.8052229376
 20
68.8111106247
 30
0.0
 10
28.4963236885
 20
67.7941365938
 30
0.0
 10
29.6003564853
 20
66.6857130356
 30
0.0
 10
30.9685608205
 20
65.6859052962
 30
0.0
 10
32.5716074743
 20
64.8140647163
 30
0.0
 10
34.3759817602
 20
64.0871432246
 30
0.0
 10
36.3437666685
 20
63.5200274128
 30
0.0
 10
38.4333775257
 20
63.1245315196
 30
0.0
 10
40.6004287411
 20
62.9090260172
 30
0.0
 10
42.7987194701
 20
62.8781134669
 30
0.0
 10
44.981381609
 20
63.0323963172
 30
0.0
 10
47.1017925124
 20
63.3686686316
 30
0.0
 10
49.1151377683
 20
63.8796990222
 30
0.0
 10
50.9781539487
 20
64.5548035563
 30
0.0
 10
52.1331196352
 20
65.1242206101
 30
0.0
 10
52.6720099168
 20
65.4353472021
 30
0.0
  0
SPLINE
  5
242
100
AcDbEntity
  8
0
100
AcDbSpline
 62
7
  6
BYLAYER
 70
0
 71
3
 72
15
 73
11
 74
0
 42
0.0000001
 43
0.0000001
 44
0.0000000001
 40
0.0
 40
0.0
 40
0.0
 40
0.0
 40
0.1485548182
 40
0.2895088954
 40
0.4227325718
 40
0.5486406272
 40
0.6680016437
 40
0.7819396012
 40
0.8919873307
 40
1.0
 40
1.0
 40
1.0
 40
1.0
 10
52.3626494121
 20
70.512967035
 30
0.0
 10
52.6910153315
 20
70.7025480553
 30
0.0
 10
53.3160601019
 20
71.0988026208
 30
0.0
 10
54.1707058556
 20
71.7601663921
 30
0.0
 10
54.9098996432
 20
72.4677479358
 30
0.0
 10
55.5262287756
 20
73.2148606315
 30
0.0
 10
56.0135499652
 20
73.9948917502
 30
0.0
 10
56.366251796
 20
74.8008853376
 30
0.0
 10
56.5800019288
 20
75.6245947325
 30
0.0
 10
56.6278146968
 20
76.1822870766
 30
0.0
 10
56.6278146058
 20
76.4579731025
 30
0.0
  0
ENDSEC
  0
SECTION
  2
OBJECTS
  0
DICTIONARY
  5
C
100
AcDbDictionary
280
0
281
1
  3
ACAD_GROUP
350
D
  3
ACAD_MLINESTYLE
350
17
  3
ACAD_LAYOUT
350
1A
  3
ACAD_PLOTSETTINGS
350
19
  3
ACAD_PLOTSTYLENAME
350
E
  0
DICTIONARY
  5
D
102
{ACAD_REACTORS
330
C
102
}
100
AcDbDictionary
280
0
281
1
  0
ACDBDICTIONARYWDFLT
  5
E
102
{ACAD_REACTORS
330
C
102
}
100
AcDbDictionary
281
1
  3
Normal
350
F
100
AcDbDictionaryWithDefault
340
F
  0
DICTIONARY
  5
17
102
{ACAD_REACTORS
330
C
102
}
100
AcDbDictionary
280
0
281
1
  3
Standard
350
18
  0
DICTIONARY
  5
19
102
{ACAD_REACTORS
330
C
102
}
100
AcDbDictionary
281
1
  0
DICTIONARY
  5
1A
102
{ACAD_REACTORS
330
C
102
}
100
AcDbDictionary
281
1
  3
Model
350
243
  3
Layout1
350
244
  0
ACDBPLACEHOLDER
  5
F
102
{ACAD_REACTORS
330
E
102
}
  0
MLINESTYLE
  5
18
102
{ACAD_REACTORS
330
17
102
}
100
AcDbMlineStyle
  2
STANDARD
 70
0
  3

 62
256
 51
90.0
 52
90.0
 71
2
 49
0.5
 62
256
  6
BYLAYER
 49
-0.5
 62
256
  6
BYLAYER
  0
LAYOUT
  5
243
102
{ACAD_REACTORS
330
1A
102
}
100
AcDbPlotSettings
  1

  2
none_device
  4

  6

 40
0.0
 41
0.0
 42
0.0
 43
0.0
 44
210.0
 45
297.0
 46
0.0
 47
0.0
 48
0.0
 49
0.0
140
0.0
141
0.0
142
1.0
143
1.0
 70
1024
 72
1
 73
0
 74
0
  7

 75
0
147
1.0
148
0.0
149
0.0
100
AcDbLayout
  1
Model
 70
0
 71
0
 10
0.0
 20
0.0
 11
210.0
 21
297.0
 12
0.0
 22
0.0
 32
0.0
 14
0.0
 24
0.0
 34
0.0
 15
0.0
 25
0.0
 35
0.0
146
0.0
 13
0.0
 23
0.0
 33
0.0
 16
1.0
 26
0.0
 36
0.0
 17
0.0
 27
1.0
 37
0.0
 76
0
330
210
345
0
346
0
  0
LAYOUT
  5
244
102
{ACAD_REACTORS
330
1A
102
}
100
AcDbPlotSettings
  1

  2
none_device
  4

  6

 40
0.0
 41
0.0
 42
0.0
 43
0.0
 44
210.0
 45
297.0
 46
0.0
 47
0.0
 48
0.0
 49
0.0
140
0.0
141
0.0
142
1.0
143
1.0
 70
0
 72
1
 73
0
 74
0
  7

 75
0
147
1.0
148
0.0
149
0.0
100
AcDbLayout
  1
Layout1
 70
0
 71
1
 10
0.0
 20
0.0
 11
210.0
 21
297.0
 12
0.0
 22
0.0
 32
0.0
 14
0.0
 24
0.0
 34
0.0
 15
0.0
 25
0.0
 35
0.0
146
0.0
 13
0.0
 23
0.0
 33
0.0
 16
1.0
 26
0.0
 36
0.0
 17
0.0
 27
1.0
 37
0.0
 76
0
330
211
345
0
346
0
  0
ENDSEC
  0
EOF
