999
DXF file: C:\Users\sesa63760\Dev\_Creo\CAD\MCADID0000559_3D-CAD\drw0001_2.dxf
999
Pro/ENGINEER 2019471 by Parametric Technology Corporation
  0
SECTION
  2
HEADER
  9
$ACADVER
  1
AC1024
  9
$DWGCODEPAGE
  3
ANSI_1252
  9
$EXTMAX
 10
288.5818606846
 20
408.1372029682
 30
0.0
  9
$EXTMIN
 10
0.0
 20
0.0
 30
0.0
  9
$LIMMIN
 10
0.0
 20
0.0
  9
$LIMMAX
 10
288.5818606846
 20
408.1372029682
  9
$VIEWCTR
 10
144.2909303423
 20
204.0686014841
  9
$VIEWSIZE
 40
408.1372029682
  9
$CLAYER
  8
0
  9
$LTSCALE
 40
26.6044991564
  9
$CELTYPE
  6
BYLAYER
  9
$DIMSCALE
 40
1.0
  9
$DIMASZ
 40
3.4354983415
  9
$DIMEXO
 40
1.0
  9
$DIMDLI
 40
18.3812903263
  9
$DIMEXE
 40
1.0
  9
$DIMCEN
 40
4.3534634983
  9
$DIMLFAC
 40
1.0
  9
$DIMBLK
  1
_FILLED
  9
$DIMALT
 70
0
  9
$DIMALTF
 40
0.0393700787
  9
$DIMTXT
 40
4.8096976781
  9
$DIMTOL
 70
1
  9
$DIMLIM
 70
0
  9
$DIMTFAC
 40
1.0
  9
$DIMTP
 40
0.01
  9
$DIMTM
 40
0.01
  9
$DIMGAP
 40
0.625
  9
$DIMDSEP
 70
46
  9
$AUNITS
 70
0
  9
$PDMODE
 70
3
  9
$PDSIZE
 40
0.3125
  9
$HANDSEED
  5
2A2
  9
$TILEMODE
 70
1
  9
$MEASUREMENT
 70
1
  9
$INSUNITS
 70
4
  0
ENDSEC
  0
SECTION
  2
CLASSES
  0
CLASS
  1
ACDBDICTIONARYWDFLT
  2
AcDbDictionaryWithDefault
  3
AutoCAD 2000
 90
0
 91
1
280
0
281
0
  0
CLASS
  1
ACDBPLACEHOLDER
  2
AcDbPlaceHolder
  3
AutoCAD 2000
 90
0
 91
1
280
0
281
0
  0
CLASS
  1
LAYOUT
  2
AcDbLayout
  3
AutoCAD 2000
 90
0
 91
0
280
0
281
0
  0
ENDSEC
  0
SECTION
  2
TABLES
  0
TABLE
  2
VPORT
  5
8
100
AcDbSymbolTable
 70
2
  0
VPORT
  5
1F4
100
AcDbSymbolTableRecord
100
AcDbViewportTableRecord
  2
*ACTIVE
 70
0
 10
0.0
 20
0.0
 11
1.0
 21
1.0
 12
144.2909303423
 22
204.0686014841
 13
0.0
 23
0.0
 14
1.0
 24
1.0
 15
0.0
 25
0.0
 16
0.0
 26
0.0
 36
1.0
 17
0.0
 27
0.0
 37
0.0
 40
408.1372029682
 41
0.7070707071
 42
50.0
 43
0.0
 44
0.0
 50
0.0
 51
0.0
 71
0
 72
100
 73
1
 74
1
 75
0
 76
0
 77
0
 78
0
  0
ENDTAB
  0
TABLE
  2
LTYPE
  5
5
100
AcDbSymbolTable
 70
6
  0
LTYPE
  5
14
100
AcDbSymbolTableRecord
100
AcDbLinetypeTableRecord
  2
BYBLOCK
 70
0
  3

 72
65
 73
0
 40
0.0
  0
LTYPE
  5
15
100
AcDbSymbolTableRecord
100
AcDbLinetypeTableRecord
  2
BYLAYER
 70
0
  3

 72
65
 73
0
 40
0.0
  0
LTYPE
  5
16
100
AcDbSymbolTableRecord
100
AcDbLinetypeTableRecord
  2
CONTINUOUS
 70
64
  3
Solid line
 72
65
 73
0
 40
0.0
  0
LTYPE
  5
1F5
100
AcDbSymbolTableRecord
100
AcDbLinetypeTableRecord
  2
CENTER
 70
64
  3
____ _ ____ _ ____ _ ____ _ ____ _ ____ _ ____
 72
65
 73
4
 40
0.6
 49
0.375
 74
0
 49
-0.075
 74
0
 49
0.075
 74
0
 49
-0.075
 74
0
  0
LTYPE
  5
1F6
100
AcDbSymbolTableRecord
100
AcDbLinetypeTableRecord
  2
HIDDEN
 70
64
  3
- - - - - - - - - - - - - - - - - - - -
 72
65
 73
2
 40
0.2
 49
0.1
 74
0
 49
-0.1
 74
0
  0
LTYPE
  5
1F7
100
AcDbSymbolTableRecord
100
AcDbLinetypeTableRecord
  2
PHANTOM
 70
64
  3
_____ _ _ _____ _ _ _____ _ _ _____
 72
65
 73
6
 40
0.8
 49
0.45
 74
0
 49
-0.05
 74
0
 49
0.1
 74
0
 49
-0.05
 74
0
 49
0.1
 74
0
 49
-0.05
 74
0
  0
LTYPE
  5
1F8
100
AcDbSymbolTableRecord
100
AcDbLinetypeTableRecord
  2
DOT
 70
64
  3
. . . . . . . . . . . . . . . . . . . .
 72
65
 73
2
 40
0.2
 49
0.1
 74
0
 49
-0.1
 74
0
  0
LTYPE
  5
1F9
100
AcDbSymbolTableRecord
100
AcDbLinetypeTableRecord
  2
DASHED
 70
64
  3
- - - - - - - - - - - - - - - - - - - -
 72
65
 73
2
 40
0.2
 49
0.1
 74
0
 49
-0.1
 74
0
  0
ENDTAB
  0
TABLE
  2
LAYER
  5
2
100
AcDbSymbolTable
 70
36
  0
LAYER
  5
10
100
AcDbSymbolTableRecord
100
AcDbLayerTableRecord
  2
0
 70
0
 62
7
  6
CONTINUOUS
370
-3
390
F
  0
LAYER
  5
1FA
100
AcDbSymbolTableRecord
100
AcDbLayerTableRecord
  2
DEFAULT_1
 70
0
 62
7
  6
CENTER
370
-3
390
F
  0
LAYER
  5
1FB
100
AcDbSymbolTableRecord
100
AcDbLayerTableRecord
  2
DEFAULT_2
 70
0
 62
8
  6
HIDDEN
370
-3
390
F
  0
LAYER
  5
1FC
100
AcDbSymbolTableRecord
100
AcDbLayerTableRecord
  2
DEFAULT_3
 70
0
 62
7
  6
PHANTOM
370
-3
390
F
  0
LAYER
  5
1FD
100
AcDbSymbolTableRecord
100
AcDbLayerTableRecord
  2
00_COMPONENTS
 70
0
 62
7
  6
CONTINUOUS
370
-3
390
F
  0
LAYER
  5
1FE
100
AcDbSymbolTableRecord
100
AcDbLayerTableRecord
  2
01_1_DEFAULT_DATUMS
 70
0
 62
7
  6
CONTINUOUS
370
-3
390
F
  0
LAYER
  5
1FF
100
AcDbSymbolTableRecord
100
AcDbLayerTableRecord
  2
01_PLANES
 70
0
 62
7
  6
CONTINUOUS
370
-3
390
F
  0
LAYER
  5
200
100
AcDbSymbolTableRecord
100
AcDbLayerTableRecord
  2
02_COORD_SYS
 70
0
 62
7
  6
CONTINUOUS
370
-3
390
F
  0
LAYER
  5
201
100
AcDbSymbolTableRecord
100
AcDbLayerTableRecord
  2
03_AXES
 70
0
 62
7
  6
CONTINUOUS
370
-3
390
F
  0
LAYER
  5
202
100
AcDbSymbolTableRecord
100
AcDbLayerTableRecord
  2
04_POINTS
 70
0
 62
7
  6
CONTINUOUS
370
-3
390
F
  0
LAYER
  5
203
100
AcDbSymbolTableRecord
100
AcDbLayerTableRecord
  2
05_CURVES
 70
0
 62
7
  6
CONTINUOUS
370
-3
390
F
  0
LAYER
  5
204
100
AcDbSymbolTableRecord
100
AcDbLayerTableRecord
  2
06_SURFS
 70
0
 62
7
  6
CONTINUOUS
370
-3
390
F
  0
LAYER
  5
205
100
AcDbSymbolTableRecord
100
AcDbLayerTableRecord
  2
07_COSMETICS
 70
0
 62
7
  6
CONTINUOUS
370
-3
390
F
  0
LAYER
  5
206
100
AcDbSymbolTableRecord
100
AcDbLayerTableRecord
  2
10_NOTES
 70
0
 62
7
  6
CONTINUOUS
370
-3
390
F
  0
LAYER
  5
207
100
AcDbSymbolTableRecord
100
AcDbLayerTableRecord
  2
11_NOTES_PUB
 70
0
 62
7
  6
CONTINUOUS
370
-3
390
F
  0
LAYER
  5
208
100
AcDbSymbolTableRecord
100
AcDbLayerTableRecord
  2
13_REF_GTOL
 70
0
 62
7
  6
CONTINUOUS
370
-3
390
F
  0
LAYER
  5
209
100
AcDbSymbolTableRecord
100
AcDbLayerTableRecord
  2
16_MISC
 70
0
 62
7
  6
CONTINUOUS
370
-3
390
F
  0
LAYER
  5
20A
100
AcDbSymbolTableRecord
100
AcDbLayerTableRecord
  2
17_NO_PRINT
 70
0
 62
7
  6
CONTINUOUS
370
-3
390
F
  0
LAYER
  5
20B
100
AcDbSymbolTableRecord
100
AcDbLayerTableRecord
  2
18_DATUM_CAMS_JOINTS
 70
0
 62
7
  6
CONTINUOUS
370
-3
390
F
  0
LAYER
  5
20C
100
AcDbSymbolTableRecord
100
AcDbLayerTableRecord
  2
19_DATUM_FUNCTIONAL
 70
0
 62
7
  6
CONTINUOUS
370
-3
390
F
  0
LAYER
  5
20D
100
AcDbSymbolTableRecord
100
AcDbLayerTableRecord
  2
20_DATUM_KINEMATIC_SCHEME
 70
0
 62
7
  6
CONTINUOUS
370
-3
390
F
  0
ENDTAB
  0
TABLE
  2
STYLE
  5
3
100
AcDbSymbolTable
 70
1
  0
STYLE
  5
11
100
AcDbSymbolTableRecord
100
AcDbTextStyleTableRecord
  2
STANDARD
 70
0
 40
0.0
 41
0.8
 50
0.0
 71
0
 42
0.2
  3
txt
  4

  0
STYLE
  5
20E
100
AcDbSymbolTableRecord
100
AcDbTextStyleTableRecord
  2
TEXTSTYLE_1
 70
0
 40
0.0
 41
0.8
 50
0.0
 71
0
 42
0.2
  3
gdt
  4

  0
ENDTAB
  0
TABLE
  2
VIEW
  5
6
100
AcDbSymbolTable
 70
0
  0
ENDTAB
  0
TABLE
  2
UCS
  5
7
100
AcDbSymbolTable
 70
0
  0
ENDTAB
  0
TABLE
  2
APPID
  5
9
100
AcDbSymbolTable
 70
1
  0
APPID
  5
20F
100
AcDbSymbolTableRecord
100
AcDbRegAppTableRecord
  2
ACAD
 70
0
  0
ENDTAB
  0
TABLE
  2
BLOCK_RECORD
  5
1
100
AcDbSymbolTable
 70
0
  0
BLOCK_RECORD
  5
210
100
AcDbSymbolTableRecord
100
AcDbBlockTableRecord
  2
*Model_Space
  0
BLOCK_RECORD
  5
211
100
AcDbSymbolTableRecord
100
AcDbBlockTableRecord
  2
*Paper_Space
  0
BLOCK_RECORD
  5
212
100
AcDbSymbolTableRecord
100
AcDbBlockTableRecord
  2
_FILLED
  0
ENDTAB
  0
TABLE
  2
DIMSTYLE
  5
A
100
AcDbSymbolTable
 70
1
100
AcDbDimStyleTable
 71
0
  0
DIMSTYLE
105
213
100
AcDbSymbolTableRecord
100
AcDbDimStyleTableRecord
  2
STANDARD
 70
0
  3

  4

 40
1.0
 41
3.4354983415
 42
1.0
 43
0.38
 44
1.0
 45
0.0
 46
0.0
 47
0.01
 48
0.01
140
4.8096976781
141
0.09
142
0.0
143
25.4
144
1.0
145
0.0
146
1.0
147
0.625
 71
1
 72
0
 73
0
 74
0
 75
0
 76
0
 77
1
 78
8
 79
2
170
0
171
1
172
0
173
0
174
0
175
0
176
0
177
0
178
0
270
2
179
2
271
2
272
2
273
2
274
2
275
0
280
0
281
0
282
0
283
1
284
8
285
0
286
0
287
3
288
0
340
11
278
46
341
212
342
212
343
212
344
212
  0
ENDTAB
  0
ENDSEC
  0
SECTION
  2
BLOCKS
  0
BLOCK
  5
20
100
AcDbEntity
  8
0
100
AcDbBlockBegin
  2
*Model_Space
 70
0
 10
0.0
 20
0.0
 30
0.0
  3
*Model_Space
  1

  0
ENDBLK
  5
21
100
AcDbEntity
  8
0
100
AcDbBlockEnd
  0
BLOCK
  5
1C
100
AcDbEntity
  8
0
100
AcDbBlockBegin
  2
*Paper_Space
 70
0
 10
0.0
 20
0.0
 30
0.0
  3
*Paper_Space
  1

  0
ENDBLK
  5
1D
100
AcDbEntity
  8
0
100
AcDbBlockEnd
  0
BLOCK
  5
214
100
AcDbEntity
  8
0
100
AcDbBlockBegin
  2
_FILLED
 70
64
 10
0.0
 20
0.0
  3
_FILLED
  1

  0
SOLID
  5
215
100
AcDbEntity
  8
0
  6
BYBLOCK
 62
0
100
AcDbTrace
 10
0.0
 20
0.0
 11
-1.0
 21
0.25
 12
-1.0
 22
-0.25
 13
-1.0
 23
-0.25
  0
ENDBLK
  5
216
100
AcDbEntity
  8
0
  6
BYBLOCK
 62
0
100
AcDbBlockEnd
  0
ENDSEC
  0
SECTION
  2
ENTITIES
  0
LINE
  5
217
100
AcDbEntity
  8
0
100
AcDbLine
 62
7
  6
CONTINUOUS
 10
31.6410658756
 20
172.8192675741
 11
31.6410658756
 21
181.8192675741
  0
LINE
  5
218
100
AcDbEntity
  8
0
100
AcDbLine
 62
7
  6
CONTINUOUS
 10
50.0410658756
 20
152.3192675741
 11
50.0410658756
 21
202.3192675741
  0
LINE
  5
219
100
AcDbEntity
  8
0
100
AcDbLine
 62
7
  6
CONTINUOUS
 10
51.6410658756
 20
148.7192675741
 11
51.6410658756
 21
205.9192675741
  0
LINE
  5
21A
100
AcDbEntity
  8
0
100
AcDbLine
 62
7
  6
CONTINUOUS
 10
57.4410658756
 20
205.9192675741
 11
57.4410658756
 21
192.3192675741
  0
LINE
  5
21B
100
AcDbEntity
  8
0
100
AcDbLine
 62
7
  6
CONTINUOUS
 10
57.4410658756
 20
162.3192675741
 11
57.4410658756
 21
148.7192675741
  0
LINE
  5
21C
100
AcDbEntity
  8
0
100
AcDbLine
 62
7
  6
CONTINUOUS
 10
70.2410658756
 20
205.9192675741
 11
70.2410658756
 21
148.7192675741
  0
LINE
  5
21D
100
AcDbEntity
  8
0
100
AcDbLine
 62
7
  6
CONTINUOUS
 10
51.6410658756
 20
148.7192675741
 11
168.4410658756
 21
148.7192675741
  0
LINE
  5
21E
100
AcDbEntity
  8
0
100
AcDbLine
 62
7
  6
CONTINUOUS
 10
173.9410658756
 20
148.7192675741
 11
257.8289066505
 21
148.7192675741
  0
LINE
  5
21F
100
AcDbEntity
  8
0
100
AcDbLine
 62
7
  6
CONTINUOUS
 10
168.4410658756
 20
148.9192675741
 11
173.9410658756
 21
148.9192675741
  0
LINE
  5
220
100
AcDbEntity
  8
0
100
AcDbLine
 62
7
  6
CONTINUOUS
 10
117.5412534159
 20
151.7192675741
 11
168.4410658756
 21
151.7192675741
  0
LINE
  5
221
100
AcDbEntity
  8
0
100
AcDbLine
 62
7
  6
CONTINUOUS
 10
173.9410658756
 20
151.7192675741
 11
258.2489702441
 21
151.7192675741
  0
LINE
  5
222
100
AcDbEntity
  8
0
100
AcDbLine
 62
7
  6
CONTINUOUS
 10
168.4410658756
 20
151.9192675741
 11
173.9410658756
 21
151.9192675741
  0
LINE
  5
223
100
AcDbEntity
  8
0
100
AcDbLine
 62
7
  6
CONTINUOUS
 10
51.6410658756
 20
152.3192675741
 11
50.0410658756
 21
152.3192675741
  0
LINE
  5
224
100
AcDbEntity
  8
0
100
AcDbLine
 62
7
  6
CONTINUOUS
 10
111.2410658756
 20
152.7192675741
 11
57.4410658756
 21
152.7192675741
  0
LINE
  5
225
100
AcDbEntity
  8
0
100
AcDbLine
 62
7
  6
CONTINUOUS
 10
117.5412534159
 20
151.7192675741
 11
111.2410658756
 21
160.6290782391
  0
LINE
  5
226
100
AcDbEntity
  8
0
100
AcDbLine
 62
7
  6
CONTINUOUS
 10
51.6410658756
 20
153.7192675741
 11
111.2410658756
 21
153.7192675741
  0
LINE
  5
227
100
AcDbEntity
  8
0
100
AcDbLine
 62
7
  6
CONTINUOUS
 10
57.4410658756
 20
158.3192675741
 11
111.2410658756
 21
158.3192675741
  0
LINE
  5
228
100
AcDbEntity
  8
0
100
AcDbLine
 62
7
  6
CONTINUOUS
 10
111.2410658756
 20
148.7192675741
 11
111.2410658756
 21
205.9192675741
  0
LINE
  5
229
100
AcDbEntity
  8
0
100
AcDbLine
 62
7
  6
CONTINUOUS
 10
111.2410658756
 20
162.3192675741
 11
57.4410658756
 21
162.3192675741
  0
LINE
  5
22A
100
AcDbEntity
  8
0
100
AcDbLine
 62
7
  6
CONTINUOUS
 10
117.5412534159
 20
148.7192675741
 11
117.5412534159
 21
151.7192675741
  0
LINE
  5
22B
100
AcDbEntity
  8
0
100
AcDbLine
 62
7
  6
CONTINUOUS
 10
117.5412534159
 20
202.9192675741
 11
117.5412534159
 21
205.9192675741
  0
LINE
  5
22C
100
AcDbEntity
  8
0
100
AcDbLine
 62
7
  6
CONTINUOUS
 10
31.6410658756
 20
172.8192675741
 11
50.0410658756
 21
172.8192675741
  0
LINE
  5
22D
100
AcDbEntity
  8
0
100
AcDbLine
 62
7
  6
CONTINUOUS
 10
128.4410658756
 20
205.9192675741
 11
128.4410658756
 21
148.7192675741
  0
LINE
  5
22E
100
AcDbEntity
  8
0
100
AcDbLine
 62
7
  6
CONTINUOUS
 10
117.5412534159
 20
202.9192675741
 11
111.2410658756
 21
194.0094569091
  0
LINE
  5
22F
100
AcDbEntity
  8
0
100
AcDbLine
 62
7
  6
CONTINUOUS
 10
50.0410658756
 20
181.8192675741
 11
31.6410658756
 21
181.8192675741
  0
LINE
  5
230
100
AcDbEntity
  8
0
100
AcDbLine
 62
7
  6
CONTINUOUS
 10
57.4410658756
 20
192.3192675741
 11
111.2410658756
 21
192.3192675741
  0
LINE
  5
231
100
AcDbEntity
  8
0
100
AcDbLine
 62
7
  6
CONTINUOUS
 10
111.2410658756
 20
196.3192675741
 11
57.4410658756
 21
196.3192675741
  0
LINE
  5
232
100
AcDbEntity
  8
0
100
AcDbLine
 62
7
  6
CONTINUOUS
 10
51.6410658756
 20
200.9192675741
 11
111.2410658756
 21
200.9192675741
  0
LINE
  5
233
100
AcDbEntity
  8
0
100
AcDbLine
 62
7
  6
CONTINUOUS
 10
57.4410658756
 20
201.9192675741
 11
111.2410658756
 21
201.9192675741
  0
LINE
  5
234
100
AcDbEntity
  8
0
100
AcDbLine
 62
7
  6
CONTINUOUS
 10
50.0410658756
 20
202.3192675741
 11
51.6410658756
 21
202.3192675741
  0
LINE
  5
235
100
AcDbEntity
  8
0
100
AcDbLine
 62
7
  6
CONTINUOUS
 10
168.4410658756
 20
202.7192675741
 11
173.9410658756
 21
202.7192675741
  0
LINE
  5
236
100
AcDbEntity
  8
0
100
AcDbLine
 62
7
  6
CONTINUOUS
 10
117.5412534159
 20
202.9192675741
 11
168.4410658756
 21
202.9192675741
  0
LINE
  5
237
100
AcDbEntity
  8
0
100
AcDbLine
 62
7
  6
CONTINUOUS
 10
173.9410658756
 20
202.9192675741
 11
206.9410658756
 21
202.9192675741
  0
LINE
  5
238
100
AcDbEntity
  8
0
100
AcDbLine
 62
7
  6
CONTINUOUS
 10
168.4410658756
 20
205.7192675741
 11
173.9410658756
 21
205.7192675741
  0
LINE
  5
239
100
AcDbEntity
  8
0
100
AcDbLine
 62
7
  6
CONTINUOUS
 10
51.6410658756
 20
205.9192675741
 11
168.4410658756
 21
205.9192675741
  0
LINE
  5
23A
100
AcDbEntity
  8
0
100
AcDbLine
 62
7
  6
CONTINUOUS
 10
173.9410658756
 20
205.9192675741
 11
206.9410658756
 21
205.9192675741
  0
LINE
  5
23B
100
AcDbEntity
  8
0
100
AcDbLine
 62
7
  6
CONTINUOUS
 10
206.9410658756
 20
206.6192675741
 11
187.9410658756
 21
206.6192675741
  0
LINE
  5
23C
100
AcDbEntity
  8
0
100
AcDbLine
 62
7
  6
CONTINUOUS
 10
185.9410658756
 20
207.3192675741
 11
187.9410658756
 21
207.3192675741
  0
LINE
  5
23D
100
AcDbEntity
  8
0
100
AcDbLine
 62
7
  6
CONTINUOUS
 10
187.9410658756
 20
212.1192675741
 11
185.9410658756
 21
212.1192675741
  0
LINE
  5
23E
100
AcDbEntity
  8
0
100
AcDbLine
 62
7
  6
CONTINUOUS
 10
182.4410658756
 20
226.6692675741
 11
185.9410658756
 21
227.2864120066
  0
LINE
  5
23F
100
AcDbEntity
  8
0
100
AcDbLine
 62
7
  6
CONTINUOUS
 10
168.4410658756
 20
205.9192675741
 11
168.4410658756
 21
148.7192675741
  0
LINE
  5
240
100
AcDbEntity
  8
0
100
AcDbLine
 62
7
  6
CONTINUOUS
 10
182.4410658756
 20
217.1692675741
 11
185.9410658756
 21
216.5521231416
  0
LINE
  5
241
100
AcDbEntity
  8
0
100
AcDbLine
 62
7
  6
CONTINUOUS
 10
173.9410658756
 20
148.7192675741
 11
173.9410658756
 21
205.9192675741
  0
LINE
  5
242
100
AcDbEntity
  8
0
100
AcDbLine
 62
7
  6
CONTINUOUS
 10
257.8289066505
 20
234.9192675741
 11
187.9410658756
 21
234.9192675741
  0
LINE
  5
243
100
AcDbEntity
  8
0
100
AcDbLine
 62
7
  6
CONTINUOUS
 10
185.9410658756
 20
237.4192675741
 11
187.9410658756
 21
237.4192675741
  0
LINE
  5
244
100
AcDbEntity
  8
0
100
AcDbLine
 62
7
  6
CONTINUOUS
 10
187.9410658756
 20
237.9192675741
 11
194.4410658756
 21
237.9192675741
  0
LINE
  5
245
100
AcDbEntity
  8
0
100
AcDbLine
 62
7
  6
CONTINUOUS
 10
247.4410658756
 20
237.9192675741
 11
253.4410658756
 21
237.9192675741
  0
LINE
  5
246
100
AcDbEntity
  8
0
100
AcDbLine
 62
7
  6
CONTINUOUS
 10
182.4410658756
 20
217.1692767083
 11
182.4410658756
 21
226.66925844
  0
LINE
  5
247
100
AcDbEntity
  8
0
100
AcDbLine
 62
7
  6
CONTINUOUS
 10
185.9410658756
 20
207.3192675741
 11
185.9410658756
 21
237.4192675741
  0
LINE
  5
248
100
AcDbEntity
  8
0
100
AcDbLine
 62
7
  6
CONTINUOUS
 10
187.9410658756
 20
240.9192675741
 11
187.9410658756
 21
206.6192675741
  0
LINE
  5
249
100
AcDbEntity
  8
0
100
AcDbLine
 62
7
  6
CONTINUOUS
 10
188.4410658756
 20
239.5192675741
 11
188.4410658756
 21
237.9192675741
  0
LINE
  5
24A
100
AcDbEntity
  8
0
100
AcDbLine
 62
7
  6
CONTINUOUS
 10
188.4410658756
 20
239.5192675741
 11
194.4410658756
 21
239.5192675741
  0
LINE
  5
24B
100
AcDbEntity
  8
0
100
AcDbLine
 62
7
  6
CONTINUOUS
 10
247.4410658756
 20
239.5192675741
 11
253.4410658756
 21
239.5192675741
  0
LINE
  5
24C
100
AcDbEntity
  8
0
100
AcDbLine
 62
7
  6
CONTINUOUS
 10
250.4474071919
 20
240.3192712789
 11
250.4347245592
 21
240.3192712789
  0
LINE
  5
24D
100
AcDbEntity
  8
0
100
AcDbLine
 62
7
  6
CONTINUOUS
 10
191.4474071919
 20
240.3192712789
 11
191.4347245592
 21
240.3192712789
  0
LINE
  5
24E
100
AcDbEntity
  8
0
100
AcDbLine
 62
7
  6
CONTINUOUS
 10
187.9410658756
 20
240.9192675741
 11
256.1907592336
 21
240.9192675741
  0
LINE
  5
24F
100
AcDbEntity
  8
0
100
AcDbLine
 62
7
  6
CONTINUOUS
 10
202.9410658756
 20
243.4192675741
 11
221.4410658756
 21
243.4192675741
  0
LINE
  5
250
100
AcDbEntity
  8
0
100
AcDbLine
 62
7
  6
CONTINUOUS
 10
227.9410658756
 20
243.9192675741
 11
247.9410658756
 21
243.9192675741
  0
LINE
  5
251
100
AcDbEntity
  8
0
100
AcDbLine
 62
7
  6
CONTINUOUS
 10
194.9410658756
 20
244.4192675741
 11
202.9410658756
 21
244.4192675741
  0
LINE
  5
252
100
AcDbEntity
  8
0
100
AcDbLine
 62
7
  6
CONTINUOUS
 10
207.4410658756
 20
245.0192675741
 11
213.4410658756
 21
245.0192675741
  0
LINE
  5
253
100
AcDbEntity
  8
0
100
AcDbLine
 62
7
  6
CONTINUOUS
 10
198.9470106338
 20
245.5192700787
 11
198.9351211173
 21
245.5192700787
  0
LINE
  5
254
100
AcDbEntity
  8
0
100
AcDbLine
 62
7
  6
CONTINUOUS
 10
199.4410658756
 20
246.4192675741
 11
199.9410658756
 21
246.4192675741
  0
LINE
  5
255
100
AcDbEntity
  8
0
100
AcDbLine
 62
7
  6
CONTINUOUS
 10
220.9410658756
 20
246.4192675741
 11
221.4410658756
 21
246.4192675741
  0
LINE
  5
256
100
AcDbEntity
  8
0
100
AcDbLine
 62
7
  6
CONTINUOUS
 10
230.4410658756
 20
246.4192675741
 11
241.8247906933
 21
246.4192675741
  0
LINE
  5
257
100
AcDbEntity
  8
0
100
AcDbLine
 62
7
  6
CONTINUOUS
 10
243.4618612476
 20
246.4192675741
 11
245.4410658756
 21
246.4192675741
  0
LINE
  5
258
100
AcDbEntity
  8
0
100
AcDbLine
 62
7
  6
CONTINUOUS
 10
190.9410658756
 20
206.6192675741
 11
190.9410658756
 21
237.9192675741
  0
LINE
  5
259
100
AcDbEntity
  8
0
100
AcDbLine
 62
7
  6
CONTINUOUS
 10
191.4410658756
 20
240.9192675741
 11
191.4410658756
 21
240.3192675741
  0
LINE
  5
25A
100
AcDbEntity
  8
0
100
AcDbLine
 62
7
  6
CONTINUOUS
 10
194.4410658756
 20
240.9192675741
 11
194.4410658756
 21
237.9192675741
  0
LINE
  5
25B
100
AcDbEntity
  8
0
100
AcDbLine
 62
7
  6
CONTINUOUS
 10
194.9410658756
 20
244.4192675741
 11
194.9410658756
 21
240.9192675741
  0
LINE
  5
25C
100
AcDbEntity
  8
0
100
AcDbLine
 62
7
  6
CONTINUOUS
 10
196.9410658756
 20
205.9192675741
 11
196.9410658756
 21
148.7192675741
  0
LINE
  5
25D
100
AcDbEntity
  8
0
100
AcDbLine
 62
7
  6
CONTINUOUS
 10
199.9410658756
 20
246.9192675741
 11
201.9410658756
 21
246.9192675741
  0
LINE
  5
25E
100
AcDbEntity
  8
0
100
AcDbLine
 62
7
  6
CONTINUOUS
 10
218.9410658756
 20
246.9192675741
 11
220.9410658756
 21
246.9192675741
  0
LINE
  5
25F
100
AcDbEntity
  8
0
100
AcDbLine
 62
7
  6
CONTINUOUS
 10
230.4410658756
 20
246.9192675741
 11
231.1910658756
 21
246.9192675741
  0
LINE
  5
260
100
AcDbEntity
  8
0
100
AcDbLine
 62
7
  6
CONTINUOUS
 10
244.6910658756
 20
246.9192675741
 11
245.4410658756
 21
246.9192675741
  0
LINE
  5
261
100
AcDbEntity
  8
0
100
AcDbLine
 62
7
  6
CONTINUOUS
 10
220.9410658756
 20
249.9192675741
 11
218.9410658756
 21
249.9192675741
  0
LINE
  5
262
100
AcDbEntity
  8
0
100
AcDbLine
 62
7
  6
CONTINUOUS
 10
201.9410658756
 20
249.9192675741
 11
199.9410658756
 21
249.9192675741
  0
LINE
  5
263
100
AcDbEntity
  8
0
100
AcDbLine
 62
7
  6
CONTINUOUS
 10
221.4410658756
 20
250.4192675741
 11
220.9410658756
 21
250.4192675741
  0
LINE
  5
264
100
AcDbEntity
  8
0
100
AcDbLine
 62
7
  6
CONTINUOUS
 10
199.9410658756
 20
250.4192675741
 11
199.4410658756
 21
250.4192675741
  0
LINE
  5
265
100
AcDbEntity
  8
0
100
AcDbLine
 62
7
  6
CONTINUOUS
 10
231.1910658756
 20
252.9192675741
 11
244.6910658756
 21
252.9192675741
  0
LINE
  5
266
100
AcDbEntity
  8
0
100
AcDbLine
 62
7
  6
CONTINUOUS
 10
201.9410658756
 20
253.4192675741
 11
218.9410658756
 21
253.4192675741
  0
LINE
  5
267
100
AcDbEntity
  8
0
100
AcDbLine
 62
7
  6
CONTINUOUS
 10
233.9410658756
 20
254.9192675741
 11
241.9410658756
 21
254.9192675741
  0
LINE
  5
268
100
AcDbEntity
  8
0
100
AcDbLine
 62
7
  6
CONTINUOUS
 10
199.4410658756
 20
246.4192675741
 11
199.4410658756
 21
250.4192675741
  0
LINE
  5
269
100
AcDbEntity
  8
0
100
AcDbLine
 62
7
  6
CONTINUOUS
 10
199.9410658756
 20
250.4192675741
 11
199.9410658756
 21
246.4192675741
  0
LINE
  5
26A
100
AcDbEntity
  8
0
100
AcDbLine
 62
7
  6
CONTINUOUS
 10
201.9410658756
 20
253.4192675741
 11
201.9410658756
 21
244.8996260274
  0
LINE
  5
26B
100
AcDbEntity
  8
0
100
AcDbLine
 62
7
  6
CONTINUOUS
 10
202.9410658756
 20
240.9192675741
 11
202.9410658756
 21
244.4192675741
  0
LINE
  5
26C
100
AcDbEntity
  8
0
100
AcDbLine
 62
7
  6
CONTINUOUS
 10
203.4410658756
 20
253.4192675741
 11
203.4410658756
 21
243.4192675741
  0
LINE
  5
26D
100
AcDbEntity
  8
0
100
AcDbLine
 62
7
  6
CONTINUOUS
 10
231.9410658756
 20
256.9192675741
 11
243.9410658756
 21
256.9192675741
  0
LINE
  5
26E
100
AcDbEntity
  8
0
100
AcDbLine
 62
7
  6
CONTINUOUS
 10
232.6910658756
 20
257.9192675741
 11
243.1910658756
 21
257.9192675741
  0
LINE
  5
26F
100
AcDbEntity
  8
0
100
AcDbLine
 62
7
  6
CONTINUOUS
 10
206.9410658756
 20
148.7192675741
 11
206.9410658756
 21
206.6192675741
  0
LINE
  5
270
100
AcDbEntity
  8
0
100
AcDbLine
 62
7
  6
CONTINUOUS
 10
207.4410658756
 20
245.0192675741
 11
207.4410658756
 21
243.4192675741
  0
LINE
  5
271
100
AcDbEntity
  8
0
100
AcDbLine
 62
7
  6
CONTINUOUS
 10
207.8717228099
 20
243.4192675741
 11
207.8717228099
 21
240.9192675741
  0
LINE
  5
272
100
AcDbEntity
  8
0
100
AcDbLine
 62
7
  6
CONTINUOUS
 10
213.0104089412
 20
240.9192675741
 11
213.0104089412
 21
243.4192675741
  0
LINE
  5
273
100
AcDbEntity
  8
0
100
AcDbLine
 62
7
  6
CONTINUOUS
 10
213.4410658756
 20
245.0192675741
 11
213.4410658756
 21
243.4192675741
  0
LINE
  5
274
100
AcDbEntity
  8
0
100
AcDbLine
 62
7
  6
CONTINUOUS
 10
217.4410658756
 20
253.4192675741
 11
217.4410658756
 21
243.4192675741
  0
LINE
  5
275
100
AcDbEntity
  8
0
100
AcDbLine
 62
7
  6
CONTINUOUS
 10
218.9410658756
 20
253.4192675741
 11
218.9410658756
 21
243.4192675741
  0
LINE
  5
276
100
AcDbEntity
  8
0
100
AcDbLine
 62
7
  6
CONTINUOUS
 10
220.9410658756
 20
246.4192675741
 11
220.9410658756
 21
250.4192675741
  0
LINE
  5
277
100
AcDbEntity
  8
0
100
AcDbLine
 62
7
  6
CONTINUOUS
 10
221.4410658756
 20
250.4192675741
 11
221.4410658756
 21
246.4192675741
  0
LINE
  5
278
100
AcDbEntity
  8
0
100
AcDbLine
 62
7
  6
CONTINUOUS
 10
221.4410658756
 20
243.4192675741
 11
221.4410658756
 21
240.9192675741
  0
LINE
  5
279
100
AcDbEntity
  8
0
100
AcDbLine
 62
7
  6
CONTINUOUS
 10
227.9410658756
 20
243.9192675741
 11
227.9410658756
 21
240.9192675741
  0
LINE
  5
27A
100
AcDbEntity
  8
0
100
AcDbLine
 62
7
  6
CONTINUOUS
 10
227.9673877697
 20
240.9192675741
 11
227.9673877697
 21
243.9192675741
  0
LINE
  5
27B
100
AcDbEntity
  8
0
100
AcDbLine
 62
7
  6
CONTINUOUS
 10
230.4410658756
 20
246.9192675741
 11
230.4410658756
 21
243.9192675741
  0
LINE
  5
27C
100
AcDbEntity
  8
0
100
AcDbLine
 62
7
  6
CONTINUOUS
 10
231.1910658756
 20
252.9192675741
 11
231.1910658756
 21
246.4192675741
  0
LINE
  5
27D
100
AcDbEntity
  8
0
100
AcDbLine
 62
7
  6
CONTINUOUS
 10
231.9410658756
 20
256.9192675741
 11
231.9410658756
 21
252.9192675741
  0
LINE
  5
27E
100
AcDbEntity
  8
0
100
AcDbLine
 62
7
  6
CONTINUOUS
 10
232.3262867133
 20
243.9192675741
 11
232.3262867133
 21
240.9192675741
  0
LINE
  5
27F
100
AcDbEntity
  8
0
100
AcDbLine
 62
7
  6
CONTINUOUS
 10
232.6910658756
 20
257.9192675741
 11
232.6910658756
 21
256.9192675741
  0
LINE
  5
280
100
AcDbEntity
  8
0
100
AcDbLine
 62
7
  6
CONTINUOUS
 10
233.582166932
 20
240.9192675741
 11
233.582166932
 21
243.9192675741
  0
LINE
  5
281
100
AcDbEntity
  8
0
100
AcDbLine
 62
7
  6
CONTINUOUS
 10
233.9410658756
 20
254.9192675741
 11
233.9410658756
 21
252.9192675741
  0
LINE
  5
282
100
AcDbEntity
  8
0
100
AcDbLine
 62
7
  6
CONTINUOUS
 10
240.1910311268
 20
243.9192675741
 11
240.1910311268
 21
246.4192675741
  0
LINE
  5
283
100
AcDbEntity
  8
0
100
AcDbLine
 62
7
  6
CONTINUOUS
 10
241.8247906933
 20
246.4192675741
 11
241.8247906933
 21
252.9192675741
  0
LINE
  5
284
100
AcDbEntity
  8
0
100
AcDbLine
 62
7
  6
CONTINUOUS
 10
241.9410658756
 20
252.9192675741
 11
241.9410658756
 21
254.9192675741
  0
LINE
  5
285
100
AcDbEntity
  8
0
100
AcDbLine
 62
7
  6
CONTINUOUS
 10
242.2999648191
 20
243.9192675741
 11
242.2999648191
 21
240.9192675741
  0
LINE
  5
286
100
AcDbEntity
  8
0
100
AcDbLine
 62
7
  6
CONTINUOUS
 10
243.1910658756
 20
256.9192675741
 11
243.1910658756
 21
257.9192675741
  0
LINE
  5
287
100
AcDbEntity
  8
0
100
AcDbLine
 62
7
  6
CONTINUOUS
 10
243.4618612476
 20
252.9192675741
 11
243.4618612476
 21
246.4192675741
  0
LINE
  5
288
100
AcDbEntity
  8
0
100
AcDbLine
 62
7
  6
CONTINUOUS
 10
243.5558450378
 20
240.9192675741
 11
243.5558450378
 21
243.9192675741
  0
LINE
  5
289
100
AcDbEntity
  8
0
100
AcDbLine
 62
7
  6
CONTINUOUS
 10
243.9410658756
 20
252.9192675741
 11
243.9410658756
 21
256.9192675741
  0
LINE
  5
28A
100
AcDbEntity
  8
0
100
AcDbLine
 62
7
  6
CONTINUOUS
 10
244.6910658756
 20
246.4192675741
 11
244.6910658756
 21
252.9192675741
  0
LINE
  5
28B
100
AcDbEntity
  8
0
100
AcDbLine
 62
7
  6
CONTINUOUS
 10
245.0956208141
 20
246.4192675741
 11
245.0956208141
 21
243.9192675741
  0
LINE
  5
28C
100
AcDbEntity
  8
0
100
AcDbLine
 62
7
  6
CONTINUOUS
 10
245.4410658756
 20
243.9192675741
 11
245.4410658756
 21
246.9192675741
  0
LINE
  5
28D
100
AcDbEntity
  8
0
100
AcDbLine
 62
7
  6
CONTINUOUS
 10
247.4410658756
 20
240.9192675741
 11
247.4410658756
 21
237.9192675741
  0
LINE
  5
28E
100
AcDbEntity
  8
0
100
AcDbLine
 62
7
  6
CONTINUOUS
 10
247.9147439814
 20
243.9192675741
 11
247.9147439814
 21
240.9192675741
  0
LINE
  5
28F
100
AcDbEntity
  8
0
100
AcDbLine
 62
7
  6
CONTINUOUS
 10
247.9410658756
 20
240.9192675741
 11
247.9410658756
 21
243.9192675741
  0
LINE
  5
290
100
AcDbEntity
  8
0
100
AcDbLine
 62
7
  6
CONTINUOUS
 10
253.4410658756
 20
240.9192675741
 11
253.4410658756
 21
237.9192675741
  0
LINE
  5
291
100
AcDbEntity
  8
0
100
AcDbLine
 62
7
  6
CONTINUOUS
 10
253.4410658756
 20
234.9192675741
 11
253.4410658756
 21
148.7192675741
  0
LINE
  5
292
100
AcDbEntity
  8
0
100
AcDbLine
 62
7
  6
CONTINUOUS
 10
257.1410658756
 20
234.9192675741
 11
256.1907592336
 21
240.9192675741
  0
ARC
  5
293
100
AcDbEntity
  8
0
100
AcDbCircle
 62
7
  6
CONTINUOUS
 10
-39.0589341244
 20
191.8192675741
 40
300.0
100
AcDbArc
 50
351.7399235704
 51
8.2600764296
  0
ARC
  5
294
100
AcDbEntity
  8
0
100
AcDbCircle
 62
7
  6
CONTINUOUS
 10
198.9348151868
 20
237.7192700787
 40
7.8
100
AcDbArc
 50
89.954084856
 51
120.7984176416
  0
ARC
  5
295
100
AcDbEntity
  8
0
100
AcDbCircle
 62
7
  6
CONTINUOUS
 10
198.9473165643
 20
237.7192700787
 40
7.8
100
AcDbArc
 50
59.2015823584
 51
90.045915144
  0
ARC
  5
296
100
AcDbEntity
  8
0
100
AcDbCircle
 62
7
  6
CONTINUOUS
 10
210.4876858014
 20
239.6194428522
 40
6.2
100
AcDbArc
 50
90.4308306716
 51
119.4320036847
  0
ARC
  5
297
100
AcDbEntity
  8
0
100
AcDbCircle
 62
7
  6
CONTINUOUS
 10
210.3944459497
 20
239.6194428522
 40
6.2
100
AcDbArc
 50
60.5679963153
 51
89.5691693284
  0
ARC
  5
298
100
AcDbEntity
  8
0
100
AcDbCircle
 62
7
  6
CONTINUOUS
 10
191.4477335302
 20
234.3192712789
 40
6.0
100
AcDbArc
 50
60.0734942192
 51
90.0636714245
  0
ARC
  5
299
100
AcDbEntity
  8
0
100
AcDbCircle
 62
7
  6
CONTINUOUS
 10
191.4343982209
 20
234.3192712789
 40
6.0
100
AcDbArc
 50
89.9363285755
 51
119.9265057808
  0
ARC
  5
29A
100
AcDbEntity
  8
0
100
AcDbCircle
 62
7
  6
CONTINUOUS
 10
250.4477335302
 20
234.3192712789
 40
6.0
100
AcDbArc
 50
60.0734942192
 51
90.0636714245
  0
ARC
  5
29B
100
AcDbEntity
  8
0
100
AcDbCircle
 62
7
  6
CONTINUOUS
 10
250.4343982209
 20
234.3192712789
 40
6.0
100
AcDbArc
 50
89.9363285755
 51
119.9265057808
  0
SPLINE
  5
29C
100
AcDbEntity
  8
0
100
AcDbSpline
 62
7
  6
CONTINUOUS
 70
0
 71
3
 72
29
 73
25
 74
0
 42
0.0000001
 43
0.0000001
 44
0.0000000001
 40
0.0
 40
0.0
 40
0.0
 40
0.0
 40
0.0720422738
 40
0.1431397662
 40
0.2129346078
 40
0.2808418001
 40
0.3458368108
 40
0.3767147182
 40
0.4060551209
 40
0.4333822579
 40
0.4581676757
 40
0.4801357681
 40
0.4999940253
 40
0.5198530829
 40
0.5418231097
 40
0.5666104904
 40
0.5939391326
 40
0.6232804662
 40
0.6541591571
 40
0.7191558882
 40
0.7870640199
 40
0.8568594591
 40
0.9279574094
 40
1.0
 40
1.0
 40
1.0
 40
1.0
 10
185.939108093
 20
227.2244008389
 30
0.0
 10
185.8280942042
 20
227.197465596
 30
0.0
 10
185.6079536419
 20
227.1421380785
 30
0.0
 10
185.2822615703
 20
227.0529958675
 30
0.0
 10
184.9653945478
 20
226.9567889425
 30
0.0
 10
184.6615915012
 20
226.8516228683
 30
0.0
 10
184.4210977392
 20
226.7528527252
 30
0.0
 10
184.2433042164
 20
226.6642502261
 30
0.0
 10
184.1233306307
 20
226.5941469768
 30
0.0
 10
184.0182143202
 20
226.518615367
 30
0.0
 10
183.9330813199
 20
226.4368741257
 30
0.0
 10
183.8741168525
 20
226.3475353486
 30
0.0
 10
183.8516473454
 20
226.249355947
 30
0.0
 10
183.8741504194
 20
226.1511820674
 30
0.0
 10
183.9331368315
 20
226.0618502674
 30
0.0
 10
184.0182869785
 20
225.9801148056
 30
0.0
 10
184.1234155404
 20
225.9045886648
 30
0.0
 10
184.2433972743
 20
225.8344894228
 30
0.0
 10
184.4211985978
 20
225.7458904097
 30
0.0
 10
184.6617007784
 20
225.6471265043
 30
0.0
 10
184.9655101965
 20
225.541963299
 30
0.0
 10
185.2823813785
 20
225.445759148
 30
0.0
 10
185.6080763699
 20
225.3566194261
 30
0.0
 10
185.8282183819
 20
225.3012926308
 30
0.0
 10
185.939232978
 20
225.2743581728
 30
0.0
  0
SPLINE
  5
29D
100
AcDbEntity
  8
0
100
AcDbSpline
 62
7
  6
CONTINUOUS
 70
0
 71
3
 72
29
 73
25
 74
0
 42
0.0000001
 43
0.0000001
 44
0.0000000001
 40
0.0
 40
0.0
 40
0.0
 40
0.0
 40
0.0720422738
 40
0.1431397662
 40
0.2129346078
 40
0.2808418001
 40
0.3458368108
 40
0.3767147182
 40
0.4060551209
 40
0.4333822579
 40
0.4581676757
 40
0.4801357681
 40
0.4999940253
 40
0.5198530829
 40
0.5418231097
 40
0.5666104904
 40
0.5939391326
 40
0.6232804662
 40
0.6541591571
 40
0.7191558882
 40
0.7870640199
 40
0.8568594591
 40
0.9279574094
 40
1.0
 40
1.0
 40
1.0
 40
1.0
 10
185.939108093
 20
218.564146801
 30
0.0
 10
185.8280942042
 20
218.5372115582
 30
0.0
 10
185.6079536419
 20
218.4818840407
 30
0.0
 10
185.2822615703
 20
218.3927418297
 30
0.0
 10
184.9653945478
 20
218.2965349047
 30
0.0
 10
184.6615915012
 20
218.1913688305
 30
0.0
 10
184.4210977392
 20
218.0925986874
 30
0.0
 10
184.2433042164
 20
218.0039961883
 30
0.0
 10
184.1233306307
 20
217.9338929389
 30
0.0
 10
184.0182143202
 20
217.8583613292
 30
0.0
 10
183.9330813199
 20
217.7766200879
 30
0.0
 10
183.8741168525
 20
217.6872813108
 30
0.0
 10
183.8516473454
 20
217.5891019091
 30
0.0
 10
183.8741504194
 20
217.4909280295
 30
0.0
 10
183.9331368315
 20
217.4015962295
 30
0.0
 10
184.0182869785
 20
217.3198607678
 30
0.0
 10
184.1234155404
 20
217.244334627
 30
0.0
 10
184.2433972743
 20
217.1742353849
 30
0.0
 10
184.4211985978
 20
217.0856363719
 30
0.0
 10
184.6617007784
 20
216.9868724665
 30
0.0
 10
184.9655101965
 20
216.8817092611
 30
0.0
 10
185.2823813785
 20
216.7855051101
 30
0.0
 10
185.6080763699
 20
216.6963653882
 30
0.0
 10
185.8282183819
 20
216.641038593
 30
0.0
 10
185.939232978
 20
216.6141041349
 30
0.0
  0
SPLINE
  5
29E
100
AcDbEntity
  8
0
100
AcDbSpline
 62
7
  6
CONTINUOUS
 70
0
 71
3
 72
15
 73
11
 74
0
 42
0.0000001
 43
0.0000001
 44
0.0000000001
 40
0.0
 40
0.0
 40
0.0
 40
0.0
 40
0.2500940459
 40
0.3751584989
 40
0.5002170638
 40
0.6252562919
 40
0.7502362213
 40
0.8750207606
 40
0.9375185432
 40
1.0
 40
1.0
 40
1.0
 40
1.0
 10
185.9392057675
 20
223.8693272669
 30
0.0
 10
185.7160183526
 20
223.7610265653
 30
0.0
 10
185.3854131519
 20
223.5892560795
 30
0.0
 10
184.9612573074
 20
223.3314090664
 30
0.0
 10
184.6552517093
 20
223.1191362251
 30
0.0
 10
184.3679969795
 20
222.881619123
 30
0.0
 10
184.1123674919
 20
222.6100774928
 30
0.0
 10
183.9473165843
 20
222.3430379557
 30
0.0
 10
183.8722154587
 20
222.1055800113
 30
0.0
 10
183.8588863305
 20
221.9812448398
 30
0.0
 10
183.8588863305
 20
221.9192675741
 30
0.0
  0
SPLINE
  5
29F
100
AcDbEntity
  8
0
100
AcDbSpline
 62
7
  6
CONTINUOUS
 70
0
 71
3
 72
15
 73
11
 74
0
 42
0.0000001
 43
0.0000001
 44
0.0000000001
 40
0.0
 40
0.0
 40
0.0
 40
0.0
 40
0.2500940478
 40
0.3751585028
 40
0.5002170719
 40
0.6252563095
 40
0.7502362595
 40
0.875020823
 40
0.937518587
 40
1.0
 40
1.0
 40
1.0
 40
1.0
 10
185.9392046429
 20
219.9692084244
 30
0.0
 10
185.7160173326
 20
220.0775091076
 30
0.0
 10
185.3854122819
 20
220.2492795516
 30
0.0
 10
184.9612566392
 20
220.5071265123
 30
0.0
 10
184.6552511866
 20
220.7193993166
 30
0.0
 10
184.3679965868
 20
220.9569163851
 30
0.0
 10
184.1123672296
 20
221.2284579991
 30
0.0
 10
183.9473164501
 20
221.4954974935
 30
0.0
 10
183.8722154322
 20
221.7329553214
 30
0.0
 10
183.8588863305
 20
221.8572903778
 30
0.0
 10
183.8588863305
 20
221.9192675741
 30
0.0
  0
ENDSEC
  0
SECTION
  2
OBJECTS
  0
DICTIONARY
  5
C
100
AcDbDictionary
280
0
281
1
  3
ACAD_GROUP
350
D
  3
ACAD_MLINESTYLE
350
17
  3
ACAD_LAYOUT
350
1A
  3
ACAD_PLOTSETTINGS
350
19
  3
ACAD_PLOTSTYLENAME
350
E
  0
DICTIONARY
  5
D
102
{ACAD_REACTORS
330
C
102
}
100
AcDbDictionary
280
0
281
1
  0
ACDBDICTIONARYWDFLT
  5
E
102
{ACAD_REACTORS
330
C
102
}
100
AcDbDictionary
281
1
  3
Normal
350
F
100
AcDbDictionaryWithDefault
340
F
  0
DICTIONARY
  5
17
102
{ACAD_REACTORS
330
C
102
}
100
AcDbDictionary
280
0
281
1
  3
Standard
350
18
  0
DICTIONARY
  5
19
102
{ACAD_REACTORS
330
C
102
}
100
AcDbDictionary
281
1
  0
DICTIONARY
  5
1A
102
{ACAD_REACTORS
330
C
102
}
100
AcDbDictionary
281
1
  3
Model
350
2A0
  3
Layout1
350
2A1
  0
ACDBPLACEHOLDER
  5
F
102
{ACAD_REACTORS
330
E
102
}
  0
MLINESTYLE
  5
18
102
{ACAD_REACTORS
330
17
102
}
100
AcDbMlineStyle
  2
STANDARD
 70
0
  3

 62
256
 51
90.0
 52
90.0
 71
2
 49
0.5
 62
256
  6
BYLAYER
 49
-0.5
 62
256
  6
BYLAYER
  0
LAYOUT
  5
2A0
102
{ACAD_REACTORS
330
1A
102
}
100
AcDbPlotSettings
  1

  2
none_device
  4

  6

 40
0.0
 41
0.0
 42
0.0
 43
0.0
 44
210.0
 45
297.0
 46
0.0
 47
0.0
 48
0.0
 49
0.0
140
0.0
141
0.0
142
1.0
143
1.0
 70
1024
 72
1
 73
0
 74
0
  7

 75
0
147
1.0
148
0.0
149
0.0
100
AcDbLayout
  1
Model
 70
0
 71
0
 10
0.0
 20
0.0
 11
210.0
 21
297.0
 12
0.0
 22
0.0
 32
0.0
 14
0.0
 24
0.0
 34
0.0
 15
0.0
 25
0.0
 35
0.0
146
0.0
 13
0.0
 23
0.0
 33
0.0
 16
1.0
 26
0.0
 36
0.0
 17
0.0
 27
1.0
 37
0.0
 76
0
330
210
345
0
346
0
  0
LAYOUT
  5
2A1
102
{ACAD_REACTORS
330
1A
102
}
100
AcDbPlotSettings
  1

  2
none_device
  4

  6

 40
0.0
 41
0.0
 42
0.0
 43
0.0
 44
210.0
 45
297.0
 46
0.0
 47
0.0
 48
0.0
 49
0.0
140
0.0
141
0.0
142
1.0
143
1.0
 70
0
 72
1
 73
0
 74
0
  7

 75
0
147
1.0
148
0.0
149
0.0
100
AcDbLayout
  1
Layout1
 70
0
 71
1
 10
0.0
 20
0.0
 11
210.0
 21
297.0
 12
0.0
 22
0.0
 32
0.0
 14
0.0
 24
0.0
 34
0.0
 15
0.0
 25
0.0
 35
0.0
146
0.0
 13
0.0
 23
0.0
 33
0.0
 16
1.0
 26
0.0
 36
0.0
 17
0.0
 27
1.0
 37
0.0
 76
0
330
211
345
0
346
0
  0
ENDSEC
  0
EOF
