999
DXF file: C:\Users\sesa63760\Dev\_Creo\CAD\MCADPD0004734_3D-CAD\drw0001_1.dxf
999
Pro/ENGINEER 2019471 by Parametric Technology Corporation
  0
SECTION
  2
HEADER
  9
$ACADVER
  1
AC1024
  9
$DWGCODEPAGE
  3
ANSI_1252
  9
$EXTMAX
 10
104.2373438011
 20
147.421386233
 30
0.0
  9
$EXTMIN
 10
0.0
 20
0.0
 30
0.0
  9
$LIMMIN
 10
0.0
 20
0.0
  9
$LIMMAX
 10
104.2373438011
 20
147.421386233
  9
$VIEWCTR
 10
52.1186719006
 20
73.7106931165
  9
$VIEWSIZE
 40
147.421386233
  9
$CLAYER
  8
0
  9
$LTSCALE
 40
9.6096903619
  9
$CELTYPE
  6
BYLAYER
  9
$DIMSCALE
 40
1.0
  9
$DIMASZ
 40
1.2409207595
  9
$DIMEXO
 40
1.0
  9
$DIMDLI
 40
6.6394224318
  9
$DIMEXE
 40
1.0
  9
$DIMCEN
 40
1.5724947865
  9
$DIMLFAC
 40
1.0
  9
$DIMBLK
  1
_FILLED
  9
$DIMALT
 70
0
  9
$DIMALTF
 40
0.0393700787
  9
$DIMTXT
 40
1.7372890634
  9
$DIMTOL
 70
1
  9
$DIMLIM
 70
0
  9
$DIMTFAC
 40
1.0
  9
$DIMTP
 40
0.01
  9
$DIMTM
 40
0.01
  9
$DIMGAP
 40
0.625
  9
$DIMDSEP
 70
46
  9
$AUNITS
 70
0
  9
$PDMODE
 70
3
  9
$PDSIZE
 40
0.3125
  9
$HANDSEED
  5
2FC
  9
$TILEMODE
 70
1
  9
$MEASUREMENT
 70
1
  9
$INSUNITS
 70
4
  0
ENDSEC
  0
SECTION
  2
CLASSES
  0
CLASS
  1
ACDBDICTIONARYWDFLT
  2
AcDbDictionaryWithDefault
  3
AutoCAD 2000
 90
0
 91
1
280
0
281
0
  0
CLASS
  1
ACDBPLACEHOLDER
  2
AcDbPlaceHolder
  3
AutoCAD 2000
 90
0
 91
1
280
0
281
0
  0
CLASS
  1
LAYOUT
  2
AcDbLayout
  3
AutoCAD 2000
 90
0
 91
0
280
0
281
0
  0
ENDSEC
  0
SECTION
  2
TABLES
  0
TABLE
  2
VPORT
  5
8
100
AcDbSymbolTable
 70
2
  0
VPORT
  5
1F4
100
AcDbSymbolTableRecord
100
AcDbViewportTableRecord
  2
*ACTIVE
 70
0
 10
0.0
 20
0.0
 11
1.0
 21
1.0
 12
52.1186719006
 22
73.7106931165
 13
0.0
 23
0.0
 14
1.0
 24
1.0
 15
0.0
 25
0.0
 16
0.0
 26
0.0
 36
1.0
 17
0.0
 27
0.0
 37
0.0
 40
147.421386233
 41
0.7070707071
 42
50.0
 43
0.0
 44
0.0
 50
0.0
 51
0.0
 71
0
 72
100
 73
1
 74
1
 75
0
 76
0
 77
0
 78
0
  0
ENDTAB
  0
TABLE
  2
LTYPE
  5
5
100
AcDbSymbolTable
 70
6
  0
LTYPE
  5
14
100
AcDbSymbolTableRecord
100
AcDbLinetypeTableRecord
  2
BYBLOCK
 70
0
  3

 72
65
 73
0
 40
0.0
  0
LTYPE
  5
15
100
AcDbSymbolTableRecord
100
AcDbLinetypeTableRecord
  2
BYLAYER
 70
0
  3

 72
65
 73
0
 40
0.0
  0
LTYPE
  5
16
100
AcDbSymbolTableRecord
100
AcDbLinetypeTableRecord
  2
CONTINUOUS
 70
64
  3
Solid line
 72
65
 73
0
 40
0.0
  0
LTYPE
  5
1F5
100
AcDbSymbolTableRecord
100
AcDbLinetypeTableRecord
  2
CENTER
 70
64
  3
____ _ ____ _ ____ _ ____ _ ____ _ ____ _ ____
 72
65
 73
4
 40
0.6
 49
0.375
 74
0
 49
-0.075
 74
0
 49
0.075
 74
0
 49
-0.075
 74
0
  0
LTYPE
  5
1F6
100
AcDbSymbolTableRecord
100
AcDbLinetypeTableRecord
  2
HIDDEN
 70
64
  3
- - - - - - - - - - - - - - - - - - - -
 72
65
 73
2
 40
0.2
 49
0.1
 74
0
 49
-0.1
 74
0
  0
LTYPE
  5
1F7
100
AcDbSymbolTableRecord
100
AcDbLinetypeTableRecord
  2
PHANTOM
 70
64
  3
_____ _ _ _____ _ _ _____ _ _ _____
 72
65
 73
6
 40
0.8
 49
0.45
 74
0
 49
-0.05
 74
0
 49
0.1
 74
0
 49
-0.05
 74
0
 49
0.1
 74
0
 49
-0.05
 74
0
  0
LTYPE
  5
1F8
100
AcDbSymbolTableRecord
100
AcDbLinetypeTableRecord
  2
DOT
 70
64
  3
. . . . . . . . . . . . . . . . . . . .
 72
65
 73
2
 40
0.2
 49
0.1
 74
0
 49
-0.1
 74
0
  0
LTYPE
  5
1F9
100
AcDbSymbolTableRecord
100
AcDbLinetypeTableRecord
  2
DASHED
 70
64
  3
- - - - - - - - - - - - - - - - - - - -
 72
65
 73
2
 40
0.2
 49
0.1
 74
0
 49
-0.1
 74
0
  0
ENDTAB
  0
TABLE
  2
LAYER
  5
2
100
AcDbSymbolTable
 70
36
  0
LAYER
  5
10
100
AcDbSymbolTableRecord
100
AcDbLayerTableRecord
  2
0
 70
0
 62
7
  6
CONTINUOUS
370
-3
390
F
  0
LAYER
  5
1FA
100
AcDbSymbolTableRecord
100
AcDbLayerTableRecord
  2
DEFAULT_1
 70
0
 62
7
  6
CENTER
370
-3
390
F
  0
LAYER
  5
1FB
100
AcDbSymbolTableRecord
100
AcDbLayerTableRecord
  2
DEFAULT_2
 70
0
 62
7
  6
HIDDEN
370
-3
390
F
  0
LAYER
  5
1FC
100
AcDbSymbolTableRecord
100
AcDbLayerTableRecord
  2
DEFAULT_3
 70
0
 62
7
  6
PHANTOM
370
-3
390
F
  0
LAYER
  5
1FD
100
AcDbSymbolTableRecord
100
AcDbLayerTableRecord
  2
00_COMPONENTS
 70
0
 62
7
  6
CONTINUOUS
370
-3
390
F
  0
LAYER
  5
1FE
100
AcDbSymbolTableRecord
100
AcDbLayerTableRecord
  2
01_1_DEFAULT_DATUMS
 70
0
 62
7
  6
CONTINUOUS
370
-3
390
F
  0
LAYER
  5
1FF
100
AcDbSymbolTableRecord
100
AcDbLayerTableRecord
  2
01_PLANES
 70
0
 62
7
  6
CONTINUOUS
370
-3
390
F
  0
LAYER
  5
200
100
AcDbSymbolTableRecord
100
AcDbLayerTableRecord
  2
02_COORD_SYS
 70
0
 62
7
  6
CONTINUOUS
370
-3
390
F
  0
LAYER
  5
201
100
AcDbSymbolTableRecord
100
AcDbLayerTableRecord
  2
03_AXES
 70
0
 62
7
  6
CONTINUOUS
370
-3
390
F
  0
LAYER
  5
202
100
AcDbSymbolTableRecord
100
AcDbLayerTableRecord
  2
04_POINTS
 70
0
 62
7
  6
CONTINUOUS
370
-3
390
F
  0
LAYER
  5
203
100
AcDbSymbolTableRecord
100
AcDbLayerTableRecord
  2
05_CURVES
 70
0
 62
7
  6
CONTINUOUS
370
-3
390
F
  0
LAYER
  5
204
100
AcDbSymbolTableRecord
100
AcDbLayerTableRecord
  2
06_SURFS
 70
0
 62
7
  6
CONTINUOUS
370
-3
390
F
  0
LAYER
  5
205
100
AcDbSymbolTableRecord
100
AcDbLayerTableRecord
  2
07_COSMETICS
 70
0
 62
7
  6
CONTINUOUS
370
-3
390
F
  0
LAYER
  5
206
100
AcDbSymbolTableRecord
100
AcDbLayerTableRecord
  2
10_NOTES
 70
0
 62
7
  6
CONTINUOUS
370
-3
390
F
  0
LAYER
  5
207
100
AcDbSymbolTableRecord
100
AcDbLayerTableRecord
  2
11_NOTES_PUB
 70
0
 62
7
  6
CONTINUOUS
370
-3
390
F
  0
LAYER
  5
208
100
AcDbSymbolTableRecord
100
AcDbLayerTableRecord
  2
13_REF_GTOL
 70
0
 62
7
  6
CONTINUOUS
370
-3
390
F
  0
LAYER
  5
209
100
AcDbSymbolTableRecord
100
AcDbLayerTableRecord
  2
16_MISC
 70
0
 62
7
  6
CONTINUOUS
370
-3
390
F
  0
LAYER
  5
20A
100
AcDbSymbolTableRecord
100
AcDbLayerTableRecord
  2
17_NO_PRINT
 70
0
 62
7
  6
CONTINUOUS
370
-3
390
F
  0
LAYER
  5
20B
100
AcDbSymbolTableRecord
100
AcDbLayerTableRecord
  2
18_DATUM_CAMS_JOINTS
 70
0
 62
7
  6
CONTINUOUS
370
-3
390
F
  0
LAYER
  5
20C
100
AcDbSymbolTableRecord
100
AcDbLayerTableRecord
  2
19_DATUM_FUNCTIONAL
 70
0
 62
7
  6
CONTINUOUS
370
-3
390
F
  0
LAYER
  5
20D
100
AcDbSymbolTableRecord
100
AcDbLayerTableRecord
  2
20_DATUM_KINEMATIC_SCHEME
 70
0
 62
7
  6
CONTINUOUS
370
-3
390
F
  0
ENDTAB
  0
TABLE
  2
STYLE
  5
3
100
AcDbSymbolTable
 70
1
  0
STYLE
  5
11
100
AcDbSymbolTableRecord
100
AcDbTextStyleTableRecord
  2
STANDARD
 70
0
 40
0.0
 41
1.0
 50
0.0
 71
0
 42
0.2
  3
ARIAL.TTF
  4

  0
STYLE
  5
20E
100
AcDbSymbolTableRecord
100
AcDbTextStyleTableRecord
  2
TEXTSTYLE_1
 70
0
 40
0.0
 41
0.8
 50
0.0
 71
0
 42
0.2
  3
gdt
  4

  0
ENDTAB
  0
TABLE
  2
VIEW
  5
6
100
AcDbSymbolTable
 70
0
  0
ENDTAB
  0
TABLE
  2
UCS
  5
7
100
AcDbSymbolTable
 70
0
  0
ENDTAB
  0
TABLE
  2
APPID
  5
9
100
AcDbSymbolTable
 70
1
  0
APPID
  5
20F
100
AcDbSymbolTableRecord
100
AcDbRegAppTableRecord
  2
ACAD
 70
0
  0
ENDTAB
  0
TABLE
  2
BLOCK_RECORD
  5
1
100
AcDbSymbolTable
 70
0
  0
BLOCK_RECORD
  5
210
100
AcDbSymbolTableRecord
100
AcDbBlockTableRecord
  2
*Model_Space
  0
BLOCK_RECORD
  5
211
100
AcDbSymbolTableRecord
100
AcDbBlockTableRecord
  2
*Paper_Space
  0
BLOCK_RECORD
  5
212
100
AcDbSymbolTableRecord
100
AcDbBlockTableRecord
  2
_FILLED
  0
ENDTAB
  0
TABLE
  2
DIMSTYLE
  5
A
100
AcDbSymbolTable
 70
1
100
AcDbDimStyleTable
 71
0
  0
DIMSTYLE
105
213
100
AcDbSymbolTableRecord
100
AcDbDimStyleTableRecord
  2
STANDARD
 70
0
  3

  4

 40
1.0
 41
1.2409207595
 42
1.0
 43
0.38
 44
1.0
 45
0.0
 46
0.0
 47
0.01
 48
0.01
140
1.7372890634
141
0.09
142
0.0
143
25.4
144
1.0
145
0.0
146
1.0
147
0.625
 71
1
 72
0
 73
0
 74
0
 75
0
 76
0
 77
1
 78
8
 79
2
170
0
171
1
172
0
173
0
174
0
175
0
176
0
177
0
178
0
270
2
179
2
271
2
272
2
273
2
274
2
275
0
280
0
281
0
282
0
283
1
284
8
285
0
286
0
287
3
288
0
340
11
278
46
341
212
342
212
343
212
344
212
  0
ENDTAB
  0
ENDSEC
  0
SECTION
  2
BLOCKS
  0
BLOCK
  5
20
100
AcDbEntity
  8
0
100
AcDbBlockBegin
  2
*Model_Space
 70
0
 10
0.0
 20
0.0
 30
0.0
  3
*Model_Space
  1

  0
ENDBLK
  5
21
100
AcDbEntity
  8
0
100
AcDbBlockEnd
  0
BLOCK
  5
1C
100
AcDbEntity
  8
0
100
AcDbBlockBegin
  2
*Paper_Space
 70
0
 10
0.0
 20
0.0
 30
0.0
  3
*Paper_Space
  1

  0
ENDBLK
  5
1D
100
AcDbEntity
  8
0
100
AcDbBlockEnd
  0
BLOCK
  5
214
100
AcDbEntity
  8
0
100
AcDbBlockBegin
  2
_FILLED
 70
64
 10
0.0
 20
0.0
  3
_FILLED
  1

  0
SOLID
  5
215
100
AcDbEntity
  8
0
  6
BYBLOCK
 62
0
100
AcDbTrace
 10
0.0
 20
0.0
 11
-1.0
 21
0.25
 12
-1.0
 22
-0.25
 13
-1.0
 23
-0.25
  0
ENDBLK
  5
216
100
AcDbEntity
  8
0
  6
BYBLOCK
 62
0
100
AcDbBlockEnd
  0
ENDSEC
  0
SECTION
  2
ENTITIES
  0
LINE
  5
217
100
AcDbEntity
  8
0
100
AcDbLine
 62
7
  6
BYLAYER
 10
16.4060645671
 20
121.6148769413
 11
39.5990704277
 21
135.0052851883
  0
LINE
  5
218
100
AcDbEntity
  8
0
100
AcDbLine
 62
7
  6
BYLAYER
 10
29.1339660205
 20
124.4726047148
 11
34.6493759508
 21
127.656909115
  0
LINE
  5
219
100
AcDbEntity
  8
0
100
AcDbLine
 62
7
  6
BYLAYER
 10
30.8311565402
 20
19.9606986007
 11
38.9629183794
 21
15.2659299237
  0
LINE
  5
21A
100
AcDbEntity
  8
0
100
AcDbLine
 62
7
  6
BYLAYER
 10
40.7306689191
 20
18.7360318786
 11
41.4377818097
 21
18.3277892965
  0
LINE
  5
21B
100
AcDbEntity
  8
0
100
AcDbLine
 62
7
  6
BYLAYER
 10
38.6799013841
 20
125.3299368143
 11
33.1644914539
 21
122.1456324141
  0
LINE
  5
21C
100
AcDbEntity
  8
0
100
AcDbLine
 62
7
  6
BYLAYER
 10
21.285157587
 20
113.8174577939
 11
25.598490994
 21
116.3077471326
  0
LINE
  5
21D
100
AcDbEntity
  8
0
100
AcDbLine
 62
7
  6
BYLAYER
 10
48.7914968546
 20
129.6981553795
 11
53.1048302616
 21
132.1884447182
  0
LINE
  5
21E
100
AcDbEntity
  8
0
100
AcDbLine
 62
7
  6
BYLAYER
 10
42.1448856469
 20
18.7360334504
 11
40.7306779725
 21
19.5525081608
  0
LINE
  5
21F
100
AcDbEntity
  8
0
100
AcDbLine
 62
7
  6
BYLAYER
 10
29.41693709
 20
26.4926970297
 11
30.8311565402
 21
25.6762155206
  0
LINE
  5
220
100
AcDbEntity
  8
0
100
AcDbLine
 62
7
  6
BYLAYER
 10
38.9629183794
 20
20.9814468436
 11
40.3771378297
 21
20.1649653346
  0
LINE
  5
221
100
AcDbEntity
  8
0
100
AcDbLine
 62
7
  6
BYLAYER
 10
42.144830882
 20
20.3690489944
 11
42.8519894841
 21
19.9607800214
  0
LINE
  5
222
100
AcDbEntity
  8
0
100
AcDbLine
 62
7
  6
BYLAYER
 10
29.41693709
 20
29.1055047645
 11
40.3771378297
 21
22.7777730694
  0
LINE
  5
223
100
AcDbEntity
  8
0
100
AcDbLine
 62
7
  6
BYLAYER
 10
24.6439170055
 20
33.3307466646
 11
29.9825563288
 21
30.2485515428
  0
LINE
  5
224
100
AcDbEntity
  8
0
100
AcDbLine
 62
7
  6
BYLAYER
 10
45.3268764661
 20
21.3897045949
 11
52.2211962863
 21
17.4093572383
  0
LINE
  5
225
100
AcDbEntity
  8
0
100
AcDbLine
 62
7
  6
BYLAYER
 10
12.0927311601
 20
41.5568579754
 11
61.9439667829
 21
12.7758847817
  0
LINE
  5
226
100
AcDbEntity
  8
0
100
AcDbLine
 62
7
  6
BYLAYER
 10
27.6491127297
 20
114.6339579994
 11
51.6906431949
 21
128.514259231
  0
LINE
  5
227
100
AcDbEntity
  8
0
100
AcDbLine
 62
7
  6
BYLAYER
 10
16.4060645671
 20
104.4683261816
 11
12.0927311601
 21
101.978036843
  0
LINE
  5
228
100
AcDbEntity
  8
0
100
AcDbLine
 62
7
  6
BYLAYER
 10
12.0927311601
 20
41.5568579754
 11
12.0927311601
 21
101.978036843
  0
LINE
  5
229
100
AcDbEntity
  8
0
100
AcDbLine
 62
7
  6
BYLAYER
 10
21.285157587
 20
105.080827102
 11
20.2951680554
 21
103.3661054157
  0
LINE
  5
22A
100
AcDbEntity
  8
0
100
AcDbLine
 62
7
  6
BYLAYER
 10
32.5989663403
 20
111.7762233354
 11
51.6906431949
 21
122.7987423111
  0
LINE
  5
22B
100
AcDbEntity
  8
0
100
AcDbLine
 62
7
  6
BYLAYER
 10
56.7111222435
 20
125.6157498739
 11
32.6695917782
 21
111.7354486423
  0
LINE
  5
22C
100
AcDbEntity
  8
0
100
AcDbLine
 62
7
  6
BYLAYER
 10
16.4060645671
 20
104.4683261816
 11
16.4060645671
 21
121.6148769413
  0
LINE
  5
22D
100
AcDbEntity
  8
0
100
AcDbLine
 62
7
  6
BYLAYER
 10
33.1292454832
 20
41.2509805768
 11
40.9074524598
 21
36.7603322771
  0
LINE
  5
22E
100
AcDbEntity
  8
0
100
AcDbLine
 62
7
  6
BYLAYER
 10
29.5936968574
 20
46.5581940179
 11
33.1292454832
 21
44.5169902453
  0
LINE
  5
22F
100
AcDbEntity
  8
0
100
AcDbLine
 62
7
  6
BYLAYER
 10
40.9074524598
 20
40.0263419456
 11
44.4430010855
 21
37.985138173
  0
LINE
  5
230
100
AcDbEntity
  8
0
100
AcDbLine
 62
7
  6
BYLAYER
 10
20.2951680554
 20
110.959577895
 11
20.2951680554
 21
103.3661054157
  0
LINE
  5
231
100
AcDbEntity
  8
0
100
AcDbLine
 62
7
  6
BYLAYER
 10
21.285157587
 20
96.6709070342
 11
21.285157587
 21
113.8174577939
  0
LINE
  5
232
100
AcDbEntity
  8
0
100
AcDbLine
 62
7
  6
BYLAYER
 10
22.522599606
 20
68.60365474
 11
22.522599606
 21
59.6221281515
  0
LINE
  5
233
100
AcDbEntity
  8
0
100
AcDbLine
 62
7
  6
BYLAYER
 10
27.8259225446
 20
50.4365543642
 11
29.5936968574
 21
49.4159524779
  0
LINE
  5
234
100
AcDbEntity
  8
0
100
AcDbLine
 62
7
  6
BYLAYER
 10
44.4430010855
 20
40.8428966329
 11
46.2107753984
 21
39.8222947466
  0
LINE
  5
235
100
AcDbEntity
  8
0
100
AcDbLine
 62
7
  6
BYLAYER
 10
25.3510385066
 20
53.9066530478
 11
27.8259225446
 21
52.477810407
  0
LINE
  5
236
100
AcDbEntity
  8
0
100
AcDbLine
 62
7
  6
BYLAYER
 10
46.2107753984
 20
41.8635507895
 11
48.6856594364
 21
40.4347081486
  0
LINE
  5
237
100
AcDbEntity
  8
0
100
AcDbLine
 62
7
  6
BYLAYER
 10
24.3510208428
 20
33.7389908185
 11
24.3510208428
 21
34.4796912342
  0
LINE
  5
238
100
AcDbEntity
  8
0
100
AcDbLine
 62
7
  6
BYLAYER
 10
24.6439170055
 20
34.3105913813
 11
24.6439170055
 21
33.3307466646
  0
LINE
  5
239
100
AcDbEntity
  8
0
100
AcDbLine
 62
7
  6
BYLAYER
 10
25.3510385066
 20
71.0532038075
 11
25.3510385066
 21
66.9706917219
  0
LINE
  5
23A
100
AcDbEntity
  8
0
100
AcDbLine
 62
7
  6
BYLAYER
 10
25.3510385066
 20
57.9891651335
 11
25.3510385066
 21
53.9066530478
  0
LINE
  5
23B
100
AcDbEntity
  8
0
100
AcDbLine
 62
7
  6
BYLAYER
 10
26.9205059905
 20
119.9905924957
 11
26.9205063775
 21
119.936927224
  0
LINE
  5
23C
100
AcDbEntity
  8
0
100
AcDbLine
 62
7
  6
BYLAYER
 10
27.6705065248
 20
119.9165092622
 11
27.6705059905
 21
119.9905942985
  0
LINE
  5
23D
100
AcDbEntity
  8
0
100
AcDbLine
 62
7
  6
BYLAYER
 10
27.8259225446
 20
71.6656172095
 11
27.8259225446
 21
69.6243611667
  0
LINE
  5
23E
100
AcDbEntity
  8
0
100
AcDbLine
 62
7
  6
BYLAYER
 10
27.8259225446
 20
52.477810407
 11
27.8259225446
 21
50.4365543642
  0
LINE
  5
23F
100
AcDbEntity
  8
0
100
AcDbLine
 62
7
  6
BYLAYER
 10
49.1452483741
 20
102.223439062
 11
73.1867788394
 21
116.1037402936
  0
LINE
  5
240
100
AcDbEntity
  8
0
100
AcDbLine
 62
7
  6
BYLAYER
 10
22.522599606
 20
59.6221281515
 11
25.3510385066
 21
57.9891651335
  0
LINE
  5
241
100
AcDbEntity
  8
0
100
AcDbLine
 62
7
  6
BYLAYER
 10
48.6856594364
 20
44.5172202343
 11
51.514098337
 21
42.8842572162
  0
LINE
  5
242
100
AcDbEntity
  8
0
100
AcDbLine
 62
7
  6
BYLAYER
 10
29.086381704
 20
75.135920131
 11
29.086381704
 21
85.7504515537
  0
LINE
  5
243
100
AcDbEntity
  8
0
100
AcDbLine
 62
7
  6
BYLAYER
 10
29.1240409272
 20
26.9009411835
 11
29.1240409272
 21
29.5137489183
  0
LINE
  5
244
100
AcDbEntity
  8
0
100
AcDbLine
 62
7
  6
BYLAYER
 10
29.41693709
 20
29.1055047645
 11
29.41693709
 21
26.4926970297
  0
LINE
  5
245
100
AcDbEntity
  8
0
100
AcDbLine
 62
7
  6
BYLAYER
 10
29.5936968574
 20
73.5027737832
 11
29.5936968574
 21
70.6450153232
  0
LINE
  5
246
100
AcDbEntity
  8
0
100
AcDbLine
 62
7
  6
BYLAYER
 10
29.5936968574
 20
49.4159524779
 11
29.5936968574
 21
46.5581940179
  0
LINE
  5
247
100
AcDbEntity
  8
0
100
AcDbLine
 62
7
  6
BYLAYER
 10
30.4776105096
 20
87.6895951377
 11
30.4775840139
 21
91.3637772255
  0
LINE
  5
248
100
AcDbEntity
  8
0
100
AcDbLine
 62
7
  6
BYLAYER
 10
30.8311565402
 20
19.9606986007
 11
30.8311565402
 21
25.6762155206
  0
LINE
  5
249
100
AcDbEntity
  8
0
100
AcDbLine
 62
7
  6
BYLAYER
 10
33.1292454832
 20
72.4466606053
 11
33.1292454832
 21
71.4615700106
  0
LINE
  5
24A
100
AcDbEntity
  8
0
100
AcDbLine
 62
7
  6
BYLAYER
 10
33.1292454832
 20
44.5169902453
 11
33.1292454832
 21
41.2509805768
  0
LINE
  5
24B
100
AcDbEntity
  8
0
100
AcDbLine
 62
7
  6
BYLAYER
 10
54.0951019848
 20
99.365704398
 11
73.1867788394
 21
110.3882233737
  0
LINE
  5
24C
100
AcDbEntity
  8
0
100
AcDbLine
 62
7
  6
BYLAYER
 10
78.2072578879
 20
113.2052309365
 11
54.1657274227
 21
99.3249297049
  0
LINE
  5
24D
100
AcDbEntity
  8
0
100
AcDbLine
 62
7
  6
BYLAYER
 10
51.514098337
 20
51.8657838046
 11
48.6856594364
 21
53.4987468227
  0
LINE
  5
24E
100
AcDbEntity
  8
0
100
AcDbLine
 62
7
  6
BYLAYER
 10
25.3510385066
 20
66.9706917219
 11
22.522599606
 21
68.60365474
  0
LINE
  5
24F
100
AcDbEntity
  8
0
100
AcDbLine
 62
7
  6
BYLAYER
 10
34.6493759508
 20
123.0029257607
 11
34.6493759508
 21
127.656909115
  0
LINE
  5
250
100
AcDbEntity
  8
0
100
AcDbLine
 62
7
  6
BYLAYER
 10
37.1951528985
 20
83.8113079697
 11
37.1951528985
 21
73.1967765471
  0
LINE
  5
251
100
AcDbEntity
  8
0
100
AcDbLine
 62
7
  6
BYLAYER
 10
52.751540356
 20
95.6507442178
 11
57.064873763
 21
98.1410335564
  0
LINE
  5
252
100
AcDbEntity
  8
0
100
AcDbLine
 62
7
  6
BYLAYER
 10
80.2578796236
 20
111.5314418034
 11
84.5712130306
 21
114.021731142
  0
LINE
  5
253
100
AcDbEntity
  8
0
100
AcDbLine
 62
7
  6
BYLAYER
 10
67.1764692334
 20
102.5092521217
 11
72.6918791637
 21
105.6935565219
  0
LINE
  5
254
100
AcDbEntity
  8
0
100
AcDbLine
 62
7
  6
BYLAYER
 10
48.6856594364
 20
57.5812589084
 11
46.2107753984
 21
59.0101015492
  0
LINE
  5
255
100
AcDbEntity
  8
0
100
AcDbLine
 62
7
  6
BYLAYER
 10
27.8259225446
 20
69.6243611667
 11
25.3510385066
 21
71.0532038075
  0
LINE
  5
256
100
AcDbEntity
  8
0
100
AcDbLine
 62
7
  6
BYLAYER
 10
46.2107753984
 20
61.051357592
 11
44.4430010855
 21
62.0719594783
  0
LINE
  5
257
100
AcDbEntity
  8
0
100
AcDbLine
 62
7
  6
BYLAYER
 10
29.5936968574
 20
70.6450153232
 11
27.8259225446
 21
71.6656172095
  0
LINE
  5
258
100
AcDbEntity
  8
0
100
AcDbLine
 62
7
  6
BYLAYER
 10
38.9629183794
 20
15.2659299237
 11
38.9629183794
 21
20.9814468436
  0
LINE
  5
259
100
AcDbEntity
  8
0
100
AcDbLine
 62
7
  6
BYLAYER
 10
40.001926979
 20
127.5431093423
 11
40.001927366
 21
127.4894440707
  0
LINE
  5
25A
100
AcDbEntity
  8
0
100
AcDbLine
 62
7
  6
BYLAYER
 10
40.3771378297
 20
20.1649653346
 11
40.3771378297
 21
22.7777730694
  0
LINE
  5
25B
100
AcDbEntity
  8
0
100
AcDbLine
 62
7
  6
BYLAYER
 10
40.7306779725
 20
18.7360475598
 11
40.7306779725
 21
20.0610368187
  0
LINE
  5
25C
100
AcDbEntity
  8
0
100
AcDbLine
 62
7
  6
BYLAYER
 10
40.7519275132
 20
127.4690261088
 11
40.751926979
 21
127.5431111451
  0
LINE
  5
25D
100
AcDbEntity
  8
0
100
AcDbLine
 62
7
  6
BYLAYER
 10
40.9074524598
 20
36.7603322771
 11
40.9074524598
 21
40.0263419456
  0
LINE
  5
25E
100
AcDbEntity
  8
0
100
AcDbLine
 62
7
  6
BYLAYER
 10
40.9074524598
 20
66.9709217109
 11
40.9074524598
 21
70.2369313794
  0
LINE
  5
25F
100
AcDbEntity
  8
0
100
AcDbLine
 62
7
  6
BYLAYER
 10
41.7913513921
 20
22.7777764688
 11
41.7913513921
 21
20.1649687339
  0
LINE
  5
260
100
AcDbEntity
  8
0
100
AcDbLine
 62
7
  6
BYLAYER
 10
42.8519894841
 20
19.9607800214
 11
42.8519894841
 21
20.7773247666
  0
LINE
  5
261
100
AcDbEntity
  8
0
100
AcDbLine
 62
7
  6
BYLAYER
 10
43.5591139291
 20
83.8113232668
 11
43.5591139291
 21
73.1967918441
  0
LINE
  5
262
100
AcDbEntity
  8
0
100
AcDbLine
 62
7
  6
BYLAYER
 10
76.7224045971
 20
103.3665842211
 11
71.2069946668
 21
100.1822798209
  0
LINE
  5
263
100
AcDbEntity
  8
0
100
AcDbLine
 62
7
  6
BYLAYER
 10
66.2573001899
 20
92.8339037476
 11
89.4503060505
 21
106.2243119946
  0
LINE
  5
264
100
AcDbEntity
  8
0
100
AcDbLine
 62
7
  6
BYLAYER
 10
90.935200557
 20
36.8623468097
 11
93.7636394575
 21
35.2293837916
  0
LINE
  5
265
100
AcDbEntity
  8
0
100
AcDbLine
 62
7
  6
BYLAYER
 10
44.4430010855
 20
64.9297179383
 11
40.9074524598
 21
66.9709217109
  0
LINE
  5
266
100
AcDbEntity
  8
0
100
AcDbLine
 62
7
  6
BYLAYER
 10
33.1292454832
 20
71.4615700106
 11
29.5936968574
 21
73.5027737832
  0
LINE
  5
267
100
AcDbEntity
  8
0
100
AcDbLine
 62
7
  6
BYLAYER
 10
40.9074524598
 20
70.2369313794
 11
36.3122669465
 21
72.8899029542
  0
LINE
  5
268
100
AcDbEntity
  8
0
100
AcDbLine
 62
7
  6
BYLAYER
 10
43.9126629037
 20
21.3897011956
 11
43.9126629037
 21
23.1860274213
  0
LINE
  5
269
100
AcDbEntity
  8
0
100
AcDbLine
 62
7
  6
BYLAYER
 10
44.4430010855
 20
37.985138173
 11
44.4430010855
 21
40.8428966329
  0
LINE
  5
26A
100
AcDbEntity
  8
0
100
AcDbLine
 62
7
  6
BYLAYER
 10
44.4430010855
 20
62.0719594783
 11
44.4430010855
 21
64.9297179383
  0
LINE
  5
26B
100
AcDbEntity
  8
0
100
AcDbLine
 62
7
  6
BYLAYER
 10
45.3268764661
 20
22.3695493116
 11
45.3268764661
 21
21.3897045949
  0
LINE
  5
26C
100
AcDbEntity
  8
0
100
AcDbLine
 62
7
  6
BYLAYER
 10
46.2107753984
 20
39.8222947466
 11
46.2107753984
 21
41.8635507895
  0
LINE
  5
26D
100
AcDbEntity
  8
0
100
AcDbLine
 62
7
  6
BYLAYER
 10
46.2107753984
 20
59.0101015492
 11
46.2107753984
 21
61.051357592
  0
LINE
  5
26E
100
AcDbEntity
  8
0
100
AcDbLine
 62
7
  6
BYLAYER
 10
27.8259225446
 20
69.6243611667
 11
32.0686236628
 21
72.0739064512
  0
LINE
  5
26F
100
AcDbEntity
  8
0
100
AcDbLine
 62
7
  6
BYLAYER
 10
25.3510385066
 20
66.9706917219
 11
34.9368410125
 21
72.5051795465
  0
LINE
  5
270
100
AcDbEntity
  8
0
100
AcDbLine
 62
7
  6
BYLAYER
 10
62.3681967016
 20
84.382982741
 11
60.6004106129
 21
83.3623570591
  0
LINE
  5
271
100
AcDbEntity
  8
0
100
AcDbLine
 62
7
  6
BYLAYER
 10
48.6856594364
 20
40.4347081486
 11
48.6856594364
 21
44.5172202343
  0
LINE
  5
272
100
AcDbEntity
  8
0
100
AcDbLine
 62
7
  6
BYLAYER
 10
48.6856594364
 20
53.4987468227
 11
48.6856594364
 21
57.5812589084
  0
LINE
  5
273
100
AcDbEntity
  8
0
100
AcDbLine
 62
7
  6
BYLAYER
 10
51.514098337
 20
42.8842572162
 11
51.514098337
 21
51.8657838046
  0
LINE
  5
274
100
AcDbEntity
  8
0
100
AcDbLine
 62
7
  6
BYLAYER
 10
51.6906431949
 20
122.7987423111
 11
51.6906431949
 21
128.514259231
  0
LINE
  5
275
100
AcDbEntity
  8
0
100
AcDbLine
 62
7
  6
BYLAYER
 10
52.2211962863
 20
17.4093572383
 11
52.2211962863
 21
18.389201955
  0
LINE
  5
276
100
AcDbEntity
  8
0
100
AcDbLine
 62
7
  6
BYLAYER
 10
52.751540356
 20
78.5041934581
 11
52.751540356
 21
95.6507442178
  0
LINE
  5
277
100
AcDbEntity
  8
0
100
AcDbLine
 62
7
  6
BYLAYER
 10
52.751540356
 20
78.5041934581
 11
57.064873763
 21
80.9944827967
  0
LINE
  5
278
100
AcDbEntity
  8
0
100
AcDbLine
 62
7
  6
BYLAYER
 10
22.522599606
 20
59.6221281515
 11
40.9076113071
 21
70.2366562461
  0
LINE
  5
279
100
AcDbEntity
  8
0
100
AcDbLine
 62
7
  6
BYLAYER
 10
25.3510385066
 20
57.9891651335
 11
40.9075868691
 21
66.9706889058
  0
LINE
  5
27A
100
AcDbEntity
  8
0
100
AcDbLine
 62
7
  6
BYLAYER
 10
37.1951528985
 20
73.1967765471
 11
43.5591139291
 21
73.1967918441
  0
LINE
  5
27B
100
AcDbEntity
  8
0
100
AcDbLine
 62
7
  6
BYLAYER
 10
53.6354098486
 20
17.5727238453
 11
53.6354098486
 21
17.4093606377
  0
LINE
  5
27C
100
AcDbEntity
  8
0
100
AcDbLine
 62
7
  6
BYLAYER
 10
57.064873763
 20
80.9944827967
 11
57.064873763
 21
98.1410335564
  0
LINE
  5
27D
100
AcDbEntity
  8
0
100
AcDbLine
 62
7
  6
BYLAYER
 10
60.6004106129
 20
83.3623570591
 11
59.1862029385
 21
80.9128639171
  0
LINE
  5
27E
100
AcDbEntity
  8
0
100
AcDbLine
 62
7
  6
BYLAYER
 10
25.3510385066
 20
53.9066530478
 11
44.4431660424
 21
64.9294322229
  0
LINE
  5
27F
100
AcDbEntity
  8
0
100
AcDbLine
 62
7
  6
BYLAYER
 10
66.2573001899
 20
75.6873529879
 11
61.9439667829
 21
73.1970636493
  0
LINE
  5
280
100
AcDbEntity
  8
0
100
AcDbLine
 62
7
  6
BYLAYER
 10
89.4503060505
 20
89.0777612349
 11
93.7636394575
 21
91.5680505735
  0
LINE
  5
281
100
AcDbEntity
  8
0
100
AcDbLine
 62
7
  6
BYLAYER
 10
21.285157587
 20
96.6709070342
 11
12.0927311601
 21
101.978036843
  0
LINE
  5
282
100
AcDbEntity
  8
0
100
AcDbLine
 62
7
  6
BYLAYER
 10
30.4775840139
 20
91.3637772255
 11
43.5591139291
 21
83.8113232668
  0
LINE
  5
283
100
AcDbEntity
  8
0
100
AcDbLine
 62
7
  6
BYLAYER
 10
52.751540356
 20
78.5041934581
 11
61.9439667829
 21
73.1970636493
  0
LINE
  5
284
100
AcDbEntity
  8
0
100
AcDbLine
 62
7
  6
BYLAYER
 10
59.1862029385
 20
88.5063363964
 11
59.1862029385
 21
80.9128639171
  0
LINE
  5
285
100
AcDbEntity
  8
0
100
AcDbLine
 62
7
  6
BYLAYER
 10
61.9439667829
 20
12.7758847817
 11
61.9439667829
 21
73.1970636493
  0
LINE
  5
286
100
AcDbEntity
  8
0
100
AcDbLine
 62
7
  6
BYLAYER
 10
62.3681967016
 20
79.0757805218
 11
62.3681967016
 21
86.6692530011
  0
LINE
  5
287
100
AcDbEntity
  8
0
100
AcDbLine
 62
7
  6
BYLAYER
 10
44.6076153687
 20
21.5517344654
 11
43.7368901473
 21
18.5354283887
  0
LINE
  5
288
100
AcDbEntity
  8
0
100
AcDbLine
 62
7
  6
BYLAYER
 10
27.8259225446
 20
52.477810407
 11
44.4431446591
 21
62.0717108001
  0
LINE
  5
289
100
AcDbEntity
  8
0
100
AcDbLine
 62
7
  6
BYLAYER
 10
82.1671365272
 20
81.9334377484
 11
93.7636394575
 21
88.6286418718
  0
LINE
  5
28A
100
AcDbEntity
  8
0
100
AcDbLine
 62
7
  6
BYLAYER
 10
27.8259225446
 20
50.4365543642
 11
46.2109342457
 21
61.0510824587
  0
LINE
  5
28B
100
AcDbEntity
  8
0
100
AcDbLine
 62
7
  6
BYLAYER
 10
82.1671365272
 20
80.9535784104
 11
90.935200557
 21
86.0157923209
  0
LINE
  5
28C
100
AcDbEntity
  8
0
100
AcDbLine
 62
7
  6
BYLAYER
 10
29.5936968574
 20
49.4159524779
 11
46.210918972
 21
59.009852871
  0
LINE
  5
28D
100
AcDbEntity
  8
0
100
AcDbLine
 62
7
  6
BYLAYER
 10
43.5591139291
 20
83.8113232668
 11
37.1951528985
 21
83.8113079697
  0
LINE
  5
28E
100
AcDbEntity
  8
0
100
AcDbLine
 62
7
  6
BYLAYER
 10
21.285157587
 20
101.6514442395
 11
16.4060645671
 21
104.4683261816
  0
LINE
  5
28F
100
AcDbEntity
  8
0
100
AcDbLine
 62
7
  6
BYLAYER
 10
57.064873763
 20
80.9944827967
 11
66.2573001899
 21
75.6873529879
  0
LINE
  5
290
100
AcDbEntity
  8
0
100
AcDbLine
 62
7
  6
BYLAYER
 10
20.2951680554
 20
103.3661054157
 11
21.285157587
 21
102.7945476235
  0
LINE
  5
291
100
AcDbEntity
  8
0
100
AcDbLine
 62
7
  6
BYLAYER
 10
59.1862029385
 20
80.9128639171
 11
62.3681967016
 21
79.0757805218
  0
LINE
  5
292
100
AcDbEntity
  8
0
100
AcDbLine
 62
7
  6
BYLAYER
 10
65.1044311484
 20
97.9455917516
 11
65.1044315354
 21
97.8919264799
  0
LINE
  5
293
100
AcDbEntity
  8
0
100
AcDbLine
 62
7
  6
BYLAYER
 10
65.8544316827
 20
97.8715085181
 11
65.8544311484
 21
97.9455935544
  0
LINE
  5
294
100
AcDbEntity
  8
0
100
AcDbLine
 62
7
  6
BYLAYER
 10
66.2573001899
 20
75.6873529879
 11
66.2573001899
 21
92.8339037476
  0
LINE
  5
295
100
AcDbEntity
  8
0
100
AcDbLine
 62
7
  6
BYLAYER
 10
82.1671365272
 20
77.6876251793
 11
93.7636394575
 21
84.3828293028
  0
LINE
  5
296
100
AcDbEntity
  8
0
100
AcDbLine
 62
7
  6
BYLAYER
 10
29.5936968574
 20
46.5581940179
 11
48.6858243933
 21
57.580973193
  0
LINE
  5
297
100
AcDbEntity
  8
0
100
AcDbLine
 62
7
  6
BYLAYER
 10
60.6004106129
 20
83.3623570591
 11
62.3681967016
 21
82.3417483742
  0
LINE
  5
298
100
AcDbEntity
  8
0
100
AcDbLine
 62
7
  6
BYLAYER
 10
72.6918791637
 20
101.0395731676
 11
72.6918791637
 21
105.6935565219
  0
LINE
  5
299
100
AcDbEntity
  8
0
100
AcDbLine
 62
7
  6
BYLAYER
 10
33.1292454832
 20
44.5169902453
 11
48.6857938457
 21
53.4985140176
  0
LINE
  5
29A
100
AcDbEntity
  8
0
100
AcDbLine
 62
7
  6
BYLAYER
 10
33.1292454832
 20
41.2509805768
 11
51.5142571843
 21
51.8655086713
  0
LINE
  5
29B
100
AcDbEntity
  8
0
100
AcDbLine
 62
7
  6
BYLAYER
 10
62.3681967016
 20
86.6692530011
 11
59.1862029385
 21
88.5063363964
  0
LINE
  5
29C
100
AcDbEntity
  8
0
100
AcDbLine
 62
7
  6
BYLAYER
 10
21.285157587
 20
110.3880201028
 11
20.2951680554
 21
110.959577895
  0
LINE
  5
29D
100
AcDbEntity
  8
0
100
AcDbLine
 62
7
  6
BYLAYER
 10
52.751540356
 20
95.6507442178
 11
21.285157587
 21
113.8174577939
  0
LINE
  5
29E
100
AcDbEntity
  8
0
100
AcDbLine
 62
7
  6
BYLAYER
 10
73.1867788394
 20
110.3882233737
 11
73.1867788394
 21
116.1037402936
  0
LINE
  5
29F
100
AcDbEntity
  8
0
100
AcDbLine
 62
7
  6
BYLAYER
 10
40.9074524598
 20
40.0263419456
 11
51.514098337
 21
46.1502104473
  0
LINE
  5
2A0
100
AcDbEntity
  8
0
100
AcDbLine
 62
7
  6
BYLAYER
 10
44.4430010855
 20
40.8428966329
 11
48.6856594364
 21
43.2924172258
  0
LINE
  5
2A1
100
AcDbEntity
  8
0
100
AcDbLine
 62
7
  6
BYLAYER
 10
65.8544311484
 20
97.9455935544
 11
65.1044311484
 21
97.9455917516
  0
LINE
  5
2A2
100
AcDbEntity
  8
0
100
AcDbLine
 62
7
  6
BYLAYER
 10
54.1657274227
 20
99.3249297049
 11
49.1452483741
 21
102.223439062
  0
LINE
  5
2A3
100
AcDbEntity
  8
0
100
AcDbLine
 62
7
  6
BYLAYER
 10
32.6695917782
 20
111.7354486423
 11
27.6491127297
 21
114.6339579994
  0
LINE
  5
2A4
100
AcDbEntity
  8
0
100
AcDbLine
 62
7
  6
BYLAYER
 10
25.598490994
 20
116.3077471326
 11
16.4060645671
 21
121.6148769413
  0
LINE
  5
2A5
100
AcDbEntity
  8
0
100
AcDbLine
 62
7
  6
BYLAYER
 10
57.064873763
 20
98.1410335564
 11
66.2573001899
 21
92.8339037476
  0
LINE
  5
2A6
100
AcDbEntity
  8
0
100
AcDbLine
 62
7
  6
BYLAYER
 10
78.1858521369
 20
105.4981085982
 11
78.1858525239
 21
105.4444433266
  0
LINE
  5
2A7
100
AcDbEntity
  8
0
100
AcDbLine
 62
7
  6
BYLAYER
 10
78.9358526711
 20
105.4240253647
 11
78.9358521369
 21
105.498110401
  0
LINE
  5
2A8
100
AcDbEntity
  8
0
100
AcDbLine
 62
7
  6
BYLAYER
 10
82.1671365272
 20
81.9334377484
 11
82.1671365272
 21
77.6876251793
  0
LINE
  5
2A9
100
AcDbEntity
  8
0
100
AcDbLine
 62
7
  6
BYLAYER
 10
82.1671365272
 20
32.7799922372
 11
82.1671365272
 21
28.5341796681
  0
LINE
  5
2AA
100
AcDbEntity
  8
0
100
AcDbLine
 62
7
  6
BYLAYER
 10
30.8311388764
 20
30.7384779806
 11
29.416931202
 21
29.9219896729
  0
LINE
  5
2AB
100
AcDbEntity
  8
0
100
AcDbLine
 62
7
  6
BYLAYER
 10
90.935200557
 20
86.0157923209
 11
93.7636394575
 21
84.3828293028
  0
LINE
  5
2AC
100
AcDbEntity
  8
0
100
AcDbLine
 62
7
  6
BYLAYER
 10
84.5712130306
 20
109.0411939367
 11
84.5712130306
 21
114.021731142
  0
LINE
  5
2AD
100
AcDbEntity
  8
0
100
AcDbLine
 62
7
  6
BYLAYER
 10
78.9358521369
 20
105.498110401
 11
78.1858521369
 21
105.4981085982
  0
LINE
  5
2AE
100
AcDbEntity
  8
0
100
AcDbLine
 62
7
  6
BYLAYER
 10
71.2069946668
 20
100.1822798209
 11
67.1764692334
 21
102.5092521217
  0
LINE
  5
2AF
100
AcDbEntity
  8
0
100
AcDbLine
 62
7
  6
BYLAYER
 10
33.1644914539
 20
122.1456324141
 11
29.1339660205
 21
124.4726047148
  0
LINE
  5
2B0
100
AcDbEntity
  8
0
100
AcDbLine
 62
7
  6
BYLAYER
 10
89.4503060505
 20
89.0777612349
 11
89.4503060505
 21
106.2243119946
  0
LINE
  5
2B1
100
AcDbEntity
  8
0
100
AcDbLine
 62
7
  6
BYLAYER
 10
90.935200557
 20
86.9956516588
 11
90.935200557
 21
86.0157923209
  0
LINE
  5
2B2
100
AcDbEntity
  8
0
100
AcDbLine
 62
7
  6
BYLAYER
 10
90.935200557
 20
37.8422061476
 11
90.935200557
 21
36.8623468097
  0
LINE
  5
2B3
100
AcDbEntity
  8
0
100
AcDbLine
 62
7
  6
BYLAYER
 10
41.7913513921
 20
22.7777764688
 11
43.2055590665
 21
23.5942647765
  0
LINE
  5
2B4
100
AcDbEntity
  8
0
100
AcDbLine
 62
7
  6
BYLAYER
 10
89.4503060505
 20
94.0582984402
 11
93.7636394575
 21
91.5680505735
  0
LINE
  5
2B5
100
AcDbEntity
  8
0
100
AcDbLine
 62
7
  6
BYLAYER
 10
34.6493759508
 20
127.656909115
 11
38.6799013841
 21
125.3299368143
  0
LINE
  5
2B6
100
AcDbEntity
  8
0
100
AcDbLine
 62
7
  6
BYLAYER
 10
72.6918791637
 20
105.6935565219
 11
76.7224045971
 21
103.3665842211
  0
LINE
  5
2B7
100
AcDbEntity
  8
0
100
AcDbLine
 62
7
  6
BYLAYER
 10
93.7636394575
 20
91.5680505735
 11
93.7636394575
 21
88.6286418718
  0
LINE
  5
2B8
100
AcDbEntity
  8
0
100
AcDbLine
 62
7
  6
BYLAYER
 10
93.7636394575
 20
84.3828293028
 11
93.7636394575
 21
39.4751963606
  0
LINE
  5
2B9
100
AcDbEntity
  8
0
100
AcDbLine
 62
7
  6
BYLAYER
 10
93.7636394575
 20
35.2293837916
 11
93.7636394575
 21
31.1468717059
  0
LINE
  5
2BA
100
AcDbEntity
  8
0
100
AcDbLine
 62
7
  6
BYLAYER
 10
41.7913513921
 20
20.1649687339
 11
43.9126629037
 21
21.3897011956
  0
LINE
  5
2BB
100
AcDbEntity
  8
0
100
AcDbLine
 62
7
  6
BYLAYER
 10
42.1448856469
 20
18.7360334504
 11
41.4377818097
 21
18.3277892965
  0
LINE
  5
2BC
100
AcDbEntity
  8
0
100
AcDbLine
 62
7
  6
BYLAYER
 10
38.9629183794
 20
15.2659299237
 11
43.0803607164
 21
17.6431221754
  0
LINE
  5
2BD
100
AcDbEntity
  8
0
100
AcDbLine
 62
7
  6
BYLAYER
 10
51.6906431949
 20
122.7987423111
 11
51.7612686328
 21
122.757967618
  0
LINE
  5
2BE
100
AcDbEntity
  8
0
100
AcDbLine
 62
7
  6
BYLAYER
 10
73.1867788394
 20
110.3882233737
 11
73.2574042772
 21
110.3474486806
  0
LINE
  5
2BF
100
AcDbEntity
  8
0
100
AcDbLine
 62
7
  6
BYLAYER
 10
53.6354098486
 20
17.4093606377
 11
53.776888559
 21
17.4910429216
  0
LINE
  5
2C0
100
AcDbEntity
  8
0
100
AcDbLine
 62
7
  6
BYLAYER
 10
27.6705059905
 20
119.9905942985
 11
26.9205059905
 21
119.9905924957
  0
LINE
  5
2C1
100
AcDbEntity
  8
0
100
AcDbLine
 62
7
  6
BYLAYER
 10
48.7914968546
 20
129.6981553795
 11
39.5990704277
 21
135.0052851883
  0
LINE
  5
2C2
100
AcDbEntity
  8
0
100
AcDbLine
 62
7
  6
BYLAYER
 10
80.2578796236
 20
111.5314418034
 11
89.4503060505
 21
106.2243119946
  0
LINE
  5
2C3
100
AcDbEntity
  8
0
100
AcDbLine
 62
7
  6
BYLAYER
 10
51.6906431949
 20
128.514259231
 11
56.7111222435
 21
125.6157498739
  0
LINE
  5
2C4
100
AcDbEntity
  8
0
100
AcDbLine
 62
7
  6
BYLAYER
 10
73.1867788394
 20
116.1037402936
 11
78.2072578879
 21
113.2052309365
  0
LINE
  5
2C5
100
AcDbEntity
  8
0
100
AcDbLine
 62
7
  6
BYLAYER
 10
82.1671365272
 20
32.7799922372
 11
93.7636394575
 21
39.4751963606
  0
LINE
  5
2C6
100
AcDbEntity
  8
0
100
AcDbLine
 62
7
  6
BYLAYER
 10
82.1671365272
 20
31.8001328992
 11
90.935200557
 21
36.8623468097
  0
LINE
  5
2C7
100
AcDbEntity
  8
0
100
AcDbLine
 62
7
  6
BYLAYER
 10
82.1671365272
 20
28.5341796681
 11
93.7636394575
 21
35.2293837916
  0
LINE
  5
2C8
100
AcDbEntity
  8
0
100
AcDbLine
 62
7
  6
BYLAYER
 10
40.751926979
 20
127.5431111451
 11
40.001926979
 21
127.5431093423
  0
LINE
  5
2C9
100
AcDbEntity
  8
0
100
AcDbLine
 62
7
  6
BYLAYER
 10
84.5712130306
 20
114.021731142
 11
53.1048302616
 21
132.1884447182
  0
LINE
  5
2CA
100
AcDbEntity
  8
0
100
AcDbLine
 62
7
  6
BYLAYER
 10
93.7636394575
 20
31.1468717059
 11
61.9439667829
 21
12.7758847817
  0
ARC
  5
2CB
100
AcDbEntity
  8
0
100
AcDbCircle
 62
7
  6
BYLAYER
 10
65.1383830818
 20
95.7883792946
 40
2.5394383732
100
AcDbArc
 50
113.5669227431
 51
113.9755219356
  0
ARC
  5
2CC
100
AcDbEntity
  8
0
100
AcDbCircle
 62
7
  6
BYLAYER
 10
78.2198040687
 20
103.3408961448
 40
2.5394383693
100
AcDbArc
 50
113.5669227426
 51
113.9755219358
  0
ARC
  5
2CD
100
AcDbEntity
  8
0
100
AcDbCircle
 62
7
  6
BYLAYER
 10
26.9544579222
 20
117.8333800425
 40
2.5394383691
100
AcDbArc
 50
113.5669227427
 51
113.9755219358
  0
ARC
  5
2CE
100
AcDbEntity
  8
0
100
AcDbCircle
 62
7
  6
BYLAYER
 10
40.0358789105
 20
125.3858968894
 40
2.5394383687
100
AcDbArc
 50
113.5669227427
 51
113.9755219359
  0
ARC
  5
2CF
100
AcDbEntity
  8
0
100
AcDbCircle
 62
7
  6
BYLAYER
 10
65.0758091212
 20
95.9247353618
 40
2.3894211795
100
AcDbArc
 50
113.9331454031
 51
117.502902167
  0
ARC
  5
2D0
100
AcDbEntity
  8
0
100
AcDbCircle
 62
7
  6
BYLAYER
 10
78.1572301097
 20
103.4772522084
 40
2.3894211796
100
AcDbArc
 50
113.9331454032
 51
117.5029021669
  0
ARC
  5
2D1
100
AcDbEntity
  8
0
100
AcDbCircle
 62
7
  6
BYLAYER
 10
26.8918839633
 20
117.9697361059
 40
2.3894211796
100
AcDbArc
 50
113.9331454032
 51
117.5029021669
  0
ARC
  5
2D2
100
AcDbEntity
  8
0
100
AcDbCircle
 62
7
  6
BYLAYER
 10
39.9733049517
 20
125.5222529525
 40
2.3894211796
100
AcDbArc
 50
113.9331454032
 51
117.5029021669
  0
SPLINE
  5
2D3
100
AcDbEntity
  8
0
100
AcDbSpline
 62
7
  6
BYLAYER
 70
0
 71
3
 72
17
 73
13
 74
0
 42
0.0000001
 43
0.0000001
 44
0.0000000001
 40
0.0
 40
0.0
 40
0.0
 40
0.0
 40
0.0428571351
 40
0.0874839364
 40
0.1353160071
 40
0.1872791416
 40
0.3045400115
 40
0.4382081091
 40
0.5825513186
 40
0.7297108723
 40
0.8713103985
 40
1.0
 40
1.0
 40
1.0
 40
1.0
 10
31.8364174793
 20
85.7504514897
 30
0.0
 10
31.8363946084
 20
85.6935202149
 30
0.0
 10
31.8516384421
 20
85.5768107358
 30
0.0
 10
31.9185522754
 20
85.4082912695
 30
0.0
 10
32.0271832598
 20
85.2485366756
 30
0.0
 10
32.2316274549
 20
85.0433165692
 30
0.0
 10
32.580036317
 20
84.8312365508
 30
0.0
 10
33.0809793444
 20
84.663899875
 30
0.0
 10
33.6431591736
 20
84.5848959846
 30
0.0
 10
34.2210043586
 20
84.6008813717
 30
0.0
 10
34.7673363609
 20
84.7101873411
 30
0.0
 10
35.1025531549
 20
84.8484950026
 30
0.0
 10
35.2506011543
 20
84.9339700447
 30
0.0
  0
SPLINE
  5
2D4
100
AcDbEntity
  8
0
100
AcDbSpline
 62
7
  6
BYLAYER
 70
0
 71
3
 72
12
 73
8
 74
0
 42
0.0000001
 43
0.0000001
 44
0.0000000001
 40
0.0
 40
0.0
 40
0.0
 40
0.0
 40
0.1081626136
 40
0.2183726842
 40
0.4513402258
 40
0.7104790452
 40
1.0
 40
1.0
 40
1.0
 40
1.0
 10
29.0864100838
 20
85.7504515492
 30
0.0
 10
29.0863941701
 20
85.8403738729
 30
0.0
 10
29.102054778
 20
86.022299939
 30
0.0
 10
29.1966087462
 20
86.3869576618
 30
0.0
 10
29.4390942024
 20
86.8342488683
 30
0.0
 10
29.8910133255
 20
87.3087176111
 30
0.0
 10
30.2691606354
 20
87.5692472651
 30
0.0
 10
30.4776105096
 20
87.6895951377
 30
0.0
  0
SPLINE
  5
2D5
100
AcDbEntity
  8
0
100
AcDbSpline
 62
7
  6
BYLAYER
 70
0
 71
3
 72
19
 73
15
 74
0
 42
0.0000001
 43
0.0000001
 44
0.0000000001
 40
0.0
 40
0.0
 40
0.0
 40
0.0
 40
0.0428387059
 40
0.0874474405
 40
0.1352576931
 40
0.1871999112
 40
0.2436798678
 40
0.3046729791
 40
0.3698113541
 40
0.4384600666
 40
0.582740812
 40
0.7298367484
 40
0.871363405
 40
1.0
 40
1.0
 40
1.0
 40
1.0
 10
29.0864093153
 20
75.1359201305
 30
0.0
 10
29.0864323942
 20
75.0007061193
 30
0.0
 10
29.1225206734
 20
74.7235071589
 30
0.0
 10
29.2815842382
 20
74.3233057557
 30
0.0
 10
29.5394572105
 20
73.9438297605
 30
0.0
 10
29.8891324495
 20
73.5927650332
 30
0.0
 10
30.3223575239
 20
73.2761854319
 30
0.0
 10
30.8299514201
 20
73.0000604645
 30
0.0
 10
31.4013605075
 20
72.769896711
 30
0.0
 10
32.2459105144
 20
72.5265300632
 30
0.0
 10
33.3776774631
 20
72.3677771717
 30
0.0
 10
34.7498209
 20
72.4057229353
 30
0.0
 10
36.0474162413
 20
72.6652811758
 30
0.0
 10
36.8435267403
 20
72.9937663018
 30
0.0
 10
37.1951528985
 20
73.1967765471
 30
0.0
  0
SPLINE
  5
2D6
100
AcDbEntity
  8
0
100
AcDbSpline
 62
7
  6
BYLAYER
 70
0
 71
3
 72
11
 73
7
 74
0
 42
0.0000001
 43
0.0000001
 44
0.0000000001
 40
0.0
 40
0.0
 40
0.0
 40
0.0
 40
0.2177643494
 40
0.4508943819
 40
0.7103680107
 40
1.0
 40
1.0
 40
1.0
 40
1.0
 10
63.2294845534
 20
99.1208358245
 30
0.0
 10
63.2295185935
 20
99.0351440139
 30
0.0
 10
63.2610520286
 20
98.8565126992
 30
0.0
 10
63.3965439252
 20
98.6076115094
 30
0.0
 10
63.6106505756
 20
98.3826766141
 30
0.0
 10
63.7897503431
 20
98.2592714814
 30
0.0
 10
63.8884537598
 20
98.2022863264
 30
0.0
  0
SPLINE
  5
2D7
100
AcDbEntity
  8
0
100
AcDbSpline
 62
7
  6
BYLAYER
 70
0
 71
3
 72
11
 73
7
 74
0
 42
0.0000001
 43
0.0000001
 44
0.0000000001
 40
0.0
 40
0.0
 40
0.0
 40
0.0
 40
0.2177643494
 40
0.4508943819
 40
0.7103680107
 40
1.0
 40
1.0
 40
1.0
 40
1.0
 10
76.3109055418
 20
106.6733526711
 30
0.0
 10
76.310939582
 20
106.5876608605
 30
0.0
 10
76.3424730171
 20
106.4090295458
 30
0.0
 10
76.4779649137
 20
106.160128356
 30
0.0
 10
76.6920715641
 20
105.9351934607
 30
0.0
 10
76.8711713316
 20
105.811788328
 30
0.0
 10
76.9698747483
 20
105.754803173
 30
0.0
  0
SPLINE
  5
2D8
100
AcDbEntity
  8
0
100
AcDbSpline
 62
7
  6
BYLAYER
 70
0
 71
3
 72
11
 73
7
 74
0
 42
0.0000001
 43
0.0000001
 44
0.0000000001
 40
0.0
 40
0.0
 40
0.0
 40
0.0
 40
0.2177643494
 40
0.4508943819
 40
0.7103680107
 40
1.0
 40
1.0
 40
1.0
 40
1.0
 10
25.0455593954
 20
121.1658365686
 30
0.0
 10
25.0455934356
 20
121.080144758
 30
0.0
 10
25.0771268707
 20
120.9015134433
 30
0.0
 10
25.2126187673
 20
120.6526122535
 30
0.0
 10
25.4267254177
 20
120.4276773582
 30
0.0
 10
25.6058251852
 20
120.3042722255
 30
0.0
 10
25.7045286019
 20
120.2472870705
 30
0.0
  0
SPLINE
  5
2D9
100
AcDbEntity
  8
0
100
AcDbSpline
 62
7
  6
BYLAYER
 70
0
 71
3
 72
11
 73
7
 74
0
 42
0.0000001
 43
0.0000001
 44
0.0000000001
 40
0.0
 40
0.0
 40
0.0
 40
0.0
 40
0.2177643494
 40
0.4508943819
 40
0.7103680107
 40
1.0
 40
1.0
 40
1.0
 40
1.0
 10
38.1269803839
 20
128.7183534152
 30
0.0
 10
38.127014424
 20
128.6326616046
 30
0.0
 10
38.1585478592
 20
128.4540302899
 30
0.0
 10
38.2940397557
 20
128.2051291001
 30
0.0
 10
38.5081464061
 20
127.9801942048
 30
0.0
 10
38.6872461736
 20
127.8567890721
 30
0.0
 10
38.7859495903
 20
127.7998039171
 30
0.0
  0
SPLINE
  5
2DA
100
AcDbEntity
  8
0
100
AcDbSpline
 62
7
  6
BYLAYER
 70
0
 71
3
 72
11
 73
7
 74
0
 42
0.0000001
 43
0.0000001
 44
0.0000000001
 40
0.0
 40
0.0
 40
0.0
 40
0.0
 40
0.2177438688
 40
0.4508811915
 40
0.7104582954
 40
1.0
 40
1.0
 40
1.0
 40
1.0
 10
29.1240968801
 20
29.513748918
 30
0.0
 10
29.1240968886
 20
29.5518294806
 30
0.0
 10
29.138080767
 20
29.6312238319
 30
0.0
 10
29.1983074726
 20
29.7418632648
 30
0.0
 10
29.293499355
 20
29.8417990255
 30
0.0
 10
29.3730781496
 20
29.8966712524
 30
0.0
 10
29.416931202
 20
29.9219896729
 30
0.0
  0
SPLINE
  5
2DB
100
AcDbEntity
  8
0
100
AcDbSpline
 62
7
  6
BYLAYER
 70
0
 71
3
 72
11
 73
7
 74
0
 42
0.0000001
 43
0.0000001
 44
0.0000000001
 40
0.0
 40
0.0
 40
0.0
 40
0.0
 40
0.2372531816
 40
0.5000006935
 40
0.7627478297
 40
1.0
 40
1.0
 40
1.0
 40
1.0
 10
40.3771378297
 20
20.1649653346
 30
0.0
 10
40.47753265
 20
20.1070036693
 30
0.0
 10
40.7109845628
 20
20.0224105693
 30
0.0
 10
41.0842459275
 20
19.9819680289
 30
0.0
 10
41.4575066002
 20
20.0224123528
 30
0.0
 10
41.6909574177
 20
20.1070065918
 30
0.0
 10
41.7913513921
 20
20.1649687339
 30
0.0
  0
SPLINE
  5
2DC
100
AcDbEntity
  8
0
100
AcDbSpline
 62
7
  6
BYLAYER
 70
0
 71
3
 72
11
 73
7
 74
0
 42
0.0000001
 43
0.0000001
 44
0.0000000001
 40
0.0
 40
0.0
 40
0.0
 40
0.0
 40
0.2372524156
 40
0.4999996414
 40
0.7627470637
 40
1.0
 40
1.0
 40
1.0
 40
1.0
 10
43.9126629037
 20
21.3897011956
 30
0.0
 10
44.0130569819
 20
21.4476633976
 30
0.0
 10
44.2465079765
 20
21.5322576568
 30
0.0
 10
44.6197687784
 20
21.5727019006
 30
0.0
 10
44.9930300139
 20
21.5322592801
 30
0.0
 10
45.2264817496
 20
21.4476662002
 30
0.0
 10
45.3268764661
 20
21.3897045949
 30
0.0
  0
SPLINE
  5
2DD
100
AcDbEntity
  8
0
100
AcDbSpline
 62
7
  6
BYLAYER
 70
0
 71
3
 72
11
 73
7
 74
0
 42
0.0000001
 43
0.0000001
 44
0.0000000001
 40
0.0
 40
0.0
 40
0.0
 40
0.0
 40
0.2372531816
 40
0.5000006935
 40
0.7627478297
 40
1.0
 40
1.0
 40
1.0
 40
1.0
 10
52.2211962863
 20
17.4093572383
 30
0.0
 10
52.3215911066
 20
17.3513955731
 30
0.0
 10
52.5550430194
 20
17.266802473
 30
0.0
 10
52.9283043841
 20
17.2263599327
 30
0.0
 10
53.3015650568
 20
17.2668042565
 30
0.0
 10
53.5350158743
 20
17.3513984955
 30
0.0
 10
53.6354098486
 20
17.4093606377
 30
0.0
  0
SPLINE
  5
2DE
100
AcDbEntity
  8
0
100
AcDbSpline
 62
7
  6
BYLAYER
 70
0
 71
3
 72
11
 73
7
 74
0
 42
0.0000001
 43
0.0000001
 44
0.0000000001
 40
0.0
 40
0.0
 40
0.0
 40
0.0
 40
0.2177434119
 40
0.4508805377
 40
0.710457812
 40
1.0
 40
1.0
 40
1.0
 40
1.0
 10
29.1240968801
 20
26.9009411839
 30
0.0
 10
29.1240968919
 20
26.8628602106
 30
0.0
 10
29.1380810892
 20
26.7834649437
 30
0.0
 10
29.1983090979
 20
26.6728244402
 30
0.0
 10
29.2935029103
 20
26.5728879386
 30
0.0
 10
29.3730832168
 20
26.5180155023
 30
0.0
 10
29.41693709
 20
26.4926970297
 30
0.0
  0
SPLINE
  5
2DF
100
AcDbEntity
  8
0
100
AcDbSpline
 62
7
  6
BYLAYER
 70
0
 71
3
 72
11
 73
7
 74
0
 42
0.0000001
 43
0.0000001
 44
0.0000000001
 40
0.0
 40
0.0
 40
0.0
 40
0.0
 40
0.2177434119
 40
0.4508805377
 40
0.710457812
 40
1.0
 40
1.0
 40
1.0
 40
1.0
 10
24.3510767957
 20
33.7389908189
 30
0.0
 10
24.3510768075
 20
33.7009098456
 30
0.0
 10
24.3650610048
 20
33.6215145787
 30
0.0
 10
24.4252890135
 20
33.5108740752
 30
0.0
 10
24.5204828259
 20
33.4109375735
 30
0.0
 10
24.6000631324
 20
33.3560651373
 30
0.0
 10
24.6439170055
 20
33.3307466646
 30
0.0
  0
SPLINE
  5
2E0
100
AcDbEntity
  8
0
100
AcDbSpline
 62
7
  6
BYLAYER
 70
0
 71
3
 72
11
 73
7
 74
0
 42
0.0000001
 43
0.0000001
 44
0.0000000001
 40
0.0
 40
0.0
 40
0.0
 40
0.0
 40
0.2564959238
 40
0.5184929435
 40
0.7707899154
 40
1.0
 40
1.0
 40
1.0
 40
1.0
 10
43.7368901473
 20
18.5354283887
 30
0.0
 10
43.7100729824
 20
18.4425302212
 30
0.0
 10
43.6374931581
 20
18.2597226064
 30
0.0
 10
43.48567075
 20
18.0104217438
 30
0.0
 10
43.300342971
 20
17.7983446291
 30
0.0
 10
43.155190149
 20
17.6863247106
 30
0.0
 10
43.0803607164
 20
17.6431221754
 30
0.0
  0
SPLINE
  5
2E1
100
AcDbEntity
  8
0
100
AcDbSpline
 62
7
  6
BYLAYER
 70
0
 71
3
 72
11
 73
7
 74
0
 42
0.0000001
 43
0.0000001
 44
0.0000000001
 40
0.0
 40
0.0
 40
0.0
 40
0.0
 40
0.2895411595
 40
0.5491183966
 40
0.7822559144
 40
1.0
 40
1.0
 40
1.0
 40
1.0
 10
40.7306779725
 20
18.7360475598
 30
0.0
 10
40.7306779725
 20
18.6854087079
 30
0.0
 10
40.7384100139
 20
18.5890518556
 30
0.0
 10
40.7773631221
 20
18.4566406923
 30
0.0
 10
40.8430696866
 20
18.3491595554
 30
0.0
 10
40.9048380883
 20
18.2973505487
 30
0.0
 10
40.9378182689
 20
18.2783098691
 30
0.0
  0
SPLINE
  5
2E2
100
AcDbEntity
  8
0
100
AcDbSpline
 62
7
  6
BYLAYER
 70
0
 71
3
 72
17
 73
13
 74
0
 42
0.0000001
 43
0.0000001
 44
0.0000000001
 40
0.0
 40
0.0
 40
0.0
 40
0.0
 40
0.1286888525
 40
0.2702802895
 40
0.4174331647
 40
0.5617754839
 40
0.695448121
 40
0.8127120865
 40
0.8646770447
 40
0.9125101515
 40
0.9571398234
 40
1.0
 40
1.0
 40
1.0
 40
1.0
 10
38.7859495903
 20
127.7998039171
 30
0.0
 10
38.9525026423
 20
127.7036466431
 30
0.0
 10
39.3296078593
 20
127.5480567475
 30
0.0
 10
39.9442055105
 20
127.4250925947
 30
0.0
 10
40.5942549692
 20
127.4070997416
 30
0.0
 10
41.2267003151
 20
127.4959708499
 30
0.0
 10
41.7902754953
 20
127.6842129061
 30
0.0
 10
42.1822422021
 20
127.9228090702
 30
0.0
 10
42.4122667482
 20
128.1536700453
 30
0.0
 10
42.5344703169
 20
128.3334064146
 30
0.0
 10
42.6097724126
 20
128.5229921881
 30
0.0
 10
42.6269115082
 20
128.65430114
 30
0.0
 10
42.6268860642
 20
128.7183531115
 30
0.0
  0
SPLINE
  5
2E3
100
AcDbEntity
  8
0
100
AcDbSpline
 62
7
  6
BYLAYER
 70
0
 71
3
 72
17
 73
13
 74
0
 42
0.0000001
 43
0.0000001
 44
0.0000000001
 40
0.0
 40
0.0
 40
0.0
 40
0.0
 40
0.1286888525
 40
0.2702802895
 40
0.4174331647
 40
0.5617754839
 40
0.695448121
 40
0.8127120865
 40
0.8646770447
 40
0.9125101515
 40
0.9571398234
 40
1.0
 40
1.0
 40
1.0
 40
1.0
 10
25.7045286019
 20
120.2472870705
 30
0.0
 10
25.8710816538
 20
120.1511297965
 30
0.0
 10
26.2481868709
 20
119.9955399009
 30
0.0
 10
26.8627845221
 20
119.872575748
 30
0.0
 10
27.5128339807
 20
119.8545828949
 30
0.0
 10
28.1452793266
 20
119.9434540033
 30
0.0
 10
28.7088545068
 20
120.1316960595
 30
0.0
 10
29.1008212136
 20
120.3702922236
 30
0.0
 10
29.3308457597
 20
120.6011531987
 30
0.0
 10
29.4530493285
 20
120.780889568
 30
0.0
 10
29.5283514241
 20
120.9704753415
 30
0.0
 10
29.5454905197
 20
121.1017842934
 30
0.0
 10
29.5454650758
 20
121.1658362649
 30
0.0
  0
SPLINE
  5
2E4
100
AcDbEntity
  8
0
100
AcDbSpline
 62
7
  6
BYLAYER
 70
0
 71
3
 72
17
 73
13
 74
0
 42
0.0000001
 43
0.0000001
 44
0.0000000001
 40
0.0
 40
0.0
 40
0.0
 40
0.0
 40
0.1286888525
 40
0.2702802895
 40
0.4174331647
 40
0.5617754839
 40
0.695448121
 40
0.8127120865
 40
0.8646770447
 40
0.9125101515
 40
0.9571398234
 40
1.0
 40
1.0
 40
1.0
 40
1.0
 10
76.9698747483
 20
105.754803173
 30
0.0
 10
77.1364278002
 20
105.658645899
 30
0.0
 10
77.5135330173
 20
105.5030560034
 30
0.0
 10
78.1281306685
 20
105.3800918506
 30
0.0
 10
78.7781801271
 20
105.3620989975
 30
0.0
 10
79.410625473
 20
105.4509701058
 30
0.0
 10
79.9742006532
 20
105.639212162
 30
0.0
 10
80.36616736
 20
105.8778083261
 30
0.0
 10
80.5961919061
 20
106.1086693012
 30
0.0
 10
80.7183954748
 20
106.2884056705
 30
0.0
 10
80.7936975705
 20
106.477991444
 30
0.0
 10
80.8108366661
 20
106.6093003959
 30
0.0
 10
80.8108112222
 20
106.6733523674
 30
0.0
  0
SPLINE
  5
2E5
100
AcDbEntity
  8
0
100
AcDbSpline
 62
7
  6
BYLAYER
 70
0
 71
3
 72
17
 73
13
 74
0
 42
0.0000001
 43
0.0000001
 44
0.0000000001
 40
0.0
 40
0.0
 40
0.0
 40
0.0
 40
0.1286888525
 40
0.2702802895
 40
0.4174331647
 40
0.5617754839
 40
0.695448121
 40
0.8127120865
 40
0.8646770447
 40
0.9125101515
 40
0.9571398234
 40
1.0
 40
1.0
 40
1.0
 40
1.0
 10
63.8884537598
 20
98.2022863264
 30
0.0
 10
64.0550068117
 20
98.1061290524
 30
0.0
 10
64.4321120288
 20
97.9505391568
 30
0.0
 10
65.04670968
 20
97.8275750039
 30
0.0
 10
65.6967591387
 20
97.8095821508
 30
0.0
 10
66.3292044845
 20
97.8984532592
 30
0.0
 10
66.8927796648
 20
98.0866953154
 30
0.0
 10
67.2847463715
 20
98.3252914795
 30
0.0
 10
67.5147709177
 20
98.5561524546
 30
0.0
 10
67.6369744864
 20
98.7358888239
 30
0.0
 10
67.7122765821
 20
98.9254745974
 30
0.0
 10
67.7294156777
 20
99.0567835493
 30
0.0
 10
67.7293902337
 20
99.1208355208
 30
0.0
  0
SPLINE
  5
2E6
100
AcDbEntity
  8
0
100
AcDbSpline
 62
7
  6
BYLAYER
 70
0
 71
3
 72
11
 73
7
 74
0
 42
0.0000001
 43
0.0000001
 44
0.0000000001
 40
0.0
 40
0.0
 40
0.0
 40
0.0
 40
0.2896428702
 40
0.5491125874
 40
0.7822368
 40
1.0
 40
1.0
 40
1.0
 40
1.0
 10
35.2506011543
 20
84.9339700447
 30
0.0
 10
35.3383394503
 20
84.9846254711
 30
0.0
 10
35.4975386637
 20
85.0943198853
 30
0.0
 10
35.6878525571
 20
85.2942624826
 30
0.0
 10
35.8082780744
 20
85.5155050472
 30
0.0
 10
35.8363153294
 20
85.6742823943
 30
0.0
 10
35.8363459287
 20
85.7504516178
 30
0.0
  0
SPLINE
  5
2E7
100
AcDbEntity
  8
0
100
AcDbSpline
 62
7
  6
BYLAYER
 70
0
 71
3
 72
11
 73
7
 74
0
 42
0.0000001
 43
0.0000001
 44
0.0000000001
 40
0.0
 40
0.0
 40
0.0
 40
0.0
 40
0.2177456295
 40
0.4508837762
 40
0.7104602913
 40
1.0
 40
1.0
 40
1.0
 40
1.0
 10
40.9378182689
 20
18.2783098691
 30
0.0
 10
40.9707973774
 20
18.2592698084
 30
0.0
 10
41.046547123
 20
18.2316833106
 30
0.0
 10
41.1724770063
 20
18.2285210304
 30
0.0
 10
41.3066194055
 20
18.2609907819
 30
0.0
 10
41.3939291684
 20
18.3024711134
 30
0.0
 10
41.4377818097
 20
18.3277892965
 30
0.0
  0
SPLINE
  5
2E8
100
AcDbEntity
  8
0
100
AcDbSpline
 62
7
  6
BYLAYER
 70
0
 71
3
 72
11
 73
7
 74
0
 42
0.0000001
 43
0.0000001
 44
0.0000000001
 40
0.0
 40
0.0
 40
0.0
 40
0.0
 40
0.2416493367
 40
0.5007287587
 40
0.7593690672
 40
1.0
 40
1.0
 40
1.0
 40
1.0
 10
64.1230649756
 20
98.116012512
 30
0.0
 10
64.3302558731
 20
98.2063911396
 30
0.0
 10
64.7843545705
 20
98.3385332004
 30
0.0
 10
65.4957858086
 20
98.40075537
 30
0.0
 10
66.2057470043
 20
98.3327063979
 30
0.0
 10
66.6572844121
 20
98.196445512
 30
0.0
 10
66.8625660774
 20
98.104109008
 30
0.0
  0
SPLINE
  5
2E9
100
AcDbEntity
  8
0
100
AcDbSpline
 62
7
  6
BYLAYER
 70
0
 71
3
 72
11
 73
7
 74
0
 42
0.0000001
 43
0.0000001
 44
0.0000000001
 40
0.0
 40
0.0
 40
0.0
 40
0.0
 40
0.2177643494
 40
0.4508943819
 40
0.7103680107
 40
1.0
 40
1.0
 40
1.0
 40
1.0
 10
67.7293902337
 20
99.1208355208
 30
0.0
 10
67.7293561936
 20
99.2065273313
 30
0.0
 10
67.6978227584
 20
99.3851586461
 30
0.0
 10
67.5623308618
 20
99.6340598358
 30
0.0
 10
67.3482242115
 20
99.8589947311
 30
0.0
 10
67.169124444
 20
99.9823998638
 30
0.0
 10
67.0704210273
 20
100.0393850188
 30
0.0
  0
SPLINE
  5
2EA
100
AcDbEntity
  8
0
100
AcDbSpline
 62
7
  6
BYLAYER
 70
0
 71
3
 72
17
 73
13
 74
0
 42
0.0000001
 43
0.0000001
 44
0.0000000001
 40
0.0
 40
0.0
 40
0.0
 40
0.0
 40
0.0428571351
 40
0.0874839364
 40
0.1353160071
 40
0.1872791416
 40
0.3045400115
 40
0.4382081091
 40
0.5825513186
 40
0.7297108723
 40
0.8713103985
 40
1.0
 40
1.0
 40
1.0
 40
1.0
 10
35.8363459287
 20
85.7504516178
 30
0.0
 10
35.8363687996
 20
85.8073828926
 30
0.0
 10
35.8211249659
 20
85.9240923716
 30
0.0
 10
35.7542111327
 20
86.0926118379
 30
0.0
 10
35.6455801482
 20
86.2523664319
 30
0.0
 10
35.4411359531
 20
86.4575865383
 30
0.0
 10
35.0927270911
 20
86.6696665566
 30
0.0
 10
34.5917840636
 20
86.8370032324
 30
0.0
 10
34.0296042344
 20
86.9160071228
 30
0.0
 10
33.4517590494
 20
86.9000217357
 30
0.0
 10
32.9054270471
 20
86.7907157663
 30
0.0
 10
32.5702102531
 20
86.6524081048
 30
0.0
 10
32.4221622537
 20
86.5669330628
 30
0.0
  0
SPLINE
  5
2EB
100
AcDbEntity
  8
0
100
AcDbSpline
 62
7
  6
BYLAYER
 70
0
 71
3
 72
11
 73
7
 74
0
 42
0.0000001
 43
0.0000001
 44
0.0000000001
 40
0.0
 40
0.0
 40
0.0
 40
0.0
 40
0.2372518718
 40
0.4999985497
 40
0.7627460178
 40
1.0
 40
1.0
 40
1.0
 40
1.0
 10
42.1448856469
 20
18.7360334504
 30
0.0
 10
42.2452796135
 20
18.793995588
 30
0.0
 10
42.435266147
 20
18.9538724978
 30
0.0
 10
42.6569213917
 20
19.2569044157
 30
0.0
 10
42.8085256473
 20
19.6003812257
 30
0.0
 10
42.8519894841
 20
19.844854196
 30
0.0
 10
42.8519894841
 20
19.9607800214
 30
0.0
  0
SPLINE
  5
2EC
100
AcDbEntity
  8
0
100
AcDbSpline
 62
7
  6
BYLAYER
 70
0
 71
3
 72
11
 73
7
 74
0
 42
0.0000001
 43
0.0000001
 44
0.0000000001
 40
0.0
 40
0.0
 40
0.0
 40
0.0
 40
0.2416493367
 40
0.5007287587
 40
0.7593690672
 40
1.0
 40
1.0
 40
1.0
 40
1.0
 10
77.2044859641
 20
105.6685293586
 30
0.0
 10
77.4116768615
 20
105.7589079862
 30
0.0
 10
77.8657755589
 20
105.891050047
 30
0.0
 10
78.5772067971
 20
105.9532722166
 30
0.0
 10
79.2871679927
 20
105.8852232446
 30
0.0
 10
79.7387054006
 20
105.7489623586
 30
0.0
 10
79.9439870658
 20
105.6566258546
 30
0.0
  0
SPLINE
  5
2ED
100
AcDbEntity
  8
0
100
AcDbSpline
 62
7
  6
BYLAYER
 70
0
 71
3
 72
11
 73
7
 74
0
 42
0.0000001
 43
0.0000001
 44
0.0000000001
 40
0.0
 40
0.0
 40
0.0
 40
0.0
 40
0.2177643494
 40
0.4508943819
 40
0.7103680107
 40
1.0
 40
1.0
 40
1.0
 40
1.0
 10
80.8108112222
 20
106.6733523674
 30
0.0
 10
80.810777182
 20
106.7590441779
 30
0.0
 10
80.7792437469
 20
106.9376754927
 30
0.0
 10
80.6437518503
 20
107.1865766825
 30
0.0
 10
80.4296451999
 20
107.4115115778
 30
0.0
 10
80.2505454324
 20
107.5349167104
 30
0.0
 10
80.1518420157
 20
107.5919018654
 30
0.0
  0
SPLINE
  5
2EE
100
AcDbEntity
  8
0
100
AcDbSpline
 62
7
  6
BYLAYER
 70
0
 71
3
 72
11
 73
7
 74
0
 42
0.0000001
 43
0.0000001
 44
0.0000000001
 40
0.0
 40
0.0
 40
0.0
 40
0.0
 40
0.2896428702
 40
0.5491125874
 40
0.7822368
 40
1.0
 40
1.0
 40
1.0
 40
1.0
 10
32.4221622537
 20
86.5669330628
 30
0.0
 10
32.3344239578
 20
86.5162776363
 30
0.0
 10
32.1752247444
 20
86.4065832222
 30
0.0
 10
31.9849108509
 20
86.2066406249
 30
0.0
 10
31.8644853336
 20
85.9853980602
 30
0.0
 10
31.8364480787
 20
85.8266207131
 30
0.0
 10
31.8364174793
 20
85.7504514897
 30
0.0
  0
SPLINE
  5
2EF
100
AcDbEntity
  8
0
100
AcDbSpline
 62
7
  6
BYLAYER
 70
0
 71
3
 72
11
 73
7
 74
0
 42
0.0000001
 43
0.0000001
 44
0.0000000001
 40
0.0
 40
0.0
 40
0.0
 40
0.0
 40
0.2416493367
 40
0.5007287587
 40
0.7593690672
 40
1.0
 40
1.0
 40
1.0
 40
1.0
 10
25.9391398177
 20
120.1610132561
 30
0.0
 10
26.1463307151
 20
120.2513918837
 30
0.0
 10
26.6004294125
 20
120.3835339445
 30
0.0
 10
27.3118606507
 20
120.4457561141
 30
0.0
 10
28.0218218463
 20
120.377707142
 30
0.0
 10
28.4733592542
 20
120.2414462561
 30
0.0
 10
28.6786409194
 20
120.1491097521
 30
0.0
  0
SPLINE
  5
2F0
100
AcDbEntity
  8
0
100
AcDbSpline
 62
7
  6
BYLAYER
 70
0
 71
3
 72
11
 73
7
 74
0
 42
0.0000001
 43
0.0000001
 44
0.0000000001
 40
0.0
 40
0.0
 40
0.0
 40
0.0
 40
0.2372524156
 40
0.4999996414
 40
0.7627470637
 40
1.0
 40
1.0
 40
1.0
 40
1.0
 10
41.7913513921
 20
22.7777764688
 30
0.0
 10
41.6909573139
 20
22.7198142667
 30
0.0
 10
41.4575063193
 20
22.6352200075
 30
0.0
 10
41.0842455174
 20
22.5947757637
 30
0.0
 10
40.7109842819
 20
22.6352183842
 30
0.0
 10
40.4775325462
 20
22.7198114641
 30
0.0
 10
40.3771378297
 20
22.7777730694
 30
0.0
  0
SPLINE
  5
2F1
100
AcDbEntity
  8
0
100
AcDbSpline
 62
7
  6
BYLAYER
 70
0
 71
3
 72
19
 73
15
 74
0
 42
0.0000001
 43
0.0000001
 44
0.0000000001
 40
0.0
 40
0.0
 40
0.0
 40
0.0
 40
0.1286352985
 40
0.270157227
 40
0.4172489999
 40
0.5615306694
 40
0.6301810346
 40
0.6953208827
 40
0.7563154408
 40
0.8127958641
 40
0.8647387103
 40
0.9125496854
 40
0.9571593721
 40
1.0
 40
1.0
 40
1.0
 40
1.0
 10
37.1951528985
 20
83.8113079697
 30
0.0
 10
36.8435303006
 20
83.60829978
 30
0.0
 10
36.0474383462
 20
83.2798206451
 30
0.0
 10
34.7498767137
 20
83.0202610419
 30
0.0
 10
33.3777594364
 20
82.9823016678
 30
0.0
 10
32.2459952197
 20
83.1410388925
 30
0.0
 10
31.4014309251
 20
83.3844031861
 30
0.0
 10
30.8300076742
 20
83.6145689482
 30
0.0
 10
30.3223965466
 20
83.8906856322
 30
0.0
 10
29.8891678446
 20
84.2072737026
 30
0.0
 10
29.5394789081
 20
84.5583320072
 30
0.0
 10
29.2815970979
 20
84.9378122944
 30
0.0
 10
29.1225327641
 20
85.338024701
 30
0.0
 10
29.086434014
 20
85.6152314778
 30
0.0
 10
29.0864100838
 20
85.7504515492
 30
0.0
  0
SPLINE
  5
2F2
100
AcDbEntity
  8
0
100
AcDbSpline
 62
7
  6
BYLAYER
 70
0
 71
3
 72
11
 73
7
 74
0
 42
0.0000001
 43
0.0000001
 44
0.0000000001
 40
0.0
 40
0.0
 40
0.0
 40
0.0
 40
0.2895421522
 40
0.5491196247
 40
0.782256727
 40
1.0
 40
1.0
 40
1.0
 40
1.0
 10
29.41693709
 20
29.1055047645
 30
0.0
 10
29.3730832229
 20
29.1308232336
 30
0.0
 10
29.293502932
 20
29.1856957306
 30
0.0
 10
29.198309049
 20
29.2856322017
 30
0.0
 10
29.1380810941
 20
29.3962727372
 30
0.0
 10
29.1240968716
 20
29.4756679696
 30
0.0
 10
29.1240968801
 20
29.513748918
 30
0.0
  0
SPLINE
  5
2F3
100
AcDbEntity
  8
0
100
AcDbSpline
 62
7
  6
BYLAYER
 70
0
 71
3
 72
11
 73
7
 74
0
 42
0.0000001
 43
0.0000001
 44
0.0000000001
 40
0.0
 40
0.0
 40
0.0
 40
0.0
 40
0.2177643494
 40
0.4508943819
 40
0.7103680107
 40
1.0
 40
1.0
 40
1.0
 40
1.0
 10
29.5454650758
 20
121.1658362649
 30
0.0
 10
29.5454310356
 20
121.2515280754
 30
0.0
 10
29.5138976005
 20
121.4301593902
 30
0.0
 10
29.3784057039
 20
121.6790605799
 30
0.0
 10
29.1642990535
 20
121.9039954752
 30
0.0
 10
28.985199286
 20
122.0274006079
 30
0.0
 10
28.8864958693
 20
122.0843857629
 30
0.0
  0
SPLINE
  5
2F4
100
AcDbEntity
  8
0
100
AcDbSpline
 62
7
  6
BYLAYER
 70
0
 71
3
 72
11
 73
7
 74
0
 42
0.0000001
 43
0.0000001
 44
0.0000000001
 40
0.0
 40
0.0
 40
0.0
 40
0.0
 40
0.2416493367
 40
0.5007287587
 40
0.7593690672
 40
1.0
 40
1.0
 40
1.0
 40
1.0
 10
39.0205608062
 20
127.7135301027
 30
0.0
 10
39.2277517036
 20
127.8039087303
 30
0.0
 10
39.681850401
 20
127.9360507911
 30
0.0
 10
40.3932816391
 20
127.9982729607
 30
0.0
 10
41.1032428348
 20
127.9302239887
 30
0.0
 10
41.5547802427
 20
127.7939631027
 30
0.0
 10
41.7600619079
 20
127.7016265987
 30
0.0
  0
SPLINE
  5
2F5
100
AcDbEntity
  8
0
100
AcDbSpline
 62
7
  6
BYLAYER
 70
0
 71
3
 72
11
 73
7
 74
0
 42
0.0000001
 43
0.0000001
 44
0.0000000001
 40
0.0
 40
0.0
 40
0.0
 40
0.0
 40
0.2177643494
 40
0.4508943819
 40
0.7103680107
 40
1.0
 40
1.0
 40
1.0
 40
1.0
 10
42.6268860642
 20
128.7183531115
 30
0.0
 10
42.6268520241
 20
128.804044922
 30
0.0
 10
42.5953185889
 20
128.9826762368
 30
0.0
 10
42.4598266924
 20
129.2315774266
 30
0.0
 10
42.245720042
 20
129.4565123219
 30
0.0
 10
42.0666202745
 20
129.5799174545
 30
0.0
 10
41.9679168578
 20
129.6369026095
 30
0.0
  0
SPLINE
  5
2F6
100
AcDbEntity
  8
0
100
AcDbSpline
 62
7
  6
BYLAYER
 70
0
 71
3
 72
17
 73
13
 74
0
 42
0.0000001
 43
0.0000001
 44
0.0000000001
 40
0.0
 40
0.0
 40
0.0
 40
0.0
 40
0.1286888525
 40
0.2702802895
 40
0.4174331647
 40
0.5617754839
 40
0.695448121
 40
0.8127120865
 40
0.8646770447
 40
0.9125101515
 40
0.9571398234
 40
1.0
 40
1.0
 40
1.0
 40
1.0
 10
41.9679168578
 20
129.6369026095
 30
0.0
 10
41.8013638058
 20
129.7330598835
 30
0.0
 10
41.4242585888
 20
129.8886497792
 30
0.0
 10
40.8096609376
 20
130.011613932
 30
0.0
 10
40.1596114789
 20
130.0296067851
 30
0.0
 10
39.527166133
 20
129.9407356767
 30
0.0
 10
38.9635909528
 20
129.7524936206
 30
0.0
 10
38.5716242461
 20
129.5138974564
 30
0.0
 10
38.3415996999
 20
129.2830364814
 30
0.0
 10
38.2193961312
 20
129.103300112
 30
0.0
 10
38.1440940355
 20
128.9137143385
 30
0.0
 10
38.1269549399
 20
128.7824053866
 30
0.0
 10
38.1269803839
 20
128.7183534152
 30
0.0
  0
SPLINE
  5
2F7
100
AcDbEntity
  8
0
100
AcDbSpline
 62
7
  6
BYLAYER
 70
0
 71
3
 72
17
 73
13
 74
0
 42
0.0000001
 43
0.0000001
 44
0.0000000001
 40
0.0
 40
0.0
 40
0.0
 40
0.0
 40
0.1286888525
 40
0.2702802895
 40
0.4174331647
 40
0.5617754839
 40
0.695448121
 40
0.8127120865
 40
0.8646770447
 40
0.9125101515
 40
0.9571398234
 40
1.0
 40
1.0
 40
1.0
 40
1.0
 10
28.8864958693
 20
122.0843857629
 30
0.0
 10
28.7199428174
 20
122.1805430369
 30
0.0
 10
28.3428376003
 20
122.3361329326
 30
0.0
 10
27.7282399491
 20
122.4590970854
 30
0.0
 10
27.0781904905
 20
122.4770899385
 30
0.0
 10
26.4457451446
 20
122.3882188301
 30
0.0
 10
25.8821699644
 20
122.1999767739
 30
0.0
 10
25.4902032576
 20
121.9613806098
 30
0.0
 10
25.2601787115
 20
121.7305196347
 30
0.0
 10
25.1379751427
 20
121.5507832654
 30
0.0
 10
25.0626730471
 20
121.3611974919
 30
0.0
 10
25.0455339515
 20
121.22988854
 30
0.0
 10
25.0455593954
 20
121.1658365686
 30
0.0
  0
SPLINE
  5
2F8
100
AcDbEntity
  8
0
100
AcDbSpline
 62
7
  6
BYLAYER
 70
0
 71
3
 72
17
 73
13
 74
0
 42
0.0000001
 43
0.0000001
 44
0.0000000001
 40
0.0
 40
0.0
 40
0.0
 40
0.0
 40
0.1286888525
 40
0.2702802895
 40
0.4174331647
 40
0.5617754839
 40
0.695448121
 40
0.8127120865
 40
0.8646770447
 40
0.9125101515
 40
0.9571398234
 40
1.0
 40
1.0
 40
1.0
 40
1.0
 10
80.1518420157
 20
107.5919018654
 30
0.0
 10
79.9852889638
 20
107.6880591394
 30
0.0
 10
79.6081837467
 20
107.8436490351
 30
0.0
 10
78.9935860955
 20
107.9666131879
 30
0.0
 10
78.3435366368
 20
107.984606041
 30
0.0
 10
77.711091291
 20
107.8957349326
 30
0.0
 10
77.1475161108
 20
107.7074928765
 30
0.0
 10
76.755549404
 20
107.4688967123
 30
0.0
 10
76.5255248578
 20
107.2380357373
 30
0.0
 10
76.4033212891
 20
107.0582993679
 30
0.0
 10
76.3280191934
 20
106.8687135944
 30
0.0
 10
76.3108800979
 20
106.7374046425
 30
0.0
 10
76.3109055418
 20
106.6733526711
 30
0.0
  0
SPLINE
  5
2F9
100
AcDbEntity
  8
0
100
AcDbSpline
 62
7
  6
BYLAYER
 70
0
 71
3
 72
17
 73
13
 74
0
 42
0.0000001
 43
0.0000001
 44
0.0000000001
 40
0.0
 40
0.0
 40
0.0
 40
0.0
 40
0.1286888525
 40
0.2702802895
 40
0.4174331647
 40
0.5617754839
 40
0.695448121
 40
0.8127120865
 40
0.8646770447
 40
0.9125101515
 40
0.9571398234
 40
1.0
 40
1.0
 40
1.0
 40
1.0
 10
67.0704210273
 20
100.0393850188
 30
0.0
 10
66.9038679753
 20
100.1355422928
 30
0.0
 10
66.5267627583
 20
100.2911321885
 30
0.0
 10
65.9121651071
 20
100.4140963413
 30
0.0
 10
65.2621156484
 20
100.4320891944
 30
0.0
 10
64.6296703025
 20
100.343218086
 30
0.0
 10
64.0660951223
 20
100.1549760298
 30
0.0
 10
63.6741284155
 20
99.9163798657
 30
0.0
 10
63.4441038694
 20
99.6855188906
 30
0.0
 10
63.3219003007
 20
99.5057825213
 30
0.0
 10
63.246598205
 20
99.3161967478
 30
0.0
 10
63.2294591094
 20
99.1848877959
 30
0.0
 10
63.2294845534
 20
99.1208358245
 30
0.0
  0
ENDSEC
  0
SECTION
  2
OBJECTS
  0
DICTIONARY
  5
C
100
AcDbDictionary
280
0
281
1
  3
ACAD_GROUP
350
D
  3
ACAD_MLINESTYLE
350
17
  3
ACAD_LAYOUT
350
1A
  3
ACAD_PLOTSETTINGS
350
19
  3
ACAD_PLOTSTYLENAME
350
E
  0
DICTIONARY
  5
D
102
{ACAD_REACTORS
330
C
102
}
100
AcDbDictionary
280
0
281
1
  0
ACDBDICTIONARYWDFLT
  5
E
102
{ACAD_REACTORS
330
C
102
}
100
AcDbDictionary
281
1
  3
Normal
350
F
100
AcDbDictionaryWithDefault
340
F
  0
DICTIONARY
  5
17
102
{ACAD_REACTORS
330
C
102
}
100
AcDbDictionary
280
0
281
1
  3
Standard
350
18
  0
DICTIONARY
  5
19
102
{ACAD_REACTORS
330
C
102
}
100
AcDbDictionary
281
1
  0
DICTIONARY
  5
1A
102
{ACAD_REACTORS
330
C
102
}
100
AcDbDictionary
281
1
  3
Model
350
2FA
  3
Layout1
350
2FB
  0
ACDBPLACEHOLDER
  5
F
102
{ACAD_REACTORS
330
E
102
}
  0
MLINESTYLE
  5
18
102
{ACAD_REACTORS
330
17
102
}
100
AcDbMlineStyle
  2
STANDARD
 70
0
  3

 62
256
 51
90.0
 52
90.0
 71
2
 49
0.5
 62
256
  6
BYLAYER
 49
-0.5
 62
256
  6
BYLAYER
  0
LAYOUT
  5
2FA
102
{ACAD_REACTORS
330
1A
102
}
100
AcDbPlotSettings
  1

  2
none_device
  4

  6

 40
0.0
 41
0.0
 42
0.0
 43
0.0
 44
210.0
 45
297.0
 46
0.0
 47
0.0
 48
0.0
 49
0.0
140
0.0
141
0.0
142
1.0
143
1.0
 70
1024
 72
1
 73
0
 74
0
  7

 75
0
147
1.0
148
0.0
149
0.0
100
AcDbLayout
  1
Model
 70
0
 71
0
 10
0.0
 20
0.0
 11
210.0
 21
297.0
 12
0.0
 22
0.0
 32
0.0
 14
0.0
 24
0.0
 34
0.0
 15
0.0
 25
0.0
 35
0.0
146
0.0
 13
0.0
 23
0.0
 33
0.0
 16
1.0
 26
0.0
 36
0.0
 17
0.0
 27
1.0
 37
0.0
 76
0
330
210
345
0
346
0
  0
LAYOUT
  5
2FB
102
{ACAD_REACTORS
330
1A
102
}
100
AcDbPlotSettings
  1

  2
none_device
  4

  6

 40
0.0
 41
0.0
 42
0.0
 43
0.0
 44
210.0
 45
297.0
 46
0.0
 47
0.0
 48
0.0
 49
0.0
140
0.0
141
0.0
142
1.0
143
1.0
 70
0
 72
1
 73
0
 74
0
  7

 75
0
147
1.0
148
0.0
149
0.0
100
AcDbLayout
  1
Layout1
 70
0
 71
1
 10
0.0
 20
0.0
 11
210.0
 21
297.0
 12
0.0
 22
0.0
 32
0.0
 14
0.0
 24
0.0
 34
0.0
 15
0.0
 25
0.0
 35
0.0
146
0.0
 13
0.0
 23
0.0
 33
0.0
 16
1.0
 26
0.0
 36
0.0
 17
0.0
 27
1.0
 37
0.0
 76
0
330
211
345
0
346
0
  0
ENDSEC
  0
EOF
