999
DXF file: C:\Users\sesa63760\Dev\_Creo\CAD\MCADUE0002788_3D-CAD\drw0001_4.dxf
999
Pro/ENGINEER 2019471 by Parametric Technology Corporation
  0
SECTION
  2
HEADER
  9
$ACADVER
  1
AC1024
  9
$DWGCODEPAGE
  3
ANSI_1252
  9
$EXTMAX
 10
36.7273657207
 20
51.9429886621
 30
0.0
  9
$EXTMIN
 10
0.0
 20
0.0
 30
0.0
  9
$LIMMIN
 10
0.0
 20
0.0
  9
$LIMMAX
 10
36.7273657207
 20
51.9429886621
  9
$VIEWCTR
 10
18.3636828603
 20
25.971494331
  9
$VIEWSIZE
 40
51.9429886621
  9
$CLAYER
  8
0
  9
$LTSCALE
 40
3.385913335
  9
$CELTYPE
  6
BYLAYER
  9
$DIMSCALE
 40
1.0
  9
$DIMASZ
 40
0.4372305443
  9
$DIMEXO
 40
1.0
  9
$DIMDLI
 40
2.3393583042
  9
$DIMEXE
 40
1.0
  9
$DIMCEN
 40
0.5540585457
  9
$DIMLFAC
 40
1.0
  9
$DIMBLK
  1
_FILLED
  9
$DIMALT
 70
0
  9
$DIMALTF
 40
0.0393700787
  9
$DIMTXT
 40
0.612122762
  9
$DIMTOL
 70
1
  9
$DIMLIM
 70
0
  9
$DIMTFAC
 40
1.0
  9
$DIMTP
 40
0.01
  9
$DIMTM
 40
0.01
  9
$DIMGAP
 40
0.625
  9
$DIMDSEP
 70
46
  9
$AUNITS
 70
0
  9
$PDMODE
 70
3
  9
$PDSIZE
 40
0.3125
  9
$HANDSEED
  5
2AB
  9
$TILEMODE
 70
1
  9
$MEASUREMENT
 70
1
  9
$INSUNITS
 70
4
  0
ENDSEC
  0
SECTION
  2
CLASSES
  0
CLASS
  1
ACDBDICTIONARYWDFLT
  2
AcDbDictionaryWithDefault
  3
AutoCAD 2000
 90
0
 91
1
280
0
281
0
  0
CLASS
  1
ACDBPLACEHOLDER
  2
AcDbPlaceHolder
  3
AutoCAD 2000
 90
0
 91
1
280
0
281
0
  0
CLASS
  1
LAYOUT
  2
AcDbLayout
  3
AutoCAD 2000
 90
0
 91
0
280
0
281
0
  0
ENDSEC
  0
SECTION
  2
TABLES
  0
TABLE
  2
VPORT
  5
8
100
AcDbSymbolTable
 70
2
  0
VPORT
  5
1F4
100
AcDbSymbolTableRecord
100
AcDbViewportTableRecord
  2
*ACTIVE
 70
0
 10
0.0
 20
0.0
 11
1.0
 21
1.0
 12
18.3636828603
 22
25.971494331
 13
0.0
 23
0.0
 14
1.0
 24
1.0
 15
0.0
 25
0.0
 16
0.0
 26
0.0
 36
1.0
 17
0.0
 27
0.0
 37
0.0
 40
51.9429886621
 41
0.7070707071
 42
50.0
 43
0.0
 44
0.0
 50
0.0
 51
0.0
 71
0
 72
100
 73
1
 74
1
 75
0
 76
0
 77
0
 78
0
  0
ENDTAB
  0
TABLE
  2
LTYPE
  5
5
100
AcDbSymbolTable
 70
6
  0
LTYPE
  5
14
100
AcDbSymbolTableRecord
100
AcDbLinetypeTableRecord
  2
BYBLOCK
 70
0
  3

 72
65
 73
0
 40
0.0
  0
LTYPE
  5
15
100
AcDbSymbolTableRecord
100
AcDbLinetypeTableRecord
  2
BYLAYER
 70
0
  3

 72
65
 73
0
 40
0.0
  0
LTYPE
  5
16
100
AcDbSymbolTableRecord
100
AcDbLinetypeTableRecord
  2
CONTINUOUS
 70
64
  3
Solid line
 72
65
 73
0
 40
0.0
  0
LTYPE
  5
1F5
100
AcDbSymbolTableRecord
100
AcDbLinetypeTableRecord
  2
CENTER
 70
64
  3
____ _ ____ _ ____ _ ____ _ ____ _ ____ _ ____
 72
65
 73
4
 40
0.6
 49
0.375
 74
0
 49
-0.075
 74
0
 49
0.075
 74
0
 49
-0.075
 74
0
  0
LTYPE
  5
1F6
100
AcDbSymbolTableRecord
100
AcDbLinetypeTableRecord
  2
HIDDEN
 70
64
  3
- - - - - - - - - - - - - - - - - - - -
 72
65
 73
2
 40
0.2
 49
0.1
 74
0
 49
-0.1
 74
0
  0
LTYPE
  5
1F7
100
AcDbSymbolTableRecord
100
AcDbLinetypeTableRecord
  2
PHANTOM
 70
64
  3
_____ _ _ _____ _ _ _____ _ _ _____
 72
65
 73
6
 40
0.8
 49
0.45
 74
0
 49
-0.05
 74
0
 49
0.1
 74
0
 49
-0.05
 74
0
 49
0.1
 74
0
 49
-0.05
 74
0
  0
LTYPE
  5
1F8
100
AcDbSymbolTableRecord
100
AcDbLinetypeTableRecord
  2
DOT
 70
64
  3
. . . . . . . . . . . . . . . . . . . .
 72
65
 73
2
 40
0.2
 49
0.1
 74
0
 49
-0.1
 74
0
  0
LTYPE
  5
1F9
100
AcDbSymbolTableRecord
100
AcDbLinetypeTableRecord
  2
DASHED
 70
64
  3
- - - - - - - - - - - - - - - - - - - -
 72
65
 73
2
 40
0.2
 49
0.1
 74
0
 49
-0.1
 74
0
  0
ENDTAB
  0
TABLE
  2
LAYER
  5
2
100
AcDbSymbolTable
 70
36
  0
LAYER
  5
10
100
AcDbSymbolTableRecord
100
AcDbLayerTableRecord
  2
0
 70
0
 62
7
  6
CONTINUOUS
370
-3
390
F
  0
LAYER
  5
1FA
100
AcDbSymbolTableRecord
100
AcDbLayerTableRecord
  2
DEFAULT_1
 70
0
 62
7
  6
CENTER
370
-3
390
F
  0
LAYER
  5
1FB
100
AcDbSymbolTableRecord
100
AcDbLayerTableRecord
  2
DEFAULT_2
 70
0
 62
8
  6
HIDDEN
370
-3
390
F
  0
LAYER
  5
1FC
100
AcDbSymbolTableRecord
100
AcDbLayerTableRecord
  2
DEFAULT_3
 70
0
 62
7
  6
PHANTOM
370
-3
390
F
  0
LAYER
  5
1FD
100
AcDbSymbolTableRecord
100
AcDbLayerTableRecord
  2
00_COMPONENTS
 70
0
 62
7
  6
CONTINUOUS
370
-3
390
F
  0
LAYER
  5
1FE
100
AcDbSymbolTableRecord
100
AcDbLayerTableRecord
  2
01_1_DEFAULT_DATUMS
 70
0
 62
7
  6
CONTINUOUS
370
-3
390
F
  0
LAYER
  5
1FF
100
AcDbSymbolTableRecord
100
AcDbLayerTableRecord
  2
01_PLANES
 70
0
 62
7
  6
CONTINUOUS
370
-3
390
F
  0
LAYER
  5
200
100
AcDbSymbolTableRecord
100
AcDbLayerTableRecord
  2
02_COORD_SYS
 70
0
 62
7
  6
CONTINUOUS
370
-3
390
F
  0
LAYER
  5
201
100
AcDbSymbolTableRecord
100
AcDbLayerTableRecord
  2
03_AXES
 70
0
 62
7
  6
CONTINUOUS
370
-3
390
F
  0
LAYER
  5
202
100
AcDbSymbolTableRecord
100
AcDbLayerTableRecord
  2
04_POINTS
 70
0
 62
7
  6
CONTINUOUS
370
-3
390
F
  0
LAYER
  5
203
100
AcDbSymbolTableRecord
100
AcDbLayerTableRecord
  2
05_CURVES
 70
0
 62
7
  6
CONTINUOUS
370
-3
390
F
  0
LAYER
  5
204
100
AcDbSymbolTableRecord
100
AcDbLayerTableRecord
  2
06_SURFS
 70
0
 62
7
  6
CONTINUOUS
370
-3
390
F
  0
LAYER
  5
205
100
AcDbSymbolTableRecord
100
AcDbLayerTableRecord
  2
07_COSMETICS
 70
0
 62
7
  6
CONTINUOUS
370
-3
390
F
  0
LAYER
  5
206
100
AcDbSymbolTableRecord
100
AcDbLayerTableRecord
  2
10_NOTES
 70
0
 62
7
  6
CONTINUOUS
370
-3
390
F
  0
LAYER
  5
207
100
AcDbSymbolTableRecord
100
AcDbLayerTableRecord
  2
11_NOTES_PUB
 70
0
 62
7
  6
CONTINUOUS
370
-3
390
F
  0
LAYER
  5
208
100
AcDbSymbolTableRecord
100
AcDbLayerTableRecord
  2
13_REF_GTOL
 70
0
 62
7
  6
CONTINUOUS
370
-3
390
F
  0
LAYER
  5
209
100
AcDbSymbolTableRecord
100
AcDbLayerTableRecord
  2
16_MISC
 70
0
 62
7
  6
CONTINUOUS
370
-3
390
F
  0
LAYER
  5
20A
100
AcDbSymbolTableRecord
100
AcDbLayerTableRecord
  2
17_NO_PRINT
 70
0
 62
7
  6
CONTINUOUS
370
-3
390
F
  0
LAYER
  5
20B
100
AcDbSymbolTableRecord
100
AcDbLayerTableRecord
  2
18_DATUM_CAMS_JOINTS
 70
0
 62
7
  6
CONTINUOUS
370
-3
390
F
  0
LAYER
  5
20C
100
AcDbSymbolTableRecord
100
AcDbLayerTableRecord
  2
19_DATUM_FUNCTIONAL
 70
0
 62
7
  6
CONTINUOUS
370
-3
390
F
  0
LAYER
  5
20D
100
AcDbSymbolTableRecord
100
AcDbLayerTableRecord
  2
20_DATUM_KINEMATIC_SCHEME
 70
0
 62
7
  6
CONTINUOUS
370
-3
390
F
  0
ENDTAB
  0
TABLE
  2
STYLE
  5
3
100
AcDbSymbolTable
 70
1
  0
STYLE
  5
11
100
AcDbSymbolTableRecord
100
AcDbTextStyleTableRecord
  2
STANDARD
 70
0
 40
0.0
 41
0.8
 50
0.0
 71
0
 42
0.2
  3
txt
  4

  0
STYLE
  5
20E
100
AcDbSymbolTableRecord
100
AcDbTextStyleTableRecord
  2
TEXTSTYLE_1
 70
0
 40
0.0
 41
0.8
 50
0.0
 71
0
 42
0.2
  3
gdt
  4

  0
ENDTAB
  0
TABLE
  2
VIEW
  5
6
100
AcDbSymbolTable
 70
0
  0
ENDTAB
  0
TABLE
  2
UCS
  5
7
100
AcDbSymbolTable
 70
0
  0
ENDTAB
  0
TABLE
  2
APPID
  5
9
100
AcDbSymbolTable
 70
1
  0
APPID
  5
20F
100
AcDbSymbolTableRecord
100
AcDbRegAppTableRecord
  2
ACAD
 70
0
  0
ENDTAB
  0
TABLE
  2
BLOCK_RECORD
  5
1
100
AcDbSymbolTable
 70
0
  0
BLOCK_RECORD
  5
210
100
AcDbSymbolTableRecord
100
AcDbBlockTableRecord
  2
*Model_Space
  0
BLOCK_RECORD
  5
211
100
AcDbSymbolTableRecord
100
AcDbBlockTableRecord
  2
*Paper_Space
  0
BLOCK_RECORD
  5
212
100
AcDbSymbolTableRecord
100
AcDbBlockTableRecord
  2
_FILLED
  0
ENDTAB
  0
TABLE
  2
DIMSTYLE
  5
A
100
AcDbSymbolTable
 70
1
100
AcDbDimStyleTable
 71
0
  0
DIMSTYLE
105
213
100
AcDbSymbolTableRecord
100
AcDbDimStyleTableRecord
  2
STANDARD
 70
0
  3

  4

 40
1.0
 41
0.4372305443
 42
1.0
 43
0.38
 44
1.0
 45
0.0
 46
0.0
 47
0.01
 48
0.01
140
0.612122762
141
0.09
142
0.0
143
25.4
144
1.0
145
0.0
146
1.0
147
0.625
 71
1
 72
0
 73
0
 74
0
 75
0
 76
0
 77
1
 78
8
 79
2
170
0
171
1
172
0
173
0
174
0
175
0
176
0
177
0
178
0
270
2
179
2
271
2
272
2
273
2
274
2
275
0
280
0
281
0
282
0
283
1
284
8
285
0
286
0
287
3
288
0
340
11
278
46
341
212
342
212
343
212
344
212
  0
ENDTAB
  0
ENDSEC
  0
SECTION
  2
BLOCKS
  0
BLOCK
  5
20
100
AcDbEntity
  8
0
100
AcDbBlockBegin
  2
*Model_Space
 70
0
 10
0.0
 20
0.0
 30
0.0
  3
*Model_Space
  1

  0
ENDBLK
  5
21
100
AcDbEntity
  8
0
100
AcDbBlockEnd
  0
BLOCK
  5
1C
100
AcDbEntity
  8
0
100
AcDbBlockBegin
  2
*Paper_Space
 70
0
 10
0.0
 20
0.0
 30
0.0
  3
*Paper_Space
  1

  0
ENDBLK
  5
1D
100
AcDbEntity
  8
0
100
AcDbBlockEnd
  0
BLOCK
  5
214
100
AcDbEntity
  8
0
100
AcDbBlockBegin
  2
_FILLED
 70
64
 10
0.0
 20
0.0
  3
_FILLED
  1

  0
SOLID
  5
215
100
AcDbEntity
  8
0
  6
BYBLOCK
 62
0
100
AcDbTrace
 10
0.0
 20
0.0
 11
-1.0
 21
0.25
 12
-1.0
 22
-0.25
 13
-1.0
 23
-0.25
  0
ENDBLK
  5
216
100
AcDbEntity
  8
0
  6
BYBLOCK
 62
0
100
AcDbBlockEnd
  0
ENDSEC
  0
SECTION
  2
ENTITIES
  0
LINE
  5
217
100
AcDbEntity
  8
0
100
AcDbLine
 62
7
  6
CONTINUOUS
 10
30.5977945293
 20
5.8125500573
 11
4.5831796256
 21
5.8125500573
  0
LINE
  5
218
100
AcDbEntity
  8
0
100
AcDbLine
 62
7
  6
CONTINUOUS
 10
30.4826552811
 20
6.0962225658
 11
4.6983188736
 21
6.0962225654
  0
LINE
  5
219
100
AcDbEntity
  8
0
100
AcDbLine
 62
7
  6
CONTINUOUS
 10
30.7396575664
 20
9.6326591433
 11
30.7421381146
 21
9.632818048
  0
LINE
  5
21A
100
AcDbEntity
  8
0
100
AcDbLine
 62
7
  6
CONTINUOUS
 10
30.870890532
 20
7.8425500573
 11
4.3100836229
 21
7.8425500573
  0
LINE
  5
21B
100
AcDbEntity
  8
0
100
AcDbLine
 62
7
  6
CONTINUOUS
 10
4.0904870774
 20
6.3146403907
 11
4.0904870774
 21
45.3104597239
  0
LINE
  5
21C
100
AcDbEntity
  8
0
100
AcDbLine
 62
7
  6
CONTINUOUS
 10
30.6075496815
 20
11.4126724632
 11
30.6107385522
 21
11.4129929723
  0
LINE
  5
21D
100
AcDbEntity
  8
0
100
AcDbLine
 62
7
  6
CONTINUOUS
 10
4.4388360402
 20
9.632818048
 11
30.7396575367
 21
9.6325500573
  0
LINE
  5
21E
100
AcDbEntity
  8
0
100
AcDbLine
 62
7
  6
CONTINUOUS
 10
4.5734245
 20
11.4125604906
 11
4.5702356027
 21
11.4129929723
  0
LINE
  5
21F
100
AcDbEntity
  8
0
100
AcDbLine
 62
7
  6
CONTINUOUS
 10
4.8341407174
 20
36.7125500573
 11
4.8341407174
 21
14.9125500573
  0
LINE
  5
220
100
AcDbEntity
  8
0
100
AcDbLine
 62
7
  6
CONTINUOUS
 10
30.4766472907
 20
13.1926184136
 11
30.4786261373
 21
13.1927205991
  0
LINE
  5
221
100
AcDbEntity
  8
0
100
AcDbLine
 62
7
  6
CONTINUOUS
 10
30.6075496548
 20
11.4125500573
 11
4.5734245001
 21
11.4125500573
  0
LINE
  5
222
100
AcDbEntity
  8
0
100
AcDbLine
 62
7
  6
CONTINUOUS
 10
4.7023480175
 20
13.1927205991
 11
4.7043267247
 21
13.1927636157
  0
LINE
  5
223
100
AcDbEntity
  8
0
100
AcDbLine
 62
7
  6
CONTINUOUS
 10
30.4766472756
 20
13.1925500573
 11
4.7043268793
 21
13.1925500573
  0
LINE
  5
224
100
AcDbEntity
  8
0
100
AcDbLine
 62
7
  6
CONTINUOUS
 10
4.8341407174
 20
14.9125500573
 11
30.3468334375
 21
14.9125500573
  0
LINE
  5
225
100
AcDbEntity
  8
0
100
AcDbLine
 62
7
  6
CONTINUOUS
 10
4.2002230519
 20
6.5850014538
 11
4.0904870774
 21
6.3146403907
  0
LINE
  5
226
100
AcDbEntity
  8
0
100
AcDbLine
 62
7
  6
CONTINUOUS
 10
4.5831796256
 20
5.8125500573
 11
4.6983188736
 21
6.0962225654
  0
LINE
  5
227
100
AcDbEntity
  8
0
100
AcDbLine
 62
7
  6
CONTINUOUS
 10
31.0904870774
 20
19.8125499034
 11
31.6477566723
 21
19.8125498894
  0
LINE
  5
228
100
AcDbEntity
  8
0
100
AcDbLine
 62
7
  6
CONTINUOUS
 10
18.8404870774
 20
20.1875500573
 11
16.3404870774
 21
20.1875500573
  0
LINE
  5
229
100
AcDbEntity
  8
0
100
AcDbLine
 62
7
  6
CONTINUOUS
 10
4.0904870774
 20
45.3104597239
 11
4.2002230519
 21
45.0400986608
  0
LINE
  5
22A
100
AcDbEntity
  8
0
100
AcDbLine
 62
7
  6
CONTINUOUS
 10
4.6983188737
 20
45.5288775488
 11
4.5831796256
 21
45.8125500573
  0
LINE
  5
22B
100
AcDbEntity
  8
0
100
AcDbLine
 62
7
  6
CONTINUOUS
 10
32.2460464658
 20
21.8507841671
 11
31.0904870774
 21
21.8507841679
  0
LINE
  5
22C
100
AcDbEntity
  8
0
100
AcDbLine
 62
7
  6
CONTINUOUS
 10
32.2460879761
 20
22.483673726
 11
31.0904870774
 21
22.483673726
  0
LINE
  5
22D
100
AcDbEntity
  8
0
100
AcDbLine
 62
7
  6
CONTINUOUS
 10
16.3404870774
 20
20.1875500573
 11
16.3404870774
 21
24.919216724
  0
LINE
  5
22E
100
AcDbEntity
  8
0
100
AcDbLine
 62
7
  6
CONTINUOUS
 10
16.3404870774
 20
26.7058833906
 11
16.3404870774
 21
31.4375500573
  0
LINE
  5
22F
100
AcDbEntity
  8
0
100
AcDbLine
 62
7
  6
CONTINUOUS
 10
18.8404870774
 20
31.4375500573
 11
18.8404870774
 21
20.1875500573
  0
LINE
  5
230
100
AcDbEntity
  8
0
100
AcDbLine
 62
7
  6
CONTINUOUS
 10
30.5977945293
 20
45.8125500573
 11
30.4826552813
 21
45.5288775492
  0
LINE
  5
231
100
AcDbEntity
  8
0
100
AcDbLine
 62
7
  6
CONTINUOUS
 10
32.2461127705
 20
29.1414263807
 11
31.0904870774
 21
29.1414263807
  0
LINE
  5
232
100
AcDbEntity
  8
0
100
AcDbLine
 62
7
  6
CONTINUOUS
 10
30.4826552811
 20
6.0962225658
 11
30.5977945293
 21
5.8125500573
  0
LINE
  5
233
100
AcDbEntity
  8
0
100
AcDbLine
 62
7
  6
CONTINUOUS
 10
30.980751103
 20
45.0400986608
 11
31.0904870774
 21
45.3104597239
  0
LINE
  5
234
100
AcDbEntity
  8
0
100
AcDbLine
 62
7
  6
CONTINUOUS
 10
31.0904870774
 20
29.7743159438
 11
32.2459899733
 21
29.7743159438
  0
LINE
  5
235
100
AcDbEntity
  8
0
100
AcDbLine
 62
7
  6
CONTINUOUS
 10
31.0904870774
 20
6.3146403907
 11
30.980751103
 21
6.5850014538
  0
LINE
  5
236
100
AcDbEntity
  8
0
100
AcDbLine
 62
7
  6
CONTINUOUS
 10
16.3404870774
 20
31.4375500573
 11
18.8404870774
 21
31.4375500573
  0
LINE
  5
237
100
AcDbEntity
  8
0
100
AcDbLine
 62
7
  6
CONTINUOUS
 10
31.0904870774
 20
31.8125500573
 11
31.647620547
 21
31.8125500573
  0
LINE
  5
238
100
AcDbEntity
  8
0
100
AcDbLine
 62
7
  6
CONTINUOUS
 10
30.3468334375
 20
14.9125500573
 11
30.3468334375
 21
36.7125500573
  0
LINE
  5
239
100
AcDbEntity
  8
0
100
AcDbLine
 62
7
  6
CONTINUOUS
 10
30.3468334375
 20
36.7125500573
 11
4.8341407174
 21
36.7125500573
  0
LINE
  5
23A
100
AcDbEntity
  8
0
100
AcDbLine
 62
7
  6
CONTINUOUS
 10
31.0904870774
 20
45.3104597239
 11
31.0904870774
 21
6.3146403907
  0
LINE
  5
23B
100
AcDbEntity
  8
0
100
AcDbLine
 62
7
  6
CONTINUOUS
 10
32.2461127705
 20
21.850784169
 11
32.2461127705
 21
22.4836735538
  0
LINE
  5
23C
100
AcDbEntity
  8
0
100
AcDbLine
 62
7
  6
CONTINUOUS
 10
32.2461127705
 20
29.1414263807
 11
32.2461127705
 21
29.7743159437
  0
LINE
  5
23D
100
AcDbEntity
  8
0
100
AcDbLine
 62
7
  6
CONTINUOUS
 10
4.7043268642
 20
38.432481701
 11
4.7023480175
 21
38.4323795155
  0
LINE
  5
23E
100
AcDbEntity
  8
0
100
AcDbLine
 62
7
  6
CONTINUOUS
 10
30.4786261373
 20
38.4323795155
 11
30.4766474301
 21
38.4323364989
  0
LINE
  5
23F
100
AcDbEntity
  8
0
100
AcDbLine
 62
7
  6
CONTINUOUS
 10
4.7043268793
 20
38.4325500573
 11
30.4766472756
 21
38.4325500573
  0
LINE
  5
240
100
AcDbEntity
  8
0
100
AcDbLine
 62
7
  6
CONTINUOUS
 10
33.2231519433
 20
22.4037688689
 11
33.2211803792
 21
22.3947398071
  0
LINE
  5
241
100
AcDbEntity
  8
0
100
AcDbLine
 62
7
  6
CONTINUOUS
 10
31.6623958856
 20
19.854655788
 11
31.6478666701
 21
19.8125500573
  0
LINE
  5
242
100
AcDbEntity
  8
0
100
AcDbLine
 62
7
  6
CONTINUOUS
 10
31.6633655108
 20
19.8545082537
 11
31.6478666701
 21
19.8125500573
  0
LINE
  5
243
100
AcDbEntity
  8
0
100
AcDbLine
 62
7
  6
CONTINUOUS
 10
4.5734245001
 20
40.2125500573
 11
30.6075496548
 21
40.2125500573
  0
LINE
  5
244
100
AcDbEntity
  8
0
100
AcDbLine
 62
7
  6
CONTINUOUS
 10
31.647620547
 20
31.8125500573
 11
31.6631609048
 21
31.7704771109
  0
LINE
  5
245
100
AcDbEntity
  8
0
100
AcDbLine
 62
7
  6
CONTINUOUS
 10
31.647620547
 20
31.8125500573
 11
31.6622056052
 21
31.7703316907
  0
LINE
  5
246
100
AcDbEntity
  8
0
100
AcDbLine
 62
7
  6
CONTINUOUS
 10
4.5734244733
 20
40.2124276514
 11
4.5702356027
 21
40.2121071423
  0
LINE
  5
247
100
AcDbEntity
  8
0
100
AcDbLine
 62
7
  6
CONTINUOUS
 10
30.7421381146
 20
41.9922820666
 11
4.4413166182
 21
41.9925500573
  0
LINE
  5
248
100
AcDbEntity
  8
0
100
AcDbLine
 62
7
  6
CONTINUOUS
 10
30.6075496549
 20
40.212539624
 11
30.6107385522
 21
40.2121071423
  0
LINE
  5
249
100
AcDbEntity
  8
0
100
AcDbLine
 62
7
  6
CONTINUOUS
 10
4.4413165885
 20
41.9924409713
 11
4.4388360402
 21
41.9922820666
  0
LINE
  5
24A
100
AcDbEntity
  8
0
100
AcDbLine
 62
7
  6
CONTINUOUS
 10
4.3100836229
 20
43.7825500573
 11
30.870890532
 21
43.7825500573
  0
LINE
  5
24B
100
AcDbEntity
  8
0
100
AcDbLine
 62
7
  6
CONTINUOUS
 10
4.6983188737
 20
45.5288775488
 11
30.4826552813
 21
45.5288775492
  0
LINE
  5
24C
100
AcDbEntity
  8
0
100
AcDbLine
 62
7
  6
CONTINUOUS
 10
30.5977945293
 20
45.8125500573
 11
4.5831796256
 21
45.8125500573
  0
ARC
  5
24D
100
AcDbEntity
  8
0
100
AcDbCircle
 62
7
  6
CONTINUOUS
 10
-20.4548391097
 20
7.5648500061
 40
25.2222104303
100
AcDbArc
 50
359.9947753935
 51
0.6318535136
  0
ARC
  5
24E
100
AcDbEntity
  8
0
100
AcDbCircle
 62
7
  6
CONTINUOUS
 10
-12.2338899949
 20
14.6899101656
 40
17.0694827373
100
AcDbArc
 50
0.0088609834
 51
0.7473388655
  0
ARC
  5
24F
100
AcDbEntity
  8
0
100
AcDbCircle
 62
7
  6
CONTINUOUS
 10
-12.0366798523
 20
12.9125108843
 40
16.7413730473
100
AcDbArc
 50
0.0001310101
 51
0.9590362572
  0
ARC
  5
250
100
AcDbEntity
  8
0
100
AcDbCircle
 62
7
  6
CONTINUOUS
 10
-12.1630299638
 20
11.1326278688
 40
16.7356141539
100
AcDbArc
 50
359.9997306285
 51
0.9598983629
  0
ARC
  5
251
100
AcDbEntity
  8
0
100
AcDbCircle
 62
7
  6
CONTINUOUS
 10
-11.9609280111
 20
9.3475304871
 40
16.402245271
100
AcDbArc
 50
359.9826025387
 51
0.9966073055
  0
ARC
  5
252
100
AcDbEntity
  8
0
100
AcDbCircle
 62
7
  6
CONTINUOUS
 10
16.3287672564
 20
25.8125496135
 40
16.2616541741
100
AcDbArc
 50
348.187677546
 51
11.8123292823
  0
ARC
  5
253
100
AcDbEntity
  8
0
100
AcDbCircle
 62
7
  6
CONTINUOUS
 10
17.587092466
 20
25.0463224008
 40
15.0032128883
100
AcDbArc
 50
339.7542891996
 51
347.7023529916
  0
ARC
  5
254
100
AcDbEntity
  8
0
100
AcDbCircle
 62
7
  6
CONTINUOUS
 10
-5.1851580001
 20
7.6036346903
 40
9.4539481635
100
AcDbArc
 50
1.4548581888
 51
2.0625910684
  0
ARC
  5
255
100
AcDbEntity
  8
0
100
AcDbCircle
 62
7
  6
CONTINUOUS
 10
-20.7215325688
 20
44.0617082088
 40
25.4889037456
100
AcDbArc
 50
359.3714800875
 51
0.0018923194
  0
ARC
  5
256
100
AcDbEntity
  8
0
100
AcDbCircle
 62
7
  6
CONTINUOUS
 10
-12.5671928589
 20
36.937389476
 40
17.40278607
100
AcDbArc
 50
359.2597330035
 51
359.9840671475
  0
ARC
  5
257
100
AcDbEntity
  8
0
100
AcDbCircle
 62
7
  6
CONTINUOUS
 10
-12.4035028284
 20
38.7156597253
 40
17.1081963059
100
AcDbArc
 50
359.0512440987
 51
359.989588634
  0
ARC
  5
258
100
AcDbEntity
  8
0
100
AcDbCircle
 62
7
  6
CONTINUOUS
 10
-12.5244100276
 20
40.495498637
 40
17.0969944717
100
AcDbArc
 50
359.050249432
 51
359.9901215766
  0
ARC
  5
259
100
AcDbEntity
  8
0
100
AcDbCircle
 62
7
  6
CONTINUOUS
 10
-11.9103094766
 20
42.2771370706
 40
16.3516268764
100
AcDbArc
 50
359.0018231675
 51
0.0189669883
  0
ARC
  5
25A
100
AcDbEntity
  8
0
100
AcDbCircle
 62
7
  6
CONTINUOUS
 10
17.5904870774
 20
25.8125500573
 40
16.0
100
AcDbArc
 50
341.7615552436
 51
347.66582397
  0
ARC
  5
25B
100
AcDbEntity
  8
0
100
AcDbCircle
 62
7
  6
CONTINUOUS
 10
17.5904870774
 20
25.8125500573
 40
16.0
100
AcDbArc
 50
347.6989187589
 51
18.2387583127
  0
ARC
  5
25C
100
AcDbEntity
  8
0
100
AcDbCircle
 62
7
  6
CONTINUOUS
 10
-5.3909323467
 20
44.0277837726
 40
9.6598166571
100
AcDbArc
 50
357.9438848809
 51
358.5386782942
  0
CIRCLE
  5
25D
100
AcDbEntity
  8
0
100
AcDbCircle
 62
7
  6
CONTINUOUS
 10
17.5904870774
 20
25.8125500573
 40
8.0
  0
ARC
  5
25E
100
AcDbEntity
  8
0
100
AcDbCircle
 62
7
  6
CONTINUOUS
 10
17.5904870774
 20
25.8125500573
 40
7.9
100
AcDbArc
 50
126.285127628
 51
251.5596876534
  0
ARC
  5
25F
100
AcDbEntity
  8
0
100
AcDbCircle
 62
7
  6
CONTINUOUS
 10
17.5904870774
 20
25.8125500573
 40
7.9
100
AcDbArc
 50
108.4292813019
 51
125.813866862
  0
ARC
  5
260
100
AcDbEntity
  8
0
100
AcDbCircle
 62
7
  6
CONTINUOUS
 10
17.5904870774
 20
25.8125500573
 40
7.9
100
AcDbArc
 50
72.3516514012
 51
107.6516627619
  0
ARC
  5
261
100
AcDbEntity
  8
0
100
AcDbCircle
 62
7
  6
CONTINUOUS
 10
17.5904870774
 20
25.8125500573
 40
7.9
100
AcDbArc
 50
306.285127628
 51
71.5596876534
  0
ARC
  5
262
100
AcDbEntity
  8
0
100
AcDbCircle
 62
7
  6
CONTINUOUS
 10
17.5904870774
 20
25.8125500573
 40
7.9
100
AcDbArc
 50
288.4292813019
 51
305.813866862
  0
ARC
  5
263
100
AcDbEntity
  8
0
100
AcDbCircle
 62
7
  6
CONTINUOUS
 10
17.5904870774
 20
25.8125500573
 40
7.9
100
AcDbArc
 50
252.3516514012
 51
287.6516627619
  0
CIRCLE
  5
264
100
AcDbEntity
  8
0
100
AcDbCircle
 62
7
  6
CONTINUOUS
 10
17.5904870774
 20
25.8125500573
 40
7.4
  0
ARC
  5
265
100
AcDbEntity
  8
0
100
AcDbCircle
 62
7
  6
CONTINUOUS
 10
13.4842369187
 20
25.8125500577
 40
4.1899766355
100
AcDbArc
 50
312.9754709767
 51
47.0245290233
  0
CIRCLE
  5
266
100
AcDbEntity
  8
0
100
AcDbCircle
 62
7
  6
CONTINUOUS
 10
17.5904870774
 20
25.8125500573
 40
3.0
  0
ARC
  5
267
100
AcDbEntity
  8
0
100
AcDbCircle
 62
7
  6
CONTINUOUS
 10
15.1743340271
 20
25.8125500569
 40
1.9012955921
100
AcDbArc
 50
307.8318740839
 51
52.1681259161
  0
ARC
  5
268
100
AcDbEntity
  8
0
100
AcDbCircle
 62
7
  6
CONTINUOUS
 10
16.8032831839
 20
25.8125500573
 40
1.0061954154
100
AcDbArc
 50
117.386656667
 51
242.6133433337
  0
ARC
  5
269
100
AcDbEntity
  8
0
100
AcDbCircle
 62
7
  6
CONTINUOUS
 10
55.9025230576
 20
7.5633914555
 40
25.4889200306
100
AcDbArc
 50
179.3714794768
 51
180.0018913053
  0
ARC
  5
26A
100
AcDbEntity
  8
0
100
AcDbCircle
 62
7
  6
CONTINUOUS
 10
47.748167014
 20
14.6877106386
 40
17.4027860703
100
AcDbArc
 50
179.2597330035
 51
179.9840671475
  0
ARC
  5
26B
100
AcDbEntity
  8
0
100
AcDbCircle
 62
7
  6
CONTINUOUS
 10
47.5844769829
 20
12.9094403893
 40
17.1081963055
100
AcDbArc
 50
179.0512440987
 51
179.989588634
  0
ARC
  5
26C
100
AcDbEntity
  8
0
100
AcDbCircle
 62
7
  6
CONTINUOUS
 10
47.7053841823
 20
11.1296014776
 40
17.0969944715
100
AcDbArc
 50
179.050249432
 51
179.9901215766
  0
ARC
  5
26D
100
AcDbEntity
  8
0
100
AcDbCircle
 62
7
  6
CONTINUOUS
 10
47.0912836316
 20
9.347963044
 40
16.3516268765
100
AcDbArc
 50
179.0018231675
 51
180.0189669883
  0
ARC
  5
26E
100
AcDbEntity
  8
0
100
AcDbCircle
 62
7
  6
CONTINUOUS
 10
40.571906501
 20
7.597316342
 40
9.6598166566
100
AcDbArc
 50
177.9438848809
 51
178.5386782942
  0
ARC
  5
26F
100
AcDbEntity
  8
0
100
AcDbCircle
 62
7
  6
CONTINUOUS
 10
31.6481234285
 20
22.3674683934
 40
2.5549185303
100
AcDbArc
 50
269.9917752433
 51
272.852790321
  0
ARC
  5
270
100
AcDbEntity
  8
0
100
AcDbCircle
 62
7
  6
CONTINUOUS
 10
32.668508047
 20
22.5246480373
 40
0.5676642289
100
AcDbArc
 50
346.8925104155
 51
347.7063559421
  0
ARC
  5
271
100
AcDbEntity
  8
0
100
AcDbCircle
 62
7
  6
CONTINUOUS
 10
33.2068891406
 20
22.4074723919
 40
0.0166694415
100
AcDbArc
 50
341.7310469873
 51
347.747021786
  0
ARC
  5
272
100
AcDbEntity
  8
0
100
AcDbCircle
 62
7
  6
CONTINUOUS
 10
55.6357814688
 20
44.0602495985
 40
25.2221786825
100
AcDbArc
 50
179.9947742277
 51
180.6318531503
  0
ARC
  5
273
100
AcDbEntity
  8
0
100
AcDbCircle
 62
7
  6
CONTINUOUS
 10
47.4148641495
 20
36.935189949
 40
17.069482737
100
AcDbArc
 50
180.0088609834
 51
180.7473388656
  0
ARC
  5
274
100
AcDbEntity
  8
0
100
AcDbCircle
 62
7
  6
CONTINUOUS
 10
47.2176540071
 20
38.7125892303
 40
16.7413730474
100
AcDbArc
 50
180.0001310101
 51
180.9590362572
  0
ARC
  5
275
100
AcDbEntity
  8
0
100
AcDbCircle
 62
7
  6
CONTINUOUS
 10
47.3440041185
 20
40.4924722458
 40
16.7356141538
100
AcDbArc
 50
179.9997306285
 51
180.9598983629
  0
ARC
  5
276
100
AcDbEntity
  8
0
100
AcDbCircle
 62
7
  6
CONTINUOUS
 10
47.1419021656
 20
42.2775696275
 40
16.4022452707
100
AcDbArc
 50
179.9826025387
 51
180.9966073055
  0
ARC
  5
277
100
AcDbEntity
  8
0
100
AcDbCircle
 62
7
  6
CONTINUOUS
 10
40.3661321556
 20
44.0214654243
 40
9.4539481642
100
AcDbArc
 50
181.4548581888
 51
182.0625910683
  0
ARC
  5
278
100
AcDbEntity
  8
0
100
AcDbCircle
 62
7
  6
CONTINUOUS
 10
18.4030020113
 20
25.8125500573
 40
4.0625046715
100
AcDbArc
 50
120.5104188641
 51
239.4895811359
  0
ARC
  5
279
100
AcDbEntity
  8
0
100
AcDbCircle
 62
7
  6
CONTINUOUS
 10
31.6480743058
 20
29.2556727733
 40
2.5568774881
100
AcDbArc
 50
87.1483175212
 51
90.0096778679
  0
SPLINE
  5
27A
100
AcDbEntity
  8
0
100
AcDbSpline
 62
7
  6
CONTINUOUS
 70
0
 71
3
 72
9
 73
5
 74
0
 42
0.0000001
 43
0.0000001
 44
0.0000000001
 40
0.0
 40
0.0
 40
0.0
 40
0.0
 40
0.5060543012
 40
1.0
 40
1.0
 40
1.0
 40
1.0
 10
32.786526588
 20
20.8050419577
 30
0.0
 10
32.7666727101
 20
20.7447840822
 30
0.0
 10
32.7212054803
 20
20.6277568217
 30
0.0
 10
32.668464412
 20
20.5139680585
 30
0.0
 10
32.6411033024
 20
20.4584141474
 30
0.0
  0
SPLINE
  5
27B
100
AcDbEntity
  8
0
100
AcDbSpline
 62
7
  6
CONTINUOUS
 70
0
 71
3
 72
14
 73
10
 74
0
 42
0.0000001
 43
0.0000001
 44
0.0000000001
 40
0.0
 40
0.0
 40
0.0
 40
0.0
 40
0.1247692281
 40
0.249516554
 40
0.3742812777
 40
0.4993869241
 40
0.6250114078
 40
0.7510251756
 40
1.0
 40
1.0
 40
1.0
 40
1.0
 10
31.7752640929
 20
19.8157089161
 30
0.0
 10
31.8222770943
 20
19.8180693515
 30
0.0
 10
31.9160823633
 20
19.8304474601
 30
0.0
 10
32.0518896643
 20
19.8711379473
 30
0.0
 10
32.1797929515
 20
19.9325841613
 30
0.0
 10
32.2973847571
 20
20.0124459146
 30
0.0
 10
32.4031583364
 20
20.1080351903
 30
0.0
 10
32.5263698755
 20
20.2517032237
 30
0.0
 10
32.5995997365
 20
20.3741488721
 30
0.0
 10
32.6411033024
 20
20.4584141474
 30
0.0
  0
SPLINE
  5
27C
100
AcDbEntity
  8
0
100
AcDbSpline
 62
7
  6
CONTINUOUS
 70
0
 71
3
 72
9
 73
5
 74
0
 42
0.0000001
 43
0.0000001
 44
0.0000000001
 40
0.0
 40
0.0
 40
0.0
 40
0.0
 40
0.5060630051
 40
1.0
 40
1.0
 40
1.0
 40
1.0
 10
32.7864886379
 20
30.8201361672
 30
0.0
 10
32.766636724
 20
30.88037916
 30
0.0
 10
32.721175337
 20
30.9973748168
 30
0.0
 10
32.668452532
 20
31.1111374327
 30
0.0
 10
32.6410994774
 20
31.1666768599
 30
0.0
  0
SPLINE
  5
27D
100
AcDbEntity
  8
0
100
AcDbSpline
 62
7
  6
CONTINUOUS
 70
0
 71
3
 72
14
 73
10
 74
0
 42
0.0000001
 43
0.0000001
 44
0.0000000001
 40
0.0
 40
0.0
 40
0.0
 40
0.0
 40
0.2489738935
 40
0.3749878223
 40
0.5006124122
 40
0.6257181872
 40
0.7504831288
 40
0.8752306134
 40
1.0
 40
1.0
 40
1.0
 40
1.0
 10
32.6410994774
 20
31.1666768599
 30
0.0
 10
32.5995971143
 20
31.2509428483
 30
0.0
 10
32.5263685749
 20
31.3733895941
 30
0.0
 10
32.4031604468
 20
31.5170614452
 30
0.0
 10
32.2973873063
 20
31.6126526295
 30
0.0
 10
32.1797952102
 20
31.6925154536
 30
0.0
 10
32.0518915795
 20
31.7539631436
 30
0.0
 10
31.9160828231
 20
31.7946523778
 30
0.0
 10
31.8222768688
 20
31.8070291926
 30
0.0
 10
31.7752635706
 20
31.8093895022
 30
0.0
  0
SPLINE
  5
27E
100
AcDbEntity
  8
0
100
AcDbSpline
 62
7
  6
CONTINUOUS
 70
0
 71
3
 72
14
 73
10
 74
0
 42
0.0000001
 43
0.0000001
 44
0.0000000001
 40
0.0
 40
0.0
 40
0.0
 40
0.0
 40
0.1417933715
 40
0.2803535776
 40
0.5408997972
 40
0.6626527133
 40
0.7787801241
 40
0.89066162
 40
1.0
 40
1.0
 40
1.0
 40
1.0
 10
32.2461127705
 20
29.7743156675
 30
0.0
 10
32.3036162112
 20
29.7794848835
 30
0.0
 10
32.418214522
 20
29.7820695945
 30
0.0
 10
32.6373675955
 20
29.756678844
 30
0.0
 10
32.842039582
 20
29.6859529407
 30
0.0
 10
33.010271313
 20
29.5706121458
 30
0.0
 10
33.1105849433
 20
29.4680544127
 30
0.0
 10
33.1840452601
 20
29.3507238011
 30
0.0
 10
33.2137076254
 20
29.2646677728
 30
0.0
 10
33.2231874232
 20
29.2211684398
 30
0.0
  0
SPLINE
  5
27F
100
AcDbEntity
  8
0
100
AcDbSpline
 62
7
  6
CONTINUOUS
 70
0
 71
3
 72
20
 73
16
 74
0
 42
0.0000001
 43
0.0000001
 44
0.0000000001
 40
0.0
 40
0.0
 40
0.0
 40
0.0
 40
0.028773517
 40
0.0400677384
 40
0.0533726933
 40
0.0688230024
 40
0.0865305827
 40
0.1289149908
 40
0.1803183715
 40
0.2402515344
 40
0.3081857976
 40
0.4646852063
 40
0.6394801232
 40
0.8212571581
 40
1.0
 40
1.0
 40
1.0
 40
1.0
 10
33.2231785901
 20
29.2211653014
 30
0.0
 10
33.2211546848
 20
29.2304952969
 30
0.0
 10
33.2073486106
 20
29.2390813839
 30
0.0
 10
33.1910412763
 20
29.2447429795
 30
0.0
 10
33.1780581672
 20
29.2480741177
 30
0.0
 10
33.1629145827
 20
29.2508305659
 30
0.0
 10
33.1380266337
 20
29.2539946984
 30
0.0
 10
33.1010682663
 20
29.2561619149
 30
0.0
 10
33.0500475367
 20
29.2563769875
 30
0.0
 10
32.9905926438
 20
29.2541908378
 30
0.0
 10
32.8964541543
 20
29.2476483991
 30
0.0
 10
32.7647534849
 20
29.2329970287
 30
0.0
 10
32.5962881854
 20
29.2083481207
 30
0.0
 10
32.4213661416
 20
29.1773984865
 30
0.0
 10
32.3041030043
 20
29.1537113197
 30
0.0
 10
32.246111734
 20
29.1412907224
 30
0.0
  0
SPLINE
  5
280
100
AcDbEntity
  8
0
100
AcDbSpline
 62
7
  6
CONTINUOUS
 70
0
 71
3
 72
14
 73
10
 74
0
 42
0.0000001
 43
0.0000001
 44
0.0000000001
 40
0.0
 40
0.0
 40
0.0
 40
0.0
 40
0.1416565846
 40
0.2801165815
 40
0.5406391992
 40
0.6624790163
 40
0.778715967
 40
0.8906711926
 40
1.0
 40
1.0
 40
1.0
 40
1.0
 10
32.2460475119
 20
21.8507851531
 30
0.0
 10
32.3031145316
 20
21.8456408452
 30
0.0
 10
32.4168509093
 20
21.8430114186
 30
0.0
 10
32.634488989
 20
21.8678505733
 30
0.0
 10
32.8379547231
 20
21.937374375
 30
0.0
 10
33.0058402453
 20
22.0509101545
 30
0.0
 10
33.1064285479
 20
22.1519850044
 30
0.0
 10
33.1807363252
 20
22.267750106
 30
0.0
 10
33.2113540344
 20
22.3528438298
 30
0.0
 10
33.2213825403
 20
22.395913926
 30
0.0
  0
SPLINE
  5
281
100
AcDbEntity
  8
0
100
AcDbSpline
 62
7
  6
CONTINUOUS
 70
0
 71
3
 72
20
 73
16
 74
0
 42
0.0000001
 43
0.0000001
 44
0.0000000001
 40
0.0
 40
0.0
 40
0.0
 40
0.0
 40
0.1771652811
 40
0.3574006406
 40
0.5309831159
 40
0.6869279907
 40
0.7548943393
 40
0.8150503107
 40
0.8668794237
 40
0.9099004166
 40
0.943832376
 40
0.9692309873
 40
0.9790811673
 40
0.9872878834
 40
1.0
 40
1.0
 40
1.0
 40
1.0
 10
32.2461134393
 20
22.4838090454
 30
0.0
 10
32.3035413921
 20
22.471509112
 30
0.0
 10
32.4196831069
 20
22.4480356223
 30
0.0
 10
32.5930222555
 20
22.4172995471
 30
0.0
 10
32.7602328091
 20
22.3927086995
 30
0.0
 10
32.891222862
 20
22.3779677643
 30
0.0
 10
32.9851612199
 20
22.3712145126
 30
0.0
 10
33.0447809913
 20
22.3688336991
 30
0.0
 10
33.096179498
 20
22.3688137407
 30
0.0
 10
33.1388483878
 20
22.3710277544
 30
0.0
 10
33.1725195661
 20
22.3754775947
 30
0.0
 10
33.1948536295
 20
22.38116854
 30
0.0
 10
33.2080498772
 20
22.3871060524
 30
0.0
 10
33.2166245356
 20
22.3925815132
 30
0.0
 10
33.2213980079
 20
22.3982450068
 30
0.0
 10
33.222718367
 20
22.4022468897
 30
0.0
  0
SPLINE
  5
282
100
AcDbEntity
  8
0
100
AcDbSpline
 62
7
  6
CONTINUOUS
 70
0
 71
3
 72
9
 73
5
 74
0
 42
0.0000001
 43
0.0000001
 44
0.0000000001
 40
0.0
 40
0.0
 40
0.0
 40
0.0
 40
0.5028880149
 40
1.0
 40
1.0
 40
1.0
 40
1.0
 10
31.6631609048
 20
31.7704771109
 30
0.0
 10
31.7835627834
 20
31.4431177311
 30
0.0
 10
32.0018858966
 20
30.7841316026
 30
0.0
 10
32.1726916459
 20
30.1112275911
 30
0.0
 10
32.2459899733
 20
29.7743159438
 30
0.0
  0
SPLINE
  5
283
100
AcDbEntity
  8
0
100
AcDbSpline
 62
7
  6
CONTINUOUS
 70
0
 71
3
 72
14
 73
10
 74
0
 42
0.0000001
 43
0.0000001
 44
0.0000000001
 40
0.0
 40
0.0
 40
0.0
 40
0.0
 40
0.0540146884
 40
0.120529992
 40
0.2067075972
 40
0.3157960459
 40
0.4492500445
 40
0.6077341112
 40
1.0
 40
1.0
 40
1.0
 40
1.0
 10
30.8708905319
 20
7.8425504856
 30
0.0
 10
30.8729803964
 20
7.8425510038
 30
0.0
 10
30.8776601037
 20
7.8439550908
 30
0.0
 10
30.8837835107
 20
7.8492924684
 30
0.0
 10
30.8897264614
 20
7.8575511995
 30
0.0
 10
30.8956049542
 20
7.8688625737
 30
0.0
 10
30.9014523996
 20
7.883249865
 30
0.0
 10
30.9097854154
 20
7.9083900877
 30
0.0
 10
30.9149667596
 20
7.9290895121
 30
0.0
 10
30.9183091478
 20
7.9438939266
 30
0.0
  0
SPLINE
  5
284
100
AcDbEntity
  8
0
100
AcDbSpline
 62
7
  6
CONTINUOUS
 70
0
 71
3
 72
14
 73
10
 74
0
 42
0.0000001
 43
0.0000001
 44
0.0000000001
 40
0.0
 40
0.0
 40
0.0
 40
0.0
 40
0.0540146884
 40
0.120529992
 40
0.2067075972
 40
0.3157960459
 40
0.4492500445
 40
0.6077341112
 40
1.0
 40
1.0
 40
1.0
 40
1.0
 10
4.3100836229
 20
43.782549629
 30
0.0
 10
4.3079937585
 20
43.7825491108
 30
0.0
 10
4.3033140512
 20
43.7811450238
 30
0.0
 10
4.2971906442
 20
43.7758076462
 30
0.0
 10
4.2912476935
 20
43.767548915
 30
0.0
 10
4.2853692007
 20
43.7562375409
 30
0.0
 10
4.2795217553
 20
43.7418502495
 30
0.0
 10
4.2711887395
 20
43.7167100269
 30
0.0
 10
4.2660073952
 20
43.6960106025
 30
0.0
 10
4.2626650071
 20
43.6812061879
 30
0.0
  0
SPLINE
  5
285
100
AcDbEntity
  8
0
100
AcDbSpline
 62
7
  6
CONTINUOUS
 70
0
 71
3
 72
15
 73
11
 74
0
 42
0.0000001
 43
0.0000001
 44
0.0000000001
 40
0.0
 40
0.0
 40
0.0
 40
0.0
 40
0.1250169688
 40
0.250020708
 40
0.3750255116
 40
0.5000241725
 40
0.6250195004
 40
0.7500132784
 40
0.8750008487
 40
1.0
 40
1.0
 40
1.0
 40
1.0
 10
31.0904870774
 20
45.3104597239
 30
0.0
 10
31.0904870774
 20
45.3429934454
 30
0.0
 10
31.0843602454
 20
45.4082267314
 30
0.0
 10
31.0568802961
 20
45.502466179
 30
0.0
 10
31.0118518108
 20
45.589747151
 30
0.0
 10
30.9507026083
 20
45.6666105136
 30
0.0
 10
30.8756035935
 20
45.7299324356
 30
0.0
 10
30.7894002359
 20
45.7770627465
 30
0.0
 10
30.6955675598
 20
45.8060581237
 30
0.0
 10
30.6303236141
 20
45.8125500683
 30
0.0
 10
30.5977945293
 20
45.8125500573
 30
0.0
  0
SPLINE
  5
286
100
AcDbEntity
  8
0
100
AcDbSpline
 62
7
  6
CONTINUOUS
 70
0
 71
3
 72
15
 73
11
 74
0
 42
0.0000001
 43
0.0000001
 44
0.0000000001
 40
0.0
 40
0.0
 40
0.0
 40
0.0
 40
0.125003807
 40
0.2501860651
 40
0.3751385347
 40
0.5001071796
 40
0.6250899935
 40
0.7499998058
 40
0.8750525505
 40
1.0
 40
1.0
 40
1.0
 40
1.0
 10
4.5831796256
 20
45.8125500573
 30
0.0
 10
4.5506425438
 20
45.8125500683
 30
0.0
 10
4.4853422125
 20
45.8061652085
 30
0.0
 10
4.3913323183
 20
45.7774262004
 30
0.0
 10
4.3052678705
 20
45.7298739308
 30
0.0
 10
4.2303717318
 20
45.6663584789
 30
0.0
 10
4.1691145491
 20
45.589644854
 30
0.0
 10
4.1236500169
 20
45.5025639936
 30
0.0
 10
4.096405648
 20
45.4082232471
 30
0.0
 10
4.0904870774
 20
45.3429821364
 30
0.0
 10
4.0904870774
 20
45.3104597239
 30
0.0
  0
SPLINE
  5
287
100
AcDbEntity
  8
0
100
AcDbSpline
 62
7
  6
CONTINUOUS
 70
0
 71
3
 72
15
 73
11
 74
0
 42
0.0000001
 43
0.0000001
 44
0.0000000001
 40
0.0
 40
0.0
 40
0.0
 40
0.0
 40
0.1250169688
 40
0.250020708
 40
0.3750255116
 40
0.5000241725
 40
0.6250195004
 40
0.7500132784
 40
0.8750008487
 40
1.0
 40
1.0
 40
1.0
 40
1.0
 10
4.0904870774
 20
6.3146403907
 30
0.0
 10
4.0904870774
 20
6.2821066692
 30
0.0
 10
4.0966139094
 20
6.2168733831
 30
0.0
 10
4.1240938588
 20
6.1226339355
 30
0.0
 10
4.1691223441
 20
6.0353529636
 30
0.0
 10
4.2302715465
 20
5.958489601
 30
0.0
 10
4.3053705613
 20
5.895167679
 30
0.0
 10
4.3915739189
 20
5.848037368
 30
0.0
 10
4.4854065951
 20
5.8190419909
 30
0.0
 10
4.5506505408
 20
5.8125500462
 30
0.0
 10
4.5831796256
 20
5.8125500573
 30
0.0
  0
SPLINE
  5
288
100
AcDbEntity
  8
0
100
AcDbSpline
 62
7
  6
CONTINUOUS
 70
0
 71
3
 72
15
 73
11
 74
0
 42
0.0000001
 43
0.0000001
 44
0.0000000001
 40
0.0
 40
0.0
 40
0.0
 40
0.0
 40
0.125003807
 40
0.2501860651
 40
0.3751385347
 40
0.5001071796
 40
0.6250899935
 40
0.7499998058
 40
0.8750525505
 40
1.0
 40
1.0
 40
1.0
 40
1.0
 10
30.5977945293
 20
5.8125500573
 30
0.0
 10
30.630331611
 20
5.8125500462
 30
0.0
 10
30.6956319424
 20
5.8189349061
 30
0.0
 10
30.7896418366
 20
5.8476739142
 30
0.0
 10
30.8757062844
 20
5.8952261838
 30
0.0
 10
30.9506024231
 20
5.9587416356
 30
0.0
 10
31.0118596058
 20
6.0354552605
 30
0.0
 10
31.0573241379
 20
6.1225361209
 30
0.0
 10
31.0845685068
 20
6.2168768674
 30
0.0
 10
31.0904870774
 20
6.2821179782
 30
0.0
 10
31.0904870774
 20
6.3146403907
 30
0.0
  0
SPLINE
  5
289
100
AcDbEntity
  8
0
100
AcDbSpline
 62
7
  6
CONTINUOUS
 70
0
 71
3
 72
14
 73
10
 74
0
 42
0.0000001
 43
0.0000001
 44
0.0000000001
 40
0.0
 40
0.0
 40
0.0
 40
0.0
 40
0.3922658402
 40
0.5507499604
 40
0.6842039772
 40
0.7932924063
 40
0.8794700022
 40
0.9459852975
 40
1.0
 40
1.0
 40
1.0
 40
1.0
 10
30.9183091478
 20
43.6812061879
 30
0.0
 10
30.9149667601
 20
43.6960106002
 30
0.0
 10
30.9097854139
 20
43.7167100235
 30
0.0
 10
30.9014524004
 20
43.7418502469
 30
0.0
 10
30.8956049564
 20
43.7562375407
 30
0.0
 10
30.8897264632
 20
43.7675489136
 30
0.0
 10
30.8837835142
 20
43.775807644
 30
0.0
 10
30.8776601031
 20
43.7811450172
 30
0.0
 10
30.8729803969
 20
43.7825491028
 30
0.0
 10
30.8708905319
 20
43.7825496237
 30
0.0
  0
SPLINE
  5
28A
100
AcDbEntity
  8
0
100
AcDbSpline
 62
7
  6
CONTINUOUS
 70
0
 71
3
 72
14
 73
10
 74
0
 42
0.0000001
 43
0.0000001
 44
0.0000000001
 40
0.0
 40
0.0
 40
0.0
 40
0.0
 40
0.3922658402
 40
0.5507499604
 40
0.6842039772
 40
0.7932924063
 40
0.8794700022
 40
0.9459852975
 40
1.0
 40
1.0
 40
1.0
 40
1.0
 10
4.2626650071
 20
7.9438939266
 30
0.0
 10
4.2660073947
 20
7.9290895144
 30
0.0
 10
4.271188741
 20
7.908390091
 30
0.0
 10
4.2795217545
 20
7.8832498676
 30
0.0
 10
4.2853691984
 20
7.8688625739
 30
0.0
 10
4.2912476916
 20
7.857551201
 30
0.0
 10
4.2971906407
 20
7.8492924705
 30
0.0
 10
4.3033140518
 20
7.8439550974
 30
0.0
 10
4.307993758
 20
7.8425510118
 30
0.0
 10
4.3100836229
 20
7.8425504909
 30
0.0
  0
SPLINE
  5
28B
100
AcDbEntity
  8
0
100
AcDbSpline
 62
7
  6
CONTINUOUS
 70
0
 71
3
 72
24
 73
20
 74
0
 42
0.0000001
 43
0.0000001
 44
0.0000000001
 40
0.0
 40
0.0
 40
0.0
 40
0.0
 40
0.1930223976
 40
0.3786001605
 40
0.549625308
 40
0.6276198931
 40
0.6996044569
 40
0.7649091828
 40
0.8229371926
 40
0.8731740465
 40
0.9151988801
 40
0.9330324294
 40
0.9487122953
 40
0.9622265829
 40
0.9735864649
 40
0.9828371717
 40
0.9900887211
 40
0.9956058868
 40
1.0
 40
1.0
 40
1.0
 40
1.0
 10
4.4413165038
 20
42.2825500541
 30
0.0
 10
4.4413165038
 20
42.380280096
 30
0.0
 10
4.4396940237
 20
42.5719755133
 30
0.0
 10
4.4324429016
 20
42.8501779984
 30
0.0
 10
4.4223992248
 20
43.0700120116
 30
0.0
 10
4.411936717
 20
43.2322083381
 30
0.0
 10
4.4033766093
 20
43.3408774854
 30
0.0
 10
4.3939532965
 20
43.4393248171
 30
0.0
 10
4.3837711258
 20
43.5266225395
 30
0.0
 10
4.3729372898
 20
43.6019505993
 30
0.0
 10
4.3630261753
 20
43.6568279075
 30
0.0
 10
4.3546238634
 20
43.6941458354
 30
0.0
 10
4.348578571
 20
43.7171826656
 30
0.0
 10
4.342459668
 20
43.7367934315
 30
0.0
 10
4.336283139
 20
43.7529443569
 30
0.0
 10
4.3300725568
 20
43.7656457942
 30
0.0
 10
4.3237916069
 20
43.7749126522
 30
0.0
 10
4.3173357542
 20
43.7809311358
 30
0.0
 10
4.3123084261
 20
43.7825501806
 30
0.0
 10
4.3100836229
 20
43.782549629
 30
0.0
  0
SPLINE
  5
28C
100
AcDbEntity
  8
0
100
AcDbSpline
 62
7
  6
CONTINUOUS
 70
0
 71
3
 72
24
 73
20
 74
0
 42
0.0000001
 43
0.0000001
 44
0.0000000001
 40
0.0
 40
0.0
 40
0.0
 40
0.0
 40
0.0043920275
 40
0.0099111326
 40
0.0171624781
 40
0.0264094874
 40
0.0377693167
 40
0.0512836266
 40
0.0669583185
 40
0.0847838775
 40
0.1267974834
 40
0.1770235263
 40
0.2350582536
 40
0.3003919191
 40
0.3723997943
 40
0.4504256008
 40
0.6214539041
 40
0.8070390459
 40
1.0
 40
1.0
 40
1.0
 40
1.0
 10
4.4413164415
 20
9.6325519962
 30
0.0
 10
4.44354017
 20
9.632555142
 30
0.0
 10
4.4485632365
 20
9.6341845349
 30
0.0
 10
4.4550167907
 20
9.6402023422
 30
0.0
 10
4.4613024365
 20
9.6494649608
 30
0.0
 10
4.4675199994
 20
9.6621606839
 30
0.0
 10
4.4736955265
 20
9.6783101221
 30
0.0
 10
4.4798122659
 20
9.6979185459
 30
0.0
 10
4.4858559939
 20
9.7209487291
 30
0.0
 10
4.4942557816
 20
9.7582542804
 30
0.0
 10
4.504162232
 20
9.8131165409
 30
0.0
 10
4.5149990581
 20
9.8884357143
 30
0.0
 10
4.5251828648
 20
9.9757453207
 30
0.0
 10
4.5346061281
 20
10.0742218813
 30
0.0
 10
4.5431738522
 20
10.1829320067
 30
0.0
 10
4.5536352138
 20
10.3451564857
 30
0.0
 10
4.5636783533
 20
10.565010118
 30
0.0
 10
4.5709190126
 20
10.8431847074
 30
0.0
 10
4.572584185
 20
11.0348509825
 30
0.0
 10
4.57258419
 20
11.1325491877
 30
0.0
  0
SPLINE
  5
28D
100
AcDbEntity
  8
0
100
AcDbSpline
 62
7
  6
CONTINUOUS
 70
0
 71
3
 72
24
 73
20
 74
0
 42
0.0000001
 43
0.0000001
 44
0.0000000001
 40
0.0
 40
0.0
 40
0.0
 40
0.0
 40
0.0043941121
 40
0.0099112771
 40
0.0171628244
 40
0.0264135273
 40
0.0377734103
 40
0.0512877056
 40
0.0669675894
 40
0.0848011473
 40
0.126825944
 40
0.1770628174
 40
0.2350908506
 40
0.3003955274
 40
0.3723801245
 40
0.4503747134
 40
0.6213998431
 40
0.8069776045
 40
1.0
 40
1.0
 40
1.0
 40
1.0
 10
30.8708905319
 20
43.7825496237
 30
0.0
 10
30.8686657293
 20
43.7825501781
 30
0.0
 10
30.8636383978
 20
43.7809311441
 30
0.0
 10
30.8571825503
 20
43.7749126545
 30
0.0
 10
30.8509016023
 20
43.7656458012
 30
0.0
 10
30.8446910187
 20
43.7529443667
 30
0.0
 10
30.8385144895
 20
43.736793439
 30
0.0
 10
30.8323955817
 20
43.7171826603
 30
0.0
 10
30.826350289
 20
43.6941458124
 30
0.0
 10
30.8179479771
 20
43.6568278899
 30
0.0
 10
30.8080368583
 20
43.6019505868
 30
0.0
 10
30.7972030321
 20
43.5266225224
 30
0.0
 10
30.7870208537
 20
43.4393248041
 30
0.0
 10
30.777597544
 20
43.3408774682
 30
0.0
 10
30.7690374391
 20
43.2322083267
 30
0.0
 10
30.7585749259
 20
43.0700119906
 30
0.0
 10
30.7485312541
 20
42.850177985
 30
0.0
 10
30.7412801307
 20
42.5719755106
 30
0.0
 10
30.739657651
 20
42.380280095
 30
0.0
 10
30.739657651
 20
42.2825500541
 30
0.0
  0
SPLINE
  5
28E
100
AcDbEntity
  8
0
100
AcDbSpline
 62
7
  6
CONTINUOUS
 70
0
 71
3
 72
24
 73
20
 74
0
 42
0.0000001
 43
0.0000001
 44
0.0000000001
 40
0.0
 40
0.0
 40
0.0
 40
0.0
 40
0.0043920275
 40
0.0099111326
 40
0.0171624781
 40
0.0264094874
 40
0.0377693167
 40
0.0512836266
 40
0.0669583185
 40
0.0847838775
 40
0.1267974834
 40
0.1770235263
 40
0.2350582536
 40
0.3003919191
 40
0.3723997943
 40
0.4504256008
 40
0.6214539041
 40
0.8070390459
 40
1.0
 40
1.0
 40
1.0
 40
1.0
 10
30.7396577134
 20
41.9925481184
 30
0.0
 10
30.7374339849
 20
41.9925449726
 30
0.0
 10
30.7324109183
 20
41.9909155797
 30
0.0
 10
30.7259573641
 20
41.9848977724
 30
0.0
 10
30.7196717184
 20
41.9756351537
 30
0.0
 10
30.7134541555
 20
41.9629394306
 30
0.0
 10
30.7072786283
 20
41.9467899925
 30
0.0
 10
30.7011618889
 20
41.9271815687
 30
0.0
 10
30.695118161
 20
41.9041513854
 30
0.0
 10
30.6867183732
 20
41.8668458342
 30
0.0
 10
30.6768119229
 20
41.8119835737
 30
0.0
 10
30.6659750968
 20
41.7366644003
 30
0.0
 10
30.6557912901
 20
41.6493547939
 30
0.0
 10
30.6463680268
 20
41.5508782333
 30
0.0
 10
30.6378003027
 20
41.4421681079
 30
0.0
 10
30.627338941
 20
41.2799436289
 30
0.0
 10
30.6172958015
 20
41.0600899966
 30
0.0
 10
30.6100551422
 20
40.7819154072
 30
0.0
 10
30.6083899698
 20
40.5902491321
 30
0.0
 10
30.6083899649
 20
40.4925509269
 30
0.0
  0
SPLINE
  5
28F
100
AcDbEntity
  8
0
100
AcDbSpline
 62
7
  6
CONTINUOUS
 70
0
 71
3
 72
18
 73
14
 74
0
 42
0.0000001
 43
0.0000001
 44
0.0000000001
 40
0.0
 40
0.0
 40
0.0
 40
0.0
 40
0.1597985625
 40
0.3221826996
 40
0.4804196745
 40
0.6278393362
 40
0.7582633595
 40
0.8154551621
 40
0.8664479524
 40
0.9107092858
 40
0.9479024657
 40
0.9777389174
 40
1.0
 40
1.0
 40
1.0
 40
1.0
 10
4.2657425776
 20
7.8436641664
 30
0.0
 10
4.2674622694
 20
7.7763893105
 30
0.0
 10
4.2696058506
 20
7.6407145411
 30
0.0
 10
4.2692059572
 20
7.4383833057
 30
0.0
 10
4.2652591342
 20
7.2413023215
 30
0.0
 10
4.2580017776
 20
7.0577847869
 30
0.0
 10
4.2491026039
 20
6.9169494114
 30
0.0
 10
4.2403013996
 20
6.8168444871
 30
0.0
 10
4.2334081029
 20
6.7530089253
 30
0.0
 10
4.2259959215
 20
6.6977201094
 30
0.0
 10
4.2181939356
 20
6.6514855892
 30
0.0
 10
4.2101028708
 20
6.6147595897
 30
0.0
 10
4.2037479796
 20
6.593688849
 30
0.0
 10
4.2002230447
 20
6.5850018389
 30
0.0
  0
SPLINE
  5
290
100
AcDbEntity
  8
0
100
AcDbSpline
 62
7
  6
CONTINUOUS
 70
0
 71
3
 72
18
 73
14
 74
0
 42
0.0000001
 43
0.0000001
 44
0.0000000001
 40
0.0
 40
0.0
 40
0.0
 40
0.0
 40
0.022261085
 40
0.0520975317
 40
0.0892906999
 40
0.1335520157
 40
0.184544784
 40
0.2417365624
 40
0.3721605376
 40
0.5195801643
 40
0.6778171378
 40
0.8402013231
 40
1.0
 40
1.0
 40
1.0
 40
1.0
 10
4.2002230447
 20
45.0400982773
 30
0.0
 10
4.2037479741
 20
45.0314112807
 30
0.0
 10
4.2101028568
 20
45.0103405773
 30
0.0
 10
4.2181939119
 20
44.9736146462
 30
0.0
 10
4.2259958889
 20
44.9273802188
 30
0.0
 10
4.2334080629
 20
44.8720915179
 30
0.0
 10
4.2403013541
 20
44.8082560907
 30
0.0
 10
4.2491025535
 20
44.7081513747
 30
0.0
 10
4.2580017274
 20
44.5673162811
 30
0.0
 10
4.2652590947
 20
44.3837990903
 30
0.0
 10
4.2692059378
 20
44.1867184316
 30
0.0
 10
4.2696058624
 20
43.9843874672
 30
0.0
 10
4.2674623079
 20
43.848712856
 30
0.0
 10
4.2657426318
 20
43.7814380643
 30
0.0
  0
SPLINE
  5
291
100
AcDbEntity
  8
0
100
AcDbSpline
 62
7
  6
CONTINUOUS
 70
0
 71
3
 72
24
 73
20
 74
0
 42
0.0000001
 43
0.0000001
 44
0.0000000001
 40
0.0
 40
0.0
 40
0.0
 40
0.0
 40
0.1930043396
 40
0.3785862987
 40
0.5496140961
 40
0.6276094607
 40
0.6995948611
 40
0.764901063
 40
0.822930852
 40
0.8731688091
 40
0.9151941453
 40
0.9330292741
 40
0.94870871
 40
0.962224166
 40
0.9735847452
 40
0.982835162
 40
0.9900881632
 40
0.9956056811
 40
1.0
 40
1.0
 40
1.0
 40
1.0
 10
4.704693195
 20
12.9125491644
 30
0.0
 10
4.7046931899
 20
12.8148283397
 30
0.0
 10
4.7030120517
 20
12.6231406236
 30
0.0
 10
4.695789642
 20
12.3449436684
 30
0.0
 10
4.6857407334
 20
12.125105988
 30
0.0
 10
4.6752787919
 20
11.9629076187
 30
0.0
 10
4.6667185992
 20
11.8542369852
 30
0.0
 10
4.6572954556
 20
11.7557876311
 30
0.0
 10
4.6471134397
 20
11.6684877478
 30
0.0
 10
4.6362799196
 20
11.5931579381
 30
0.0
 10
4.6263678058
 20
11.5382792561
 30
0.0
 10
4.617966805
 20
11.5009601982
 30
0.0
 10
4.6119203555
 20
11.4779224531
 30
0.0
 10
4.6058018109
 20
11.4583109175
 30
0.0
 10
4.5996262577
 20
11.4421586238
 30
0.0
 10
4.5934142419
 20
11.4294570988
 30
0.0
 10
4.5871350231
 20
11.4201878785
 30
0.0
 10
4.5806761671
 20
11.4141708058
 30
0.0
 10
4.5756494056
 20
11.4125515753
 30
0.0
 10
4.5734245
 20
11.4125507872
 30
0.0
  0
SPLINE
  5
292
100
AcDbEntity
  8
0
100
AcDbSpline
 62
7
  6
CONTINUOUS
 70
0
 71
3
 72
17
 73
13
 74
0
 42
0.0000001
 43
0.0000001
 44
0.0000000001
 40
0.0
 40
0.0
 40
0.0
 40
0.0
 40
0.17258799
 40
0.3403066105
 40
0.4981464257
 40
0.6417033191
 40
0.7668407799
 40
0.8700226921
 40
0.9124738175
 40
0.9484290383
 40
0.9776596352
 40
1.0
 40
1.0
 40
1.0
 40
1.0
 10
4.7673712158
 20
7.5625500789
 30
0.0
 10
4.7673725399
 20
7.4780106661
 30
0.0
 10
4.7665497843
 20
7.3113158364
 30
0.0
 10
4.7628992273
 20
7.0673299385
 30
0.0
 10
4.7569426735
 20
6.837613745
 30
0.0
 10
4.7488839297
 20
6.6288305628
 30
0.0
 10
4.7389624973
 20
6.4469366414
 30
0.0
 10
4.7289515309
 20
6.3146615699
 30
0.0
 10
4.7198517645
 20
6.2261756806
 30
0.0
 10
4.7132279913
 20
6.1738598738
 30
0.0
 10
4.7064235423
 20
6.131525935
 30
0.0
 10
4.701173585
 20
6.106786325
 30
0.0
 10
4.6983174291
 20
6.0962225657
 30
0.0
  0
SPLINE
  5
293
100
AcDbEntity
  8
0
100
AcDbSpline
 62
7
  6
CONTINUOUS
 70
0
 71
3
 72
13
 73
9
 74
0
 42
0.0000001
 43
0.0000001
 44
0.0000000001
 40
0.0
 40
0.0
 40
0.0
 40
0.0
 40
0.2412069117
 40
0.370969855
 40
0.503006146
 40
0.6345414314
 40
0.762939996
 40
1.0
 40
1.0
 40
1.0
 40
1.0
 10
4.6983205709
 20
6.0962277001
 30
0.0
 10
4.6365922539
 20
6.0973400697
 30
0.0
 10
4.540795717
 20
6.1167407111
 30
0.0
 10
4.4262803616
 20
6.1768046686
 30
0.0
 10
4.3469272575
 20
6.2399084386
 30
0.0
 10
4.2825260326
 20
6.3177730483
 30
0.0
 10
4.2213197138
 20
6.4299457648
 30
0.0
 10
4.2013584609
 20
6.5243351656
 30
0.0
 10
4.2002230523
 20
6.5850014548
 30
0.0
  0
SPLINE
  5
294
100
AcDbEntity
  8
0
100
AcDbSpline
 62
7
  6
CONTINUOUS
 70
0
 71
3
 72
13
 73
9
 74
0
 42
0.0000001
 43
0.0000001
 44
0.0000000001
 40
0.0
 40
0.0
 40
0.0
 40
0.0
 40
0.2370600046
 40
0.3654585693
 40
0.4969938546
 40
0.629030146
 40
0.7587930887
 40
1.0
 40
1.0
 40
1.0
 40
1.0
 10
30.9807511046
 20
6.5850014498
 30
0.0
 10
30.9796156961
 20
6.5243351603
 30
0.0
 10
30.9596544431
 20
6.4299457592
 30
0.0
 10
30.8984481252
 20
6.3177730418
 30
0.0
 10
30.8340469
 20
6.2399084319
 30
0.0
 10
30.7546937963
 20
6.1768046615
 30
0.0
 10
30.6401784409
 20
6.1167407036
 30
0.0
 10
30.544381904
 20
6.0973400617
 30
0.0
 10
30.482653587
 20
6.0962276926
 30
0.0
  0
SPLINE
  5
295
100
AcDbEntity
  8
0
100
AcDbSpline
 62
7
  6
CONTINUOUS
 70
0
 71
3
 72
17
 73
13
 74
0
 42
0.0000001
 43
0.0000001
 44
0.0000000001
 40
0.0
 40
0.0
 40
0.0
 40
0.0
 40
0.0223403673
 40
0.0515709703
 40
0.0875261971
 40
0.1299773304
 40
0.233159251
 40
0.3582967164
 40
0.5018536086
 40
0.6596934165
 40
0.8274120187
 40
1.0
 40
1.0
 40
1.0
 40
1.0
 10
30.4826569121
 20
6.0962225657
 30
0.0
 10
30.4798007557
 20
6.1067863262
 30
0.0
 10
30.4745508007
 20
6.1315259411
 30
0.0
 10
30.4677463562
 20
6.1738598877
 30
0.0
 10
30.4611225844
 20
6.2261757046
 30
0.0
 10
30.4520228184
 20
6.3146616049
 30
0.0
 10
30.4420118477
 20
6.4469366864
 30
0.0
 10
30.4320904083
 20
6.6288306132
 30
0.0
 10
30.4240316491
 20
6.8376137931
 30
0.0
 10
30.4180750822
 20
7.0673299732
 30
0.0
 10
30.4144244967
 20
7.3113158539
 30
0.0
 10
30.4136017167
 20
7.4780106703
 30
0.0
 10
30.4136030408
 20
7.5625500789
 30
0.0
  0
SPLINE
  5
296
100
AcDbEntity
  8
0
100
AcDbSpline
 62
7
  6
CONTINUOUS
 70
0
 71
3
 72
24
 73
20
 74
0
 42
0.0000001
 43
0.0000001
 44
0.0000000001
 40
0.0
 40
0.0
 40
0.0
 40
0.0
 40
0.0043916405
 40
0.0099109493
 40
0.0171628398
 40
0.0264101139
 40
0.0377699074
 40
0.0512848998
 40
0.0669606964
 40
0.084787396
 40
0.1268039066
 40
0.1770346644
 40
0.2350697732
 40
0.300405017
 40
0.3724133685
 40
0.4504377712
 40
0.6214649789
 40
0.8070425382
 40
1.0
 40
1.0
 40
1.0
 40
1.0
 10
4.7043267267
 20
13.1925513504
 30
0.0
 10
4.7065502614
 20
13.192554034
 30
0.0
 10
4.7115734527
 20
13.1941835734
 30
0.0
 10
4.7180263791
 20
13.2002022679
 30
0.0
 10
4.7243119234
 20
13.2094655186
 30
0.0
 10
4.7305299416
 20
13.2221614446
 30
0.0
 10
4.7367063524
 20
13.2383110615
 30
0.0
 10
4.7428232506
 20
13.2579203954
 30
0.0
 10
4.7488671986
 20
13.2809520662
 30
0.0
 10
4.757267326
 20
13.3182602421
 30
0.0
 10
4.7671742534
 20
13.3731269698
 30
0.0
 10
4.778010541
 20
13.4484503594
 30
0.0
 10
4.7881957073
 20
13.5357632651
 30
0.0
 10
4.7976180185
 20
13.6342412363
 30
0.0
 10
4.8061853788
 20
13.7429517883
 30
0.0
 10
4.8166465205
 20
13.9051753681
 30
0.0
 10
4.8266895237
 20
14.1250240473
 30
0.0
 10
4.833929153
 20
14.4031927056
 30
0.0
 10
4.835592538
 20
14.5948535138
 30
0.0
 10
4.8355925382
 20
14.6925500181
 30
0.0
  0
SPLINE
  5
297
100
AcDbEntity
  8
0
100
AcDbSpline
 62
7
  6
CONTINUOUS
 70
0
 71
3
 72
24
 73
20
 74
0
 42
0.0000001
 43
0.0000001
 44
0.0000000001
 40
0.0
 40
0.0
 40
0.0
 40
0.0
 40
0.1930223976
 40
0.3786001605
 40
0.549625308
 40
0.6276198931
 40
0.6996044569
 40
0.7649091828
 40
0.8229371926
 40
0.8731740465
 40
0.9151988801
 40
0.9330324294
 40
0.9487122953
 40
0.9622265829
 40
0.9735864649
 40
0.9828371717
 40
0.9900887211
 40
0.9956058868
 40
1.0
 40
1.0
 40
1.0
 40
1.0
 10
30.739657651
 20
9.3425500605
 30
0.0
 10
30.739657651
 20
9.2448200186
 30
0.0
 10
30.7412801311
 20
9.0531246013
 30
0.0
 10
30.7485312532
 20
8.7749221162
 30
0.0
 10
30.7585749301
 20
8.555088103
 30
0.0
 10
30.7690374379
 20
8.3928917765
 30
0.0
 10
30.7775975455
 20
8.2842226292
 30
0.0
 10
30.7870208584
 20
8.1857752975
 30
0.0
 10
30.7972030291
 20
8.0984775751
 30
0.0
 10
30.8080368651
 20
8.0231495153
 30
0.0
 10
30.8179479795
 20
7.968272207
 30
0.0
 10
30.8263502915
 20
7.9309542791
 30
0.0
 10
30.8323955838
 20
7.907917449
 30
0.0
 10
30.8385144869
 20
7.8883066831
 30
0.0
 10
30.8446910158
 20
7.8721557577
 30
0.0
 10
30.8509015981
 20
7.8594543204
 30
0.0
 10
30.8571825479
 20
7.8501874624
 30
0.0
 10
30.8636384007
 20
7.8441689788
 30
0.0
 10
30.8686657287
 20
7.842549934
 30
0.0
 10
30.8708905319
 20
7.8425504856
 30
0.0
  0
SPLINE
  5
298
100
AcDbEntity
  8
0
100
AcDbSpline
 62
7
  6
CONTINUOUS
 70
0
 71
3
 72
17
 73
13
 74
0
 42
0.0000001
 43
0.0000001
 44
0.0000000001
 40
0.0
 40
0.0
 40
0.0
 40
0.0
 40
0.0223403673
 40
0.0515709703
 40
0.0875261972
 40
0.1299773305
 40
0.2331592512
 40
0.3582967168
 40
0.5018536089
 40
0.6596934168
 40
0.8274120189
 40
1.0
 40
1.0
 40
1.0
 40
1.0
 10
4.6983172385
 20
45.5288775488
 30
0.0
 10
4.7011733949
 20
45.5183137884
 30
0.0
 10
4.70642335
 20
45.4935741735
 30
0.0
 10
4.7132277948
 20
45.4512402268
 30
0.0
 10
4.7198515678
 20
45.3989244099
 30
0.0
 10
4.728951337
 20
45.3104385098
 30
0.0
 10
4.7389623136
 20
45.1781634284
 30
0.0
 10
4.7488837614
 20
44.9962695017
 30
0.0
 10
4.7569425306
 20
44.787486322
 30
0.0
 10
4.7628991062
 20
44.5577701419
 30
0.0
 10
4.7665497015
 20
44.3137842611
 30
0.0
 10
4.767372487
 20
44.1470894446
 30
0.0
 10
4.7673711629
 20
44.062550036
 30
0.0
  0
SPLINE
  5
299
100
AcDbEntity
  8
0
100
AcDbSpline
 62
7
  6
CONTINUOUS
 70
0
 71
3
 72
13
 73
9
 74
0
 42
0.0000001
 43
0.0000001
 44
0.0000000001
 40
0.0
 40
0.0
 40
0.0
 40
0.0
 40
0.2370600046
 40
0.3654585693
 40
0.4969938545
 40
0.629030146
 40
0.7587930886
 40
1.0
 40
1.0
 40
1.0
 40
1.0
 10
4.2002230503
 20
45.0400986647
 30
0.0
 10
4.2013584588
 20
45.1007649543
 30
0.0
 10
4.2213197117
 20
45.1951543553
 30
0.0
 10
4.2825260297
 20
45.3073270728
 30
0.0
 10
4.3469272548
 20
45.3851916827
 30
0.0
 10
4.4262803586
 20
45.4482954531
 30
0.0
 10
4.540795714
 20
45.508359411
 30
0.0
 10
4.6365922508
 20
45.5277600529
 30
0.0
 10
4.6983205679
 20
45.5288724219
 30
0.0
  0
SPLINE
  5
29A
100
AcDbEntity
  8
0
100
AcDbSpline
 62
7
  6
CONTINUOUS
 70
0
 71
3
 72
24
 73
20
 74
0
 42
0.0000001
 43
0.0000001
 44
0.0000000001
 40
0.0
 40
0.0
 40
0.0
 40
0.0
 40
0.193001768
 40
0.3786282096
 40
0.5496514947
 40
0.6276770158
 40
0.6996812135
 40
0.7650030915
 40
0.8230340905
 40
0.8732452857
 40
0.9152459768
 40
0.9330658494
 40
0.9487342397
 40
0.962243167
 40
0.9735999404
 40
0.9828444023
 40
0.9900924774
 40
0.9956089339
 40
1.0
 40
1.0
 40
1.0
 40
1.0
 10
30.6083899649
 20
11.1325491877
 30
0.0
 10
30.6083899698
 20
11.034830155
 30
0.0
 10
30.6100527657
 20
10.8431219382
 30
0.0
 10
30.6173008406
 20
10.5649080112
 30
0.0
 10
30.6273457102
 20
10.3450358564
 30
0.0
 10
30.6378086919
 20
10.1828157771
 30
0.0
 10
30.6463761134
 20
10.0741134162
 30
0.0
 10
30.6558038884
 20
9.9756469063
 30
0.0
 10
30.6659844846
 20
9.8883522574
 30
0.0
 10
30.6768225698
 20
9.8130492125
 30
0.0
 10
30.6867286404
 20
9.7582040104
 30
0.0
 10
30.695127616
 20
9.7209111317
 30
0.0
 10
30.7011709194
 20
9.6978898798
 30
0.0
 10
30.7072870853
 20
9.678289079
 30
0.0
 10
30.7134602717
 20
9.6621447416
 30
0.0
 10
30.7196749364
 20
9.6494525347
 30
0.0
 10
30.7259591083
 20
9.6401939753
 30
0.0
 10
30.7324124038
 20
9.6341805696
 30
0.0
 10
30.7374343193
 20
9.6325543836
 30
0.0
 10
30.7396575654
 20
9.6325517055
 30
0.0
  0
SPLINE
  5
29B
100
AcDbEntity
  8
0
100
AcDbSpline
 62
7
  6
CONTINUOUS
 70
0
 71
3
 72
24
 73
20
 74
0
 42
0.0000001
 43
0.0000001
 44
0.0000000001
 40
0.0
 40
0.0
 40
0.0
 40
0.0
 40
0.1929990186
 40
0.378625861
 40
0.5496486993
 40
0.6276744919
 40
0.6996795264
 40
0.7650017008
 40
0.8230343216
 40
0.8732454721
 40
0.9152460556
 40
0.9330659213
 40
0.9487339083
 40
0.9622425082
 40
0.973599475
 40
0.9828442389
 40
0.9900920581
 40
0.9956084431
 40
1.0
 40
1.0
 40
1.0
 40
1.0
 10
30.4762809598
 20
12.9125491644
 30
0.0
 10
30.4762809649
 20
12.8148315584
 30
0.0
 10
30.4779448054
 20
12.6231246038
 30
0.0
 10
30.4851931392
 20
12.3449122111
 30
0.0
 10
30.4952374799
 20
12.1250399923
 30
0.0
 10
30.5057005897
 20
11.962819645
 30
0.0
 10
30.5142678201
 20
11.8541165916
 30
0.0
 10
30.523696126
 20
11.7556487692
 30
0.0
 10
30.5338763232
 20
11.6683531513
 30
0.0
 10
30.5447146408
 20
11.5930494087
 30
0.0
 10
30.5546207974
 20
11.5382043307
 30
0.0
 10
30.5630195687
 20
11.5009116876
 30
0.0
 10
30.5690628511
 20
11.477890824
 30
0.0
 10
30.5751789776
 20
11.458290304
 30
0.0
 10
30.5813518266
 20
11.44214578
 30
0.0
 10
30.5875657839
 20
11.4294530851
 30
0.0
 10
30.5938501821
 20
11.4201946179
 30
0.0
 10
30.600304275
 20
11.4141818583
 30
0.0
 10
30.6053261871
 20
11.4125558007
 30
0.0
 10
30.6075496803
 20
11.4125526399
 30
0.0
  0
SPLINE
  5
29C
100
AcDbEntity
  8
0
100
AcDbSpline
 62
7
  6
CONTINUOUS
 70
0
 71
3
 72
18
 73
14
 74
0
 42
0.0000001
 43
0.0000001
 44
0.0000000001
 40
0.0
 40
0.0
 40
0.0
 40
0.0
 40
0.1597985625
 40
0.3221826996
 40
0.4804196745
 40
0.6278393362
 40
0.7582633595
 40
0.8154551621
 40
0.8664479524
 40
0.9107092858
 40
0.9479024657
 40
0.9777389174
 40
1.0
 40
1.0
 40
1.0
 40
1.0
 10
30.9152315773
 20
43.7814359482
 30
0.0
 10
30.9135118855
 20
43.8487108041
 30
0.0
 10
30.9113683043
 20
43.9843855735
 30
0.0
 10
30.9117681977
 20
44.1867168089
 30
0.0
 10
30.9157150206
 20
44.3837977931
 30
0.0
 10
30.9229723773
 20
44.5673153276
 30
0.0
 10
30.9318715509
 20
44.7081507032
 30
0.0
 10
30.9406727553
 20
44.8082556275
 30
0.0
 10
30.947566052
 20
44.8720911893
 30
0.0
 10
30.9549782334
 20
44.9273800052
 30
0.0
 10
30.9627802192
 20
44.9736145254
 30
0.0
 10
30.970871284
 20
45.0103405249
 30
0.0
 10
30.9772261753
 20
45.0314112655
 30
0.0
 10
30.9807511102
 20
45.0400982757
 30
0.0
  0
SPLINE
  5
29D
100
AcDbEntity
  8
0
100
AcDbSpline
 62
7
  6
CONTINUOUS
 70
0
 71
3
 72
24
 73
20
 74
0
 42
0.0000001
 43
0.0000001
 44
0.0000000001
 40
0.0
 40
0.0
 40
0.0
 40
0.0
 40
0.193000249
 40
0.3786202401
 40
0.5496435511
 40
0.6276690556
 40
0.6996727792
 40
0.7649959808
 40
0.823026998
 40
0.8732412995
 40
0.9152449176
 40
0.9330655172
 40
0.9487345405
 40
0.962243807
 40
0.9736004422
 40
0.9828447371
 40
0.9900929409
 40
0.995609346
 40
1.0
 40
1.0
 40
1.0
 40
1.0
 10
30.3453816166
 20
14.6925500181
 30
0.0
 10
30.3453816169
 20
14.5948316751
 30
0.0
 10
30.3470426987
 20
14.4031273314
 30
0.0
 10
30.3542897379
 20
14.1249171551
 30
0.0
 10
30.3643350462
 20
13.9050481132
 30
0.0
 10
30.3747974446
 20
13.7428280976
 30
0.0
 10
30.3833650566
 20
13.6341252448
 30
0.0
 10
30.3927918937
 20
13.5356581192
 30
0.0
 10
30.4029733354
 20
13.4483612257
 30
0.0
 10
30.4138115516
 20
13.3730550528
 30
0.0
 10
30.4237177923
 20
13.3182063493
 30
0.0
 10
30.4321172698
 20
13.2809113254
 30
0.0
 10
30.4381607535
 20
13.2578892124
 30
0.0
 10
30.4442770529
 20
13.2382879895
 30
0.0
 10
30.4504505989
 20
13.2221437423
 30
0.0
 10
30.456665659
 20
13.2094518254
 30
0.0
 10
30.4629496224
 20
13.2001932248
 30
0.0
 10
30.4694023417
 20
13.194179474
 30
0.0
 10
30.4744242505
 20
13.1925533945
 30
0.0
 10
30.4766472902
 20
13.1925511399
 30
0.0
  0
SPLINE
  5
29E
100
AcDbEntity
  8
0
100
AcDbSpline
 62
7
  6
CONTINUOUS
 70
0
 71
3
 72
24
 73
20
 74
0
 42
0.0000001
 43
0.0000001
 44
0.0000000001
 40
0.0
 40
0.0
 40
0.0
 40
0.0
 40
0.0043941121
 40
0.0099112771
 40
0.0171628244
 40
0.0264135273
 40
0.0377734103
 40
0.0512877056
 40
0.0669675894
 40
0.0848011473
 40
0.126825944
 40
0.1770628174
 40
0.2350908506
 40
0.3003955274
 40
0.3723801245
 40
0.4503747134
 40
0.6213998431
 40
0.8069776045
 40
1.0
 40
1.0
 40
1.0
 40
1.0
 10
4.3100836229
 20
7.8425504909
 30
0.0
 10
4.3123084256
 20
7.8425499364
 30
0.0
 10
4.3173357571
 20
7.8441689705
 30
0.0
 10
4.3237916046
 20
7.8501874601
 30
0.0
 10
4.3300725525
 20
7.8594543134
 30
0.0
 10
4.3362831361
 20
7.8721557479
 30
0.0
 10
4.3424596654
 20
7.8883066756
 30
0.0
 10
4.3485785732
 20
7.9079174542
 30
0.0
 10
4.3546238659
 20
7.9309543022
 30
0.0
 10
4.3630261777
 20
7.9682722247
 30
0.0
 10
4.3729372966
 20
8.0231495278
 30
0.0
 10
4.3837711228
 20
8.0984775922
 30
0.0
 10
4.3939533012
 20
8.1857753104
 30
0.0
 10
4.4033766108
 20
8.2842226464
 30
0.0
 10
4.4119367157
 20
8.3928917879
 30
0.0
 10
4.4223992289
 20
8.555088124
 30
0.0
 10
4.4324429007
 20
8.7749221296
 30
0.0
 10
4.4396940241
 20
9.0531246039
 30
0.0
 10
4.4413165038
 20
9.2448200195
 30
0.0
 10
4.4413165038
 20
9.3425500605
 30
0.0
  0
SPLINE
  5
29F
100
AcDbEntity
  8
0
100
AcDbSpline
 62
7
  6
CONTINUOUS
 70
0
 71
3
 72
24
 73
20
 74
0
 42
0.0000001
 43
0.0000001
 44
0.0000000001
 40
0.0
 40
0.0
 40
0.0
 40
0.0
 40
0.193000249
 40
0.3786202401
 40
0.5496435511
 40
0.6276690556
 40
0.6996727792
 40
0.7649959808
 40
0.823026998
 40
0.8732412995
 40
0.9152449176
 40
0.9330655172
 40
0.9487345405
 40
0.962243807
 40
0.9736004422
 40
0.9828447371
 40
0.9900929409
 40
0.995609346
 40
1.0
 40
1.0
 40
1.0
 40
1.0
 10
4.8355925382
 20
36.9325500965
 30
0.0
 10
4.835592538
 20
37.0302684395
 30
0.0
 10
4.8339314562
 20
37.2219727832
 30
0.0
 10
4.826684417
 20
37.5001829595
 30
0.0
 10
4.8166391086
 20
37.7200520014
 30
0.0
 10
4.8061767103
 20
37.882272017
 30
0.0
 10
4.7976090982
 20
37.9909748698
 30
0.0
 10
4.7881822611
 20
38.0894419953
 30
0.0
 10
4.7780008194
 20
38.1767388889
 30
0.0
 10
4.7671626032
 20
38.2520450618
 30
0.0
 10
4.7572563626
 20
38.3068937653
 30
0.0
 10
4.7488568851
 20
38.3441887891
 30
0.0
 10
4.7428134013
 20
38.3672109022
 30
0.0
 10
4.736697102
 20
38.3868121251
 30
0.0
 10
4.7305235559
 20
38.4029563723
 30
0.0
 10
4.7243084959
 20
38.4156482892
 30
0.0
 10
4.7180245325
 20
38.4249068898
 30
0.0
 10
4.7115718132
 20
38.4309206406
 30
0.0
 10
4.7065499044
 20
38.4325467201
 30
0.0
 10
4.7043268647
 20
38.4325489747
 30
0.0
  0
SPLINE
  5
2A0
100
AcDbEntity
  8
0
100
AcDbSpline
 62
7
  6
CONTINUOUS
 70
0
 71
3
 72
18
 73
14
 74
0
 42
0.0000001
 43
0.0000001
 44
0.0000000001
 40
0.0
 40
0.0
 40
0.0
 40
0.0
 40
0.022261085
 40
0.0520975317
 40
0.0892906999
 40
0.1335520157
 40
0.184544784
 40
0.2417365624
 40
0.3721605376
 40
0.5195801643
 40
0.6778171378
 40
0.8402013231
 40
1.0
 40
1.0
 40
1.0
 40
1.0
 10
30.9807511102
 20
6.5850018373
 30
0.0
 10
30.9772261808
 20
6.5936888339
 30
0.0
 10
30.970871298
 20
6.6147595373
 30
0.0
 10
30.962780243
 20
6.6514854684
 30
0.0
 10
30.9549782659
 20
6.6977198958
 30
0.0
 10
30.9475660919
 20
6.7530085967
 30
0.0
 10
30.9406728007
 20
6.8168440238
 30
0.0
 10
30.9318716014
 20
6.9169487399
 30
0.0
 10
30.9229724274
 20
7.0577838335
 30
0.0
 10
30.9157150602
 20
7.2413010243
 30
0.0
 10
30.9117682171
 20
7.438381683
 30
0.0
 10
30.9113682925
 20
7.6407126474
 30
0.0
 10
30.913511847
 20
7.7763872586
 30
0.0
 10
30.915231523
 20
7.8436620503
 30
0.0
  0
SPLINE
  5
2A1
100
AcDbEntity
  8
0
100
AcDbSpline
 62
7
  6
CONTINUOUS
 70
0
 71
3
 72
24
 73
20
 74
0
 42
0.0000001
 43
0.0000001
 44
0.0000000001
 40
0.0
 40
0.0
 40
0.0
 40
0.0
 40
0.1929990186
 40
0.378625861
 40
0.5496486993
 40
0.6276744919
 40
0.6996795264
 40
0.7650017008
 40
0.8230343216
 40
0.8732454721
 40
0.9152460556
 40
0.9330659213
 40
0.9487339083
 40
0.9622425082
 40
0.973599475
 40
0.9828442389
 40
0.9900920581
 40
0.9956084431
 40
1.0
 40
1.0
 40
1.0
 40
1.0
 10
4.704693195
 20
38.7125509502
 30
0.0
 10
4.7046931899
 20
38.8102685562
 30
0.0
 10
4.7030293495
 20
39.0019755108
 30
0.0
 10
4.6957810156
 20
39.2801879034
 30
0.0
 10
4.685736675
 20
39.5000601223
 30
0.0
 10
4.6752735652
 20
39.6622804696
 30
0.0
 10
4.6667063347
 20
39.770983523
 30
0.0
 10
4.6572780289
 20
39.8694513454
 30
0.0
 10
4.6470978316
 20
39.9567469633
 30
0.0
 10
4.636259514
 20
40.0320507058
 30
0.0
 10
4.6263533574
 20
40.0868957839
 30
0.0
 10
4.6179545861
 20
40.1241884269
 30
0.0
 10
4.6119113037
 20
40.1472092906
 30
0.0
 10
4.6057951773
 20
40.1668098105
 30
0.0
 10
4.5996223282
 20
40.1829543345
 30
0.0
 10
4.5934083709
 20
40.1956470295
 30
0.0
 10
4.5871239727
 20
40.2049054966
 30
0.0
 10
4.5806698798
 20
40.2109182563
 30
0.0
 10
4.5756479677
 20
40.2125443138
 30
0.0
 10
4.5734244746
 20
40.2125474747
 30
0.0
  0
SPLINE
  5
2A2
100
AcDbEntity
  8
0
100
AcDbSpline
 62
7
  6
CONTINUOUS
 70
0
 71
3
 72
24
 73
20
 74
0
 42
0.0000001
 43
0.0000001
 44
0.0000000001
 40
0.0
 40
0.0
 40
0.0
 40
0.0
 40
0.193001768
 40
0.3786282096
 40
0.5496514947
 40
0.6276770158
 40
0.6996812135
 40
0.7650030915
 40
0.8230340905
 40
0.8732452857
 40
0.9152459768
 40
0.9330658494
 40
0.9487342397
 40
0.962243167
 40
0.9735999404
 40
0.9828444023
 40
0.9900924774
 40
0.9956089339
 40
1.0
 40
1.0
 40
1.0
 40
1.0
 10
4.57258419
 20
40.4925509269
 30
0.0
 10
4.572584185
 20
40.5902699596
 30
0.0
 10
4.5709213891
 20
40.7819781764
 30
0.0
 10
4.5636733142
 20
41.0601921034
 30
0.0
 10
4.5536284447
 20
41.2800642582
 30
0.0
 10
4.543165463
 20
41.4422843375
 30
0.0
 10
4.5345980415
 20
41.5509866983
 30
0.0
 10
4.5251702665
 20
41.6494532083
 30
0.0
 10
4.5149896703
 20
41.7367478572
 30
0.0
 10
4.504151585
 20
41.8120509021
 30
0.0
 10
4.4942455144
 20
41.8668961042
 30
0.0
 10
4.4858465388
 20
41.9041889828
 30
0.0
 10
4.4798032355
 20
41.9272102348
 30
0.0
 10
4.4736870696
 20
41.9468110356
 30
0.0
 10
4.4675138832
 20
41.962955373
 30
0.0
 10
4.4612992184
 20
41.9756475799
 30
0.0
 10
4.4550150465
 20
41.9849061393
 30
0.0
 10
4.448561751
 20
41.990919545
 30
0.0
 10
4.4435398355
 20
41.9925457309
 30
0.0
 10
4.4413165895
 20
41.9925484091
 30
0.0
  0
SPLINE
  5
2A3
100
AcDbEntity
  8
0
100
AcDbSpline
 62
7
  6
CONTINUOUS
 70
0
 71
3
 72
24
 73
20
 74
0
 42
0.0000001
 43
0.0000001
 44
0.0000000001
 40
0.0
 40
0.0
 40
0.0
 40
0.0
 40
0.1930043396
 40
0.3785862987
 40
0.5496140961
 40
0.6276094607
 40
0.6995948611
 40
0.764901063
 40
0.822930852
 40
0.8731688091
 40
0.9151941453
 40
0.9330292741
 40
0.94870871
 40
0.962224166
 40
0.9735847452
 40
0.982835162
 40
0.9900881632
 40
0.9956056811
 40
1.0
 40
1.0
 40
1.0
 40
1.0
 10
30.4762809598
 20
38.7125509502
 30
0.0
 10
30.4762809649
 20
38.8102717749
 30
0.0
 10
30.4779621032
 20
39.0019594909
 30
0.0
 10
30.4851845129
 20
39.2801564462
 30
0.0
 10
30.4952334214
 20
39.4999941265
 30
0.0
 10
30.505695363
 20
39.6621924959
 30
0.0
 10
30.5142555557
 20
39.7708631294
 30
0.0
 10
30.5236786993
 20
39.8693124835
 30
0.0
 10
30.5338607151
 20
39.9566123668
 30
0.0
 10
30.5446942353
 20
40.0319421765
 30
0.0
 10
30.5546063491
 20
40.0868208584
 30
0.0
 10
30.5630073499
 20
40.1241399164
 30
0.0
 10
30.5690537993
 20
40.1471776614
 30
0.0
 10
30.5751723439
 20
40.166789197
 30
0.0
 10
30.5813478971
 20
40.1829414907
 30
0.0
 10
30.587559913
 20
40.1956430157
 30
0.0
 10
30.5938391317
 20
40.2049122361
 30
0.0
 10
30.6002979878
 20
40.2109293088
 30
0.0
 10
30.6053247492
 20
40.2125485393
 30
0.0
 10
30.6075496548
 20
40.2125493273
 30
0.0
  0
SPLINE
  5
2A4
100
AcDbEntity
  8
0
100
AcDbSpline
 62
7
  6
CONTINUOUS
 70
0
 71
3
 72
17
 73
13
 74
0
 42
0.0000001
 43
0.0000001
 44
0.0000000001
 40
0.0
 40
0.0
 40
0.0
 40
0.0
 40
0.1725879899
 40
0.3403066104
 40
0.4981464255
 40
0.6417033188
 40
0.7668407796
 40
0.8700226919
 40
0.9124738174
 40
0.9484290383
 40
0.9776596352
 40
1.0
 40
1.0
 40
1.0
 40
1.0
 10
30.4136028912
 20
44.062550036
 30
0.0
 10
30.4136015671
 20
44.1470894488
 30
0.0
 10
30.414424328
 20
44.3137842787
 30
0.0
 10
30.4180748944
 20
44.5577701767
 30
0.0
 10
30.4240314567
 20
44.7874863702
 30
0.0
 10
30.4320902102
 20
44.9962695522
 30
0.0
 10
30.4420116508
 20
45.1781634733
 30
0.0
 10
30.4520226231
 20
45.3104385447
 30
0.0
 10
30.4611223926
 20
45.3989244339
 30
0.0
 10
30.467746167
 20
45.4512402407
 30
0.0
 10
30.4745506164
 20
45.4935741795
 30
0.0
 10
30.4798005738
 20
45.5183137895
 30
0.0
 10
30.4826567297
 20
45.5288775488
 30
0.0
  0
SPLINE
  5
2A5
100
AcDbEntity
  8
0
100
AcDbSpline
 62
7
  6
CONTINUOUS
 70
0
 71
3
 72
13
 73
9
 74
0
 42
0.0000001
 43
0.0000001
 44
0.0000000001
 40
0.0
 40
0.0
 40
0.0
 40
0.0
 40
0.2412069117
 40
0.370969855
 40
0.503006146
 40
0.6345414314
 40
0.762939996
 40
1.0
 40
1.0
 40
1.0
 40
1.0
 10
30.4826535839
 20
45.5288724145
 30
0.0
 10
30.544381901
 20
45.5277600449
 30
0.0
 10
30.6401784378
 20
45.5083594035
 30
0.0
 10
30.7546937933
 20
45.4482954459
 30
0.0
 10
30.8340468973
 20
45.385191676
 30
0.0
 10
30.8984481222
 20
45.3073270663
 30
0.0
 10
30.959654441
 20
45.1951543498
 30
0.0
 10
30.9796156939
 20
45.100764949
 30
0.0
 10
30.9807511025
 20
45.0400986597
 30
0.0
  0
SPLINE
  5
2A6
100
AcDbEntity
  8
0
100
AcDbSpline
 62
7
  6
CONTINUOUS
 70
0
 71
3
 72
24
 73
20
 74
0
 42
0.0000001
 43
0.0000001
 44
0.0000000001
 40
0.0
 40
0.0
 40
0.0
 40
0.0
 40
0.0043916405
 40
0.0099109493
 40
0.0171628398
 40
0.0264101139
 40
0.0377699074
 40
0.0512848998
 40
0.0669606964
 40
0.084787396
 40
0.1268039066
 40
0.1770346644
 40
0.2350697732
 40
0.300405017
 40
0.3724133685
 40
0.4504377712
 40
0.6214649789
 40
0.8070425382
 40
1.0
 40
1.0
 40
1.0
 40
1.0
 10
30.4766474282
 20
38.4325487642
 30
0.0
 10
30.4744238935
 20
38.4325460806
 30
0.0
 10
30.4694007022
 20
38.4309165412
 30
0.0
 10
30.4629477757
 20
38.4248978467
 30
0.0
 10
30.4566622315
 20
38.415634596
 30
0.0
 10
30.4504442132
 20
38.40293867
 30
0.0
 10
30.4442678025
 20
38.3867890531
 30
0.0
 10
30.4381509043
 20
38.3671797192
 30
0.0
 10
30.4321069563
 20
38.3441480484
 30
0.0
 10
30.4237068289
 20
38.3068398725
 30
0.0
 10
30.4137999015
 20
38.2519731448
 30
0.0
 10
30.4029636139
 20
38.1766497552
 30
0.0
 10
30.3927784476
 20
38.0893368495
 30
0.0
 10
30.3833561364
 20
37.9908588783
 30
0.0
 10
30.3747887761
 20
37.8821483263
 30
0.0
 10
30.3643276343
 20
37.7199247465
 30
0.0
 10
30.3542846312
 20
37.5000760673
 30
0.0
 10
30.3470450019
 20
37.221907409
 30
0.0
 10
30.3453816169
 20
37.0302466008
 30
0.0
 10
30.3453816166
 20
36.9325500965
 30
0.0
  0
SPLINE
  5
2A7
100
AcDbEntity
  8
0
100
AcDbSpline
 62
7
  6
CONTINUOUS
 70
0
 71
3
 72
22
 73
18
 74
0
 42
0.0000001
 43
0.0000001
 44
0.0000000001
 40
0.0
 40
0.0
 40
0.0
 40
0.0
 40
0.0676166121
 40
0.1346639346
 40
0.2012915992
 40
0.2673251364
 40
0.3337888196
 40
0.4002891248
 40
0.4666054944
 40
0.5327602888
 40
0.5989200827
 40
0.6651899228
 40
0.7315478465
 40
0.7977150294
 40
0.8646387793
 40
0.9320591865
 40
1.0
 40
1.0
 40
1.0
 40
1.0
 10
15.0904870774
 20
25.8125500573
 30
0.0
 10
15.091192195
 20
25.6358559522
 30
0.0
 10
15.1277261148
 20
25.282795847
 30
0.0
 10
15.2937962237
 20
24.7796396916
 30
0.0
 10
15.5583249611
 20
24.325347999
 30
0.0
 10
15.9103043439
 20
23.9370258806
 30
0.0
 10
16.3345779575
 20
23.629835911
 30
0.0
 10
16.8140543762
 20
23.417061767
 30
0.0
 10
17.3263703498
 20
23.3083497391
 30
0.0
 10
17.8491832382
 20
23.3078273311
 30
0.0
 10
18.3607274174
 20
23.4151751625
 30
0.0
 10
18.8395967093
 20
23.6260453252
 30
0.0
 10
19.264467613
 20
23.9314750181
 30
0.0
 10
19.6183245241
 20
24.3192626678
 30
0.0
 10
19.8851582728
 20
24.7746973432
 30
0.0
 10
20.052861108
 20
25.2801105235
 30
0.0
 10
20.0897979861
 20
25.6350086803
 30
0.0
 10
20.0904870774
 20
25.8125500573
 30
0.0
  0
SPLINE
  5
2A8
100
AcDbEntity
  8
0
100
AcDbSpline
 62
7
  6
CONTINUOUS
 70
0
 71
3
 72
22
 73
18
 74
0
 42
0.0000001
 43
0.0000001
 44
0.0000000001
 40
0.0
 40
0.0
 40
0.0
 40
0.0
 40
0.0676166121
 40
0.1346639346
 40
0.2012915992
 40
0.2673251364
 40
0.3337888196
 40
0.4002891248
 40
0.4666054944
 40
0.5327602888
 40
0.5989200827
 40
0.6651899228
 40
0.7315478465
 40
0.7977150294
 40
0.8646387793
 40
0.9320591865
 40
1.0
 40
1.0
 40
1.0
 40
1.0
 10
20.0904870774
 20
25.8125500573
 30
0.0
 10
20.0897819599
 20
25.9892441623
 30
0.0
 10
20.0532480401
 20
26.3423042676
 30
0.0
 10
19.8871779312
 20
26.845460423
 30
0.0
 10
19.6226491937
 20
27.2997521155
 30
0.0
 10
19.2706698109
 20
27.6880742339
 30
0.0
 10
18.8463961974
 20
27.9952642036
 30
0.0
 10
18.3669197787
 20
28.2080383476
 30
0.0
 10
17.8546038051
 20
28.3167503755
 30
0.0
 10
17.3317909166
 20
28.3172727835
 30
0.0
 10
16.8202467374
 20
28.2099249521
 30
0.0
 10
16.3413774456
 20
27.9990547894
 30
0.0
 10
15.9165065418
 20
27.6936250965
 30
0.0
 10
15.5626496308
 20
27.3058374468
 30
0.0
 10
15.295815882
 20
26.8504027714
 30
0.0
 10
15.1281130468
 20
26.344989591
 30
0.0
 10
15.0911761688
 20
25.9900914343
 30
0.0
 10
15.0904870774
 20
25.8125500573
 30
0.0
  0
ENDSEC
  0
SECTION
  2
OBJECTS
  0
DICTIONARY
  5
C
100
AcDbDictionary
280
0
281
1
  3
ACAD_GROUP
350
D
  3
ACAD_MLINESTYLE
350
17
  3
ACAD_LAYOUT
350
1A
  3
ACAD_PLOTSETTINGS
350
19
  3
ACAD_PLOTSTYLENAME
350
E
  0
DICTIONARY
  5
D
102
{ACAD_REACTORS
330
C
102
}
100
AcDbDictionary
280
0
281
1
  0
ACDBDICTIONARYWDFLT
  5
E
102
{ACAD_REACTORS
330
C
102
}
100
AcDbDictionary
281
1
  3
Normal
350
F
100
AcDbDictionaryWithDefault
340
F
  0
DICTIONARY
  5
17
102
{ACAD_REACTORS
330
C
102
}
100
AcDbDictionary
280
0
281
1
  3
Standard
350
18
  0
DICTIONARY
  5
19
102
{ACAD_REACTORS
330
C
102
}
100
AcDbDictionary
281
1
  0
DICTIONARY
  5
1A
102
{ACAD_REACTORS
330
C
102
}
100
AcDbDictionary
281
1
  3
Model
350
2A9
  3
Layout1
350
2AA
  0
ACDBPLACEHOLDER
  5
F
102
{ACAD_REACTORS
330
E
102
}
  0
MLINESTYLE
  5
18
102
{ACAD_REACTORS
330
17
102
}
100
AcDbMlineStyle
  2
STANDARD
 70
0
  3

 62
256
 51
90.0
 52
90.0
 71
2
 49
0.5
 62
256
  6
BYLAYER
 49
-0.5
 62
256
  6
BYLAYER
  0
LAYOUT
  5
2A9
102
{ACAD_REACTORS
330
1A
102
}
100
AcDbPlotSettings
  1

  2
none_device
  4

  6

 40
0.0
 41
0.0
 42
0.0
 43
0.0
 44
210.0
 45
297.0
 46
0.0
 47
0.0
 48
0.0
 49
0.0
140
0.0
141
0.0
142
1.0
143
1.0
 70
1024
 72
1
 73
0
 74
0
  7

 75
0
147
1.0
148
0.0
149
0.0
100
AcDbLayout
  1
Model
 70
0
 71
0
 10
0.0
 20
0.0
 11
210.0
 21
297.0
 12
0.0
 22
0.0
 32
0.0
 14
0.0
 24
0.0
 34
0.0
 15
0.0
 25
0.0
 35
0.0
146
0.0
 13
0.0
 23
0.0
 33
0.0
 16
1.0
 26
0.0
 36
0.0
 17
0.0
 27
1.0
 37
0.0
 76
0
330
210
345
0
346
0
  0
LAYOUT
  5
2AA
102
{ACAD_REACTORS
330
1A
102
}
100
AcDbPlotSettings
  1

  2
none_device
  4

  6

 40
0.0
 41
0.0
 42
0.0
 43
0.0
 44
210.0
 45
297.0
 46
0.0
 47
0.0
 48
0.0
 49
0.0
140
0.0
141
0.0
142
1.0
143
1.0
 70
0
 72
1
 73
0
 74
0
  7

 75
0
147
1.0
148
0.0
149
0.0
100
AcDbLayout
  1
Layout1
 70
0
 71
1
 10
0.0
 20
0.0
 11
210.0
 21
297.0
 12
0.0
 22
0.0
 32
0.0
 14
0.0
 24
0.0
 34
0.0
 15
0.0
 25
0.0
 35
0.0
146
0.0
 13
0.0
 23
0.0
 33
0.0
 16
1.0
 26
0.0
 36
0.0
 17
0.0
 27
1.0
 37
0.0
 76
0
330
211
345
0
346
0
  0
ENDSEC
  0
EOF
