999
DXF file: C:\Users\sesa63760\Dev\_Creo\CAD\MCADID0004246_3D-CAD\drw0001_4.dxf
999
Pro/ENGINEER 2019471 by Parametric Technology Corporation
  0
SECTION
  2
HEADER
  9
$ACADVER
  1
AC1024
  9
$DWGCODEPAGE
  3
ANSI_1252
  9
$EXTMAX
 10
1200.3208935526
 20
1697.5966923101
 30
0.0
  9
$EXTMIN
 10
0.0
 20
0.0
 30
0.0
  9
$LIMMIN
 10
0.0
 20
0.0
  9
$LIMMAX
 10
1200.3208935526
 20
1697.5966923101
  9
$VIEWCTR
 10
600.1604467763
 20
848.7983461551
  9
$VIEWSIZE
 40
1697.5966923101
  9
$CLAYER
  8
0
  9
$LTSCALE
 40
110.658154758
  9
$CELTYPE
  6
BYLAYER
  9
$DIMSCALE
 40
1.0
  9
$DIMASZ
 40
14.2895344471
  9
$DIMEXO
 40
1.0
  9
$DIMDLI
 40
76.4547251055
  9
$DIMEXE
 40
1.0
  9
$DIMCEN
 40
18.1076980513
  9
$DIMLFAC
 40
1.0
  9
$DIMBLK
  1
_FILLED
  9
$DIMALT
 70
0
  9
$DIMALTF
 40
0.0393700787
  9
$DIMTXT
 40
20.0053482259
  9
$DIMTOL
 70
1
  9
$DIMLIM
 70
0
  9
$DIMTFAC
 40
1.0
  9
$DIMTP
 40
0.01
  9
$DIMTM
 40
0.01
  9
$DIMGAP
 40
0.625
  9
$DIMDSEP
 70
46
  9
$AUNITS
 70
0
  9
$PDMODE
 70
3
  9
$PDSIZE
 40
0.3125
  9
$HANDSEED
  5
408
  9
$TILEMODE
 70
1
  9
$MEASUREMENT
 70
1
  9
$INSUNITS
 70
4
  0
ENDSEC
  0
SECTION
  2
CLASSES
  0
CLASS
  1
ACDBDICTIONARYWDFLT
  2
AcDbDictionaryWithDefault
  3
AutoCAD 2000
 90
0
 91
1
280
0
281
0
  0
CLASS
  1
ACDBPLACEHOLDER
  2
AcDbPlaceHolder
  3
AutoCAD 2000
 90
0
 91
1
280
0
281
0
  0
CLASS
  1
LAYOUT
  2
AcDbLayout
  3
AutoCAD 2000
 90
0
 91
0
280
0
281
0
  0
ENDSEC
  0
SECTION
  2
TABLES
  0
TABLE
  2
VPORT
  5
8
100
AcDbSymbolTable
 70
2
  0
VPORT
  5
1F4
100
AcDbSymbolTableRecord
100
AcDbViewportTableRecord
  2
*ACTIVE
 70
0
 10
0.0
 20
0.0
 11
1.0
 21
1.0
 12
600.1604467763
 22
848.7983461551
 13
0.0
 23
0.0
 14
1.0
 24
1.0
 15
0.0
 25
0.0
 16
0.0
 26
0.0
 36
1.0
 17
0.0
 27
0.0
 37
0.0
 40
1697.5966923101
 41
0.7070707071
 42
50.0
 43
0.0
 44
0.0
 50
0.0
 51
0.0
 71
0
 72
100
 73
1
 74
1
 75
0
 76
0
 77
0
 78
0
  0
ENDTAB
  0
TABLE
  2
LTYPE
  5
5
100
AcDbSymbolTable
 70
6
  0
LTYPE
  5
14
100
AcDbSymbolTableRecord
100
AcDbLinetypeTableRecord
  2
BYBLOCK
 70
0
  3

 72
65
 73
0
 40
0.0
  0
LTYPE
  5
15
100
AcDbSymbolTableRecord
100
AcDbLinetypeTableRecord
  2
BYLAYER
 70
0
  3

 72
65
 73
0
 40
0.0
  0
LTYPE
  5
16
100
AcDbSymbolTableRecord
100
AcDbLinetypeTableRecord
  2
CONTINUOUS
 70
64
  3
Solid line
 72
65
 73
0
 40
0.0
  0
LTYPE
  5
1F5
100
AcDbSymbolTableRecord
100
AcDbLinetypeTableRecord
  2
CENTER
 70
64
  3
____ _ ____ _ ____ _ ____ _ ____ _ ____ _ ____
 72
65
 73
4
 40
0.6
 49
0.375
 74
0
 49
-0.075
 74
0
 49
0.075
 74
0
 49
-0.075
 74
0
  0
LTYPE
  5
1F6
100
AcDbSymbolTableRecord
100
AcDbLinetypeTableRecord
  2
HIDDEN
 70
64
  3
- - - - - - - - - - - - - - - - - - - -
 72
65
 73
2
 40
0.2
 49
0.1
 74
0
 49
-0.1
 74
0
  0
LTYPE
  5
1F7
100
AcDbSymbolTableRecord
100
AcDbLinetypeTableRecord
  2
PHANTOM
 70
64
  3
_____ _ _ _____ _ _ _____ _ _ _____
 72
65
 73
6
 40
0.8
 49
0.45
 74
0
 49
-0.05
 74
0
 49
0.1
 74
0
 49
-0.05
 74
0
 49
0.1
 74
0
 49
-0.05
 74
0
  0
LTYPE
  5
1F8
100
AcDbSymbolTableRecord
100
AcDbLinetypeTableRecord
  2
DOT
 70
64
  3
. . . . . . . . . . . . . . . . . . . .
 72
65
 73
2
 40
0.2
 49
0.1
 74
0
 49
-0.1
 74
0
  0
LTYPE
  5
1F9
100
AcDbSymbolTableRecord
100
AcDbLinetypeTableRecord
  2
DASHED
 70
64
  3
- - - - - - - - - - - - - - - - - - - -
 72
65
 73
2
 40
0.2
 49
0.1
 74
0
 49
-0.1
 74
0
  0
ENDTAB
  0
TABLE
  2
LAYER
  5
2
100
AcDbSymbolTable
 70
36
  0
LAYER
  5
10
100
AcDbSymbolTableRecord
100
AcDbLayerTableRecord
  2
0
 70
0
 62
7
  6
CONTINUOUS
370
-3
390
F
  0
LAYER
  5
1FA
100
AcDbSymbolTableRecord
100
AcDbLayerTableRecord
  2
DEFAULT_1
 70
0
 62
7
  6
CENTER
370
-3
390
F
  0
LAYER
  5
1FB
100
AcDbSymbolTableRecord
100
AcDbLayerTableRecord
  2
DEFAULT_2
 70
0
 62
7
  6
HIDDEN
370
-3
390
F
  0
LAYER
  5
1FC
100
AcDbSymbolTableRecord
100
AcDbLayerTableRecord
  2
DEFAULT_3
 70
0
 62
7
  6
PHANTOM
370
-3
390
F
  0
LAYER
  5
1FD
100
AcDbSymbolTableRecord
100
AcDbLayerTableRecord
  2
00_COMPONENTS
 70
0
 62
7
  6
CONTINUOUS
370
-3
390
F
  0
LAYER
  5
1FE
100
AcDbSymbolTableRecord
100
AcDbLayerTableRecord
  2
01_1_DEFAULT_DATUMS
 70
0
 62
7
  6
CONTINUOUS
370
-3
390
F
  0
LAYER
  5
1FF
100
AcDbSymbolTableRecord
100
AcDbLayerTableRecord
  2
01_PLANES
 70
0
 62
7
  6
CONTINUOUS
370
-3
390
F
  0
LAYER
  5
200
100
AcDbSymbolTableRecord
100
AcDbLayerTableRecord
  2
02_COORD_SYS
 70
0
 62
7
  6
CONTINUOUS
370
-3
390
F
  0
LAYER
  5
201
100
AcDbSymbolTableRecord
100
AcDbLayerTableRecord
  2
03_AXES
 70
0
 62
7
  6
CONTINUOUS
370
-3
390
F
  0
LAYER
  5
202
100
AcDbSymbolTableRecord
100
AcDbLayerTableRecord
  2
04_POINTS
 70
0
 62
7
  6
CONTINUOUS
370
-3
390
F
  0
LAYER
  5
203
100
AcDbSymbolTableRecord
100
AcDbLayerTableRecord
  2
05_CURVES
 70
0
 62
7
  6
CONTINUOUS
370
-3
390
F
  0
LAYER
  5
204
100
AcDbSymbolTableRecord
100
AcDbLayerTableRecord
  2
06_SURFS
 70
0
 62
7
  6
CONTINUOUS
370
-3
390
F
  0
LAYER
  5
205
100
AcDbSymbolTableRecord
100
AcDbLayerTableRecord
  2
07_COSMETICS
 70
0
 62
7
  6
CONTINUOUS
370
-3
390
F
  0
LAYER
  5
206
100
AcDbSymbolTableRecord
100
AcDbLayerTableRecord
  2
10_NOTES
 70
0
 62
7
  6
CONTINUOUS
370
-3
390
F
  0
LAYER
  5
207
100
AcDbSymbolTableRecord
100
AcDbLayerTableRecord
  2
11_NOTES_PUB
 70
0
 62
7
  6
CONTINUOUS
370
-3
390
F
  0
LAYER
  5
208
100
AcDbSymbolTableRecord
100
AcDbLayerTableRecord
  2
13_REF_GTOL
 70
0
 62
7
  6
CONTINUOUS
370
-3
390
F
  0
LAYER
  5
209
100
AcDbSymbolTableRecord
100
AcDbLayerTableRecord
  2
16_MISC
 70
0
 62
7
  6
CONTINUOUS
370
-3
390
F
  0
LAYER
  5
20A
100
AcDbSymbolTableRecord
100
AcDbLayerTableRecord
  2
17_NO_PRINT
 70
0
 62
7
  6
CONTINUOUS
370
-3
390
F
  0
LAYER
  5
20B
100
AcDbSymbolTableRecord
100
AcDbLayerTableRecord
  2
18_DATUM_CAMS_JOINTS
 70
0
 62
7
  6
CONTINUOUS
370
-3
390
F
  0
LAYER
  5
20C
100
AcDbSymbolTableRecord
100
AcDbLayerTableRecord
  2
19_DATUM_FUNCTIONAL
 70
0
 62
7
  6
CONTINUOUS
370
-3
390
F
  0
LAYER
  5
20D
100
AcDbSymbolTableRecord
100
AcDbLayerTableRecord
  2
20_DATUM_KINEMATIC_SCHEME
 70
0
 62
7
  6
CONTINUOUS
370
-3
390
F
  0
LAYER
  5
20E
100
AcDbSymbolTableRecord
100
AcDbLayerTableRecord
  2
3
 70
0
 62
7
  6
CONTINUOUS
370
-3
390
F
  0
LAYER
  5
20F
100
AcDbSymbolTableRecord
100
AcDbLayerTableRecord
  2
4
 70
0
 62
7
  6
CONTINUOUS
370
-3
390
F
  0
ENDTAB
  0
TABLE
  2
STYLE
  5
3
100
AcDbSymbolTable
 70
1
  0
STYLE
  5
11
100
AcDbSymbolTableRecord
100
AcDbTextStyleTableRecord
  2
STANDARD
 70
0
 40
0.0
 41
1.0
 50
0.0
 71
0
 42
0.2
  3
ARIAL.TTF
  4

  0
STYLE
  5
210
100
AcDbSymbolTableRecord
100
AcDbTextStyleTableRecord
  2
TEXTSTYLE_1
 70
0
 40
0.0
 41
0.8
 50
0.0
 71
0
 42
0.2
  3
gdt
  4

  0
ENDTAB
  0
TABLE
  2
VIEW
  5
6
100
AcDbSymbolTable
 70
0
  0
ENDTAB
  0
TABLE
  2
UCS
  5
7
100
AcDbSymbolTable
 70
0
  0
ENDTAB
  0
TABLE
  2
APPID
  5
9
100
AcDbSymbolTable
 70
1
  0
APPID
  5
211
100
AcDbSymbolTableRecord
100
AcDbRegAppTableRecord
  2
ACAD
 70
0
  0
ENDTAB
  0
TABLE
  2
BLOCK_RECORD
  5
1
100
AcDbSymbolTable
 70
0
  0
BLOCK_RECORD
  5
212
100
AcDbSymbolTableRecord
100
AcDbBlockTableRecord
  2
*Model_Space
  0
BLOCK_RECORD
  5
213
100
AcDbSymbolTableRecord
100
AcDbBlockTableRecord
  2
*Paper_Space
  0
BLOCK_RECORD
  5
214
100
AcDbSymbolTableRecord
100
AcDbBlockTableRecord
  2
_FILLED
  0
ENDTAB
  0
TABLE
  2
DIMSTYLE
  5
A
100
AcDbSymbolTable
 70
1
100
AcDbDimStyleTable
 71
0
  0
DIMSTYLE
105
215
100
AcDbSymbolTableRecord
100
AcDbDimStyleTableRecord
  2
STANDARD
 70
0
  3

  4

 40
1.0
 41
14.2895344471
 42
1.0
 43
0.38
 44
1.0
 45
0.0
 46
0.0
 47
0.01
 48
0.01
140
20.0053482259
141
0.09
142
0.0
143
25.4
144
1.0
145
0.0
146
1.0
147
0.625
 71
1
 72
0
 73
0
 74
0
 75
0
 76
0
 77
1
 78
8
 79
2
170
0
171
1
172
0
173
0
174
0
175
0
176
0
177
0
178
0
270
2
179
2
271
2
272
2
273
2
274
2
275
0
280
0
281
0
282
0
283
1
284
8
285
0
286
0
287
3
288
0
340
11
278
46
341
214
342
214
343
214
344
214
  0
ENDTAB
  0
ENDSEC
  0
SECTION
  2
BLOCKS
  0
BLOCK
  5
20
100
AcDbEntity
  8
0
100
AcDbBlockBegin
  2
*Model_Space
 70
0
 10
0.0
 20
0.0
 30
0.0
  3
*Model_Space
  1

  0
ENDBLK
  5
21
100
AcDbEntity
  8
0
100
AcDbBlockEnd
  0
BLOCK
  5
1C
100
AcDbEntity
  8
0
100
AcDbBlockBegin
  2
*Paper_Space
 70
0
 10
0.0
 20
0.0
 30
0.0
  3
*Paper_Space
  1

  0
ENDBLK
  5
1D
100
AcDbEntity
  8
0
100
AcDbBlockEnd
  0
BLOCK
  5
216
100
AcDbEntity
  8
0
100
AcDbBlockBegin
  2
_FILLED
 70
64
 10
0.0
 20
0.0
  3
_FILLED
  1

  0
SOLID
  5
217
100
AcDbEntity
  8
0
  6
BYBLOCK
 62
0
100
AcDbTrace
 10
0.0
 20
0.0
 11
-1.0
 21
0.25
 12
-1.0
 22
-0.25
 13
-1.0
 23
-0.25
  0
ENDBLK
  5
218
100
AcDbEntity
  8
0
  6
BYBLOCK
 62
0
100
AcDbBlockEnd
  0
ENDSEC
  0
SECTION
  2
ENTITIES
  0
LINE
  5
219
100
AcDbEntity
  8
0
100
AcDbLine
 62
7
  6
BYLAYER
 10
708.2745884561
 20
121.5537411262
 11
702.6742150888
 21
121.5537411262
  0
LINE
  5
21A
100
AcDbEntity
  8
0
100
AcDbLine
 62
7
  6
BYLAYER
 10
666.274113419
 20
121.5537411262
 11
660.6746901318
 21
121.5537411262
  0
LINE
  5
21B
100
AcDbEntity
  8
0
100
AcDbLine
 62
7
  6
BYLAYER
 10
560.6254575675
 20
121.5537411262
 11
555.0250842003
 21
121.5537411262
  0
LINE
  5
21C
100
AcDbEntity
  8
0
100
AcDbLine
 62
7
  6
BYLAYER
 10
518.6249825305
 20
121.5537411262
 11
513.0255592433
 21
121.5537411262
  0
LINE
  5
21D
100
AcDbEntity
  8
0
100
AcDbLine
 62
7
  6
BYLAYER
 10
513.3138066731
 20
121.6536309878
 11
560.3363599602
 21
121.6536309878
  0
LINE
  5
21E
100
AcDbEntity
  8
0
100
AcDbLine
 62
7
  6
BYLAYER
 10
660.9629375617
 20
121.6536309878
 11
707.9854908487
 21
121.6536309878
  0
LINE
  5
21F
100
AcDbEntity
  8
0
100
AcDbLine
 62
7
  6
BYLAYER
 10
709.2746898821
 20
122.5537411262
 11
708.9531634382
 21
122.5537411262
  0
LINE
  5
220
100
AcDbEntity
  8
0
100
AcDbLine
 62
7
  6
BYLAYER
 10
659.9952664757
 20
122.5537411262
 11
659.6746898851
 21
122.5537411262
  0
LINE
  5
221
100
AcDbEntity
  8
0
100
AcDbLine
 62
7
  6
BYLAYER
 10
561.6255589936
 20
122.5537411262
 11
561.3040325497
 21
122.5537411262
  0
LINE
  5
222
100
AcDbEntity
  8
0
100
AcDbLine
 62
7
  6
BYLAYER
 10
512.3461355872
 20
122.5537411262
 11
512.0255589966
 21
122.5537411262
  0
LINE
  5
223
100
AcDbEntity
  8
0
100
AcDbLine
 62
7
  6
BYLAYER
 10
709.4742148421
 20
122.6536309878
 11
709.2746898821
 21
122.6536309878
  0
LINE
  5
224
100
AcDbEntity
  8
0
100
AcDbLine
 62
7
  6
BYLAYER
 10
659.6746898851
 20
122.6536309878
 11
659.4742148421
 21
122.6536309878
  0
LINE
  5
225
100
AcDbEntity
  8
0
100
AcDbLine
 62
7
  6
BYLAYER
 10
708.9856198658
 20
122.6536309878
 11
659.9628098184
 21
122.6536309878
  0
LINE
  5
226
100
AcDbEntity
  8
0
100
AcDbLine
 62
7
  6
BYLAYER
 10
561.8250839536
 20
122.6536309878
 11
561.6255589936
 21
122.6536309878
  0
LINE
  5
227
100
AcDbEntity
  8
0
100
AcDbLine
 62
7
  6
BYLAYER
 10
512.0255589966
 20
122.6536309878
 11
511.8250839536
 21
122.6536309878
  0
LINE
  5
228
100
AcDbEntity
  8
0
100
AcDbLine
 62
7
  6
BYLAYER
 10
561.3364889773
 20
122.6536309878
 11
512.3136789299
 21
122.6536309878
  0
LINE
  5
229
100
AcDbEntity
  8
0
100
AcDbLine
 62
7
  6
BYLAYER
 10
511.8250839536
 20
123.6536309189
 11
512.0255589966
 21
123.6536309189
  0
LINE
  5
22A
100
AcDbEntity
  8
0
100
AcDbLine
 62
7
  6
BYLAYER
 10
561.6255589936
 20
123.6536309306
 11
561.8250839536
 21
123.6536309306
  0
LINE
  5
22B
100
AcDbEntity
  8
0
100
AcDbLine
 62
7
  6
BYLAYER
 10
659.4742148421
 20
123.6536309189
 11
659.6746898851
 21
123.6536309189
  0
LINE
  5
22C
100
AcDbEntity
  8
0
100
AcDbLine
 62
7
  6
BYLAYER
 10
709.2746898821
 20
123.6536309306
 11
709.4742148421
 21
123.6536309306
  0
LINE
  5
22D
100
AcDbEntity
  8
0
100
AcDbLine
 62
7
  6
BYLAYER
 10
512.0255589966
 20
124.1537411262
 11
512.3136789299
 21
124.1537411262
  0
LINE
  5
22E
100
AcDbEntity
  8
0
100
AcDbLine
 62
7
  6
BYLAYER
 10
561.3364889773
 20
124.1537411262
 11
561.6255589936
 21
124.1537411262
  0
LINE
  5
22F
100
AcDbEntity
  8
0
100
AcDbLine
 62
7
  6
BYLAYER
 10
659.6746898851
 20
124.1537411262
 11
659.9628098184
 21
124.1537411262
  0
LINE
  5
230
100
AcDbEntity
  8
0
100
AcDbLine
 62
7
  6
BYLAYER
 10
708.9856198658
 20
124.1537411262
 11
709.2746898821
 21
124.1537411262
  0
LINE
  5
231
100
AcDbEntity
  8
0
100
AcDbLine
 62
7
  6
BYLAYER
 10
709.4742148421
 20
124.6536309878
 11
708.9279057873
 21
124.6536309878
  0
LINE
  5
232
100
AcDbEntity
  8
0
100
AcDbLine
 62
7
  6
BYLAYER
 10
660.0205238969
 20
124.6536309878
 11
659.4742148421
 21
124.6536309878
  0
LINE
  5
233
100
AcDbEntity
  8
0
100
AcDbLine
 62
7
  6
BYLAYER
 10
561.8250839536
 20
124.6536309878
 11
561.2787748988
 21
124.6536309878
  0
LINE
  5
234
100
AcDbEntity
  8
0
100
AcDbLine
 62
7
  6
BYLAYER
 10
512.3713930084
 20
124.6536309878
 11
511.8250839536
 21
124.6536309878
  0
LINE
  5
235
100
AcDbEntity
  8
0
100
AcDbLine
 62
7
  6
BYLAYER
 10
518.0249198479
 20
139.1536309878
 11
555.6249198479
 21
139.1536309878
  0
LINE
  5
236
100
AcDbEntity
  8
0
100
AcDbLine
 62
7
  6
BYLAYER
 10
511.8250839536
 20
139.1536309878
 11
517.8250839536
 21
139.1536309878
  0
LINE
  5
237
100
AcDbEntity
  8
0
100
AcDbLine
 62
7
  6
BYLAYER
 10
555.8778703581
 20
139.1536309878
 11
561.8250839536
 21
139.1536309878
  0
LINE
  5
238
100
AcDbEntity
  8
0
100
AcDbLine
 62
7
  6
BYLAYER
 10
665.6740507365
 20
139.1536309878
 11
703.2740507365
 21
139.1536309878
  0
LINE
  5
239
100
AcDbEntity
  8
0
100
AcDbLine
 62
7
  6
BYLAYER
 10
659.4742148421
 20
139.1536309878
 11
665.4742148421
 21
139.1536309878
  0
LINE
  5
23A
100
AcDbEntity
  8
0
100
AcDbLine
 62
7
  6
BYLAYER
 10
703.5270012466
 20
139.1536309878
 11
709.4742148421
 21
139.1536309878
  0
LINE
  5
23B
100
AcDbEntity
  8
3
100
AcDbLine
 62
7
  6
BYLAYER
 10
709.4746898852
 20
139.1537539348
 11
703.4737093061
 21
139.1537539348
  0
LINE
  5
23C
100
AcDbEntity
  8
3
100
AcDbLine
 62
7
  6
BYLAYER
 10
665.4756704642
 20
139.1537539348
 11
659.4746898852
 21
139.1537539348
  0
LINE
  5
23D
100
AcDbEntity
  8
3
100
AcDbLine
 62
7
  6
BYLAYER
 10
561.8255589967
 20
139.1537539348
 11
555.8245784176
 21
139.1537539348
  0
LINE
  5
23E
100
AcDbEntity
  8
3
100
AcDbLine
 62
7
  6
BYLAYER
 10
517.8265395757
 20
139.1537539348
 11
511.8255589967
 21
139.1537539348
  0
LINE
  5
23F
100
AcDbEntity
  8
3
100
AcDbLine
 62
7
  6
BYLAYER
 10
518.0249198479
 20
139.1537539348
 11
555.6249198479
 21
139.1537539348
  0
LINE
  5
240
100
AcDbEntity
  8
3
100
AcDbLine
 62
7
  6
BYLAYER
 10
665.6740507365
 20
139.1537539348
 11
703.2740507365
 21
139.1537539348
  0
LINE
  5
241
100
AcDbEntity
  8
4
100
AcDbLine
 62
7
  6
BYLAYER
 10
719.6634355686
 20
166.5019162495
 11
709.4746898852
 21
166.5019162495
  0
LINE
  5
242
100
AcDbEntity
  8
4
100
AcDbLine
 62
7
  6
BYLAYER
 10
572.0141405744
 20
166.5020391965
 11
561.8255589967
 21
166.5020391965
  0
LINE
  5
243
100
AcDbEntity
  8
4
100
AcDbLine
 62
7
  6
BYLAYER
 10
709.4746898852
 20
216.5019162495
 11
719.6634355686
 21
216.5019162495
  0
LINE
  5
244
100
AcDbEntity
  8
4
100
AcDbLine
 62
7
  6
BYLAYER
 10
561.8255589967
 20
216.5020391965
 11
572.0141405744
 21
216.5020391965
  0
LINE
  5
245
100
AcDbEntity
  8
0
100
AcDbLine
 62
7
  6
BYLAYER
 10
520.5758117646
 20
1561.6537411262
 11
520.0758117646
 21
1561.1537411262
  0
LINE
  5
246
100
AcDbEntity
  8
0
100
AcDbLine
 62
7
  6
BYLAYER
 10
540.325809786
 20
1565.6537411262
 11
539.8258117646
 21
1565.1537432847
  0
LINE
  5
247
100
AcDbEntity
  8
0
100
AcDbLine
 62
7
  6
BYLAYER
 10
538.5758117646
 20
1561.6537411262
 11
538.0758117646
 21
1561.1537411262
  0
LINE
  5
248
100
AcDbEntity
  8
0
100
AcDbLine
 62
7
  6
BYLAYER
 10
538.5758117646
 20
1556.6537411262
 11
538.0758117646
 21
1556.1537411262
  0
LINE
  5
249
100
AcDbEntity
  8
0
100
AcDbLine
 62
7
  6
BYLAYER
 10
553.3758117646
 20
1555.1537411262
 11
553.5758117646
 21
1555.3537411262
  0
LINE
  5
24A
100
AcDbEntity
  8
0
100
AcDbLine
 62
7
  6
BYLAYER
 10
668.2249426531
 20
1561.6537411262
 11
667.7249426531
 21
1561.1537411262
  0
LINE
  5
24B
100
AcDbEntity
  8
0
100
AcDbLine
 62
7
  6
BYLAYER
 10
687.9749406745
 20
1565.6537411262
 11
687.4749426531
 21
1565.1537432847
  0
LINE
  5
24C
100
AcDbEntity
  8
0
100
AcDbLine
 62
7
  6
BYLAYER
 10
686.2249426531
 20
1561.6537411262
 11
685.7249426531
 21
1561.1537411262
  0
LINE
  5
24D
100
AcDbEntity
  8
0
100
AcDbLine
 62
7
  6
BYLAYER
 10
686.2249426531
 20
1556.6537411262
 11
685.7249426531
 21
1556.1537411262
  0
LINE
  5
24E
100
AcDbEntity
  8
0
100
AcDbLine
 62
7
  6
BYLAYER
 10
701.0249426531
 20
1555.1537411262
 11
701.2249426531
 21
1555.3537411262
  0
LINE
  5
24F
100
AcDbEntity
  8
3
100
AcDbLine
 62
7
  6
BYLAYER
 10
515.4623167102
 20
1189.1537539348
 11
515.3341618222
 21
1537.6537539348
  0
LINE
  5
250
100
AcDbEntity
  8
0
100
AcDbLine
 62
7
  6
BYLAYER
 10
511.8250839536
 20
139.1536309878
 11
511.8250839536
 21
124.6536309878
  0
LINE
  5
251
100
AcDbEntity
  8
0
100
AcDbLine
 62
7
  6
BYLAYER
 10
511.8250839536
 20
122.6536309878
 11
511.8250839536
 21
124.6376775893
  0
LINE
  5
252
100
AcDbEntity
  8
3
100
AcDbLine
 62
7
  6
BYLAYER
 10
511.8255589967
 20
1537.6537539348
 11
511.8255589967
 21
139.1537539348
  0
LINE
  5
253
100
AcDbEntity
  8
0
100
AcDbLine
 62
7
  6
BYLAYER
 10
511.8258117646
 20
1554.1537411262
 11
511.8258117646
 21
1537.6537411262
  0
LINE
  5
254
100
AcDbEntity
  8
0
100
AcDbLine
 62
7
  6
BYLAYER
 10
512.0255589966
 20
124.1537411262
 11
512.0255589966
 21
122.5537411262
  0
LINE
  5
255
100
AcDbEntity
  8
0
100
AcDbLine
 62
7
  6
BYLAYER
 10
512.0258117646
 20
1554.2537411262
 11
512.0258117646
 21
1552.6537411262
  0
LINE
  5
256
100
AcDbEntity
  8
0
100
AcDbLine
 62
7
  6
BYLAYER
 10
512.2098444772
 20
124.6536309878
 11
512.2098444772
 21
139.1536309878
  0
LINE
  5
257
100
AcDbEntity
  8
3
100
AcDbLine
 62
7
  6
BYLAYER
 10
512.2103195203
 20
139.1537539348
 11
512.2103195203
 21
1537.6537539348
  0
LINE
  5
258
100
AcDbEntity
  8
0
100
AcDbLine
 62
7
  6
BYLAYER
 10
512.2105722882
 20
1537.6537411262
 11
512.2105722882
 21
1552.1537411262
  0
LINE
  5
259
100
AcDbEntity
  8
0
100
AcDbLine
 62
7
  6
BYLAYER
 10
512.3136789299
 20
124.2689419714
 11
512.3136789299
 21
122.6536309878
  0
LINE
  5
25A
100
AcDbEntity
  8
0
100
AcDbLine
 62
7
  6
BYLAYER
 10
512.3144067409
 20
1554.1537411262
 11
512.3144067409
 21
1552.5384301257
  0
LINE
  5
25B
100
AcDbEntity
  8
0
100
AcDbLine
 62
7
  6
BYLAYER
 10
512.3713930084
 20
122.6536309878
 11
512.3713930084
 21
124.6536309878
  0
LINE
  5
25C
100
AcDbEntity
  8
0
100
AcDbLine
 62
7
  6
BYLAYER
 10
512.3721208194
 20
1552.1537411262
 11
512.3721208194
 21
1554.1537411262
  0
LINE
  5
25D
100
AcDbEntity
  8
0
100
AcDbLine
 62
7
  6
BYLAYER
 10
513.4106388838
 20
139.1536309878
 11
513.4106388838
 21
122.6536309878
  0
LINE
  5
25E
100
AcDbEntity
  8
3
100
AcDbLine
 62
7
  6
BYLAYER
 10
513.4111139269
 20
1537.6537539348
 11
513.4111139269
 21
139.1537539348
  0
LINE
  5
25F
100
AcDbEntity
  8
0
100
AcDbLine
 62
7
  6
BYLAYER
 10
513.4113666949
 20
1554.1537411262
 11
513.4113666949
 21
1537.6537411262
  0
LINE
  5
260
100
AcDbEntity
  8
0
100
AcDbLine
 62
7
  6
BYLAYER
 10
515.3336867791
 20
121.6536309878
 11
515.3336867791
 21
139.1536309878
  0
LINE
  5
261
100
AcDbEntity
  8
0
100
AcDbLine
 62
7
  6
BYLAYER
 10
515.3344145901
 20
1537.6537411262
 11
515.3344145901
 21
1555.1537411262
  0
LINE
  5
262
100
AcDbEntity
  8
0
100
AcDbLine
 62
7
  6
BYLAYER
 10
515.5890159761
 20
139.1536309878
 11
515.5890159761
 21
121.6536309878
  0
LINE
  5
263
100
AcDbEntity
  8
0
100
AcDbLine
 62
7
  6
BYLAYER
 10
515.5897437871
 20
1555.1537411262
 11
515.5897437871
 21
1537.6537411262
  0
LINE
  5
264
100
AcDbEntity
  8
0
100
AcDbLine
 62
7
  6
BYLAYER
 10
517.3778703581
 20
122.6536309878
 11
517.3778703581
 21
139.1536309878
  0
LINE
  5
265
100
AcDbEntity
  8
0
100
AcDbLine
 62
7
  6
BYLAYER
 10
517.3785981691
 20
1537.6537411262
 11
517.3785981691
 21
1554.1537411262
  0
LINE
  5
266
100
AcDbEntity
  8
3
100
AcDbLine
 62
7
  6
BYLAYER
 10
517.3793259802
 20
139.1537539348
 11
517.3793259802
 21
1537.6537539348
  0
LINE
  5
267
100
AcDbEntity
  8
0
100
AcDbLine
 62
7
  6
BYLAYER
 10
517.7722975491
 20
139.1536309878
 11
517.7722975491
 21
122.6536309878
  0
LINE
  5
268
100
AcDbEntity
  8
0
100
AcDbLine
 62
7
  6
BYLAYER
 10
517.7730253601
 20
1554.1537411262
 11
517.7730253601
 21
1537.6537411262
  0
LINE
  5
269
100
AcDbEntity
  8
3
100
AcDbLine
 62
7
  6
BYLAYER
 10
517.7737531712
 20
1537.6537539348
 11
517.7737531712
 21
139.1537539348
  0
LINE
  5
26A
100
AcDbEntity
  8
0
100
AcDbLine
 62
7
  6
BYLAYER
 10
517.8250839536
 20
122.6536309878
 11
517.8250839536
 21
139.1536309878
  0
LINE
  5
26B
100
AcDbEntity
  8
0
100
AcDbLine
 62
7
  6
BYLAYER
 10
517.8258117646
 20
1537.6537411262
 11
517.8258117646
 21
1554.1537411262
  0
LINE
  5
26C
100
AcDbEntity
  8
3
100
AcDbLine
 62
7
  6
BYLAYER
 10
517.8265395757
 20
139.1537539348
 11
517.8265395757
 21
1537.6537539348
  0
LINE
  5
26D
100
AcDbEntity
  8
3
100
AcDbLine
 62
7
  6
BYLAYER
 10
518.0249198479
 20
139.1537539348
 11
518.0249198479
 21
1537.6537703938
  0
LINE
  5
26E
100
AcDbEntity
  8
0
100
AcDbLine
 62
7
  6
BYLAYER
 10
520.0758117646
 20
1555.1537411262
 11
520.0758117646
 21
1561.1537411262
  0
LINE
  5
26F
100
AcDbEntity
  8
0
100
AcDbLine
 62
7
  6
BYLAYER
 10
523.6990517646
 20
1562.8537411262
 11
523.6990517646
 21
1561.6537411262
  0
LINE
  5
270
100
AcDbEntity
  8
3
100
AcDbLine
 62
7
  6
BYLAYER
 10
515.5904715982
 20
1537.6537539348
 11
515.4623167102
 21
1189.1537539348
  0
LINE
  5
271
100
AcDbEntity
  8
3
100
AcDbLine
 62
7
  6
BYLAYER
 10
558.1888012831
 20
1189.1537539348
 11
558.0606463951
 21
1537.6537539348
  0
LINE
  5
272
100
AcDbEntity
  8
0
100
AcDbLine
 62
7
  6
BYLAYER
 10
527.1240517646
 20
1561.6537411262
 11
527.1240517646
 21
1563.1537411262
  0
LINE
  5
273
100
AcDbEntity
  8
0
100
AcDbLine
 62
7
  6
BYLAYER
 10
528.5240517646
 20
1561.6537411262
 11
528.5240517646
 21
1563.1537411262
  0
LINE
  5
274
100
AcDbEntity
  8
0
100
AcDbLine
 62
7
  6
BYLAYER
 10
531.9490517646
 20
1561.6537411262
 11
531.9490517646
 21
1562.8537411262
  0
LINE
  5
275
100
AcDbEntity
  8
0
100
AcDbLine
 62
7
  6
BYLAYER
 10
535.5758117646
 20
1555.1537411262
 11
535.5758117646
 21
1561.1537411262
  0
LINE
  5
276
100
AcDbEntity
  8
0
100
AcDbLine
 62
7
  6
BYLAYER
 10
538.0758117646
 20
1555.1537411262
 11
538.0758117646
 21
1561.1537411262
  0
LINE
  5
277
100
AcDbEntity
  8
0
100
AcDbLine
 62
7
  6
BYLAYER
 10
539.8258117646
 20
1565.1537401888
 11
539.8258117646
 21
1557.6537411262
  0
LINE
  5
278
100
AcDbEntity
  8
0
100
AcDbLine
 62
7
  6
BYLAYER
 10
540.3258117646
 20
1556.6537411262
 11
540.3258117646
 21
1557.6537411262
  0
LINE
  5
279
100
AcDbEntity
  8
0
100
AcDbLine
 62
7
  6
BYLAYER
 10
551.3258117646
 20
1556.6537411262
 11
551.3258117646
 21
1557.6537411262
  0
LINE
  5
27A
100
AcDbEntity
  8
0
100
AcDbLine
 62
7
  6
BYLAYER
 10
551.8258117646
 20
1557.6537411262
 11
551.8258117646
 21
1565.1537401888
  0
LINE
  5
27B
100
AcDbEntity
  8
0
100
AcDbLine
 62
7
  6
BYLAYER
 10
553.5758117646
 20
1555.1537411262
 11
553.5758117646
 21
1561.1537411262
  0
LINE
  5
27C
100
AcDbEntity
  8
3
100
AcDbLine
 62
7
  6
BYLAYER
 10
555.6249198479
 20
1537.6537703938
 11
555.6249198479
 21
139.1537539348
  0
LINE
  5
27D
100
AcDbEntity
  8
3
100
AcDbLine
 62
7
  6
BYLAYER
 10
555.8245784176
 20
1537.6537539348
 11
555.8245784176
 21
139.1537539348
  0
LINE
  5
27E
100
AcDbEntity
  8
0
100
AcDbLine
 62
7
  6
BYLAYER
 10
555.8250839536
 20
139.1536309878
 11
555.8250839536
 21
122.6536309878
  0
LINE
  5
27F
100
AcDbEntity
  8
0
100
AcDbLine
 62
7
  6
BYLAYER
 10
555.8258117646
 20
1554.1537411262
 11
555.8258117646
 21
1537.6537411262
  0
LINE
  5
280
100
AcDbEntity
  8
3
100
AcDbLine
 62
7
  6
BYLAYER
 10
555.8773648221
 20
139.1537539348
 11
555.8773648221
 21
1537.6537539348
  0
LINE
  5
281
100
AcDbEntity
  8
0
100
AcDbLine
 62
7
  6
BYLAYER
 10
555.8778703581
 20
122.6536309878
 11
555.8778703581
 21
139.1536309878
  0
LINE
  5
282
100
AcDbEntity
  8
0
100
AcDbLine
 62
7
  6
BYLAYER
 10
555.8785981691
 20
1537.6537411262
 11
555.8785981691
 21
1554.1537411262
  0
LINE
  5
283
100
AcDbEntity
  8
3
100
AcDbLine
 62
7
  6
BYLAYER
 10
556.2717920131
 20
1537.6537539348
 11
556.2717920131
 21
139.1537539348
  0
LINE
  5
284
100
AcDbEntity
  8
0
100
AcDbLine
 62
7
  6
BYLAYER
 10
556.2722975491
 20
139.1536309878
 11
556.2722975491
 21
122.6536309878
  0
LINE
  5
285
100
AcDbEntity
  8
0
100
AcDbLine
 62
7
  6
BYLAYER
 10
556.2730253601
 20
1554.1537411262
 11
556.2730253601
 21
1537.6537411262
  0
LINE
  5
286
100
AcDbEntity
  8
0
100
AcDbLine
 62
7
  6
BYLAYER
 10
558.0611519311
 20
121.6536309878
 11
558.0611519311
 21
139.1536309878
  0
LINE
  5
287
100
AcDbEntity
  8
0
100
AcDbLine
 62
7
  6
BYLAYER
 10
558.0618797421
 20
1537.6537411262
 11
558.0618797421
 21
1555.1537411262
  0
LINE
  5
288
100
AcDbEntity
  8
0
100
AcDbLine
 62
7
  6
BYLAYER
 10
558.3164811281
 20
139.1536309878
 11
558.3164811281
 21
121.6536309878
  0
LINE
  5
289
100
AcDbEntity
  8
0
100
AcDbLine
 62
7
  6
BYLAYER
 10
558.3172089391
 20
1555.1537411262
 11
558.3172089391
 21
1537.6537411262
  0
LINE
  5
28A
100
AcDbEntity
  8
0
100
AcDbLine
 62
7
  6
BYLAYER
 10
560.2395290234
 20
122.6536309878
 11
560.2395290234
 21
139.1536309878
  0
LINE
  5
28B
100
AcDbEntity
  8
3
100
AcDbLine
 62
7
  6
BYLAYER
 10
560.2400040663
 20
139.1537539348
 11
560.2400040663
 21
1537.6537539348
  0
LINE
  5
28C
100
AcDbEntity
  8
0
100
AcDbLine
 62
7
  6
BYLAYER
 10
560.2402568344
 20
1537.6537411262
 11
560.2402568344
 21
1554.1537411262
  0
LINE
  5
28D
100
AcDbEntity
  8
0
100
AcDbLine
 62
7
  6
BYLAYER
 10
561.2787748988
 20
124.6536309878
 11
561.2787748988
 21
122.6536309878
  0
LINE
  5
28E
100
AcDbEntity
  8
0
100
AcDbLine
 62
7
  6
BYLAYER
 10
561.2795027098
 20
1554.1537411262
 11
561.2795027098
 21
1552.1537411262
  0
LINE
  5
28F
100
AcDbEntity
  8
0
100
AcDbLine
 62
7
  6
BYLAYER
 10
561.3364889773
 20
122.6536309878
 11
561.3364889773
 21
124.2689419883
  0
LINE
  5
290
100
AcDbEntity
  8
0
100
AcDbLine
 62
7
  6
BYLAYER
 10
561.3372167884
 20
1552.5384301426
 11
561.3372167884
 21
1554.1537411262
  0
LINE
  5
291
100
AcDbEntity
  8
0
100
AcDbLine
 62
7
  6
BYLAYER
 10
561.44032343
 20
139.1536309878
 11
561.44032343
 21
124.6536309878
  0
LINE
  5
292
100
AcDbEntity
  8
3
100
AcDbLine
 62
7
  6
BYLAYER
 10
561.4407984731
 20
1537.6537539348
 11
561.4407984731
 21
139.1537539348
  0
LINE
  5
293
100
AcDbEntity
  8
0
100
AcDbLine
 62
7
  6
BYLAYER
 10
561.441051241
 20
1552.1537411262
 11
561.441051241
 21
1537.6537411262
  0
LINE
  5
294
100
AcDbEntity
  8
0
100
AcDbLine
 62
7
  6
BYLAYER
 10
561.6255589936
 20
122.5537411262
 11
561.6255589936
 21
124.1537411262
  0
LINE
  5
295
100
AcDbEntity
  8
0
100
AcDbLine
 62
7
  6
BYLAYER
 10
561.6258117646
 20
1552.6537411262
 11
561.6258117646
 21
1554.2537411262
  0
LINE
  5
296
100
AcDbEntity
  8
0
100
AcDbLine
 62
7
  6
BYLAYER
 10
561.8250839536
 20
122.6536309878
 11
561.8250839536
 21
124.6398615264
  0
LINE
  5
297
100
AcDbEntity
  8
0
100
AcDbLine
 62
7
  6
BYLAYER
 10
561.8250839536
 20
124.6536309878
 11
561.8250839536
 21
139.1536309878
  0
LINE
  5
298
100
AcDbEntity
  8
3
100
AcDbLine
 62
7
  6
BYLAYER
 10
561.8255589967
 20
139.1537539348
 11
561.8255589967
 21
1537.6537539348
  0
LINE
  5
299
100
AcDbEntity
  8
0
100
AcDbLine
 62
7
  6
BYLAYER
 10
561.8258117646
 20
1537.6537411262
 11
561.8258117646
 21
1554.1537411262
  0
LINE
  5
29A
100
AcDbEntity
  8
4
100
AcDbLine
 62
7
  6
BYLAYER
 10
565.0141405744
 20
216.5020391965
 11
565.0141405744
 21
166.5020391965
  0
LINE
  5
29B
100
AcDbEntity
  8
3
100
AcDbLine
 62
7
  6
BYLAYER
 10
565.0143046801
 20
1512.8368187103
 11
565.0143046801
 21
1462.8368187103
  0
LINE
  5
29C
100
AcDbEntity
  8
3
100
AcDbLine
 62
7
  6
BYLAYER
 10
565.0143046801
 20
863.7860570893
 11
565.0143046801
 21
813.7860570893
  0
LINE
  5
29D
100
AcDbEntity
  8
4
100
AcDbLine
 62
7
  6
BYLAYER
 10
572.0141405744
 20
166.5020391965
 11
572.0141405744
 21
216.5020391965
  0
LINE
  5
29E
100
AcDbEntity
  8
3
100
AcDbLine
 62
7
  6
BYLAYER
 10
572.0143046801
 20
813.7860570893
 11
572.0143046801
 21
863.7860570893
  0
LINE
  5
29F
100
AcDbEntity
  8
3
100
AcDbLine
 62
7
  6
BYLAYER
 10
572.0143046801
 20
1462.8368187103
 11
572.0143046801
 21
1512.8368187103
  0
LINE
  5
2A0
100
AcDbEntity
  8
3
100
AcDbLine
 62
7
  6
BYLAYER
 10
558.3169561711
 20
1537.6537539348
 11
558.1888012831
 21
1189.1537539348
  0
LINE
  5
2A1
100
AcDbEntity
  8
4
100
AcDbLine
 62
7
  6
BYLAYER
 10
719.6634355686
 20
813.7860570893
 11
709.4746898852
 21
813.7860570893
  0
LINE
  5
2A2
100
AcDbEntity
  8
3
100
AcDbLine
 62
7
  6
BYLAYER
 10
572.0143046801
 20
813.7860570893
 11
561.8255589967
 21
813.7860570893
  0
LINE
  5
2A3
100
AcDbEntity
  8
3
100
AcDbLine
 62
7
  6
BYLAYER
 10
663.1114475987
 20
1189.1537539348
 11
662.9832927107
 21
1537.6537539348
  0
LINE
  5
2A4
100
AcDbEntity
  8
0
100
AcDbLine
 62
7
  6
BYLAYER
 10
659.4742148421
 20
122.6536309878
 11
659.4742148421
 21
139.1536309878
  0
LINE
  5
2A5
100
AcDbEntity
  8
3
100
AcDbLine
 62
7
  6
BYLAYER
 10
659.4746898852
 20
1537.6537539348
 11
659.4746898852
 21
139.1537539348
  0
LINE
  5
2A6
100
AcDbEntity
  8
0
100
AcDbLine
 62
7
  6
BYLAYER
 10
659.4749426531
 20
1552.1537411262
 11
659.4749426531
 21
1537.6537411262
  0
LINE
  5
2A7
100
AcDbEntity
  8
0
100
AcDbLine
 62
7
  6
BYLAYER
 10
659.4749426531
 20
1554.1537411262
 11
659.4749426531
 21
1552.1674738872
  0
LINE
  5
2A8
100
AcDbEntity
  8
0
100
AcDbLine
 62
7
  6
BYLAYER
 10
659.6746898851
 20
124.1537411262
 11
659.6746898851
 21
122.5537411262
  0
LINE
  5
2A9
100
AcDbEntity
  8
0
100
AcDbLine
 62
7
  6
BYLAYER
 10
659.6749426531
 20
1554.2537411262
 11
659.6749426531
 21
1552.6537411262
  0
LINE
  5
2AA
100
AcDbEntity
  8
0
100
AcDbLine
 62
7
  6
BYLAYER
 10
659.8589753657
 20
124.6536309878
 11
659.8589753657
 21
139.1536309878
  0
LINE
  5
2AB
100
AcDbEntity
  8
3
100
AcDbLine
 62
7
  6
BYLAYER
 10
659.8594504088
 20
139.1537539348
 11
659.8594504088
 21
1537.6537539348
  0
LINE
  5
2AC
100
AcDbEntity
  8
0
100
AcDbLine
 62
7
  6
BYLAYER
 10
659.8597031767
 20
1537.6537411262
 11
659.8597031767
 21
1552.1537411262
  0
LINE
  5
2AD
100
AcDbEntity
  8
0
100
AcDbLine
 62
7
  6
BYLAYER
 10
659.9628098184
 20
124.2689419714
 11
659.9628098184
 21
122.6536309878
  0
LINE
  5
2AE
100
AcDbEntity
  8
0
100
AcDbLine
 62
7
  6
BYLAYER
 10
659.9635376294
 20
1554.1537411262
 11
659.9635376294
 21
1552.5384301257
  0
LINE
  5
2AF
100
AcDbEntity
  8
0
100
AcDbLine
 62
7
  6
BYLAYER
 10
660.0205238969
 20
122.6536309878
 11
660.0205238969
 21
124.6536309878
  0
LINE
  5
2B0
100
AcDbEntity
  8
0
100
AcDbLine
 62
7
  6
BYLAYER
 10
660.021251708
 20
1552.1537411262
 11
660.021251708
 21
1554.1537411262
  0
LINE
  5
2B1
100
AcDbEntity
  8
0
100
AcDbLine
 62
7
  6
BYLAYER
 10
661.0597697723
 20
139.1536309878
 11
661.0597697723
 21
122.6536309878
  0
LINE
  5
2B2
100
AcDbEntity
  8
3
100
AcDbLine
 62
7
  6
BYLAYER
 10
661.0602448154
 20
1537.6537539348
 11
661.0602448154
 21
139.1537539348
  0
LINE
  5
2B3
100
AcDbEntity
  8
0
100
AcDbLine
 62
7
  6
BYLAYER
 10
661.0604975834
 20
1554.1537411262
 11
661.0604975834
 21
1537.6537411262
  0
LINE
  5
2B4
100
AcDbEntity
  8
0
100
AcDbLine
 62
7
  6
BYLAYER
 10
662.9828176676
 20
121.6536309878
 11
662.9828176676
 21
139.1536309878
  0
LINE
  5
2B5
100
AcDbEntity
  8
0
100
AcDbLine
 62
7
  6
BYLAYER
 10
662.9835454787
 20
1537.6537411262
 11
662.9835454787
 21
1555.1537411262
  0
LINE
  5
2B6
100
AcDbEntity
  8
0
100
AcDbLine
 62
7
  6
BYLAYER
 10
663.2381468646
 20
139.1536309878
 11
663.2381468646
 21
121.6536309878
  0
LINE
  5
2B7
100
AcDbEntity
  8
0
100
AcDbLine
 62
7
  6
BYLAYER
 10
663.2388746756
 20
1555.1537411262
 11
663.2388746756
 21
1537.6537411262
  0
LINE
  5
2B8
100
AcDbEntity
  8
0
100
AcDbLine
 62
7
  6
BYLAYER
 10
665.0270012466
 20
122.6536309878
 11
665.0270012466
 21
139.1536309878
  0
LINE
  5
2B9
100
AcDbEntity
  8
0
100
AcDbLine
 62
7
  6
BYLAYER
 10
665.0277290576
 20
1537.6537411262
 11
665.0277290576
 21
1554.1537411262
  0
LINE
  5
2BA
100
AcDbEntity
  8
3
100
AcDbLine
 62
7
  6
BYLAYER
 10
665.0284568687
 20
139.1537539348
 11
665.0284568687
 21
1537.6537539348
  0
LINE
  5
2BB
100
AcDbEntity
  8
0
100
AcDbLine
 62
7
  6
BYLAYER
 10
665.4214284376
 20
139.1536309878
 11
665.4214284376
 21
122.6536309878
  0
LINE
  5
2BC
100
AcDbEntity
  8
0
100
AcDbLine
 62
7
  6
BYLAYER
 10
665.4221562486
 20
1554.1537411262
 11
665.4221562486
 21
1537.6537411262
  0
LINE
  5
2BD
100
AcDbEntity
  8
3
100
AcDbLine
 62
7
  6
BYLAYER
 10
665.4228840597
 20
1537.6537539348
 11
665.4228840597
 21
139.1537539348
  0
LINE
  5
2BE
100
AcDbEntity
  8
0
100
AcDbLine
 62
7
  6
BYLAYER
 10
665.4742148421
 20
122.6536309878
 11
665.4742148421
 21
139.1536309878
  0
LINE
  5
2BF
100
AcDbEntity
  8
0
100
AcDbLine
 62
7
  6
BYLAYER
 10
665.4749426531
 20
1537.6537411262
 11
665.4749426531
 21
1554.1537411262
  0
LINE
  5
2C0
100
AcDbEntity
  8
3
100
AcDbLine
 62
7
  6
BYLAYER
 10
665.4756704642
 20
139.1537539348
 11
665.4756704642
 21
1537.6537539348
  0
LINE
  5
2C1
100
AcDbEntity
  8
3
100
AcDbLine
 62
7
  6
BYLAYER
 10
665.6740507365
 20
139.1537539348
 11
665.6740507365
 21
1537.6537703938
  0
LINE
  5
2C2
100
AcDbEntity
  8
0
100
AcDbLine
 62
7
  6
BYLAYER
 10
667.7249426531
 20
1555.1537411262
 11
667.7249426531
 21
1561.1537411262
  0
LINE
  5
2C3
100
AcDbEntity
  8
3
100
AcDbLine
 62
7
  6
BYLAYER
 10
663.2396024867
 20
1537.6537539348
 11
663.1114475987
 21
1189.1537539348
  0
LINE
  5
2C4
100
AcDbEntity
  8
3
100
AcDbLine
 62
7
  6
BYLAYER
 10
561.8255589967
 20
863.7860570893
 11
572.0143046801
 21
863.7860570893
  0
LINE
  5
2C5
100
AcDbEntity
  8
4
100
AcDbLine
 62
7
  6
BYLAYER
 10
709.4746898852
 20
863.7860570893
 11
719.6634355686
 21
863.7860570893
  0
LINE
  5
2C6
100
AcDbEntity
  8
3
100
AcDbLine
 62
7
  6
BYLAYER
 10
705.8379321716
 20
1189.1537539348
 11
705.7097772836
 21
1537.6537539348
  0
LINE
  5
2C7
100
AcDbEntity
  8
0
100
AcDbLine
 62
7
  6
BYLAYER
 10
671.3481826531
 20
1562.8537411262
 11
671.3481826531
 21
1561.6537411262
  0
LINE
  5
2C8
100
AcDbEntity
  8
0
100
AcDbLine
 62
7
  6
BYLAYER
 10
677.8527187343
 20
1561.6537411262
 11
677.8527187343
 21
1562.8537411262
  0
LINE
  5
2C9
100
AcDbEntity
  8
0
100
AcDbLine
 62
7
  6
BYLAYER
 10
678.4076757951
 20
1561.6537411262
 11
678.4076757951
 21
1563.1537411262
  0
LINE
  5
2CA
100
AcDbEntity
  8
0
100
AcDbLine
 62
7
  6
BYLAYER
 10
678.8426682279
 20
1562.8537411263
 11
678.8426682279
 21
1561.6537411262
  0
LINE
  5
2CB
100
AcDbEntity
  8
0
100
AcDbLine
 62
7
  6
BYLAYER
 10
679.5981826531
 20
1562.8537411262
 11
679.5981826531
 21
1561.6537411262
  0
LINE
  5
2CC
100
AcDbEntity
  8
0
100
AcDbLine
 62
7
  6
BYLAYER
 10
683.2249426531
 20
1555.1537411262
 11
683.2249426531
 21
1561.1537411262
  0
LINE
  5
2CD
100
AcDbEntity
  8
0
100
AcDbLine
 62
7
  6
BYLAYER
 10
685.7249426531
 20
1555.1537411262
 11
685.7249426531
 21
1561.1537411262
  0
LINE
  5
2CE
100
AcDbEntity
  8
0
100
AcDbLine
 62
7
  6
BYLAYER
 10
687.4749426531
 20
1565.1537401888
 11
687.4749426531
 21
1557.6537411262
  0
LINE
  5
2CF
100
AcDbEntity
  8
0
100
AcDbLine
 62
7
  6
BYLAYER
 10
687.9749426531
 20
1556.6537411262
 11
687.9749426531
 21
1557.6537411262
  0
LINE
  5
2D0
100
AcDbEntity
  8
0
100
AcDbLine
 62
7
  6
BYLAYER
 10
698.9749426531
 20
1556.6537411262
 11
698.9749426531
 21
1557.6537411262
  0
LINE
  5
2D1
100
AcDbEntity
  8
0
100
AcDbLine
 62
7
  6
BYLAYER
 10
699.4749426531
 20
1557.6537411262
 11
699.4749426531
 21
1565.1537401888
  0
LINE
  5
2D2
100
AcDbEntity
  8
0
100
AcDbLine
 62
7
  6
BYLAYER
 10
701.2249426531
 20
1555.1537411262
 11
701.2249426531
 21
1561.1537411262
  0
LINE
  5
2D3
100
AcDbEntity
  8
3
100
AcDbLine
 62
7
  6
BYLAYER
 10
703.2740507365
 20
1537.6537703938
 11
703.2740507365
 21
139.1537539348
  0
LINE
  5
2D4
100
AcDbEntity
  8
3
100
AcDbLine
 62
7
  6
BYLAYER
 10
703.4737093061
 20
1537.6537539348
 11
703.4737093061
 21
139.1537539348
  0
LINE
  5
2D5
100
AcDbEntity
  8
0
100
AcDbLine
 62
7
  6
BYLAYER
 10
703.4742148421
 20
139.1536309878
 11
703.4742148421
 21
122.6536309878
  0
LINE
  5
2D6
100
AcDbEntity
  8
0
100
AcDbLine
 62
7
  6
BYLAYER
 10
703.4749426531
 20
1554.1537411262
 11
703.4749426531
 21
1537.6537411262
  0
LINE
  5
2D7
100
AcDbEntity
  8
3
100
AcDbLine
 62
7
  6
BYLAYER
 10
703.5264957106
 20
139.1537539348
 11
703.5264957106
 21
1537.6537539348
  0
LINE
  5
2D8
100
AcDbEntity
  8
0
100
AcDbLine
 62
7
  6
BYLAYER
 10
703.5270012466
 20
122.6536309878
 11
703.5270012466
 21
139.1536309878
  0
LINE
  5
2D9
100
AcDbEntity
  8
0
100
AcDbLine
 62
7
  6
BYLAYER
 10
703.5277290576
 20
1537.6537411262
 11
703.5277290576
 21
1554.1537411262
  0
LINE
  5
2DA
100
AcDbEntity
  8
3
100
AcDbLine
 62
7
  6
BYLAYER
 10
703.9209229016
 20
1537.6537539348
 11
703.9209229016
 21
139.1537539348
  0
LINE
  5
2DB
100
AcDbEntity
  8
0
100
AcDbLine
 62
7
  6
BYLAYER
 10
703.9214284376
 20
139.1536309878
 11
703.9214284376
 21
122.6536309878
  0
LINE
  5
2DC
100
AcDbEntity
  8
0
100
AcDbLine
 62
7
  6
BYLAYER
 10
703.9221562486
 20
1554.1537411262
 11
703.9221562486
 21
1537.6537411262
  0
LINE
  5
2DD
100
AcDbEntity
  8
0
100
AcDbLine
 62
7
  6
BYLAYER
 10
705.7102828196
 20
121.6536309878
 11
705.7102828196
 21
139.1536309878
  0
LINE
  5
2DE
100
AcDbEntity
  8
0
100
AcDbLine
 62
7
  6
BYLAYER
 10
705.7110106306
 20
1537.6537411262
 11
705.7110106306
 21
1555.1537411262
  0
LINE
  5
2DF
100
AcDbEntity
  8
0
100
AcDbLine
 62
7
  6
BYLAYER
 10
705.9656120166
 20
139.1536309878
 11
705.9656120166
 21
121.6536309878
  0
LINE
  5
2E0
100
AcDbEntity
  8
0
100
AcDbLine
 62
7
  6
BYLAYER
 10
705.9663398276
 20
1555.1537411262
 11
705.9663398276
 21
1537.6537411262
  0
LINE
  5
2E1
100
AcDbEntity
  8
0
100
AcDbLine
 62
7
  6
BYLAYER
 10
707.8886599119
 20
122.6536309878
 11
707.8886599119
 21
139.1536309878
  0
LINE
  5
2E2
100
AcDbEntity
  8
3
100
AcDbLine
 62
7
  6
BYLAYER
 10
707.8891349549
 20
139.1537539348
 11
707.8891349549
 21
1537.6537539348
  0
LINE
  5
2E3
100
AcDbEntity
  8
0
100
AcDbLine
 62
7
  6
BYLAYER
 10
707.8893877229
 20
1537.6537411262
 11
707.8893877229
 21
1554.1537411262
  0
LINE
  5
2E4
100
AcDbEntity
  8
0
100
AcDbLine
 62
7
  6
BYLAYER
 10
708.9279057873
 20
124.6536309878
 11
708.9279057873
 21
122.6536309878
  0
LINE
  5
2E5
100
AcDbEntity
  8
0
100
AcDbLine
 62
7
  6
BYLAYER
 10
708.9286335983
 20
1554.1537411262
 11
708.9286335983
 21
1552.1537411262
  0
LINE
  5
2E6
100
AcDbEntity
  8
0
100
AcDbLine
 62
7
  6
BYLAYER
 10
708.9856198658
 20
122.6536309878
 11
708.9856198658
 21
124.2689419883
  0
LINE
  5
2E7
100
AcDbEntity
  8
0
100
AcDbLine
 62
7
  6
BYLAYER
 10
708.9863476769
 20
1552.5384301426
 11
708.9863476769
 21
1554.1537411262
  0
LINE
  5
2E8
100
AcDbEntity
  8
0
100
AcDbLine
 62
7
  6
BYLAYER
 10
709.0894543185
 20
139.1536309878
 11
709.0894543185
 21
124.6536309878
  0
LINE
  5
2E9
100
AcDbEntity
  8
3
100
AcDbLine
 62
7
  6
BYLAYER
 10
709.0899293616
 20
1537.6537539348
 11
709.0899293616
 21
139.1537539348
  0
LINE
  5
2EA
100
AcDbEntity
  8
0
100
AcDbLine
 62
7
  6
BYLAYER
 10
709.0901821296
 20
1552.1537411262
 11
709.0901821296
 21
1537.6537411262
  0
LINE
  5
2EB
100
AcDbEntity
  8
0
100
AcDbLine
 62
7
  6
BYLAYER
 10
709.2746898821
 20
122.5537411262
 11
709.2746898821
 21
124.1537411262
  0
LINE
  5
2EC
100
AcDbEntity
  8
0
100
AcDbLine
 62
7
  6
BYLAYER
 10
709.2749426531
 20
1552.6537411262
 11
709.2749426531
 21
1554.2537411262
  0
LINE
  5
2ED
100
AcDbEntity
  8
0
100
AcDbLine
 62
7
  6
BYLAYER
 10
709.4742148421
 20
122.6536309878
 11
709.4742148421
 21
124.6398910949
  0
LINE
  5
2EE
100
AcDbEntity
  8
0
100
AcDbLine
 62
7
  6
BYLAYER
 10
709.4742148421
 20
124.6536309878
 11
709.4742148421
 21
139.1536309878
  0
LINE
  5
2EF
100
AcDbEntity
  8
3
100
AcDbLine
 62
7
  6
BYLAYER
 10
709.4746898852
 20
139.1537539348
 11
709.4746898852
 21
1537.6537539348
  0
LINE
  5
2F0
100
AcDbEntity
  8
0
100
AcDbLine
 62
7
  6
BYLAYER
 10
709.4749426531
 20
1537.6537411262
 11
709.4749426531
 21
1554.1537411262
  0
LINE
  5
2F1
100
AcDbEntity
  8
4
100
AcDbLine
 62
7
  6
BYLAYER
 10
712.6634355686
 20
1512.8368187103
 11
712.6634355686
 21
1462.8368187103
  0
LINE
  5
2F2
100
AcDbEntity
  8
4
100
AcDbLine
 62
7
  6
BYLAYER
 10
712.6634355686
 20
863.7860570893
 11
712.6634355686
 21
813.7860570893
  0
LINE
  5
2F3
100
AcDbEntity
  8
4
100
AcDbLine
 62
7
  6
BYLAYER
 10
712.6634355686
 20
216.5019162495
 11
712.6634355686
 21
166.5019162495
  0
LINE
  5
2F4
100
AcDbEntity
  8
3
100
AcDbLine
 62
7
  6
BYLAYER
 10
705.9660870596
 20
1537.6537539348
 11
705.8379321716
 21
1189.1537539348
  0
LINE
  5
2F5
100
AcDbEntity
  8
4
100
AcDbLine
 62
7
  6
BYLAYER
 10
719.6634355686
 20
166.5019162495
 11
719.6634355686
 21
216.5019162495
  0
LINE
  5
2F6
100
AcDbEntity
  8
4
100
AcDbLine
 62
7
  6
BYLAYER
 10
719.6634355686
 20
813.7860570893
 11
719.6634355686
 21
863.7860570893
  0
LINE
  5
2F7
100
AcDbEntity
  8
4
100
AcDbLine
 62
7
  6
BYLAYER
 10
719.6634355686
 20
1462.8368187103
 11
719.6634355686
 21
1512.8368187103
  0
LINE
  5
2F8
100
AcDbEntity
  8
0
100
AcDbLine
 62
7
  6
BYLAYER
 10
538.2758117646
 20
1555.1537411262
 11
538.0758117646
 21
1555.3537411262
  0
LINE
  5
2F9
100
AcDbEntity
  8
0
100
AcDbLine
 62
7
  6
BYLAYER
 10
535.0758117646
 20
1561.6537411262
 11
535.5758117646
 21
1561.1537411262
  0
LINE
  5
2FA
100
AcDbEntity
  8
0
100
AcDbLine
 62
7
  6
BYLAYER
 10
553.0758117646
 20
1556.6537411262
 11
553.5758117646
 21
1556.1537411262
  0
LINE
  5
2FB
100
AcDbEntity
  8
0
100
AcDbLine
 62
7
  6
BYLAYER
 10
553.0758117646
 20
1561.6537411262
 11
553.5758117646
 21
1561.1537411262
  0
LINE
  5
2FC
100
AcDbEntity
  8
0
100
AcDbLine
 62
7
  6
BYLAYER
 10
551.3258137433
 20
1565.6537411262
 11
551.8258117646
 21
1565.1537432847
  0
LINE
  5
2FD
100
AcDbEntity
  8
0
100
AcDbLine
 62
7
  6
BYLAYER
 10
685.9249426531
 20
1555.1537411262
 11
685.7249426531
 21
1555.3537411262
  0
LINE
  5
2FE
100
AcDbEntity
  8
0
100
AcDbLine
 62
7
  6
BYLAYER
 10
682.7249426531
 20
1561.6537411262
 11
683.2249426531
 21
1561.1537411262
  0
LINE
  5
2FF
100
AcDbEntity
  8
0
100
AcDbLine
 62
7
  6
BYLAYER
 10
700.7249426531
 20
1556.6537411262
 11
701.2249426531
 21
1556.1537411262
  0
LINE
  5
300
100
AcDbEntity
  8
0
100
AcDbLine
 62
7
  6
BYLAYER
 10
700.7249426531
 20
1561.6537411262
 11
701.2249426531
 21
1561.1537411262
  0
LINE
  5
301
100
AcDbEntity
  8
0
100
AcDbLine
 62
7
  6
BYLAYER
 10
698.9749446318
 20
1565.6537411262
 11
699.4749426531
 21
1565.1537432847
  0
LINE
  5
302
100
AcDbEntity
  8
4
100
AcDbLine
 62
7
  6
BYLAYER
 10
719.6634355686
 20
1462.8368187103
 11
709.4746898852
 21
1462.8368187103
  0
LINE
  5
303
100
AcDbEntity
  8
3
100
AcDbLine
 62
7
  6
BYLAYER
 10
572.0143046801
 20
1462.8368187103
 11
561.8255589967
 21
1462.8368187103
  0
LINE
  5
304
100
AcDbEntity
  8
3
100
AcDbLine
 62
7
  6
BYLAYER
 10
561.8255589967
 20
1512.8368187103
 11
572.0143046801
 21
1512.8368187103
  0
LINE
  5
305
100
AcDbEntity
  8
4
100
AcDbLine
 62
7
  6
BYLAYER
 10
709.4746898852
 20
1512.8368187103
 11
719.6634355686
 21
1512.8368187103
  0
LINE
  5
306
100
AcDbEntity
  8
0
100
AcDbLine
 62
7
  6
BYLAYER
 10
709.4749426531
 20
1537.6537411262
 11
703.4749426531
 21
1537.6537411262
  0
LINE
  5
307
100
AcDbEntity
  8
0
100
AcDbLine
 62
7
  6
BYLAYER
 10
703.2740507365
 20
1537.6537411262
 11
665.6740507365
 21
1537.6537411262
  0
LINE
  5
308
100
AcDbEntity
  8
3
100
AcDbLine
 62
7
  6
BYLAYER
 10
703.2740507365
 20
1537.6537703938
 11
665.6740507365
 21
1537.6537703938
  0
LINE
  5
309
100
AcDbEntity
  8
0
100
AcDbLine
 62
7
  6
BYLAYER
 10
665.4221562486
 20
1537.6537411262
 11
659.4749426531
 21
1537.6537411262
  0
LINE
  5
30A
100
AcDbEntity
  8
0
100
AcDbLine
 62
7
  6
BYLAYER
 10
561.8258117646
 20
1537.6537411262
 11
555.8258117646
 21
1537.6537411262
  0
LINE
  5
30B
100
AcDbEntity
  8
0
100
AcDbLine
 62
7
  6
BYLAYER
 10
555.6249198479
 20
1537.6537411262
 11
518.0249198479
 21
1537.6537411262
  0
LINE
  5
30C
100
AcDbEntity
  8
3
100
AcDbLine
 62
7
  6
BYLAYER
 10
555.6249198479
 20
1537.6537703938
 11
518.0249198479
 21
1537.6537703938
  0
LINE
  5
30D
100
AcDbEntity
  8
0
100
AcDbLine
 62
7
  6
BYLAYER
 10
517.7730253601
 20
1537.6537411262
 11
511.8258117646
 21
1537.6537411262
  0
LINE
  5
30E
100
AcDbEntity
  8
3
100
AcDbLine
 62
7
  6
BYLAYER
 10
511.8255589967
 20
1537.6537539348
 11
517.8265395757
 21
1537.6537539348
  0
LINE
  5
30F
100
AcDbEntity
  8
3
100
AcDbLine
 62
7
  6
BYLAYER
 10
555.8245784176
 20
1537.6537539348
 11
561.8255589967
 21
1537.6537539348
  0
LINE
  5
310
100
AcDbEntity
  8
3
100
AcDbLine
 62
7
  6
BYLAYER
 10
659.4746898852
 20
1537.6537539348
 11
665.4756704642
 21
1537.6537539348
  0
LINE
  5
311
100
AcDbEntity
  8
3
100
AcDbLine
 62
7
  6
BYLAYER
 10
703.4737093061
 20
1537.6537539348
 11
709.4746898852
 21
1537.6537539348
  0
LINE
  5
312
100
AcDbEntity
  8
0
100
AcDbLine
 62
7
  6
BYLAYER
 10
701.4749426531
 20
1551.1537411262
 11
685.4749594671
 21
1551.1537411262
  0
LINE
  5
313
100
AcDbEntity
  8
0
100
AcDbLine
 62
7
  6
BYLAYER
 10
683.4749426531
 20
1551.1537411262
 11
667.4749594671
 21
1551.1537411262
  0
LINE
  5
314
100
AcDbEntity
  8
0
100
AcDbLine
 62
7
  6
BYLAYER
 10
553.8258117646
 20
1551.1537411262
 11
537.8258285786
 21
1551.1537411262
  0
LINE
  5
315
100
AcDbEntity
  8
0
100
AcDbLine
 62
7
  6
BYLAYER
 10
535.8258117646
 20
1551.1537411262
 11
519.8258285786
 21
1551.1537411262
  0
LINE
  5
316
100
AcDbEntity
  8
0
100
AcDbLine
 62
7
  6
BYLAYER
 10
683.3696461685
 20
1551.1649542092
 11
667.5802557304
 21
1551.1649542092
  0
LINE
  5
317
100
AcDbEntity
  8
0
100
AcDbLine
 62
7
  6
BYLAYER
 10
535.72051528
 20
1551.1649542092
 11
519.9311248419
 21
1551.1649542092
  0
LINE
  5
318
100
AcDbEntity
  8
0
100
AcDbLine
 62
7
  6
BYLAYER
 10
537.9310207935
 20
1551.1649353773
 11
553.7205861429
 21
1551.1649353773
  0
LINE
  5
319
100
AcDbEntity
  8
0
100
AcDbLine
 62
7
  6
BYLAYER
 10
685.580151682
 20
1551.1649353773
 11
701.3697170315
 21
1551.1649353773
  0
LINE
  5
31A
100
AcDbEntity
  8
0
100
AcDbLine
 62
7
  6
BYLAYER
 10
701.5804373134
 20
1552.1424853095
 11
685.3694650286
 21
1552.1424853095
  0
LINE
  5
31B
100
AcDbEntity
  8
0
100
AcDbLine
 62
7
  6
BYLAYER
 10
553.9313064248
 20
1552.1424853095
 11
537.7203341401
 21
1552.1424853095
  0
LINE
  5
31C
100
AcDbEntity
  8
0
100
AcDbLine
 62
7
  6
BYLAYER
 10
683.5802391378
 20
1552.1425280433
 11
667.3696632037
 21
1552.1425280433
  0
LINE
  5
31D
100
AcDbEntity
  8
0
100
AcDbLine
 62
7
  6
BYLAYER
 10
535.9311082493
 20
1552.1425280433
 11
519.7205323152
 21
1552.1425280433
  0
LINE
  5
31E
100
AcDbEntity
  8
0
100
AcDbLine
 62
7
  6
BYLAYER
 10
511.8258117646
 20
1552.1537411262
 11
512.3721208194
 21
1552.1537411262
  0
LINE
  5
31F
100
AcDbEntity
  8
0
100
AcDbLine
 62
7
  6
BYLAYER
 10
561.2795027098
 20
1552.1537411262
 11
561.8258117646
 21
1552.1537411262
  0
LINE
  5
320
100
AcDbEntity
  8
0
100
AcDbLine
 62
7
  6
BYLAYER
 10
659.4749426531
 20
1552.1537411262
 11
660.021251708
 21
1552.1537411262
  0
LINE
  5
321
100
AcDbEntity
  8
0
100
AcDbLine
 62
7
  6
BYLAYER
 10
708.9286335983
 20
1552.1537411262
 11
709.4749426531
 21
1552.1537411262
  0
LINE
  5
322
100
AcDbEntity
  8
0
100
AcDbLine
 62
7
  6
BYLAYER
 10
709.2749426531
 20
1552.6537411262
 11
708.9863476769
 21
1552.6537411262
  0
LINE
  5
323
100
AcDbEntity
  8
0
100
AcDbLine
 62
7
  6
BYLAYER
 10
659.9635376294
 20
1552.6537411262
 11
659.6749426531
 21
1552.6537411262
  0
LINE
  5
324
100
AcDbEntity
  8
0
100
AcDbLine
 62
7
  6
BYLAYER
 10
561.6258117646
 20
1552.6537411262
 11
561.3372167884
 21
1552.6537411262
  0
LINE
  5
325
100
AcDbEntity
  8
0
100
AcDbLine
 62
7
  6
BYLAYER
 10
512.3144067409
 20
1552.6537411262
 11
512.0258117646
 21
1552.6537411262
  0
LINE
  5
326
100
AcDbEntity
  8
0
100
AcDbLine
 62
7
  6
BYLAYER
 10
709.4749426531
 20
1553.1537411951
 11
709.2749426531
 21
1553.1537411951
  0
LINE
  5
327
100
AcDbEntity
  8
0
100
AcDbLine
 62
7
  6
BYLAYER
 10
659.6749426531
 20
1553.1537411834
 11
659.4749426531
 21
1553.1537411834
  0
LINE
  5
328
100
AcDbEntity
  8
0
100
AcDbLine
 62
7
  6
BYLAYER
 10
561.8258117646
 20
1553.1537411951
 11
561.6258117646
 21
1553.1537411951
  0
LINE
  5
329
100
AcDbEntity
  8
0
100
AcDbLine
 62
7
  6
BYLAYER
 10
512.0258117646
 20
1553.1537411834
 11
511.8258117646
 21
1553.1537411834
  0
LINE
  5
32A
100
AcDbEntity
  8
0
100
AcDbLine
 62
7
  6
BYLAYER
 10
511.8258117646
 20
1554.1537411262
 11
512.0258117646
 21
1554.1537411262
  0
LINE
  5
32B
100
AcDbEntity
  8
0
100
AcDbLine
 62
7
  6
BYLAYER
 10
561.6258117646
 20
1554.1537411262
 11
561.8258117646
 21
1554.1537411262
  0
LINE
  5
32C
100
AcDbEntity
  8
0
100
AcDbLine
 62
7
  6
BYLAYER
 10
512.3144067409
 20
1554.1537411262
 11
561.3372167884
 21
1554.1537411262
  0
LINE
  5
32D
100
AcDbEntity
  8
0
100
AcDbLine
 62
7
  6
BYLAYER
 10
659.4749426531
 20
1554.1537411262
 11
659.6749426531
 21
1554.1537411262
  0
LINE
  5
32E
100
AcDbEntity
  8
0
100
AcDbLine
 62
7
  6
BYLAYER
 10
709.2749426531
 20
1554.1537411262
 11
709.4749426531
 21
1554.1537411262
  0
LINE
  5
32F
100
AcDbEntity
  8
0
100
AcDbLine
 62
7
  6
BYLAYER
 10
659.9635376294
 20
1554.1537411262
 11
708.9863476769
 21
1554.1537411262
  0
LINE
  5
330
100
AcDbEntity
  8
0
100
AcDbLine
 62
7
  6
BYLAYER
 10
512.0258117646
 20
1554.2537411262
 11
512.346898955
 21
1554.2537411262
  0
LINE
  5
331
100
AcDbEntity
  8
0
100
AcDbLine
 62
7
  6
BYLAYER
 10
561.3047243443
 20
1554.2537411262
 11
561.6258117646
 21
1554.2537411262
  0
LINE
  5
332
100
AcDbEntity
  8
0
100
AcDbLine
 62
7
  6
BYLAYER
 10
659.6749426531
 20
1554.2537411262
 11
659.9960298435
 21
1554.2537411262
  0
LINE
  5
333
100
AcDbEntity
  8
0
100
AcDbLine
 62
7
  6
BYLAYER
 10
708.9538552328
 20
1554.2537411262
 11
709.2749426531
 21
1554.2537411262
  0
LINE
  5
334
100
AcDbEntity
  8
0
100
AcDbLine
 62
7
  6
BYLAYER
 10
513.3146286556
 20
1555.1537411262
 11
560.3369932926
 21
1555.1537411262
  0
LINE
  5
335
100
AcDbEntity
  8
0
100
AcDbLine
 62
7
  6
BYLAYER
 10
660.9637595442
 20
1555.1537411262
 11
707.9861241811
 21
1555.1537411262
  0
LINE
  5
336
100
AcDbEntity
  8
0
100
AcDbLine
 62
7
  6
BYLAYER
 10
513.0259131907
 20
1555.2537411262
 11
518.625811518
 21
1555.2537411262
  0
LINE
  5
337
100
AcDbEntity
  8
0
100
AcDbLine
 62
7
  6
BYLAYER
 10
555.0259131907
 20
1555.2537411262
 11
560.625811518
 21
1555.2537411262
  0
LINE
  5
338
100
AcDbEntity
  8
0
100
AcDbLine
 62
7
  6
BYLAYER
 10
660.6750440792
 20
1555.2537411262
 11
666.2749424065
 21
1555.2537411262
  0
LINE
  5
339
100
AcDbEntity
  8
0
100
AcDbLine
 62
7
  6
BYLAYER
 10
702.6750440792
 20
1555.2537411262
 11
708.2749424065
 21
1555.2537411262
  0
LINE
  5
33A
100
AcDbEntity
  8
0
100
AcDbLine
 62
7
  6
BYLAYER
 10
701.2249426531
 20
1555.3537411262
 11
685.7249426531
 21
1555.3537411262
  0
LINE
  5
33B
100
AcDbEntity
  8
0
100
AcDbLine
 62
7
  6
BYLAYER
 10
553.5758117646
 20
1555.3537411262
 11
538.0758117646
 21
1555.3537411262
  0
LINE
  5
33C
100
AcDbEntity
  8
0
100
AcDbLine
 62
7
  6
BYLAYER
 10
538.0758117646
 20
1556.1537411262
 11
553.5758117646
 21
1556.1537411262
  0
LINE
  5
33D
100
AcDbEntity
  8
0
100
AcDbLine
 62
7
  6
BYLAYER
 10
685.7249426531
 20
1556.1537411262
 11
701.2249426531
 21
1556.1537411262
  0
LINE
  5
33E
100
AcDbEntity
  8
0
100
AcDbLine
 62
7
  6
BYLAYER
 10
683.2249426531
 20
1556.6537411262
 11
667.7249426531
 21
1556.6537411262
  0
LINE
  5
33F
100
AcDbEntity
  8
0
100
AcDbLine
 62
7
  6
BYLAYER
 10
535.5758117646
 20
1556.6537411262
 11
520.0758117646
 21
1556.6537411262
  0
LINE
  5
340
100
AcDbEntity
  8
0
100
AcDbLine
 62
7
  6
BYLAYER
 10
538.0758117646
 20
1556.6537411262
 11
553.5758117646
 21
1556.6537411262
  0
LINE
  5
341
100
AcDbEntity
  8
0
100
AcDbLine
 62
7
  6
BYLAYER
 10
685.7249426531
 20
1556.6537411262
 11
701.2249426531
 21
1556.6537411262
  0
LINE
  5
342
100
AcDbEntity
  8
0
100
AcDbLine
 62
7
  6
BYLAYER
 10
699.4749426531
 20
1557.6537411262
 11
687.4749426531
 21
1557.6537411262
  0
LINE
  5
343
100
AcDbEntity
  8
0
100
AcDbLine
 62
7
  6
BYLAYER
 10
551.8258117646
 20
1557.6537411262
 11
539.8258117646
 21
1557.6537411262
  0
LINE
  5
344
100
AcDbEntity
  8
0
100
AcDbLine
 62
7
  6
BYLAYER
 10
701.2249383703
 20
1559.6537411262
 11
699.4749426531
 21
1559.6537411262
  0
LINE
  5
345
100
AcDbEntity
  8
0
100
AcDbLine
 62
7
  6
BYLAYER
 10
687.4749426531
 20
1559.6537411262
 11
685.724946936
 21
1559.6537411262
  0
LINE
  5
346
100
AcDbEntity
  8
0
100
AcDbLine
 62
7
  6
BYLAYER
 10
683.2249383703
 20
1559.6537411262
 11
667.724946936
 21
1559.6537411262
  0
LINE
  5
347
100
AcDbEntity
  8
0
100
AcDbLine
 62
7
  6
BYLAYER
 10
553.5758074818
 20
1559.6537411262
 11
551.8258117646
 21
1559.6537411262
  0
LINE
  5
348
100
AcDbEntity
  8
0
100
AcDbLine
 62
7
  6
BYLAYER
 10
539.8258117646
 20
1559.6537411262
 11
538.0758160474
 21
1559.6537411262
  0
LINE
  5
349
100
AcDbEntity
  8
0
100
AcDbLine
 62
7
  6
BYLAYER
 10
535.5758074818
 20
1559.6537411262
 11
520.0758160474
 21
1559.6537411262
  0
LINE
  5
34A
100
AcDbEntity
  8
0
100
AcDbLine
 62
7
  6
BYLAYER
 10
520.0758117646
 20
1561.1537411262
 11
535.5758117646
 21
1561.1537411262
  0
LINE
  5
34B
100
AcDbEntity
  8
0
100
AcDbLine
 62
7
  6
BYLAYER
 10
538.0758117646
 20
1561.1537411262
 11
539.8258117646
 21
1561.1537411262
  0
LINE
  5
34C
100
AcDbEntity
  8
0
100
AcDbLine
 62
7
  6
BYLAYER
 10
551.8258117646
 20
1561.1537411262
 11
553.5758117646
 21
1561.1537411262
  0
LINE
  5
34D
100
AcDbEntity
  8
0
100
AcDbLine
 62
7
  6
BYLAYER
 10
667.7249426531
 20
1561.1537411262
 11
683.2249426531
 21
1561.1537411262
  0
LINE
  5
34E
100
AcDbEntity
  8
0
100
AcDbLine
 62
7
  6
BYLAYER
 10
685.7249426531
 20
1561.1537411262
 11
687.4749426531
 21
1561.1537411262
  0
LINE
  5
34F
100
AcDbEntity
  8
0
100
AcDbLine
 62
7
  6
BYLAYER
 10
699.4749426531
 20
1561.1537411262
 11
701.2249426531
 21
1561.1537411262
  0
LINE
  5
350
100
AcDbEntity
  8
0
100
AcDbLine
 62
7
  6
BYLAYER
 10
520.5758157674
 20
1561.6537411262
 11
535.0758077618
 21
1561.6537411262
  0
LINE
  5
351
100
AcDbEntity
  8
0
100
AcDbLine
 62
7
  6
BYLAYER
 10
538.5758157674
 20
1561.6537411262
 11
539.8258117646
 21
1561.6537411262
  0
LINE
  5
352
100
AcDbEntity
  8
0
100
AcDbLine
 62
7
  6
BYLAYER
 10
551.8258117646
 20
1561.6537411262
 11
553.0758077618
 21
1561.6537411262
  0
LINE
  5
353
100
AcDbEntity
  8
0
100
AcDbLine
 62
7
  6
BYLAYER
 10
668.2249466559
 20
1561.6537411262
 11
682.7249386504
 21
1561.6537411262
  0
LINE
  5
354
100
AcDbEntity
  8
0
100
AcDbLine
 62
7
  6
BYLAYER
 10
686.2249466559
 20
1561.6537411262
 11
687.4749426531
 21
1561.6537411262
  0
LINE
  5
355
100
AcDbEntity
  8
0
100
AcDbLine
 62
7
  6
BYLAYER
 10
699.4749426531
 20
1561.6537411262
 11
700.7249386504
 21
1561.6537411262
  0
LINE
  5
356
100
AcDbEntity
  8
0
100
AcDbLine
 62
7
  6
BYLAYER
 10
523.6990517646
 20
1562.8537411262
 11
527.1240517646
 21
1562.8537411262
  0
LINE
  5
357
100
AcDbEntity
  8
0
100
AcDbLine
 62
7
  6
BYLAYER
 10
528.5240517646
 20
1562.8537411262
 11
531.9490517646
 21
1562.8537411262
  0
LINE
  5
358
100
AcDbEntity
  8
0
100
AcDbLine
 62
7
  6
BYLAYER
 10
671.3481826531
 20
1562.8537411262
 11
677.8527187343
 21
1562.8537411262
  0
LINE
  5
359
100
AcDbEntity
  8
0
100
AcDbLine
 62
7
  6
BYLAYER
 10
678.8426682279
 20
1562.8537411262
 11
679.5981826531
 21
1562.8537411262
  0
LINE
  5
35A
100
AcDbEntity
  8
0
100
AcDbLine
 62
7
  6
BYLAYER
 10
523.9990632905
 20
1563.1537411262
 11
531.6490209999
 21
1563.1537411262
  0
LINE
  5
35B
100
AcDbEntity
  8
0
100
AcDbLine
 62
7
  6
BYLAYER
 10
671.6481607618
 20
1563.1537411262
 11
679.298243021
 21
1563.1537411262
  0
LINE
  5
35C
100
AcDbEntity
  8
0
100
AcDbLine
 62
7
  6
BYLAYER
 10
539.8258117646
 20
1565.1537401888
 11
551.8258117646
 21
1565.1537401888
  0
LINE
  5
35D
100
AcDbEntity
  8
0
100
AcDbLine
 62
7
  6
BYLAYER
 10
687.4749426531
 20
1565.1537401888
 11
699.4749426531
 21
1565.1537401888
  0
LINE
  5
35E
100
AcDbEntity
  8
0
100
AcDbLine
 62
7
  6
BYLAYER
 10
540.3258112004
 20
1565.6537411262
 11
551.3258064633
 21
1565.6537411262
  0
LINE
  5
35F
100
AcDbEntity
  8
0
100
AcDbLine
 62
7
  6
BYLAYER
 10
687.9749420889
 20
1565.6537411262
 11
698.9749373518
 21
1565.6537411262
  0
ARC
  5
360
100
AcDbEntity
  8
0
100
AcDbCircle
 62
7
  6
BYLAYER
 10
555.0250839536
 20
122.5537411262
 40
1.0
100
AcDbArc
 50
247.6323509968
 51
270.0
  0
ARC
  5
361
100
AcDbEntity
  8
0
100
AcDbCircle
 62
7
  6
BYLAYER
 10
518.6250839565
 20
122.5537411262
 40
1.0
100
AcDbArc
 50
270.0
 51
292.3676490032
  0
ARC
  5
362
100
AcDbEntity
  8
0
100
AcDbCircle
 62
7
  6
BYLAYER
 10
556.0255589936
 20
122.5537411262
 40
1.0
100
AcDbArc
 50
247.6323509968
 51
270.0
  0
ARC
  5
363
100
AcDbEntity
  8
0
100
AcDbCircle
 62
7
  6
BYLAYER
 10
560.6255589936
 20
122.5537411262
 40
1.0
100
AcDbArc
 50
270.0
 51
360.0
  0
ARC
  5
364
100
AcDbEntity
  8
0
100
AcDbCircle
 62
7
  6
BYLAYER
 10
513.0255589966
 20
122.5537411262
 40
1.0
100
AcDbArc
 50
180.0
 51
270.0
  0
ARC
  5
365
100
AcDbEntity
  8
0
100
AcDbCircle
 62
7
  6
BYLAYER
 10
517.6255589966
 20
122.5537411262
 40
1.0
100
AcDbArc
 50
270.0
 51
292.3676490032
  0
ARC
  5
366
100
AcDbEntity
  8
0
100
AcDbCircle
 62
7
  6
BYLAYER
 10
513.3136789299
 20
122.6536309878
 40
1.0
100
AcDbArc
 50
180.0
 51
270.0
  0
ARC
  5
367
100
AcDbEntity
  8
0
100
AcDbCircle
 62
7
  6
BYLAYER
 10
560.3364889773
 20
122.6536309878
 40
1.0
100
AcDbArc
 50
270.0
 51
360.0
  0
ARC
  5
368
100
AcDbEntity
  8
0
100
AcDbCircle
 62
7
  6
BYLAYER
 10
560.8250839536
 20
122.6536309878
 40
1.0
100
AcDbArc
 50
290.1402792352
 51
360.0
  0
ARC
  5
369
100
AcDbEntity
  8
0
100
AcDbCircle
 62
7
  6
BYLAYER
 10
512.8250839536
 20
122.6536309878
 40
1.0
100
AcDbArc
 50
180.0
 51
249.9315512357
  0
ARC
  5
36A
100
AcDbEntity
  8
0
100
AcDbCircle
 62
7
  6
BYLAYER
 10
516.8250839536
 20
122.6536309878
 40
1.0
100
AcDbArc
 50
270.0
 51
360.0
  0
ARC
  5
36B
100
AcDbEntity
  8
0
100
AcDbCircle
 62
7
  6
BYLAYER
 10
556.8250839536
 20
122.6536309878
 40
1.0
100
AcDbArc
 50
180.0
 51
270.0
  0
ARC
  5
36C
100
AcDbEntity
  8
0
100
AcDbCircle
 62
7
  6
BYLAYER
 10
513.3329247167
 20
122.5649554199
 40
0.9113244321
100
AcDbArc
 50
268.9031685192
 51
269.9995120838
  0
ARC
  5
36D
100
AcDbEntity
  8
0
100
AcDbCircle
 62
7
  6
BYLAYER
 10
560.3172432638
 20
122.564099157
 40
0.9104681693
100
AcDbArc
 50
270.0004837627
 51
271.0800850326
  0
ARC
  5
36E
100
AcDbEntity
  8
0
100
AcDbCircle
 62
7
  6
BYLAYER
 10
561.3250839536
 20
124.6536309878
 40
0.5
100
AcDbArc
 50
271.1642031186
 51
360.0
  0
ARC
  5
36F
100
AcDbEntity
  8
0
100
AcDbCircle
 62
7
  6
BYLAYER
 10
512.3250839536
 20
124.6536309878
 40
0.5
100
AcDbArc
 50
180.0
 51
268.8357968818
  0
ARC
  5
370
100
AcDbEntity
  8
0
100
AcDbCircle
 62
7
  6
BYLAYER
 10
561.6873300834
 20
124.2459466857
 40
0.351195612
100
AcDbArc
 50
168.8863826965
 51
177.9822952035
  0
ARC
  5
371
100
AcDbEntity
  8
0
100
AcDbCircle
 62
7
  6
BYLAYER
 10
518.6258117646
 20
1554.2537411262
 40
1.0
100
AcDbArc
 50
67.6076884451
 51
90.0
  0
ARC
  5
372
100
AcDbEntity
  8
0
100
AcDbCircle
 62
7
  6
BYLAYER
 10
517.6258117646
 20
1554.2537411262
 40
1.0
100
AcDbArc
 50
67.6076884451
 51
90.0
  0
ARC
  5
373
100
AcDbEntity
  8
0
100
AcDbCircle
 62
7
  6
BYLAYER
 10
513.0258117646
 20
1554.2537411262
 40
1.0
100
AcDbArc
 50
90.0
 51
180.0
  0
ARC
  5
374
100
AcDbEntity
  8
0
100
AcDbCircle
 62
7
  6
BYLAYER
 10
513.3144067409
 20
1554.1537411262
 40
1.0
100
AcDbArc
 50
90.0
 51
180.0
  0
ARC
  5
375
100
AcDbEntity
  8
0
100
AcDbCircle
 62
7
  6
BYLAYER
 10
512.8258117646
 20
1554.1537411262
 40
1.0
100
AcDbArc
 50
110.1126910722
 51
180.0000000001
  0
ARC
  5
376
100
AcDbEntity
  8
0
100
AcDbCircle
 62
7
  6
BYLAYER
 10
516.8258117646
 20
1554.1537411262
 40
1.0
100
AcDbArc
 50
0.0
 51
90.0
  0
ARC
  5
377
100
AcDbEntity
  8
0
100
AcDbCircle
 62
7
  6
BYLAYER
 10
513.3336524544
 20
1554.2432729559
 40
0.9104681704
100
AcDbArc
 50
90.0004837627
 51
91.0800850312
  0
ARC
  5
378
100
AcDbEntity
  8
0
100
AcDbCircle
 62
7
  6
BYLAYER
 10
512.3258117646
 20
1552.1537411262
 40
0.5
100
AcDbArc
 50
91.1642031186
 51
180.0
  0
ARC
  5
379
100
AcDbEntity
  8
0
100
AcDbCircle
 62
7
  6
BYLAYER
 10
519.8258294271
 20
1551.653741309
 40
0.4999999534
100
AcDbArc
 50
102.1571786862
 51
282.1569797606
  0
ARC
  5
37A
100
AcDbEntity
  8
0
100
AcDbCircle
 62
7
  6
BYLAYER
 10
535.8257941022
 20
1551.653741309
 40
0.4999999534
100
AcDbArc
 50
257.8430202394
 51
77.8428213138
  0
ARC
  5
37B
100
AcDbEntity
  8
0
100
AcDbCircle
 62
7
  6
BYLAYER
 10
511.9635656345
 20
1552.5614254283
 40
0.3511956123
100
AcDbArc
 50
348.8863826994
 51
357.9822949634
  0
ARC
  5
37C
100
AcDbEntity
  8
0
100
AcDbCircle
 62
7
  6
BYLAYER
 10
531.6490517646
 20
1562.8537411262
 40
0.3
100
AcDbArc
 50
0.0
 51
90.0
  0
ARC
  5
37D
100
AcDbEntity
  8
0
100
AcDbCircle
 62
7
  6
BYLAYER
 10
523.9990517646
 20
1562.8537411262
 40
0.3
100
AcDbArc
 50
90.0
 51
180.0
  0
ARC
  5
37E
100
AcDbEntity
  8
0
100
AcDbCircle
 62
7
  6
BYLAYER
 10
555.0258117646
 20
1554.2537411262
 40
1.0
100
AcDbArc
 50
90.0
 51
112.3923115549
  0
ARC
  5
37F
100
AcDbEntity
  8
0
100
AcDbCircle
 62
7
  6
BYLAYER
 10
560.6258117646
 20
1554.2537411262
 40
1.0
100
AcDbArc
 50
0.0
 51
90.0
  0
ARC
  5
380
100
AcDbEntity
  8
0
100
AcDbCircle
 62
7
  6
BYLAYER
 10
556.0258117646
 20
1554.2537411262
 40
1.0
100
AcDbArc
 50
90.0
 51
112.3923115549
  0
ARC
  5
381
100
AcDbEntity
  8
0
100
AcDbCircle
 62
7
  6
BYLAYER
 10
560.3372167883
 20
1554.1537411262
 40
1.0
100
AcDbArc
 50
0.0
 51
90.0
  0
ARC
  5
382
100
AcDbEntity
  8
0
100
AcDbCircle
 62
7
  6
BYLAYER
 10
560.8258117646
 20
1554.1537411262
 40
1.0
100
AcDbArc
 50
0.0
 51
69.8873089278
  0
ARC
  5
383
100
AcDbEntity
  8
0
100
AcDbCircle
 62
7
  6
BYLAYER
 10
556.8258117646
 20
1554.1537411262
 40
1.0
100
AcDbArc
 50
90.0
 51
180.0
  0
ARC
  5
384
100
AcDbEntity
  8
0
100
AcDbCircle
 62
7
  6
BYLAYER
 10
560.3179710016
 20
1554.2424166973
 40
0.911324429
100
AcDbArc
 50
88.9031685178
 51
89.9995120861
  0
ARC
  5
385
100
AcDbEntity
  8
0
100
AcDbCircle
 62
7
  6
BYLAYER
 10
561.3258117646
 20
1552.1537411262
 40
0.5
100
AcDbArc
 50
0.0
 51
88.8357968818
  0
ARC
  5
386
100
AcDbEntity
  8
0
100
AcDbCircle
 62
7
  6
BYLAYER
 10
537.8258294265
 20
1551.6537413093
 40
0.4999999532
100
AcDbArc
 50
102.1804098124
 51
282.180210997
  0
ARC
  5
387
100
AcDbEntity
  8
0
100
AcDbCircle
 62
7
  6
BYLAYER
 10
553.8257941027
 20
1551.6537413093
 40
0.4999999532
100
AcDbArc
 50
257.819789003
 51
77.8195901876
  0
ARC
  5
388
100
AcDbEntity
  8
0
100
AcDbCircle
 62
7
  6
BYLAYER
 10
702.6742148421
 20
122.5537411262
 40
1.0
100
AcDbArc
 50
247.6323509968
 51
270.0
  0
ARC
  5
389
100
AcDbEntity
  8
0
100
AcDbCircle
 62
7
  6
BYLAYER
 10
666.274214845
 20
122.5537411262
 40
1.0
100
AcDbArc
 50
270.0
 51
292.3676490032
  0
ARC
  5
38A
100
AcDbEntity
  8
0
100
AcDbCircle
 62
7
  6
BYLAYER
 10
703.6746898821
 20
122.5537411262
 40
1.0
100
AcDbArc
 50
247.6323509968
 51
270.0
  0
ARC
  5
38B
100
AcDbEntity
  8
0
100
AcDbCircle
 62
7
  6
BYLAYER
 10
708.2746898821
 20
122.5537411262
 40
1.0
100
AcDbArc
 50
270.0
 51
360.0
  0
ARC
  5
38C
100
AcDbEntity
  8
0
100
AcDbCircle
 62
7
  6
BYLAYER
 10
660.6746898851
 20
122.5537411262
 40
1.0
100
AcDbArc
 50
180.0
 51
270.0
  0
ARC
  5
38D
100
AcDbEntity
  8
0
100
AcDbCircle
 62
7
  6
BYLAYER
 10
665.2746898851
 20
122.5537411262
 40
1.0
100
AcDbArc
 50
270.0
 51
292.3676490032
  0
ARC
  5
38E
100
AcDbEntity
  8
0
100
AcDbCircle
 62
7
  6
BYLAYER
 10
660.9628098184
 20
122.6536309878
 40
1.0
100
AcDbArc
 50
180.0
 51
270.0
  0
ARC
  5
38F
100
AcDbEntity
  8
0
100
AcDbCircle
 62
7
  6
BYLAYER
 10
707.9856198658
 20
122.6536309878
 40
1.0
100
AcDbArc
 50
270.0
 51
360.0
  0
ARC
  5
390
100
AcDbEntity
  8
0
100
AcDbCircle
 62
7
  6
BYLAYER
 10
708.4742148421
 20
122.6536309878
 40
1.0
100
AcDbArc
 50
290.1402792352
 51
360.0
  0
ARC
  5
391
100
AcDbEntity
  8
0
100
AcDbCircle
 62
7
  6
BYLAYER
 10
664.4742148421
 20
122.6536309878
 40
1.0
100
AcDbArc
 50
270.0
 51
360.0
  0
ARC
  5
392
100
AcDbEntity
  8
0
100
AcDbCircle
 62
7
  6
BYLAYER
 10
660.4742148421
 20
122.6536309878
 40
1.0
100
AcDbArc
 50
180.0
 51
249.9315512356
  0
ARC
  5
393
100
AcDbEntity
  8
0
100
AcDbCircle
 62
7
  6
BYLAYER
 10
704.4742148421
 20
122.6536309878
 40
1.0
100
AcDbArc
 50
180.0
 51
270.0
  0
ARC
  5
394
100
AcDbEntity
  8
0
100
AcDbCircle
 62
7
  6
BYLAYER
 10
660.9820556052
 20
122.5649554199
 40
0.9113244322
100
AcDbArc
 50
268.9031685193
 51
269.9995120838
  0
ARC
  5
395
100
AcDbEntity
  8
0
100
AcDbCircle
 62
7
  6
BYLAYER
 10
707.9663741523
 20
122.5640991571
 40
0.9104681693
100
AcDbArc
 50
270.0004837627
 51
271.0800850326
  0
ARC
  5
396
100
AcDbEntity
  8
0
100
AcDbCircle
 62
7
  6
BYLAYER
 10
708.9742148421
 20
124.6536309878
 40
0.5
100
AcDbArc
 50
271.1642031186
 51
360.0
  0
ARC
  5
397
100
AcDbEntity
  8
0
100
AcDbCircle
 62
7
  6
BYLAYER
 10
659.9742148421
 20
124.6536309878
 40
0.5
100
AcDbArc
 50
180.0
 51
268.8357968818
  0
ARC
  5
398
100
AcDbEntity
  8
0
100
AcDbCircle
 62
7
  6
BYLAYER
 10
709.3364609719
 20
124.2459466857
 40
0.351195612
100
AcDbArc
 50
168.886382696
 51
177.9822952259
  0
ARC
  5
399
100
AcDbEntity
  8
0
100
AcDbCircle
 62
7
  6
BYLAYER
 10
666.2749426531
 20
1554.2537411262
 40
1.0
100
AcDbArc
 50
67.6076884451
 51
90.0
  0
ARC
  5
39A
100
AcDbEntity
  8
0
100
AcDbCircle
 62
7
  6
BYLAYER
 10
665.2749426531
 20
1554.2537411262
 40
1.0
100
AcDbArc
 50
67.6076884452
 51
90.0
  0
ARC
  5
39B
100
AcDbEntity
  8
0
100
AcDbCircle
 62
7
  6
BYLAYER
 10
660.6749426531
 20
1554.2537411262
 40
1.0
100
AcDbArc
 50
90.0
 51
180.0
  0
ARC
  5
39C
100
AcDbEntity
  8
0
100
AcDbCircle
 62
7
  6
BYLAYER
 10
660.9635376294
 20
1554.1537411262
 40
1.0
100
AcDbArc
 50
90.0
 51
180.0
  0
ARC
  5
39D
100
AcDbEntity
  8
0
100
AcDbCircle
 62
7
  6
BYLAYER
 10
660.4749426531
 20
1554.1537411262
 40
1.0
100
AcDbArc
 50
110.1126910722
 51
180.0
  0
ARC
  5
39E
100
AcDbEntity
  8
0
100
AcDbCircle
 62
7
  6
BYLAYER
 10
664.4749426531
 20
1554.1537411262
 40
1.0
100
AcDbArc
 50
0.0
 51
90.0
  0
ARC
  5
39F
100
AcDbEntity
  8
0
100
AcDbCircle
 62
7
  6
BYLAYER
 10
660.9827833429
 20
1554.2432729584
 40
0.9104681679
100
AcDbArc
 50
90.000483762
 51
91.0800850335
  0
ARC
  5
3A0
100
AcDbEntity
  8
0
100
AcDbCircle
 62
7
  6
BYLAYER
 10
659.9749426531
 20
1552.1537411262
 40
0.5
100
AcDbArc
 50
91.1642031186
 51
180.0
  0
ARC
  5
3A1
100
AcDbEntity
  8
0
100
AcDbCircle
 62
7
  6
BYLAYER
 10
667.4749603156
 20
1551.653741309
 40
0.4999999534
100
AcDbArc
 50
102.1571786862
 51
282.1569797606
  0
ARC
  5
3A2
100
AcDbEntity
  8
0
100
AcDbCircle
 62
7
  6
BYLAYER
 10
683.4749249907
 20
1551.653741309
 40
0.4999999534
100
AcDbArc
 50
257.8430202394
 51
77.8428213138
  0
ARC
  5
3A3
100
AcDbEntity
  8
0
100
AcDbCircle
 62
7
  6
BYLAYER
 10
659.612696523
 20
1552.5614254283
 40
0.3511956123
100
AcDbArc
 50
348.8863826995
 51
357.9822949889
  0
ARC
  5
3A4
100
AcDbEntity
  8
0
100
AcDbCircle
 62
7
  6
BYLAYER
 10
679.2981826531
 20
1562.8537411262
 40
0.3
100
AcDbArc
 50
0.0
 51
90.0
  0
ARC
  5
3A5
100
AcDbEntity
  8
0
100
AcDbCircle
 62
7
  6
BYLAYER
 10
671.6481826531
 20
1562.8537411262
 40
0.3
100
AcDbArc
 50
90.0
 51
180.0
  0
ARC
  5
3A6
100
AcDbEntity
  8
0
100
AcDbCircle
 62
7
  6
BYLAYER
 10
702.6749426531
 20
1554.2537411262
 40
1.0
100
AcDbArc
 50
90.0
 51
112.3923115549
  0
ARC
  5
3A7
100
AcDbEntity
  8
0
100
AcDbCircle
 62
7
  6
BYLAYER
 10
708.2749426531
 20
1554.2537411262
 40
1.0
100
AcDbArc
 50
0.0
 51
90.0
  0
ARC
  5
3A8
100
AcDbEntity
  8
0
100
AcDbCircle
 62
7
  6
BYLAYER
 10
703.6749426531
 20
1554.2537411262
 40
1.0
100
AcDbArc
 50
90.0
 51
112.3923115549
  0
ARC
  5
3A9
100
AcDbEntity
  8
0
100
AcDbCircle
 62
7
  6
BYLAYER
 10
707.9863476769
 20
1554.1537411262
 40
1.0
100
AcDbArc
 50
0.0
 51
90.0
  0
ARC
  5
3AA
100
AcDbEntity
  8
0
100
AcDbCircle
 62
7
  6
BYLAYER
 10
708.4749426531
 20
1554.1537411262
 40
1.0
100
AcDbArc
 50
0.0
 51
69.8873089278
  0
ARC
  5
3AB
100
AcDbEntity
  8
0
100
AcDbCircle
 62
7
  6
BYLAYER
 10
704.4749426531
 20
1554.1537411262
 40
1.0
100
AcDbArc
 50
90.0
 51
180.0
  0
ARC
  5
3AC
100
AcDbEntity
  8
0
100
AcDbCircle
 62
7
  6
BYLAYER
 10
707.9671018901
 20
1554.2424166973
 40
0.911324429
100
AcDbArc
 50
88.9031685178
 51
89.9995120861
  0
ARC
  5
3AD
100
AcDbEntity
  8
0
100
AcDbCircle
 62
7
  6
BYLAYER
 10
708.9749426531
 20
1552.1537411262
 40
0.5
100
AcDbArc
 50
0.0
 51
88.8357968818
  0
ARC
  5
3AE
100
AcDbEntity
  8
0
100
AcDbCircle
 62
7
  6
BYLAYER
 10
685.474960315
 20
1551.6537413093
 40
0.4999999532
100
AcDbArc
 50
102.1804098124
 51
282.180210997
  0
ARC
  5
3AF
100
AcDbEntity
  8
0
100
AcDbCircle
 62
7
  6
BYLAYER
 10
701.4749249912
 20
1551.6537413093
 40
0.4999999532
100
AcDbArc
 50
257.819789003
 51
77.8195901877
  0
SPLINE
  5
3B0
100
AcDbEntity
  8
0
100
AcDbSpline
 62
7
  6
BYLAYER
 70
0
 71
3
 72
11
 73
7
 74
0
 42
0.0000001
 43
0.0000001
 44
0.0000000001
 40
0.0
 40
0.0
 40
0.0
 40
0.0
 40
0.288432907
 40
0.5554725908
 40
0.7902209526
 40
1.0
 40
1.0
 40
1.0
 40
1.0
 10
677.8527187343
 20
1562.8537411262
 30
0.0
 10
677.8527187343
 20
1562.8926827924
 30
0.0
 10
677.8423212508
 20
1562.9681731616
 30
0.0
 10
677.79673726
 20
1563.0665721151
 30
0.0
 10
677.7262881792
 20
1563.1359376669
 30
0.0
 10
677.6655310566
 20
1563.1537420916
 30
0.0
 10
677.6372085406
 20
1563.1537411262
 30
0.0
  0
SPLINE
  5
3B1
100
AcDbEntity
  8
0
100
AcDbSpline
 62
7
  6
BYLAYER
 70
0
 71
3
 72
11
 73
7
 74
0
 42
0.0000001
 43
0.0000001
 44
0.0000000001
 40
0.0
 40
0.0
 40
0.0
 40
0.0
 40
0.2883671583
 40
0.5553852791
 40
0.7902445524
 40
1.0
 40
1.0
 40
1.0
 40
1.0
 10
678.8426682279
 20
1562.8537411263
 30
0.0
 10
678.8426682279
 20
1562.8926618323
 30
0.0
 10
678.8322285679
 20
1562.9681201564
 30
0.0
 10
678.7865562563
 20
1563.0664359391
 30
0.0
 10
678.7161957104
 20
1563.1358130778
 30
0.0
 10
678.6554685748
 20
1563.1537420912
 30
0.0
 10
678.6271580343
 20
1563.1537411262
 30
0.0
  0
SPLINE
  5
3B2
100
AcDbEntity
  8
0
100
AcDbSpline
 62
7
  6
BYLAYER
 70
0
 71
3
 72
8
 73
4
 74
0
 42
0.0000001
 43
0.0000001
 44
0.0000000001
 40
0.0
 40
0.0
 40
0.0
 40
0.0
 40
1.0
 40
1.0
 40
1.0
 40
1.0
 10
708.9918513733
 20
124.3136414597
 30
0.0
 10
709.001148225
 20
124.3611742588
 30
0.0
 10
709.0202992378
 20
124.4076487972
 30
0.0
 10
709.0469534379
 20
124.4480882836
 30
0.0
  0
SPLINE
  5
3B3
100
AcDbEntity
  8
0
100
AcDbSpline
 62
7
  6
BYLAYER
 70
0
 71
3
 72
9
 73
5
 74
0
 42
0.0000001
 43
0.0000001
 44
0.0000000001
 40
0.0
 40
0.0
 40
0.0
 40
0.0
 40
0.2423551149
 40
1.0
 40
1.0
 40
1.0
 40
1.0
 10
708.9856238773
 20
124.2689434868
 30
0.0
 10
708.9856328959
 20
124.3004291566
 30
0.0
 10
708.9804278959
 20
124.4303304376
 30
0.0
 10
708.9554387441
 20
124.5591303337
 30
0.0
 10
708.9279057604
 20
124.6536308837
 30
0.0
  0
SPLINE
  5
3B4
100
AcDbEntity
  8
0
100
AcDbSpline
 62
7
  6
BYLAYER
 70
0
 71
3
 72
11
 73
7
 74
0
 42
0.0000001
 43
0.0000001
 44
0.0000000001
 40
0.0
 40
0.0
 40
0.0
 40
0.0
 40
0.2455000837
 40
0.4935877931
 40
0.7454492783
 40
1.0
 40
1.0
 40
1.0
 40
1.0
 10
660.9646108949
 20
121.6537979677
 30
0.0
 10
660.8407589999
 20
121.6561681931
 30
0.0
 10
660.5899065511
 20
121.7123946566
 30
0.0
 10
660.2767313072
 20
121.9374627849
 30
0.0
 10
660.0687580647
 20
122.2670566328
 30
0.0
 10
660.0205238969
 20
122.5251896386
 30
0.0
 10
660.0205238969
 20
122.6536309878
 30
0.0
  0
SPLINE
  5
3B5
100
AcDbEntity
  8
0
100
AcDbSpline
 62
7
  6
BYLAYER
 70
0
 71
3
 72
11
 73
7
 74
0
 42
0.0000001
 43
0.0000001
 44
0.0000000001
 40
0.0
 40
0.0
 40
0.0
 40
0.0
 40
0.2370154222
 40
0.4817461593
 40
0.7371748139
 40
1.0
 40
1.0
 40
1.0
 40
1.0
 10
664.1325740556
 20
121.6536309878
 30
0.0
 10
664.2494603383
 20
121.6536309878
 30
0.0
 10
664.490001788
 20
121.707899723
 30
0.0
 10
664.786790343
 20
121.934546742
 30
0.0
 10
664.9820739233
 20
122.2660490955
 30
0.0
 10
665.0270012466
 20
122.5240163883
 30
0.0
 10
665.0270012466
 20
122.6536309878
 30
0.0
  0
SPLINE
  5
3B6
100
AcDbEntity
  8
0
100
AcDbSpline
 62
7
  6
BYLAYER
 70
0
 71
3
 72
11
 73
7
 74
0
 42
0.0000001
 43
0.0000001
 44
0.0000000001
 40
0.0
 40
0.0
 40
0.0
 40
0.0
 40
0.2429770416
 40
0.4900484521
 40
0.7429376142
 40
1.0
 40
1.0
 40
1.0
 40
1.0
 10
664.4742139653
 20
121.6536309878
 30
0.0
 10
664.5973064344
 20
121.6536381359
 30
0.0
 10
664.8484721276
 20
121.7063863747
 30
0.0
 10
665.1631691202
 20
121.9303104874
 30
0.0
 10
665.3727666992
 20
122.2624121331
 30
0.0
 10
665.4214464601
 20
122.5234028657
 30
0.0
 10
665.4214472793
 20
122.6536309878
 30
0.0
  0
SPLINE
  5
3B7
100
AcDbEntity
  8
0
100
AcDbSpline
 62
7
  6
BYLAYER
 70
0
 71
3
 72
11
 73
7
 74
0
 42
0.0000001
 43
0.0000001
 44
0.0000000001
 40
0.0
 40
0.0
 40
0.0
 40
0.0
 40
0.2570642536
 40
0.5099515937
 40
0.7570212812
 40
1.0
 40
1.0
 40
1.0
 40
1.0
 10
703.5269823167
 20
122.6536309878
 30
0.0
 10
703.5269831481
 20
122.5234019044
 30
0.0
 10
703.5756631111
 20
122.2624109995
 30
0.0
 10
703.7852609232
 20
121.9303106638
 30
0.0
 10
704.0999565411
 20
121.7063865479
 30
0.0
 10
704.3511223751
 20
121.6536380477
 30
0.0
 10
704.4742157081
 20
121.6536309878
 30
0.0
  0
SPLINE
  5
3B8
100
AcDbEntity
  8
0
100
AcDbSpline
 62
7
  6
BYLAYER
 70
0
 71
3
 72
11
 73
7
 74
0
 42
0.0000001
 43
0.0000001
 44
0.0000000001
 40
0.0
 40
0.0
 40
0.0
 40
0.0
 40
0.2627344212
 40
0.5180975916
 40
0.762900959
 40
1.0
 40
1.0
 40
1.0
 40
1.0
 10
703.9214284376
 20
122.6536309878
 30
0.0
 10
703.9214284376
 20
122.5240612202
 30
0.0
 10
703.9663245395
 20
122.2661731965
 30
0.0
 10
704.1615252394
 20
121.9346780594
 30
0.0
 10
704.4583075831
 20
121.7079401081
 30
0.0
 10
704.698928172
 20
121.6536309878
 30
0.0
 10
704.8158556286
 20
121.6536309878
 30
0.0
  0
SPLINE
  5
3B9
100
AcDbEntity
  8
0
100
AcDbSpline
 62
7
  6
BYLAYER
 70
0
 71
3
 72
11
 73
7
 74
0
 42
0.0000001
 43
0.0000001
 44
0.0000000001
 40
0.0
 40
0.0
 40
0.0
 40
0.0
 40
0.2544641196
 40
0.5062554122
 40
0.7544085347
 40
1.0
 40
1.0
 40
1.0
 40
1.0
 10
708.9279057873
 20
122.6536309878
 30
0.0
 10
708.9279057873
 20
122.5252099352
 30
0.0
 10
708.8796882065
 20
122.2671097142
 30
0.0
 10
708.6717258428
 20
121.9374838712
 30
0.0
 10
708.3584553432
 20
121.7123358971
 30
0.0
 10
708.1074576724
 20
121.6561280823
 30
0.0
 10
707.9835364077
 20
121.6537927557
 30
0.0
  0
SPLINE
  5
3BA
100
AcDbEntity
  8
0
100
AcDbSpline
 62
7
  6
BYLAYER
 70
0
 71
3
 72
9
 73
5
 74
0
 42
0.0000001
 43
0.0000001
 44
0.0000000001
 40
0.0
 40
0.0
 40
0.0
 40
0.0
 40
0.2703934266
 40
1.0
 40
1.0
 40
1.0
 40
1.0
 10
708.9279057873
 20
124.6536309878
 30
0.0
 10
708.9410701037
 20
124.6366936568
 30
0.0
 10
708.9877689835
 20
124.572615457
 30
0.0
 10
709.0267734907
 20
124.5023399214
 30
0.0
 10
709.0469534378
 20
124.4480882838
 30
0.0
  0
SPLINE
  5
3BB
100
AcDbEntity
  8
0
100
AcDbSpline
 62
7
  6
BYLAYER
 70
0
 71
3
 72
9
 73
5
 74
0
 42
0.0000001
 43
0.0000001
 44
0.0000000001
 40
0.0
 40
0.0
 40
0.0
 40
0.0
 40
0.2799425407
 40
1.0
 40
1.0
 40
1.0
 40
1.0
 10
709.0469533244
 20
124.4480880781
 30
0.0
 10
709.0519794657
 20
124.4331560521
 30
0.0
 10
709.067444792
 20
124.3792980374
 30
0.0
 10
709.0705570781
 20
124.3198699681
 30
0.0
 10
709.0591231095
 20
124.2809914228
 30
0.0
  0
SPLINE
  5
3BC
100
AcDbEntity
  8
0
100
AcDbSpline
 62
7
  6
BYLAYER
 70
0
 71
3
 72
8
 73
4
 74
0
 42
0.0000001
 43
0.0000001
 44
0.0000000001
 40
0.0
 40
0.0
 40
0.0
 40
0.0
 40
1.0
 40
1.0
 40
1.0
 40
1.0
 10
709.0591231095
 20
124.2809914228
 30
0.0
 10
709.0541290056
 20
124.2640101361
 30
0.0
 10
709.046443051
 20
124.2475759284
 30
0.0
 10
709.0364136051
 20
124.2329911628
 30
0.0
  0
SPLINE
  5
3BD
100
AcDbEntity
  8
0
100
AcDbSpline
 62
7
  6
BYLAYER
 70
0
 71
3
 72
8
 73
4
 74
0
 42
0.0000001
 43
0.0000001
 44
0.0000000001
 40
0.0
 40
0.0
 40
0.0
 40
0.0
 40
1.0
 40
1.0
 40
1.0
 40
1.0
 10
709.0364136051
 20
124.2329911628
 30
0.0
 10
709.0233736741
 20
124.214028566
 30
0.0
 10
709.0057991555
 20
124.1976849829
 30
0.0
 10
708.9862267522
 20
124.1855795746
 30
0.0
  0
SPLINE
  5
3BE
100
AcDbEntity
  8
0
100
AcDbSpline
 62
7
  6
BYLAYER
 70
0
 71
3
 72
11
 73
7
 74
0
 42
0.0000001
 43
0.0000001
 44
0.0000000001
 40
0.0
 40
0.0
 40
0.0
 40
0.0
 40
0.2454646712
 40
0.49351694
 40
0.7453862235
 40
1.0
 40
1.0
 40
1.0
 40
1.0
 10
706.9271359642
 20
121.6536309878
 30
0.0
 10
707.0523912811
 20
121.6536309878
 30
0.0
 10
707.3071413239
 20
121.7063681027
 30
0.0
 10
707.6266178629
 20
121.9304402094
 30
0.0
 10
707.8392874895
 20
122.2625609036
 30
0.0
 10
707.8886599119
 20
122.5237070802
 30
0.0
 10
707.8886599119
 20
122.6536309878
 30
0.0
  0
SPLINE
  5
3BF
100
AcDbEntity
  8
0
100
AcDbSpline
 62
7
  6
BYLAYER
 70
0
 71
3
 72
8
 73
4
 74
0
 42
0.0000001
 43
0.0000001
 44
0.0000000001
 40
0.0
 40
0.0
 40
0.0
 40
0.0
 40
1.0
 40
1.0
 40
1.0
 40
1.0
 10
709.0894543185
 20
124.6536309878
 30
0.0
 10
709.0894543185
 20
124.5836674036
 30
0.0
 10
709.0747858942
 20
124.5122775156
 30
0.0
 10
709.0469534378
 20
124.4480882838
 30
0.0
  0
SPLINE
  5
3C0
100
AcDbEntity
  8
0
100
AcDbSpline
 62
7
  6
BYLAYER
 70
0
 71
3
 72
9
 73
5
 74
0
 42
0.0000001
 43
0.0000001
 44
0.0000000001
 40
0.0
 40
0.0
 40
0.0
 40
0.0
 40
0.2581441243
 40
1.0
 40
1.0
 40
1.0
 40
1.0
 10
660.0205239347
 20
124.653630842
 30
0.0
 10
660.0111443274
 20
124.6214375195
 30
0.0
 10
659.9787629585
 20
124.4956505555
 30
0.0
 10
659.9627793421
 20
124.3653211486
 30
0.0
 10
659.9628058054
 20
124.2689570648
 30
0.0
  0
SPLINE
  5
3C1
100
AcDbEntity
  8
0
100
AcDbSpline
 62
7
  6
BYLAYER
 70
0
 71
3
 72
8
 73
4
 74
0
 42
0.0000001
 43
0.0000001
 44
0.0000000001
 40
0.0
 40
0.0
 40
0.0
 40
0.0
 40
1.0
 40
1.0
 40
1.0
 40
1.0
 10
659.9014762464
 20
124.4480882836
 30
0.0
 10
659.936185867
 20
124.3954271936
 30
0.0
 10
659.9582896588
 20
124.3318931008
 30
0.0
 10
659.9624155153
 20
124.2689572169
 30
0.0
  0
SPLINE
  5
3C2
100
AcDbEntity
  8
0
100
AcDbSpline
 62
7
  6
BYLAYER
 70
0
 71
3
 72
9
 73
5
 74
0
 42
0.0000001
 43
0.0000001
 44
0.0000000001
 40
0.0
 40
0.0
 40
0.0
 40
0.0
 40
0.27038548
 40
1.0
 40
1.0
 40
1.0
 40
1.0
 10
660.0205238969
 20
124.6536309878
 30
0.0
 10
660.0073599483
 20
124.6366941373
 30
0.0
 10
659.9606567472
 20
124.5726189025
 30
0.0
 10
659.9216564445
 20
124.5023405735
 30
0.0
 10
659.9014762464
 20
124.4480882837
 30
0.0
  0
SPLINE
  5
3C3
100
AcDbEntity
  8
0
100
AcDbSpline
 62
7
  6
BYLAYER
 70
0
 71
3
 72
8
 73
4
 74
0
 42
0.0000001
 43
0.0000001
 44
0.0000000001
 40
0.0
 40
0.0
 40
0.0
 40
0.0
 40
1.0
 40
1.0
 40
1.0
 40
1.0
 10
659.9014762464
 20
124.4480882837
 30
0.0
 10
659.87364379
 20
124.5122775156
 30
0.0
 10
659.8589753657
 20
124.5836674036
 30
0.0
 10
659.8589753657
 20
124.6536309878
 30
0.0
  0
SPLINE
  5
3C4
100
AcDbEntity
  8
0
100
AcDbSpline
 62
7
  6
BYLAYER
 70
0
 71
3
 72
9
 73
5
 74
0
 42
0.0000001
 43
0.0000001
 44
0.0000000001
 40
0.0
 40
0.0
 40
0.0
 40
0.0
 40
0.2666839678
 40
1.0
 40
1.0
 40
1.0
 40
1.0
 10
659.9627587841
 20
124.1852371516
 30
0.0
 10
659.9535274196
 20
124.1909014218
 30
0.0
 10
659.9207230977
 20
124.2150846733
 30
0.0
 10
659.8979346811
 20
124.2519565664
 30
0.0
 10
659.889450657
 20
124.2805040904
 30
0.0
  0
SPLINE
  5
3C5
100
AcDbEntity
  8
0
100
AcDbSpline
 62
7
  6
BYLAYER
 70
0
 71
3
 72
9
 73
5
 74
0
 42
0.0000001
 43
0.0000001
 44
0.0000000001
 40
0.0
 40
0.0
 40
0.0
 40
0.0
 40
0.2268944865
 40
1.0
 40
1.0
 40
1.0
 40
1.0
 10
659.889450657
 20
124.2805040904
 30
0.0
 10
659.8857952815
 20
124.2928039046
 30
0.0
 10
659.8756226513
 20
124.3488619413
 30
0.0
 10
659.887528694
 20
124.4066513065
 30
0.0
 10
659.9014763658
 20
124.4480880673
 30
0.0
  0
SPLINE
  5
3C6
100
AcDbEntity
  8
0
100
AcDbSpline
 62
7
  6
BYLAYER
 70
0
 71
3
 72
11
 73
7
 74
0
 42
0.0000001
 43
0.0000001
 44
0.0000000001
 40
0.0
 40
0.0
 40
0.0
 40
0.0
 40
0.2545253123
 40
0.5063269197
 40
0.7544493833
 40
1.0
 40
1.0
 40
1.0
 40
1.0
 10
661.0597697723
 20
122.6536309878
 30
0.0
 10
661.0597697723
 20
122.5237522464
 30
0.0
 10
661.109107164
 20
122.2626881303
 30
0.0
 10
661.321687687
 20
121.9305706337
 30
0.0
 10
661.6411624974
 20
121.706406465
 30
0.0
 10
661.895994571
 20
121.6536309878
 30
0.0
 10
662.02129372
 20
121.6536309878
 30
0.0
  0
SPLINE
  5
3C7
100
AcDbEntity
  8
0
100
AcDbSpline
 62
7
  6
BYLAYER
 70
0
 71
3
 72
9
 73
5
 74
0
 42
0.0000001
 43
0.0000001
 44
0.0000000001
 40
0.0
 40
0.0
 40
0.0
 40
0.0
 40
0.2423551149
 40
1.0
 40
1.0
 40
1.0
 40
1.0
 10
561.3364929887
 20
124.268943487
 30
0.0
 10
561.3365020074
 20
124.3004291567
 30
0.0
 10
561.3312970074
 20
124.4303304377
 30
0.0
 10
561.3063078555
 20
124.5591303337
 30
0.0
 10
561.2787748718
 20
124.6536308837
 30
0.0
  0
SPLINE
  5
3C8
100
AcDbEntity
  8
0
100
AcDbSpline
 62
7
  6
BYLAYER
 70
0
 71
3
 72
8
 73
4
 74
0
 42
0.0000001
 43
0.0000001
 44
0.0000000001
 40
0.0
 40
0.0
 40
0.0
 40
0.0
 40
1.0
 40
1.0
 40
1.0
 40
1.0
 10
561.3427204848
 20
124.3136414597
 30
0.0
 10
561.3520173365
 20
124.3611742588
 30
0.0
 10
561.3711683493
 20
124.4076487972
 30
0.0
 10
561.3978225494
 20
124.4480882836
 30
0.0
  0
SPLINE
  5
3C9
100
AcDbEntity
  8
0
100
AcDbSpline
 62
7
  6
BYLAYER
 70
0
 71
3
 72
11
 73
7
 74
0
 42
0.0000001
 43
0.0000001
 44
0.0000000001
 40
0.0
 40
0.0
 40
0.0
 40
0.0
 40
0.2455000837
 40
0.4935877931
 40
0.7454492783
 40
1.0
 40
1.0
 40
1.0
 40
1.0
 10
513.3154800063
 20
121.6537979677
 30
0.0
 10
513.1916281114
 20
121.6561681931
 30
0.0
 10
512.9407756625
 20
121.7123946566
 30
0.0
 10
512.6276004187
 20
121.9374627849
 30
0.0
 10
512.4196271762
 20
122.2670566328
 30
0.0
 10
512.3713930084
 20
122.5251896386
 30
0.0
 10
512.3713930084
 20
122.6536309878
 30
0.0
  0
SPLINE
  5
3CA
100
AcDbEntity
  8
0
100
AcDbSpline
 62
7
  6
BYLAYER
 70
0
 71
3
 72
11
 73
7
 74
0
 42
0.0000001
 43
0.0000001
 44
0.0000000001
 40
0.0
 40
0.0
 40
0.0
 40
0.0
 40
0.2370154222
 40
0.4817461593
 40
0.7371748139
 40
1.0
 40
1.0
 40
1.0
 40
1.0
 10
516.4834431671
 20
121.6536309878
 30
0.0
 10
516.6003294498
 20
121.6536309878
 30
0.0
 10
516.8408708995
 20
121.707899723
 30
0.0
 10
517.1376594545
 20
121.934546742
 30
0.0
 10
517.3329430348
 20
122.2660490955
 30
0.0
 10
517.3778703581
 20
122.5240163883
 30
0.0
 10
517.3778703581
 20
122.6536309878
 30
0.0
  0
SPLINE
  5
3CB
100
AcDbEntity
  8
0
100
AcDbSpline
 62
7
  6
BYLAYER
 70
0
 71
3
 72
11
 73
7
 74
0
 42
0.0000001
 43
0.0000001
 44
0.0000000001
 40
0.0
 40
0.0
 40
0.0
 40
0.0
 40
0.2429770416
 40
0.4900484521
 40
0.7429376142
 40
1.0
 40
1.0
 40
1.0
 40
1.0
 10
516.8250830768
 20
121.6536309878
 30
0.0
 10
516.9481755458
 20
121.6536381359
 30
0.0
 10
517.199341239
 20
121.7063863747
 30
0.0
 10
517.5140382317
 20
121.9303104874
 30
0.0
 10
517.7236358107
 20
122.2624121331
 30
0.0
 10
517.7723155715
 20
122.5234028657
 30
0.0
 10
517.7723163908
 20
122.6536309878
 30
0.0
  0
SPLINE
  5
3CC
100
AcDbEntity
  8
0
100
AcDbSpline
 62
7
  6
BYLAYER
 70
0
 71
3
 72
11
 73
7
 74
0
 42
0.0000001
 43
0.0000001
 44
0.0000000001
 40
0.0
 40
0.0
 40
0.0
 40
0.0
 40
0.2570642536
 40
0.5099515937
 40
0.7570212812
 40
1.0
 40
1.0
 40
1.0
 40
1.0
 10
555.8778514282
 20
122.6536309878
 30
0.0
 10
555.8778522596
 20
122.5234019044
 30
0.0
 10
555.9265322226
 20
122.2624109995
 30
0.0
 10
556.1361300346
 20
121.9303106638
 30
0.0
 10
556.4508256526
 20
121.7063865479
 30
0.0
 10
556.7019914866
 20
121.6536380477
 30
0.0
 10
556.8250848196
 20
121.6536309878
 30
0.0
  0
SPLINE
  5
3CD
100
AcDbEntity
  8
0
100
AcDbSpline
 62
7
  6
BYLAYER
 70
0
 71
3
 72
11
 73
7
 74
0
 42
0.0000001
 43
0.0000001
 44
0.0000000001
 40
0.0
 40
0.0
 40
0.0
 40
0.0
 40
0.2627344212
 40
0.5180975916
 40
0.762900959
 40
1.0
 40
1.0
 40
1.0
 40
1.0
 10
556.2722975491
 20
122.6536309878
 30
0.0
 10
556.2722975491
 20
122.5240612202
 30
0.0
 10
556.317193651
 20
122.2661731965
 30
0.0
 10
556.5123943509
 20
121.9346780594
 30
0.0
 10
556.8091766946
 20
121.7079401081
 30
0.0
 10
557.0497972835
 20
121.6536309878
 30
0.0
 10
557.1667247401
 20
121.6536309878
 30
0.0
  0
SPLINE
  5
3CE
100
AcDbEntity
  8
0
100
AcDbSpline
 62
7
  6
BYLAYER
 70
0
 71
3
 72
11
 73
7
 74
0
 42
0.0000001
 43
0.0000001
 44
0.0000000001
 40
0.0
 40
0.0
 40
0.0
 40
0.0
 40
0.2544641196
 40
0.5062554122
 40
0.7544085347
 40
1.0
 40
1.0
 40
1.0
 40
1.0
 10
561.2787748988
 20
122.6536309878
 30
0.0
 10
561.2787748988
 20
122.5252099352
 30
0.0
 10
561.230557318
 20
122.2671097142
 30
0.0
 10
561.0225949543
 20
121.9374838712
 30
0.0
 10
560.7093244547
 20
121.7123358971
 30
0.0
 10
560.4583267839
 20
121.6561280823
 30
0.0
 10
560.3344055192
 20
121.6537927557
 30
0.0
  0
SPLINE
  5
3CF
100
AcDbEntity
  8
0
100
AcDbSpline
 62
7
  6
BYLAYER
 70
0
 71
3
 72
9
 73
5
 74
0
 42
0.0000001
 43
0.0000001
 44
0.0000000001
 40
0.0
 40
0.0
 40
0.0
 40
0.0
 40
0.2799425407
 40
1.0
 40
1.0
 40
1.0
 40
1.0
 10
561.3978224359
 20
124.4480880781
 30
0.0
 10
561.4028485772
 20
124.4331560521
 30
0.0
 10
561.4183139035
 20
124.3792980374
 30
0.0
 10
561.4214261896
 20
124.3198699681
 30
0.0
 10
561.409992221
 20
124.2809914228
 30
0.0
  0
SPLINE
  5
3D0
100
AcDbEntity
  8
0
100
AcDbSpline
 62
7
  6
BYLAYER
 70
0
 71
3
 72
8
 73
4
 74
0
 42
0.0000001
 43
0.0000001
 44
0.0000000001
 40
0.0
 40
0.0
 40
0.0
 40
0.0
 40
1.0
 40
1.0
 40
1.0
 40
1.0
 10
561.409992221
 20
124.2809914228
 30
0.0
 10
561.404998117
 20
124.2640101361
 30
0.0
 10
561.3973121625
 20
124.2475759284
 30
0.0
 10
561.3872827166
 20
124.2329911628
 30
0.0
  0
SPLINE
  5
3D1
100
AcDbEntity
  8
0
100
AcDbSpline
 62
7
  6
BYLAYER
 70
0
 71
3
 72
8
 73
4
 74
0
 42
0.0000001
 43
0.0000001
 44
0.0000000001
 40
0.0
 40
0.0
 40
0.0
 40
0.0
 40
1.0
 40
1.0
 40
1.0
 40
1.0
 10
561.3872827166
 20
124.2329911628
 30
0.0
 10
561.3742427856
 20
124.214028566
 30
0.0
 10
561.3566682669
 20
124.1976849829
 30
0.0
 10
561.3370958637
 20
124.1855795746
 30
0.0
  0
SPLINE
  5
3D2
100
AcDbEntity
  8
0
100
AcDbSpline
 62
7
  6
BYLAYER
 70
0
 71
3
 72
8
 73
4
 74
0
 42
0.0000001
 43
0.0000001
 44
0.0000000001
 40
0.0
 40
0.0
 40
0.0
 40
0.0
 40
1.0
 40
1.0
 40
1.0
 40
1.0
 10
561.44032343
 20
124.6536309878
 30
0.0
 10
561.44032343
 20
124.5836674036
 30
0.0
 10
561.4256550057
 20
124.5122775156
 30
0.0
 10
561.3978225493
 20
124.4480882838
 30
0.0
  0
SPLINE
  5
3D3
100
AcDbEntity
  8
0
100
AcDbSpline
 62
7
  6
BYLAYER
 70
0
 71
3
 72
9
 73
5
 74
0
 42
0.0000001
 43
0.0000001
 44
0.0000000001
 40
0.0
 40
0.0
 40
0.0
 40
0.0
 40
0.2703934266
 40
1.0
 40
1.0
 40
1.0
 40
1.0
 10
561.2787748988
 20
124.6536309878
 30
0.0
 10
561.2919392152
 20
124.6366936568
 30
0.0
 10
561.338638095
 20
124.572615457
 30
0.0
 10
561.3776426022
 20
124.5023399214
 30
0.0
 10
561.3978225493
 20
124.4480882838
 30
0.0
  0
SPLINE
  5
3D4
100
AcDbEntity
  8
0
100
AcDbSpline
 62
7
  6
BYLAYER
 70
0
 71
3
 72
11
 73
7
 74
0
 42
0.0000001
 43
0.0000001
 44
0.0000000001
 40
0.0
 40
0.0
 40
0.0
 40
0.0
 40
0.2454646712
 40
0.49351694
 40
0.7453862235
 40
1.0
 40
1.0
 40
1.0
 40
1.0
 10
559.2780050757
 20
121.6536309878
 30
0.0
 10
559.4032603926
 20
121.6536309878
 30
0.0
 10
559.6580104353
 20
121.7063681027
 30
0.0
 10
559.9774869744
 20
121.9304402094
 30
0.0
 10
560.190156601
 20
122.2625609036
 30
0.0
 10
560.2395290234
 20
122.5237070802
 30
0.0
 10
560.2395290234
 20
122.6536309878
 30
0.0
  0
SPLINE
  5
3D5
100
AcDbEntity
  8
0
100
AcDbSpline
 62
7
  6
BYLAYER
 70
0
 71
3
 72
9
 73
5
 74
0
 42
0.0000001
 43
0.0000001
 44
0.0000000001
 40
0.0
 40
0.0
 40
0.0
 40
0.0
 40
0.2581441244
 40
1.0
 40
1.0
 40
1.0
 40
1.0
 10
512.3713930462
 20
124.653630842
 30
0.0
 10
512.3620134389
 20
124.6214375194
 30
0.0
 10
512.32963207
 20
124.4956505554
 30
0.0
 10
512.3136484536
 20
124.3653211483
 30
0.0
 10
512.3136749168
 20
124.2689570644
 30
0.0
  0
SPLINE
  5
3D6
100
AcDbEntity
  8
0
100
AcDbSpline
 62
7
  6
BYLAYER
 70
0
 71
3
 72
8
 73
4
 74
0
 42
0.0000001
 43
0.0000001
 44
0.0000000001
 40
0.0
 40
0.0
 40
0.0
 40
0.0
 40
1.0
 40
1.0
 40
1.0
 40
1.0
 10
512.2523453579
 20
124.4480882836
 30
0.0
 10
512.2870549786
 20
124.3954271935
 30
0.0
 10
512.3091587703
 20
124.3318931006
 30
0.0
 10
512.3132846268
 20
124.2689572165
 30
0.0
  0
SPLINE
  5
3D7
100
AcDbEntity
  8
0
100
AcDbSpline
 62
7
  6
BYLAYER
 70
0
 71
3
 72
9
 73
5
 74
0
 42
0.0000001
 43
0.0000001
 44
0.0000000001
 40
0.0
 40
0.0
 40
0.0
 40
0.0
 40
0.27038548
 40
1.0
 40
1.0
 40
1.0
 40
1.0
 10
512.3713930084
 20
124.6536309878
 30
0.0
 10
512.3582290598
 20
124.6366941373
 30
0.0
 10
512.3115258587
 20
124.5726189025
 30
0.0
 10
512.272525556
 20
124.5023405735
 30
0.0
 10
512.2523453579
 20
124.4480882837
 30
0.0
  0
SPLINE
  5
3D8
100
AcDbEntity
  8
0
100
AcDbSpline
 62
7
  6
BYLAYER
 70
0
 71
3
 72
8
 73
4
 74
0
 42
0.0000001
 43
0.0000001
 44
0.0000000001
 40
0.0
 40
0.0
 40
0.0
 40
0.0
 40
1.0
 40
1.0
 40
1.0
 40
1.0
 10
512.2523453579
 20
124.4480882837
 30
0.0
 10
512.2245129015
 20
124.5122775156
 30
0.0
 10
512.2098444772
 20
124.5836674036
 30
0.0
 10
512.2098444772
 20
124.6536309878
 30
0.0
  0
SPLINE
  5
3D9
100
AcDbEntity
  8
0
100
AcDbSpline
 62
7
  6
BYLAYER
 70
0
 71
3
 72
9
 73
5
 74
0
 42
0.0000001
 43
0.0000001
 44
0.0000000001
 40
0.0
 40
0.0
 40
0.0
 40
0.0
 40
0.2666839678
 40
1.0
 40
1.0
 40
1.0
 40
1.0
 10
512.3136278956
 20
124.1852371516
 30
0.0
 10
512.3043965311
 20
124.1909014218
 30
0.0
 10
512.2715922092
 20
124.2150846733
 30
0.0
 10
512.2488037926
 20
124.2519565663
 30
0.0
 10
512.2403197685
 20
124.2805040904
 30
0.0
  0
SPLINE
  5
3DA
100
AcDbEntity
  8
0
100
AcDbSpline
 62
7
  6
BYLAYER
 70
0
 71
3
 72
9
 73
5
 74
0
 42
0.0000001
 43
0.0000001
 44
0.0000000001
 40
0.0
 40
0.0
 40
0.0
 40
0.0
 40
0.2268944865
 40
1.0
 40
1.0
 40
1.0
 40
1.0
 10
512.2403197685
 20
124.2805040904
 30
0.0
 10
512.236664393
 20
124.2928039046
 30
0.0
 10
512.2264917627
 20
124.3488619413
 30
0.0
 10
512.2383978055
 20
124.4066513065
 30
0.0
 10
512.2523454773
 20
124.4480880673
 30
0.0
  0
SPLINE
  5
3DB
100
AcDbEntity
  8
0
100
AcDbSpline
 62
7
  6
BYLAYER
 70
0
 71
3
 72
11
 73
7
 74
0
 42
0.0000001
 43
0.0000001
 44
0.0000000001
 40
0.0
 40
0.0
 40
0.0
 40
0.0
 40
0.2545253123
 40
0.5063269197
 40
0.7544493833
 40
1.0
 40
1.0
 40
1.0
 40
1.0
 10
513.4106388838
 20
122.6536309878
 30
0.0
 10
513.4106388838
 20
122.5237522464
 30
0.0
 10
513.4599762755
 20
122.2626881303
 30
0.0
 10
513.6725567985
 20
121.9305706337
 30
0.0
 10
513.9920316089
 20
121.706406465
 30
0.0
 10
514.2468636824
 20
121.6536309878
 30
0.0
 10
514.3721628315
 20
121.6536309878
 30
0.0
  0
SPLINE
  5
3DC
100
AcDbEntity
  8
0
100
AcDbSpline
 62
7
  6
BYLAYER
 70
0
 71
3
 72
8
 73
4
 74
0
 42
0.0000001
 43
0.0000001
 44
0.0000000001
 40
0.0
 40
0.0
 40
0.0
 40
0.0
 40
1.0
 40
1.0
 40
1.0
 40
1.0
 10
512.3081752334
 20
1552.4937306543
 30
0.0
 10
512.2988783817
 20
1552.4461978552
 30
0.0
 10
512.279727369
 20
1552.3997233168
 30
0.0
 10
512.2530731689
 20
1552.3592838304
 30
0.0
  0
SPLINE
  5
3DD
100
AcDbEntity
  8
0
100
AcDbSpline
 62
7
  6
BYLAYER
 70
0
 71
3
 72
9
 73
5
 74
0
 42
0.0000001
 43
0.0000001
 44
0.0000000001
 40
0.0
 40
0.0
 40
0.0
 40
0.0
 40
0.2581441241
 40
1.0
 40
1.0
 40
1.0
 40
1.0
 10
561.2795026721
 20
1552.153741272
 30
0.0
 10
561.2888822791
 20
1552.1859345937
 30
0.0
 10
561.3212636473
 20
1552.3117215546
 30
0.0
 10
561.3372472638
 20
1552.4420509582
 30
0.0
 10
561.3372208014
 20
1552.5384150397
 30
0.0
  0
SPLINE
  5
3DE
100
AcDbEntity
  8
0
100
AcDbSpline
 62
7
  6
BYLAYER
 70
0
 71
3
 72
8
 73
4
 74
0
 42
0.0000001
 43
0.0000001
 44
0.0000000001
 40
0.0
 40
0.0
 40
0.0
 40
0.0
 40
1.0
 40
1.0
 40
1.0
 40
1.0
 10
561.3985503604
 20
1552.3592838304
 30
0.0
 10
561.3638407414
 20
1552.4119449179
 30
0.0
 10
561.3417369502
 20
1552.4754790069
 30
0.0
 10
561.3376110921
 20
1552.5384148876
 30
0.0
  0
SPLINE
  5
3DF
100
AcDbEntity
  8
0
100
AcDbSpline
 62
7
  6
BYLAYER
 70
0
 71
3
 72
9
 73
5
 74
0
 42
0.0000001
 43
0.0000001
 44
0.0000000001
 40
0.0
 40
0.0
 40
0.0
 40
0.0
 40
0.27038548
 40
1.0
 40
1.0
 40
1.0
 40
1.0
 10
561.2795027098
 20
1552.1537411262
 30
0.0
 10
561.2926666584
 20
1552.1706779767
 30
0.0
 10
561.3393698595
 20
1552.2347532115
 30
0.0
 10
561.3783701622
 20
1552.3050315406
 30
0.0
 10
561.3985503603
 20
1552.3592838303
 30
0.0
  0
SPLINE
  5
3E0
100
AcDbEntity
  8
0
100
AcDbSpline
 62
7
  6
BYLAYER
 70
0
 71
3
 72
9
 73
5
 74
0
 42
0.0000001
 43
0.0000001
 44
0.0000000001
 40
0.0
 40
0.0
 40
0.0
 40
0.0
 40
0.2666839678
 40
1.0
 40
1.0
 40
1.0
 40
1.0
 10
561.3372678226
 20
1552.6221349624
 30
0.0
 10
561.3464991871
 20
1552.6164706922
 30
0.0
 10
561.379303509
 20
1552.5922874407
 30
0.0
 10
561.4020919256
 20
1552.5554155477
 30
0.0
 10
561.4105759497
 20
1552.5268680236
 30
0.0
  0
SPLINE
  5
3E1
100
AcDbEntity
  8
0
100
AcDbSpline
 62
7
  6
BYLAYER
 70
0
 71
3
 72
9
 73
5
 74
0
 42
0.0000001
 43
0.0000001
 44
0.0000000001
 40
0.0
 40
0.0
 40
0.0
 40
0.0
 40
0.2268944865
 40
1.0
 40
1.0
 40
1.0
 40
1.0
 10
561.4105759497
 20
1552.5268680236
 30
0.0
 10
561.4142313252
 20
1552.5145682094
 30
0.0
 10
561.4244039555
 20
1552.4585101727
 30
0.0
 10
561.4124979127
 20
1552.4007208075
 30
0.0
 10
561.398550241
 20
1552.3592840467
 30
0.0
  0
SPLINE
  5
3E2
100
AcDbEntity
  8
0
100
AcDbSpline
 62
7
  6
BYLAYER
 70
0
 71
3
 72
8
 73
4
 74
0
 42
0.0000001
 43
0.0000001
 44
0.0000000001
 40
0.0
 40
0.0
 40
0.0
 40
0.0
 40
1.0
 40
1.0
 40
1.0
 40
1.0
 10
561.3985503603
 20
1552.3592838303
 30
0.0
 10
561.4263828167
 20
1552.2950945984
 30
0.0
 10
561.441051241
 20
1552.2237047105
 30
0.0
 10
561.441051241
 20
1552.1537411262
 30
0.0
  0
SPLINE
  5
3E3
100
AcDbEntity
  8
0
100
AcDbSpline
 62
7
  6
BYLAYER
 70
0
 71
3
 72
9
 73
5
 74
0
 42
0.0000001
 43
0.0000001
 44
0.0000000001
 40
0.0
 40
0.0
 40
0.0
 40
0.0
 40
0.242355115
 40
1.0
 40
1.0
 40
1.0
 40
1.0
 10
512.3144027295
 20
1552.5384286237
 30
0.0
 10
512.3143937109
 20
1552.5069429542
 30
0.0
 10
512.3195987112
 20
1552.3770416743
 30
0.0
 10
512.3445878629
 20
1552.2482417794
 30
0.0
 10
512.3721208464
 20
1552.1537412303
 30
0.0
  0
SPLINE
  5
3E4
100
AcDbEntity
  8
0
100
AcDbSpline
 62
7
  6
BYLAYER
 70
0
 71
3
 72
11
 73
7
 74
0
 42
0.0000001
 43
0.0000001
 44
0.0000000001
 40
0.0
 40
0.0
 40
0.0
 40
0.0
 40
0.2545253123
 40
0.5063269197
 40
0.7544493833
 40
1.0
 40
1.0
 40
1.0
 40
1.0
 10
560.2402568344
 20
1554.1537411262
 30
0.0
 10
560.2402568344
 20
1554.2836198676
 30
0.0
 10
560.1909194428
 20
1554.5446839837
 30
0.0
 10
559.9783389197
 20
1554.8768014803
 30
0.0
 10
559.6588641094
 20
1555.100965649
 30
0.0
 10
559.4040320358
 20
1555.1537411262
 30
0.0
 10
559.2787328868
 20
1555.1537411262
 30
0.0
  0
SPLINE
  5
3E5
100
AcDbEntity
  8
0
100
AcDbSpline
 62
7
  6
BYLAYER
 70
0
 71
3
 72
9
 73
5
 74
0
 42
0.0000001
 43
0.0000001
 44
0.0000000001
 40
0.0
 40
0.0
 40
0.0
 40
0.0
 40
0.2799425408
 40
1.0
 40
1.0
 40
1.0
 40
1.0
 10
512.2530732824
 20
1552.359284036
 30
0.0
 10
512.248047141
 20
1552.3742160619
 30
0.0
 10
512.2325818147
 20
1552.4280740766
 30
0.0
 10
512.2294695286
 20
1552.4875021459
 30
0.0
 10
512.2409034972
 20
1552.5263806913
 30
0.0
  0
SPLINE
  5
3E6
100
AcDbEntity
  8
0
100
AcDbSpline
 62
7
  6
BYLAYER
 70
0
 71
3
 72
8
 73
4
 74
0
 42
0.0000001
 43
0.0000001
 44
0.0000000001
 40
0.0
 40
0.0
 40
0.0
 40
0.0
 40
1.0
 40
1.0
 40
1.0
 40
1.0
 10
512.2409034972
 20
1552.5263806913
 30
0.0
 10
512.2458976012
 20
1552.5433619779
 30
0.0
 10
512.2535835557
 20
1552.5597961856
 30
0.0
 10
512.2636130016
 20
1552.5743809512
 30
0.0
  0
SPLINE
  5
3E7
100
AcDbEntity
  8
0
100
AcDbSpline
 62
7
  6
BYLAYER
 70
0
 71
3
 72
8
 73
4
 74
0
 42
0.0000001
 43
0.0000001
 44
0.0000000001
 40
0.0
 40
0.0
 40
0.0
 40
0.0
 40
1.0
 40
1.0
 40
1.0
 40
1.0
 10
512.2636130016
 20
1552.5743809512
 30
0.0
 10
512.2766529327
 20
1552.593343548
 30
0.0
 10
512.2942274513
 20
1552.6096871311
 30
0.0
 10
512.3137998545
 20
1552.6217925394
 30
0.0
  0
SPLINE
  5
3E8
100
AcDbEntity
  8
0
100
AcDbSpline
 62
7
  6
BYLAYER
 70
0
 71
3
 72
11
 73
7
 74
0
 42
0.0000001
 43
0.0000001
 44
0.0000000001
 40
0.0
 40
0.0
 40
0.0
 40
0.0
 40
0.2454646712
 40
0.49351694
 40
0.7453862235
 40
1.0
 40
1.0
 40
1.0
 40
1.0
 10
514.3728906425
 20
1555.1537411262
 30
0.0
 10
514.2476353256
 20
1555.1537411262
 30
0.0
 10
513.9928852829
 20
1555.1010040113
 30
0.0
 10
513.6734087438
 20
1554.8769319046
 30
0.0
 10
513.4607391173
 20
1554.5448112104
 30
0.0
 10
513.4113666949
 20
1554.2836650338
 30
0.0
 10
513.4113666949
 20
1554.1537411262
 30
0.0
  0
SPLINE
  5
3E9
100
AcDbEntity
  8
0
100
AcDbSpline
 62
7
  6
BYLAYER
 70
0
 71
3
 72
9
 73
5
 74
0
 42
0.0000001
 43
0.0000001
 44
0.0000000001
 40
0.0
 40
0.0
 40
0.0
 40
0.0
 40
0.2703934266
 40
1.0
 40
1.0
 40
1.0
 40
1.0
 10
512.3721208194
 20
1552.1537411262
 30
0.0
 10
512.358956503
 20
1552.1706784572
 30
0.0
 10
512.3122576233
 20
1552.2347566571
 30
0.0
 10
512.2732531161
 20
1552.3050321927
 30
0.0
 10
512.2530731689
 20
1552.3592838303
 30
0.0
  0
SPLINE
  5
3EA
100
AcDbEntity
  8
0
100
AcDbSpline
 62
7
  6
BYLAYER
 70
0
 71
3
 72
11
 73
7
 74
0
 42
0.0000001
 43
0.0000001
 44
0.0000000001
 40
0.0
 40
0.0
 40
0.0
 40
0.0
 40
0.2544641196
 40
0.5062554122
 40
0.7544085347
 40
1.0
 40
1.0
 40
1.0
 40
1.0
 10
512.3721208194
 20
1554.1537411262
 30
0.0
 10
512.3721208194
 20
1554.2821621788
 30
0.0
 10
512.4203384002
 20
1554.5402623998
 30
0.0
 10
512.628300764
 20
1554.8698882428
 30
0.0
 10
512.9415712636
 20
1555.0950362169
 30
0.0
 10
513.1925689344
 20
1555.1512440317
 30
0.0
 10
513.316490199
 20
1555.1535793583
 30
0.0
  0
SPLINE
  5
3EB
100
AcDbEntity
  8
0
100
AcDbSpline
 62
7
  6
BYLAYER
 70
0
 71
3
 72
11
 73
7
 74
0
 42
0.0000001
 43
0.0000001
 44
0.0000000001
 40
0.0
 40
0.0
 40
0.0
 40
0.0
 40
0.2627344212
 40
0.5180975916
 40
0.762900959
 40
1.0
 40
1.0
 40
1.0
 40
1.0
 10
517.3785981691
 20
1554.1537411262
 30
0.0
 10
517.3785981691
 20
1554.2833108938
 30
0.0
 10
517.3337020672
 20
1554.5411989175
 30
0.0
 10
517.1385013674
 20
1554.8726940547
 30
0.0
 10
516.8417190236
 20
1555.0994320059
 30
0.0
 10
516.6010984347
 20
1555.1537411262
 30
0.0
 10
516.4841709781
 20
1555.1537411262
 30
0.0
  0
SPLINE
  5
3EC
100
AcDbEntity
  8
0
100
AcDbSpline
 62
7
  6
BYLAYER
 70
0
 71
3
 72
11
 73
7
 74
0
 42
0.0000001
 43
0.0000001
 44
0.0000000001
 40
0.0
 40
0.0
 40
0.0
 40
0.0
 40
0.2570642536
 40
0.5099515937
 40
0.7570212812
 40
1.0
 40
1.0
 40
1.0
 40
1.0
 10
517.77304429
 20
1554.1537411262
 30
0.0
 10
517.7730434587
 20
1554.2839702096
 30
0.0
 10
517.7243634957
 20
1554.5449611145
 30
0.0
 10
517.5147656836
 20
1554.8770614502
 30
0.0
 10
517.2000700657
 20
1555.1009855661
 30
0.0
 10
516.9489042316
 20
1555.1537340663
 30
0.0
 10
516.8258108986
 20
1555.1537411262
 30
0.0
  0
SPLINE
  5
3ED
100
AcDbEntity
  8
0
100
AcDbSpline
 62
7
  6
BYLAYER
 70
0
 71
3
 72
11
 73
7
 74
0
 42
0.0000001
 43
0.0000001
 44
0.0000000001
 40
0.0
 40
0.0
 40
0.0
 40
0.0
 40
0.2429770416
 40
0.4900484521
 40
0.7429376142
 40
1.0
 40
1.0
 40
1.0
 40
1.0
 10
556.8258126415
 20
1555.1537411262
 30
0.0
 10
556.7027201724
 20
1555.1537339781
 30
0.0
 10
556.4515544792
 20
1555.1009857393
 30
0.0
 10
556.1368574865
 20
1554.8770616266
 30
0.0
 10
555.9272599075
 20
1554.5449599809
 30
0.0
 10
555.8785801467
 20
1554.2839692483
 30
0.0
 10
555.8785793274
 20
1554.1537411262
 30
0.0
  0
SPLINE
  5
3EE
100
AcDbEntity
  8
0
100
AcDbSpline
 62
7
  6
BYLAYER
 70
0
 71
3
 72
11
 73
7
 74
0
 42
0.0000001
 43
0.0000001
 44
0.0000000001
 40
0.0
 40
0.0
 40
0.0
 40
0.0
 40
0.2370154222
 40
0.4817461593
 40
0.7371748139
 40
1.0
 40
1.0
 40
1.0
 40
1.0
 10
557.1674525511
 20
1555.1537411262
 30
0.0
 10
557.0505662684
 20
1555.1537411262
 30
0.0
 10
556.8100248188
 20
1555.099472391
 30
0.0
 10
556.5132362638
 20
1554.872825372
 30
0.0
 10
556.3179526834
 20
1554.5413230185
 30
0.0
 10
556.2730253601
 20
1554.2833557257
 30
0.0
 10
556.2730253601
 20
1554.1537411262
 30
0.0
  0
SPLINE
  5
3EF
100
AcDbEntity
  8
0
100
AcDbSpline
 62
7
  6
BYLAYER
 70
0
 71
3
 72
11
 73
7
 74
0
 42
0.0000001
 43
0.0000001
 44
0.0000000001
 40
0.0
 40
0.0
 40
0.0
 40
0.0
 40
0.2455000837
 40
0.4935877931
 40
0.7454492783
 40
1.0
 40
1.0
 40
1.0
 40
1.0
 10
560.3354157119
 20
1555.1535741463
 30
0.0
 10
560.4592676068
 20
1555.151203921
 30
0.0
 10
560.7101200557
 20
1555.0949774574
 30
0.0
 10
561.0232952995
 20
1554.8699093291
 30
0.0
 10
561.2312685421
 20
1554.5403154812
 30
0.0
 10
561.2795027098
 20
1554.2821824754
 30
0.0
 10
561.2795027098
 20
1554.1537411262
 30
0.0
  0
SPLINE
  5
3F0
100
AcDbEntity
  8
0
100
AcDbSpline
 62
7
  6
BYLAYER
 70
0
 71
3
 72
8
 73
4
 74
0
 42
0.0000001
 43
0.0000001
 44
0.0000000001
 40
0.0
 40
0.0
 40
0.0
 40
0.0
 40
1.0
 40
1.0
 40
1.0
 40
1.0
 10
512.2105722882
 20
1552.1537411262
 30
0.0
 10
512.2105722882
 20
1552.2237047105
 30
0.0
 10
512.2252407125
 20
1552.2950945984
 30
0.0
 10
512.2530731689
 20
1552.3592838303
 30
0.0
  0
SPLINE
  5
3F1
100
AcDbEntity
  8
0
100
AcDbSpline
 62
7
  6
BYLAYER
 70
0
 71
3
 72
8
 73
4
 74
0
 42
0.0000001
 43
0.0000001
 44
0.0000000001
 40
0.0
 40
0.0
 40
0.0
 40
0.0
 40
1.0
 40
1.0
 40
1.0
 40
1.0
 10
659.957306122
 20
1552.4937306543
 30
0.0
 10
659.9480092702
 20
1552.4461978552
 30
0.0
 10
659.9288582575
 20
1552.3997233168
 30
0.0
 10
659.9022040574
 20
1552.3592838304
 30
0.0
  0
SPLINE
  5
3F2
100
AcDbEntity
  8
0
100
AcDbSpline
 62
7
  6
BYLAYER
 70
0
 71
3
 72
9
 73
5
 74
0
 42
0.0000001
 43
0.0000001
 44
0.0000000001
 40
0.0
 40
0.0
 40
0.0
 40
0.0
 40
0.2581441241
 40
1.0
 40
1.0
 40
1.0
 40
1.0
 10
708.9286335606
 20
1552.153741272
 30
0.0
 10
708.9380131676
 20
1552.1859345938
 30
0.0
 10
708.9703945359
 20
1552.311721555
 30
0.0
 10
708.9863781524
 20
1552.442050959
 30
0.0
 10
708.9863516899
 20
1552.5384150407
 30
0.0
  0
SPLINE
  5
3F3
100
AcDbEntity
  8
0
100
AcDbSpline
 62
7
  6
BYLAYER
 70
0
 71
3
 72
8
 73
4
 74
0
 42
0.0000001
 43
0.0000001
 44
0.0000000001
 40
0.0
 40
0.0
 40
0.0
 40
0.0
 40
1.0
 40
1.0
 40
1.0
 40
1.0
 10
709.0476812489
 20
1552.3592838304
 30
0.0
 10
709.0129716298
 20
1552.4119449182
 30
0.0
 10
708.9908678384
 20
1552.4754790076
 30
0.0
 10
708.9867419805
 20
1552.5384148886
 30
0.0
  0
SPLINE
  5
3F4
100
AcDbEntity
  8
0
100
AcDbSpline
 62
7
  6
BYLAYER
 70
0
 71
3
 72
9
 73
5
 74
0
 42
0.0000001
 43
0.0000001
 44
0.0000000001
 40
0.0
 40
0.0
 40
0.0
 40
0.0
 40
0.27038548
 40
1.0
 40
1.0
 40
1.0
 40
1.0
 10
708.9286335983
 20
1552.1537411262
 30
0.0
 10
708.941797547
 20
1552.1706779767
 30
0.0
 10
708.988500748
 20
1552.2347532115
 30
0.0
 10
709.0275010507
 20
1552.3050315406
 30
0.0
 10
709.0476812489
 20
1552.3592838303
 30
0.0
  0
SPLINE
  5
3F5
100
AcDbEntity
  8
0
100
AcDbSpline
 62
7
  6
BYLAYER
 70
0
 71
3
 72
9
 73
5
 74
0
 42
0.0000001
 43
0.0000001
 44
0.0000000001
 40
0.0
 40
0.0
 40
0.0
 40
0.0
 40
0.2666839678
 40
1.0
 40
1.0
 40
1.0
 40
1.0
 10
708.9863987111
 20
1552.6221349624
 30
0.0
 10
708.9956300757
 20
1552.6164706922
 30
0.0
 10
709.0284343975
 20
1552.5922874407
 30
0.0
 10
709.0512228141
 20
1552.5554155477
 30
0.0
 10
709.0597068382
 20
1552.5268680236
 30
0.0
  0
SPLINE
  5
3F6
100
AcDbEntity
  8
0
100
AcDbSpline
 62
7
  6
BYLAYER
 70
0
 71
3
 72
9
 73
5
 74
0
 42
0.0000001
 43
0.0000001
 44
0.0000000001
 40
0.0
 40
0.0
 40
0.0
 40
0.0
 40
0.2268944865
 40
1.0
 40
1.0
 40
1.0
 40
1.0
 10
709.0597068382
 20
1552.5268680236
 30
0.0
 10
709.0633622137
 20
1552.5145682094
 30
0.0
 10
709.073534844
 20
1552.4585101727
 30
0.0
 10
709.0616288012
 20
1552.4007208075
 30
0.0
 10
709.0476811295
 20
1552.3592840467
 30
0.0
  0
SPLINE
  5
3F7
100
AcDbEntity
  8
0
100
AcDbSpline
 62
7
  6
BYLAYER
 70
0
 71
3
 72
8
 73
4
 74
0
 42
0.0000001
 43
0.0000001
 44
0.0000000001
 40
0.0
 40
0.0
 40
0.0
 40
0.0
 40
1.0
 40
1.0
 40
1.0
 40
1.0
 10
709.0476812489
 20
1552.3592838303
 30
0.0
 10
709.0755137052
 20
1552.2950945984
 30
0.0
 10
709.0901821296
 20
1552.2237047105
 30
0.0
 10
709.0901821296
 20
1552.1537411262
 30
0.0
  0
SPLINE
  5
3F8
100
AcDbEntity
  8
0
100
AcDbSpline
 62
7
  6
BYLAYER
 70
0
 71
3
 72
9
 73
5
 74
0
 42
0.0000001
 43
0.0000001
 44
0.0000000001
 40
0.0
 40
0.0
 40
0.0
 40
0.0
 40
0.242355115
 40
1.0
 40
1.0
 40
1.0
 40
1.0
 10
659.963533618
 20
1552.5384286239
 30
0.0
 10
659.9635245994
 20
1552.5069429544
 30
0.0
 10
659.9687295997
 20
1552.3770416744
 30
0.0
 10
659.9937187514
 20
1552.2482417795
 30
0.0
 10
660.0212517349
 20
1552.1537412303
 30
0.0
  0
SPLINE
  5
3F9
100
AcDbEntity
  8
0
100
AcDbSpline
 62
7
  6
BYLAYER
 70
0
 71
3
 72
11
 73
7
 74
0
 42
0.0000001
 43
0.0000001
 44
0.0000000001
 40
0.0
 40
0.0
 40
0.0
 40
0.0
 40
0.2545253123
 40
0.5063269197
 40
0.7544493833
 40
1.0
 40
1.0
 40
1.0
 40
1.0
 10
707.8893877229
 20
1554.1537411262
 30
0.0
 10
707.8893877229
 20
1554.2836198676
 30
0.0
 10
707.8400503313
 20
1554.5446839837
 30
0.0
 10
707.6274698083
 20
1554.8768014803
 30
0.0
 10
707.3079949979
 20
1555.100965649
 30
0.0
 10
707.0531629243
 20
1555.1537411262
 30
0.0
 10
706.9278637753
 20
1555.1537411262
 30
0.0
  0
SPLINE
  5
3FA
100
AcDbEntity
  8
0
100
AcDbSpline
 62
7
  6
BYLAYER
 70
0
 71
3
 72
11
 73
7
 74
0
 42
0.0000001
 43
0.0000001
 44
0.0000000001
 40
0.0
 40
0.0
 40
0.0
 40
0.0
 40
0.2454646712
 40
0.49351694
 40
0.7453862235
 40
1.0
 40
1.0
 40
1.0
 40
1.0
 10
662.022021531
 20
1555.1537411262
 30
0.0
 10
661.8967662141
 20
1555.1537411262
 30
0.0
 10
661.6420161714
 20
1555.1010040113
 30
0.0
 10
661.3225396324
 20
1554.8769319046
 30
0.0
 10
661.1098700058
 20
1554.5448112104
 30
0.0
 10
661.0604975834
 20
1554.2836650338
 30
0.0
 10
661.0604975834
 20
1554.1537411262
 30
0.0
  0
SPLINE
  5
3FB
100
AcDbEntity
  8
0
100
AcDbSpline
 62
7
  6
BYLAYER
 70
0
 71
3
 72
9
 73
5
 74
0
 42
0.0000001
 43
0.0000001
 44
0.0000000001
 40
0.0
 40
0.0
 40
0.0
 40
0.0
 40
0.2703934266
 40
1.0
 40
1.0
 40
1.0
 40
1.0
 10
660.021251708
 20
1552.1537411262
 30
0.0
 10
660.0080873915
 20
1552.1706784572
 30
0.0
 10
659.9613885118
 20
1552.2347566571
 30
0.0
 10
659.9223840046
 20
1552.3050321927
 30
0.0
 10
659.9022040574
 20
1552.3592838303
 30
0.0
  0
SPLINE
  5
3FC
100
AcDbEntity
  8
0
100
AcDbSpline
 62
7
  6
BYLAYER
 70
0
 71
3
 72
11
 73
7
 74
0
 42
0.0000001
 43
0.0000001
 44
0.0000000001
 40
0.0
 40
0.0
 40
0.0
 40
0.0
 40
0.2544641196
 40
0.5062554122
 40
0.7544085347
 40
1.0
 40
1.0
 40
1.0
 40
1.0
 10
660.021251708
 20
1554.1537411262
 30
0.0
 10
660.021251708
 20
1554.2821621788
 30
0.0
 10
660.0694692887
 20
1554.5402623998
 30
0.0
 10
660.2774316525
 20
1554.8698882428
 30
0.0
 10
660.5907021521
 20
1555.0950362169
 30
0.0
 10
660.8416998229
 20
1555.1512440317
 30
0.0
 10
660.9656210875
 20
1555.1535793583
 30
0.0
  0
SPLINE
  5
3FD
100
AcDbEntity
  8
0
100
AcDbSpline
 62
7
  6
BYLAYER
 70
0
 71
3
 72
11
 73
7
 74
0
 42
0.0000001
 43
0.0000001
 44
0.0000000001
 40
0.0
 40
0.0
 40
0.0
 40
0.0
 40
0.2627344212
 40
0.5180975916
 40
0.762900959
 40
1.0
 40
1.0
 40
1.0
 40
1.0
 10
665.0277290576
 20
1554.1537411262
 30
0.0
 10
665.0277290576
 20
1554.2833108938
 30
0.0
 10
664.9828329557
 20
1554.5411989175
 30
0.0
 10
664.7876322559
 20
1554.8726940547
 30
0.0
 10
664.4908499121
 20
1555.0994320059
 30
0.0
 10
664.2502293232
 20
1555.1537411262
 30
0.0
 10
664.1333018666
 20
1555.1537411262
 30
0.0
  0
SPLINE
  5
3FE
100
AcDbEntity
  8
0
100
AcDbSpline
 62
7
  6
BYLAYER
 70
0
 71
3
 72
11
 73
7
 74
0
 42
0.0000001
 43
0.0000001
 44
0.0000000001
 40
0.0
 40
0.0
 40
0.0
 40
0.0
 40
0.2570642536
 40
0.5099515937
 40
0.7570212812
 40
1.0
 40
1.0
 40
1.0
 40
1.0
 10
665.4221751785
 20
1554.1537411262
 30
0.0
 10
665.4221743472
 20
1554.2839702096
 30
0.0
 10
665.3734943842
 20
1554.5449611145
 30
0.0
 10
665.1638965721
 20
1554.8770614502
 30
0.0
 10
664.8492009542
 20
1555.1009855661
 30
0.0
 10
664.5980351201
 20
1555.1537340663
 30
0.0
 10
664.4749417872
 20
1555.1537411262
 30
0.0
  0
SPLINE
  5
3FF
100
AcDbEntity
  8
0
100
AcDbSpline
 62
7
  6
BYLAYER
 70
0
 71
3
 72
11
 73
7
 74
0
 42
0.0000001
 43
0.0000001
 44
0.0000000001
 40
0.0
 40
0.0
 40
0.0
 40
0.0
 40
0.2429770416
 40
0.4900484521
 40
0.7429376142
 40
1.0
 40
1.0
 40
1.0
 40
1.0
 10
704.47494353
 20
1555.1537411262
 30
0.0
 10
704.3518510609
 20
1555.1537339781
 30
0.0
 10
704.1006853677
 20
1555.1009857393
 30
0.0
 10
703.785988375
 20
1554.8770616266
 30
0.0
 10
703.576390796
 20
1554.5449599809
 30
0.0
 10
703.5277110352
 20
1554.2839692483
 30
0.0
 10
703.5277102159
 20
1554.1537411262
 30
0.0
  0
SPLINE
  5
400
100
AcDbEntity
  8
0
100
AcDbSpline
 62
7
  6
BYLAYER
 70
0
 71
3
 72
11
 73
7
 74
0
 42
0.0000001
 43
0.0000001
 44
0.0000000001
 40
0.0
 40
0.0
 40
0.0
 40
0.0
 40
0.2370154222
 40
0.4817461593
 40
0.7371748139
 40
1.0
 40
1.0
 40
1.0
 40
1.0
 10
704.8165834396
 20
1555.1537411262
 30
0.0
 10
704.6996971569
 20
1555.1537411262
 30
0.0
 10
704.4591557073
 20
1555.099472391
 30
0.0
 10
704.1623671523
 20
1554.872825372
 30
0.0
 10
703.9670835719
 20
1554.5413230185
 30
0.0
 10
703.9221562487
 20
1554.2833557257
 30
0.0
 10
703.9221562486
 20
1554.1537411262
 30
0.0
  0
SPLINE
  5
401
100
AcDbEntity
  8
0
100
AcDbSpline
 62
7
  6
BYLAYER
 70
0
 71
3
 72
11
 73
7
 74
0
 42
0.0000001
 43
0.0000001
 44
0.0000000001
 40
0.0
 40
0.0
 40
0.0
 40
0.0
 40
0.2455000837
 40
0.4935877931
 40
0.7454492783
 40
1.0
 40
1.0
 40
1.0
 40
1.0
 10
707.9845466004
 20
1555.1535741463
 30
0.0
 10
708.1083984953
 20
1555.151203921
 30
0.0
 10
708.3592509442
 20
1555.0949774574
 30
0.0
 10
708.672426188
 20
1554.8699093291
 30
0.0
 10
708.8803994306
 20
1554.5403154812
 30
0.0
 10
708.9286335983
 20
1554.2821824754
 30
0.0
 10
708.9286335983
 20
1554.1537411262
 30
0.0
  0
SPLINE
  5
402
100
AcDbEntity
  8
0
100
AcDbSpline
 62
7
  6
BYLAYER
 70
0
 71
3
 72
9
 73
5
 74
0
 42
0.0000001
 43
0.0000001
 44
0.0000000001
 40
0.0
 40
0.0
 40
0.0
 40
0.0
 40
0.2799425408
 40
1.0
 40
1.0
 40
1.0
 40
1.0
 10
659.9022041709
 20
1552.359284036
 30
0.0
 10
659.8971780296
 20
1552.3742160619
 30
0.0
 10
659.8817127032
 20
1552.4280740766
 30
0.0
 10
659.8786004172
 20
1552.4875021459
 30
0.0
 10
659.8900343857
 20
1552.5263806913
 30
0.0
  0
SPLINE
  5
403
100
AcDbEntity
  8
0
100
AcDbSpline
 62
7
  6
BYLAYER
 70
0
 71
3
 72
8
 73
4
 74
0
 42
0.0000001
 43
0.0000001
 44
0.0000000001
 40
0.0
 40
0.0
 40
0.0
 40
0.0
 40
1.0
 40
1.0
 40
1.0
 40
1.0
 10
659.8900343857
 20
1552.5263806913
 30
0.0
 10
659.8950284897
 20
1552.5433619779
 30
0.0
 10
659.9027144442
 20
1552.5597961856
 30
0.0
 10
659.9127438901
 20
1552.5743809512
 30
0.0
  0
SPLINE
  5
404
100
AcDbEntity
  8
0
100
AcDbSpline
 62
7
  6
BYLAYER
 70
0
 71
3
 72
8
 73
4
 74
0
 42
0.0000001
 43
0.0000001
 44
0.0000000001
 40
0.0
 40
0.0
 40
0.0
 40
0.0
 40
1.0
 40
1.0
 40
1.0
 40
1.0
 10
659.9127438901
 20
1552.5743809512
 30
0.0
 10
659.9257838212
 20
1552.593343548
 30
0.0
 10
659.9433583398
 20
1552.6096871311
 30
0.0
 10
659.962930743
 20
1552.6217925394
 30
0.0
  0
SPLINE
  5
405
100
AcDbEntity
  8
0
100
AcDbSpline
 62
7
  6
BYLAYER
 70
0
 71
3
 72
8
 73
4
 74
0
 42
0.0000001
 43
0.0000001
 44
0.0000000001
 40
0.0
 40
0.0
 40
0.0
 40
0.0
 40
1.0
 40
1.0
 40
1.0
 40
1.0
 10
659.8597031767
 20
1552.1537411262
 30
0.0
 10
659.8597031767
 20
1552.2237047105
 30
0.0
 10
659.8743716011
 20
1552.2950945984
 30
0.0
 10
659.9022040574
 20
1552.3592838303
 30
0.0
  0
ENDSEC
  0
SECTION
  2
OBJECTS
  0
DICTIONARY
  5
C
100
AcDbDictionary
280
0
281
1
  3
ACAD_GROUP
350
D
  3
ACAD_MLINESTYLE
350
17
  3
ACAD_LAYOUT
350
1A
  3
ACAD_PLOTSETTINGS
350
19
  3
ACAD_PLOTSTYLENAME
350
E
  0
DICTIONARY
  5
D
102
{ACAD_REACTORS
330
C
102
}
100
AcDbDictionary
280
0
281
1
  0
ACDBDICTIONARYWDFLT
  5
E
102
{ACAD_REACTORS
330
C
102
}
100
AcDbDictionary
281
1
  3
Normal
350
F
100
AcDbDictionaryWithDefault
340
F
  0
DICTIONARY
  5
17
102
{ACAD_REACTORS
330
C
102
}
100
AcDbDictionary
280
0
281
1
  3
Standard
350
18
  0
DICTIONARY
  5
19
102
{ACAD_REACTORS
330
C
102
}
100
AcDbDictionary
281
1
  0
DICTIONARY
  5
1A
102
{ACAD_REACTORS
330
C
102
}
100
AcDbDictionary
281
1
  3
Model
350
406
  3
Layout1
350
407
  0
ACDBPLACEHOLDER
  5
F
102
{ACAD_REACTORS
330
E
102
}
  0
MLINESTYLE
  5
18
102
{ACAD_REACTORS
330
17
102
}
100
AcDbMlineStyle
  2
STANDARD
 70
0
  3

 62
256
 51
90.0
 52
90.0
 71
2
 49
0.5
 62
256
  6
BYLAYER
 49
-0.5
 62
256
  6
BYLAYER
  0
LAYOUT
  5
406
102
{ACAD_REACTORS
330
1A
102
}
100
AcDbPlotSettings
  1

  2
none_device
  4

  6

 40
0.0
 41
0.0
 42
0.0
 43
0.0
 44
210.0
 45
297.0
 46
0.0
 47
0.0
 48
0.0
 49
0.0
140
0.0
141
0.0
142
1.0
143
1.0
 70
1024
 72
1
 73
0
 74
0
  7

 75
0
147
1.0
148
0.0
149
0.0
100
AcDbLayout
  1
Model
 70
0
 71
0
 10
0.0
 20
0.0
 11
210.0
 21
297.0
 12
0.0
 22
0.0
 32
0.0
 14
0.0
 24
0.0
 34
0.0
 15
0.0
 25
0.0
 35
0.0
146
0.0
 13
0.0
 23
0.0
 33
0.0
 16
1.0
 26
0.0
 36
0.0
 17
0.0
 27
1.0
 37
0.0
 76
0
330
212
345
0
346
0
  0
LAYOUT
  5
407
102
{ACAD_REACTORS
330
1A
102
}
100
AcDbPlotSettings
  1

  2
none_device
  4

  6

 40
0.0
 41
0.0
 42
0.0
 43
0.0
 44
210.0
 45
297.0
 46
0.0
 47
0.0
 48
0.0
 49
0.0
140
0.0
141
0.0
142
1.0
143
1.0
 70
0
 72
1
 73
0
 74
0
  7

 75
0
147
1.0
148
0.0
149
0.0
100
AcDbLayout
  1
Layout1
 70
0
 71
1
 10
0.0
 20
0.0
 11
210.0
 21
297.0
 12
0.0
 22
0.0
 32
0.0
 14
0.0
 24
0.0
 34
0.0
 15
0.0
 25
0.0
 35
0.0
146
0.0
 13
0.0
 23
0.0
 33
0.0
 16
1.0
 26
0.0
 36
0.0
 17
0.0
 27
1.0
 37
0.0
 76
0
330
213
345
0
346
0
  0
ENDSEC
  0
EOF
