999
DXF file: C:\Users\sesa63760\Dev\_Creo\CAD\MCADID0000625_3D-CAD\drw0001_1.dxf
999
Pro/ENGINEER 2019471 by Parametric Technology Corporation
  0
SECTION
  2
HEADER
  9
$ACADVER
  1
AC1024
  9
$DWGCODEPAGE
  3
ANSI_1252
  9
$EXTMAX
 10
260.2743481375
 20
368.1022923659
 30
0.0
  9
$EXTMIN
 10
0.0
 20
0.0
 30
0.0
  9
$LIMMIN
 10
0.0
 20
0.0
  9
$LIMMAX
 10
260.2743481375
 20
368.1022923659
  9
$VIEWCTR
 10
130.1371740688
 20
184.051146183
  9
$VIEWSIZE
 40
368.1022923659
  9
$CLAYER
  8
0
  9
$LTSCALE
 40
23.994816095
  9
$CELTYPE
  6
BYLAYER
  9
$DIMSCALE
 40
1.0
  9
$DIMASZ
 40
3.0985041445
  9
$DIMEXO
 40
1.0
  9
$DIMDLI
 40
16.5782365747
  9
$DIMEXE
 40
1.0
  9
$DIMCEN
 40
3.9264244519
  9
$DIMLFAC
 40
1.0
  9
$DIMBLK
  1
_FILLED
  9
$DIMALT
 70
0
  9
$DIMALTF
 40
0.0393700787
  9
$DIMTXT
 40
4.3379058023
  9
$DIMTOL
 70
1
  9
$DIMLIM
 70
0
  9
$DIMTFAC
 40
1.0
  9
$DIMTP
 40
0.01
  9
$DIMTM
 40
0.01
  9
$DIMGAP
 40
0.625
  9
$DIMDSEP
 70
46
  9
$AUNITS
 70
0
  9
$PDMODE
 70
3
  9
$PDSIZE
 40
0.3125
  9
$HANDSEED
  5
359
  9
$TILEMODE
 70
1
  9
$MEASUREMENT
 70
1
  9
$INSUNITS
 70
4
  0
ENDSEC
  0
SECTION
  2
CLASSES
  0
CLASS
  1
ACDBDICTIONARYWDFLT
  2
AcDbDictionaryWithDefault
  3
AutoCAD 2000
 90
0
 91
1
280
0
281
0
  0
CLASS
  1
ACDBPLACEHOLDER
  2
AcDbPlaceHolder
  3
AutoCAD 2000
 90
0
 91
1
280
0
281
0
  0
CLASS
  1
LAYOUT
  2
AcDbLayout
  3
AutoCAD 2000
 90
0
 91
0
280
0
281
0
  0
ENDSEC
  0
SECTION
  2
TABLES
  0
TABLE
  2
VPORT
  5
8
100
AcDbSymbolTable
 70
2
  0
VPORT
  5
1F4
100
AcDbSymbolTableRecord
100
AcDbViewportTableRecord
  2
*ACTIVE
 70
0
 10
0.0
 20
0.0
 11
1.0
 21
1.0
 12
130.1371740688
 22
184.051146183
 13
0.0
 23
0.0
 14
1.0
 24
1.0
 15
0.0
 25
0.0
 16
0.0
 26
0.0
 36
1.0
 17
0.0
 27
0.0
 37
0.0
 40
368.1022923659
 41
0.7070707071
 42
50.0
 43
0.0
 44
0.0
 50
0.0
 51
0.0
 71
0
 72
100
 73
1
 74
1
 75
0
 76
0
 77
0
 78
0
  0
ENDTAB
  0
TABLE
  2
LTYPE
  5
5
100
AcDbSymbolTable
 70
6
  0
LTYPE
  5
14
100
AcDbSymbolTableRecord
100
AcDbLinetypeTableRecord
  2
BYBLOCK
 70
0
  3

 72
65
 73
0
 40
0.0
  0
LTYPE
  5
15
100
AcDbSymbolTableRecord
100
AcDbLinetypeTableRecord
  2
BYLAYER
 70
0
  3

 72
65
 73
0
 40
0.0
  0
LTYPE
  5
16
100
AcDbSymbolTableRecord
100
AcDbLinetypeTableRecord
  2
CONTINUOUS
 70
64
  3
Solid line
 72
65
 73
0
 40
0.0
  0
LTYPE
  5
1F5
100
AcDbSymbolTableRecord
100
AcDbLinetypeTableRecord
  2
CENTER
 70
64
  3
____ _ ____ _ ____ _ ____ _ ____ _ ____ _ ____
 72
65
 73
4
 40
0.6
 49
0.375
 74
0
 49
-0.075
 74
0
 49
0.075
 74
0
 49
-0.075
 74
0
  0
LTYPE
  5
1F6
100
AcDbSymbolTableRecord
100
AcDbLinetypeTableRecord
  2
HIDDEN
 70
64
  3
- - - - - - - - - - - - - - - - - - - -
 72
65
 73
2
 40
0.2
 49
0.1
 74
0
 49
-0.1
 74
0
  0
LTYPE
  5
1F7
100
AcDbSymbolTableRecord
100
AcDbLinetypeTableRecord
  2
PHANTOM
 70
64
  3
_____ _ _ _____ _ _ _____ _ _ _____
 72
65
 73
6
 40
0.8
 49
0.45
 74
0
 49
-0.05
 74
0
 49
0.1
 74
0
 49
-0.05
 74
0
 49
0.1
 74
0
 49
-0.05
 74
0
  0
LTYPE
  5
1F8
100
AcDbSymbolTableRecord
100
AcDbLinetypeTableRecord
  2
DOT
 70
64
  3
. . . . . . . . . . . . . . . . . . . .
 72
65
 73
2
 40
0.2
 49
0.1
 74
0
 49
-0.1
 74
0
  0
LTYPE
  5
1F9
100
AcDbSymbolTableRecord
100
AcDbLinetypeTableRecord
  2
DASHED
 70
64
  3
- - - - - - - - - - - - - - - - - - - -
 72
65
 73
2
 40
0.2
 49
0.1
 74
0
 49
-0.1
 74
0
  0
ENDTAB
  0
TABLE
  2
LAYER
  5
2
100
AcDbSymbolTable
 70
36
  0
LAYER
  5
10
100
AcDbSymbolTableRecord
100
AcDbLayerTableRecord
  2
0
 70
0
 62
7
  6
CONTINUOUS
370
-3
390
F
  0
LAYER
  5
1FA
100
AcDbSymbolTableRecord
100
AcDbLayerTableRecord
  2
DEFAULT_1
 70
0
 62
7
  6
CENTER
370
-3
390
F
  0
LAYER
  5
1FB
100
AcDbSymbolTableRecord
100
AcDbLayerTableRecord
  2
DEFAULT_2
 70
0
 62
8
  6
HIDDEN
370
-3
390
F
  0
LAYER
  5
1FC
100
AcDbSymbolTableRecord
100
AcDbLayerTableRecord
  2
DEFAULT_3
 70
0
 62
7
  6
PHANTOM
370
-3
390
F
  0
LAYER
  5
1FD
100
AcDbSymbolTableRecord
100
AcDbLayerTableRecord
  2
00_COMPONENTS
 70
0
 62
7
  6
CONTINUOUS
370
-3
390
F
  0
LAYER
  5
1FE
100
AcDbSymbolTableRecord
100
AcDbLayerTableRecord
  2
01_1_DEFAULT_DATUMS
 70
0
 62
7
  6
CONTINUOUS
370
-3
390
F
  0
LAYER
  5
1FF
100
AcDbSymbolTableRecord
100
AcDbLayerTableRecord
  2
01_PLANES
 70
0
 62
7
  6
CONTINUOUS
370
-3
390
F
  0
LAYER
  5
200
100
AcDbSymbolTableRecord
100
AcDbLayerTableRecord
  2
02_COORD_SYS
 70
0
 62
7
  6
CONTINUOUS
370
-3
390
F
  0
LAYER
  5
201
100
AcDbSymbolTableRecord
100
AcDbLayerTableRecord
  2
03_AXES
 70
0
 62
7
  6
CONTINUOUS
370
-3
390
F
  0
LAYER
  5
202
100
AcDbSymbolTableRecord
100
AcDbLayerTableRecord
  2
04_POINTS
 70
0
 62
7
  6
CONTINUOUS
370
-3
390
F
  0
LAYER
  5
203
100
AcDbSymbolTableRecord
100
AcDbLayerTableRecord
  2
05_CURVES
 70
0
 62
7
  6
CONTINUOUS
370
-3
390
F
  0
LAYER
  5
204
100
AcDbSymbolTableRecord
100
AcDbLayerTableRecord
  2
06_SURFS
 70
0
 62
7
  6
CONTINUOUS
370
-3
390
F
  0
LAYER
  5
205
100
AcDbSymbolTableRecord
100
AcDbLayerTableRecord
  2
07_COSMETICS
 70
0
 62
7
  6
CONTINUOUS
370
-3
390
F
  0
LAYER
  5
206
100
AcDbSymbolTableRecord
100
AcDbLayerTableRecord
  2
10_NOTES
 70
0
 62
7
  6
CONTINUOUS
370
-3
390
F
  0
LAYER
  5
207
100
AcDbSymbolTableRecord
100
AcDbLayerTableRecord
  2
11_NOTES_PUB
 70
0
 62
7
  6
CONTINUOUS
370
-3
390
F
  0
LAYER
  5
208
100
AcDbSymbolTableRecord
100
AcDbLayerTableRecord
  2
13_REF_GTOL
 70
0
 62
7
  6
CONTINUOUS
370
-3
390
F
  0
LAYER
  5
209
100
AcDbSymbolTableRecord
100
AcDbLayerTableRecord
  2
16_MISC
 70
0
 62
7
  6
CONTINUOUS
370
-3
390
F
  0
LAYER
  5
20A
100
AcDbSymbolTableRecord
100
AcDbLayerTableRecord
  2
17_NO_PRINT
 70
0
 62
7
  6
CONTINUOUS
370
-3
390
F
  0
LAYER
  5
20B
100
AcDbSymbolTableRecord
100
AcDbLayerTableRecord
  2
18_DATUM_CAMS_JOINTS
 70
0
 62
7
  6
CONTINUOUS
370
-3
390
F
  0
LAYER
  5
20C
100
AcDbSymbolTableRecord
100
AcDbLayerTableRecord
  2
19_DATUM_FUNCTIONAL
 70
0
 62
7
  6
CONTINUOUS
370
-3
390
F
  0
LAYER
  5
20D
100
AcDbSymbolTableRecord
100
AcDbLayerTableRecord
  2
20_DATUM_KINEMATIC_SCHEME
 70
0
 62
7
  6
CONTINUOUS
370
-3
390
F
  0
ENDTAB
  0
TABLE
  2
STYLE
  5
3
100
AcDbSymbolTable
 70
1
  0
STYLE
  5
11
100
AcDbSymbolTableRecord
100
AcDbTextStyleTableRecord
  2
STANDARD
 70
0
 40
0.0
 41
0.8
 50
0.0
 71
0
 42
0.2
  3
txt
  4

  0
STYLE
  5
20E
100
AcDbSymbolTableRecord
100
AcDbTextStyleTableRecord
  2
TEXTSTYLE_1
 70
0
 40
0.0
 41
0.8
 50
0.0
 71
0
 42
0.2
  3
gdt
  4

  0
ENDTAB
  0
TABLE
  2
VIEW
  5
6
100
AcDbSymbolTable
 70
0
  0
ENDTAB
  0
TABLE
  2
UCS
  5
7
100
AcDbSymbolTable
 70
0
  0
ENDTAB
  0
TABLE
  2
APPID
  5
9
100
AcDbSymbolTable
 70
1
  0
APPID
  5
20F
100
AcDbSymbolTableRecord
100
AcDbRegAppTableRecord
  2
ACAD
 70
0
  0
ENDTAB
  0
TABLE
  2
BLOCK_RECORD
  5
1
100
AcDbSymbolTable
 70
0
  0
BLOCK_RECORD
  5
210
100
AcDbSymbolTableRecord
100
AcDbBlockTableRecord
  2
*Model_Space
  0
BLOCK_RECORD
  5
211
100
AcDbSymbolTableRecord
100
AcDbBlockTableRecord
  2
*Paper_Space
  0
BLOCK_RECORD
  5
212
100
AcDbSymbolTableRecord
100
AcDbBlockTableRecord
  2
_FILLED
  0
ENDTAB
  0
TABLE
  2
DIMSTYLE
  5
A
100
AcDbSymbolTable
 70
1
100
AcDbDimStyleTable
 71
0
  0
DIMSTYLE
105
213
100
AcDbSymbolTableRecord
100
AcDbDimStyleTableRecord
  2
STANDARD
 70
0
  3

  4

 40
1.0
 41
3.0985041445
 42
1.0
 43
0.38
 44
1.0
 45
0.0
 46
0.0
 47
0.01
 48
0.01
140
4.3379058023
141
0.09
142
0.0
143
25.4
144
1.0
145
0.0
146
1.0
147
0.625
 71
1
 72
0
 73
0
 74
0
 75
0
 76
0
 77
1
 78
8
 79
2
170
0
171
1
172
0
173
0
174
0
175
0
176
0
177
0
178
0
270
2
179
2
271
2
272
2
273
2
274
2
275
0
280
0
281
0
282
0
283
1
284
8
285
0
286
0
287
3
288
0
340
11
278
46
341
212
342
212
343
212
344
212
  0
ENDTAB
  0
ENDSEC
  0
SECTION
  2
BLOCKS
  0
BLOCK
  5
20
100
AcDbEntity
  8
0
100
AcDbBlockBegin
  2
*Model_Space
 70
0
 10
0.0
 20
0.0
 30
0.0
  3
*Model_Space
  1

  0
ENDBLK
  5
21
100
AcDbEntity
  8
0
100
AcDbBlockEnd
  0
BLOCK
  5
1C
100
AcDbEntity
  8
0
100
AcDbBlockBegin
  2
*Paper_Space
 70
0
 10
0.0
 20
0.0
 30
0.0
  3
*Paper_Space
  1

  0
ENDBLK
  5
1D
100
AcDbEntity
  8
0
100
AcDbBlockEnd
  0
BLOCK
  5
214
100
AcDbEntity
  8
0
100
AcDbBlockBegin
  2
_FILLED
 70
64
 10
0.0
 20
0.0
  3
_FILLED
  1

  0
SOLID
  5
215
100
AcDbEntity
  8
0
  6
BYBLOCK
 62
0
100
AcDbTrace
 10
0.0
 20
0.0
 11
-1.0
 21
0.25
 12
-1.0
 22
-0.25
 13
-1.0
 23
-0.25
  0
ENDBLK
  5
216
100
AcDbEntity
  8
0
  6
BYBLOCK
 62
0
100
AcDbBlockEnd
  0
ENDSEC
  0
SECTION
  2
ENTITIES
  0
LINE
  5
217
100
AcDbEntity
  8
0
100
AcDbLine
 62
7
  6
CONTINUOUS
 10
33.5511032684
 20
266.5864281404
 11
73.997442757
 21
289.9379937419
  0
LINE
  5
218
100
AcDbEntity
  8
0
100
AcDbLine
 62
7
  6
CONTINUOUS
 10
35.495438183
 20
265.4638912492
 11
37.9703016133
 21
266.8927457878
  0
LINE
  5
219
100
AcDbEntity
  8
0
100
AcDbLine
 62
7
  6
CONTINUOUS
 10
73.4669142414
 20
287.3866023121
 11
75.9417776717
 21
288.8154568507
  0
LINE
  5
21A
100
AcDbEntity
  8
0
100
AcDbLine
 62
7
  6
CONTINUOUS
 10
32.3927532987
 20
262.3561721751
 11
32.9706624331
 21
262.6898261778
  0
LINE
  5
21B
100
AcDbEntity
  8
0
100
AcDbLine
 62
7
  6
CONTINUOUS
 10
35.495438183
 20
263.0143839978
 11
37.0916307887
 21
263.9359407275
  0
LINE
  5
21C
100
AcDbEntity
  8
0
100
AcDbLine
 62
7
  6
CONTINUOUS
 10
33.5511032684
 20
266.5864281404
 11
32.8791322
 21
262.0753675382
  0
LINE
  5
21D
100
AcDbEntity
  8
0
100
AcDbLine
 62
7
  6
CONTINUOUS
 10
80.1844360226
 20
286.3660123235
 11
77.7095725923
 21
284.937157785
  0
LINE
  5
21E
100
AcDbEntity
  8
0
100
AcDbLine
 62
7
  6
CONTINUOUS
 10
42.2129599642
 20
264.4433012606
 11
39.7380965339
 21
263.0144467221
  0
LINE
  5
21F
100
AcDbEntity
  8
0
100
AcDbLine
 62
7
  6
CONTINUOUS
 10
40.515933129
 20
257.2173383335
 11
42.4251134895
 21
258.319597549
  0
LINE
  5
220
100
AcDbEntity
  8
0
100
AcDbLine
 62
7
  6
CONTINUOUS
 10
35.495438183
 20
265.4638912492
 11
35.495438183
 21
263.0143839978
  0
LINE
  5
221
100
AcDbEntity
  8
0
100
AcDbLine
 62
7
  6
CONTINUOUS
 10
35.495438183
 20
260.5648767464
 11
35.495438183
 21
192.6318756413
  0
LINE
  5
222
100
AcDbEntity
  8
0
100
AcDbLine
 62
7
  6
CONTINUOUS
 10
40.515933129
 20
257.2173383335
 11
40.7945043032
 21
238.628204716
  0
LINE
  5
223
100
AcDbEntity
  8
0
100
AcDbLine
 62
7
  6
CONTINUOUS
 10
37.0916307887
 20
264.5249201402
 11
37.0916307887
 21
263.2185162728
  0
LINE
  5
224
100
AcDbEntity
  8
0
100
AcDbLine
 62
7
  6
CONTINUOUS
 10
37.9703016133
 20
266.8927457878
 11
37.9703016133
 21
265.7496424038
  0
LINE
  5
225
100
AcDbEntity
  8
0
100
AcDbLine
 62
7
  6
CONTINUOUS
 10
39.7380965339
 20
263.0144467221
 11
39.7380965339
 21
260.5649394707
  0
LINE
  5
226
100
AcDbEntity
  8
0
100
AcDbLine
 62
7
  6
CONTINUOUS
 10
62.789955416
 20
157.033017152
 11
62.789955416
 21
193.7756259228
  0
LINE
  5
227
100
AcDbEntity
  8
0
100
AcDbLine
 62
7
  6
CONTINUOUS
 10
68.3713937907
 20
210.5861231454
 11
68.4467507861
 21
211.0160521195
  0
LINE
  5
228
100
AcDbEntity
  8
0
100
AcDbLine
 62
7
  6
CONTINUOUS
 10
77.2149119667
 20
241.3776867325
 11
79.689775397
 21
242.8065412711
  0
LINE
  5
229
100
AcDbEntity
  8
0
100
AcDbLine
 62
7
  6
CONTINUOUS
 10
115.1863880251
 20
263.3003977954
 11
117.6612514554
 21
264.729252334
  0
LINE
  5
22A
100
AcDbEntity
  8
0
100
AcDbLine
 62
7
  6
CONTINUOUS
 10
72.9722695133
 20
238.479087701
 11
74.8814498737
 21
239.5813469165
  0
LINE
  5
22B
100
AcDbEntity
  8
0
100
AcDbLine
 62
7
  6
CONTINUOUS
 10
77.2149119667
 20
238.9281794811
 11
78.8111045724
 21
239.8497362108
  0
LINE
  5
22C
100
AcDbEntity
  8
0
100
AcDbLine
 62
7
  6
CONTINUOUS
 10
86.4073001221
 20
241.3777088283
 11
117.6612897269
 21
259.4221004294
  0
LINE
  5
22D
100
AcDbEntity
  8
0
100
AcDbLine
 62
7
  6
CONTINUOUS
 10
83.9324366918
 20
237.4993470384
 11
86.4073001221
 21
238.9282015769
  0
LINE
  5
22E
100
AcDbEntity
  8
0
100
AcDbLine
 62
7
  6
CONTINUOUS
 10
117.6612897269
 20
256.972593178
 11
120.1361531572
 21
258.4014477166
  0
LINE
  5
22F
100
AcDbEntity
  8
0
100
AcDbLine
 62
7
  6
CONTINUOUS
 10
85.8062618604
 20
237.8871669916
 11
118.2623279885
 21
256.6255736543
  0
LINE
  5
230
100
AcDbEntity
  8
0
100
AcDbLine
 62
7
  6
CONTINUOUS
 10
120.1361531572
 20
255.9519404652
 11
119.782640169
 21
255.7478408646
  0
LINE
  5
231
100
AcDbEntity
  8
0
100
AcDbLine
 62
7
  6
CONTINUOUS
 10
85.8327983287
 20
236.1470075404
 11
83.9324366918
 21
235.049839787
  0
LINE
  5
232
100
AcDbEntity
  8
0
100
AcDbLine
 62
7
  6
CONTINUOUS
 10
120.1715242464
 20
255.5233236171
 11
87.7154581183
 21
236.7849169544
  0
LINE
  5
233
100
AcDbEntity
  8
0
100
AcDbLine
 62
7
  6
CONTINUOUS
 10
175.7166362116
 20
79.4281715317
 11
168.6455389601
 21
83.5105790769
  0
LINE
  5
234
100
AcDbEntity
  8
0
100
AcDbLine
 62
7
  6
CONTINUOUS
 10
50.499332373
 20
163.3316434026
 11
54.5087493003
 21
160.124230553
  0
LINE
  5
235
100
AcDbEntity
  8
0
100
AcDbLine
 62
7
  6
CONTINUOUS
 10
68.3760404024
 20
218.4746632565
 11
68.3760404024
 21
210.5861231454
  0
LINE
  5
236
100
AcDbEntity
  8
0
100
AcDbLine
 62
7
  6
CONTINUOUS
 10
68.4467507861
 20
218.2705369467
 11
68.4467507861
 21
211.0160521195
  0
LINE
  5
237
100
AcDbEntity
  8
0
100
AcDbLine
 62
7
  6
CONTINUOUS
 10
72.406647678
 20
151.4809428905
 11
72.406647678
 21
188.2235516613
  0
LINE
  5
238
100
AcDbEntity
  8
0
100
AcDbLine
 62
7
  6
CONTINUOUS
 10
73.4669142414
 20
286.2434989281
 11
73.4669142414
 21
287.3866023121
  0
LINE
  5
239
100
AcDbEntity
  8
0
100
AcDbLine
 62
7
  6
CONTINUOUS
 10
72.6936983391
 20
220.2116130914
 11
72.9722695133
 21
238.479087701
  0
LINE
  5
23A
100
AcDbEntity
  8
0
100
AcDbLine
 62
7
  6
CONTINUOUS
 10
74.8814498737
 20
239.5813469165
 11
74.6028786995
 21
221.3138723069
  0
LINE
  5
23B
100
AcDbEntity
  8
0
100
AcDbLine
 62
7
  6
CONTINUOUS
 10
68.5881769857
 20
218.3521889137
 11
68.4467507861
 21
218.2705369467
  0
LINE
  5
23C
100
AcDbEntity
  8
0
100
AcDbLine
 62
7
  6
CONTINUOUS
 10
74.6028786995
 20
221.3138723069
 11
72.6936983391
 21
220.2116130914
  0
LINE
  5
23D
100
AcDbEntity
  8
0
100
AcDbLine
 62
7
  6
CONTINUOUS
 10
73.7748616301
 20
219.5394795604
 11
71.8656812697
 21
218.4372203449
  0
LINE
  5
23E
100
AcDbEntity
  8
0
100
AcDbLine
 62
7
  6
CONTINUOUS
 10
174.0183151816
 20
83.1820179438
 11
166.9472179301
 21
87.264425489
  0
LINE
  5
23F
100
AcDbEntity
  8
0
100
AcDbLine
 62
7
  6
CONTINUOUS
 10
37.0501573361
 20
170.2021841969
 11
166.9472179301
 21
95.2080915171
  0
LINE
  5
240
100
AcDbEntity
  8
0
100
AcDbLine
 62
7
  6
CONTINUOUS
 10
50.4992307893
 20
163.3314674505
 11
35.7257773731
 21
171.8607317995
  0
LINE
  5
241
100
AcDbEntity
  8
0
100
AcDbLine
 62
7
  6
CONTINUOUS
 10
166.9472179301
 20
96.8991540111
 11
62.789955416
 21
157.033017152
  0
LINE
  5
242
100
AcDbEntity
  8
0
100
AcDbLine
 62
7
  6
CONTINUOUS
 10
35.0579302909
 20
173.6209366385
 11
48.524759201
 21
165.8460352339
  0
LINE
  5
243
100
AcDbEntity
  8
0
100
AcDbLine
 62
7
  6
CONTINUOUS
 10
75.9417776717
 20
288.8154568507
 11
75.9417776717
 21
286.7363466301
  0
LINE
  5
244
100
AcDbEntity
  8
0
100
AcDbLine
 62
7
  6
CONTINUOUS
 10
77.2149119667
 20
241.3776867325
 11
77.2149119667
 21
238.9281794811
  0
LINE
  5
245
100
AcDbEntity
  8
0
100
AcDbLine
 62
7
  6
CONTINUOUS
 10
78.8111045724
 20
240.4387156235
 11
78.8111045724
 21
239.1323117561
  0
LINE
  5
246
100
AcDbEntity
  8
0
100
AcDbLine
 62
7
  6
CONTINUOUS
 10
79.689775397
 20
242.8065412711
 11
79.689775397
 21
241.6634378871
  0
LINE
  5
247
100
AcDbEntity
  8
0
100
AcDbLine
 62
7
  6
CONTINUOUS
 10
79.6897960047
 20
237.4993368403
 11
79.6897960047
 21
211.9428111842
  0
LINE
  5
248
100
AcDbEntity
  8
0
100
AcDbLine
 62
7
  6
CONTINUOUS
 10
79.7605063885
 20
211.7386848744
 11
79.7605063885
 21
204.4842000472
  0
LINE
  5
249
100
AcDbEntity
  8
0
100
AcDbLine
 62
7
  6
CONTINUOUS
 10
83.932416084
 20
241.6634480851
 11
83.932416084
 21
242.8065514691
  0
LINE
  5
24A
100
AcDbEntity
  8
0
100
AcDbLine
 62
7
  6
CONTINUOUS
 10
83.9324366918
 20
211.9428213822
 11
83.9324366918
 21
237.4993470384
  0
LINE
  5
24B
100
AcDbEntity
  8
0
100
AcDbLine
 62
7
  6
CONTINUOUS
 10
84.0031470755
 20
210.9221926553
 11
84.0031470755
 21
211.7386950725
  0
LINE
  5
24C
100
AcDbEntity
  8
0
100
AcDbLine
 62
7
  6
CONTINUOUS
 10
83.0995728603
 20
207.5414703378
 11
82.2307444036
 21
202.5846043568
  0
LINE
  5
24D
100
AcDbEntity
  8
0
100
AcDbLine
 62
7
  6
CONTINUOUS
 10
90.8220115404
 20
216.9411616488
 11
117.0649708243
 21
232.0924508147
  0
LINE
  5
24E
100
AcDbEntity
  8
0
100
AcDbLine
 62
7
  6
CONTINUOUS
 10
120.1361531572
 20
232.8449220604
 11
83.9324366918
 21
211.9428213822
  0
LINE
  5
24F
100
AcDbEntity
  8
0
100
AcDbLine
 62
7
  6
CONTINUOUS
 10
84.0031470755
 20
211.7386950725
 11
86.1244585872
 21
212.9634275341
  0
LINE
  5
250
100
AcDbEntity
  8
0
100
AcDbLine
 62
7
  6
CONTINUOUS
 10
117.9441312618
 20
231.3344144583
 11
120.0654427734
 21
232.5591469199
  0
LINE
  5
251
100
AcDbEntity
  8
0
100
AcDbLine
 62
7
  6
CONTINUOUS
 10
46.9253929865
 20
171.5521811893
 11
33.6356622786
 21
179.2248372122
  0
LINE
  5
252
100
AcDbEntity
  8
0
100
AcDbLine
 62
7
  6
CONTINUOUS
 10
86.084830715
 20
219.6196937211
 11
85.8062618604
 21
237.8871669916
  0
LINE
  5
253
100
AcDbEntity
  8
0
100
AcDbLine
 62
7
  6
CONTINUOUS
 10
87.7154581183
 20
236.7849169544
 11
87.9940269729
 21
218.5174436839
  0
LINE
  5
254
100
AcDbEntity
  8
0
100
AcDbLine
 62
7
  6
CONTINUOUS
 10
84.8111045724
 20
240.4387156235
 11
84.8111045724
 21
239.1323117561
  0
LINE
  5
255
100
AcDbEntity
  8
0
100
AcDbLine
 62
7
  6
CONTINUOUS
 10
86.4073001221
 20
241.3777088283
 11
86.4073001221
 21
238.9282015769
  0
LINE
  5
256
100
AcDbEntity
  8
0
100
AcDbLine
 62
7
  6
CONTINUOUS
 10
79.0237921217
 20
197.0299692328
 11
75.1654755369
 21
193.7991343762
  0
LINE
  5
257
100
AcDbEntity
  8
0
100
AcDbLine
 62
7
  6
CONTINUOUS
 10
86.5487244223
 20
212.7184830814
 11
118.3683970969
 21
231.0894700056
  0
LINE
  5
258
100
AcDbEntity
  8
0
100
AcDbLine
 62
7
  6
CONTINUOUS
 10
189.0704827686
 20
102.5575183403
 11
190.4847022189
 21
101.7410368312
  0
LINE
  5
259
100
AcDbEntity
  8
0
100
AcDbLine
 62
7
  6
CONTINUOUS
 10
31.7335698087
 20
194.8037422257
 11
46.4974268344
 21
186.28001823
  0
LINE
  5
25A
100
AcDbEntity
  8
0
100
AcDbLine
 62
7
  6
CONTINUOUS
 10
105.3881100642
 20
266.4847362814
 11
105.3881100642
 21
263.6269778214
  0
LINE
  5
25B
100
AcDbEntity
  8
0
100
AcDbLine
 62
7
  6
CONTINUOUS
 10
105.4286718424
 20
169.1587084252
 11
105.4286718424
 21
132.4160996544
  0
LINE
  5
25C
100
AcDbEntity
  8
0
100
AcDbLine
 62
7
  6
CONTINUOUS
 10
113.3881100642
 20
266.4847362814
 11
113.3881100642
 21
263.6269778214
  0
LINE
  5
25D
100
AcDbEntity
  8
0
100
AcDbLine
 62
7
  6
CONTINUOUS
 10
62.789955416
 20
193.7756259228
 11
166.9472179301
 21
133.641762782
  0
LINE
  5
25E
100
AcDbEntity
  8
0
100
AcDbLine
 62
7
  6
CONTINUOUS
 10
166.9472179301
 20
140.8101194704
 11
50.499332373
 21
208.0398166045
  0
LINE
  5
25F
100
AcDbEntity
  8
0
100
AcDbLine
 62
7
  6
CONTINUOUS
 10
222.2835709187
 20
111.0950229452
 11
202.4844986146
 21
122.5257640717
  0
LINE
  5
260
100
AcDbEntity
  8
0
100
AcDbLine
 62
7
  6
CONTINUOUS
 10
166.9472179301
 20
143.2764913041
 11
174.0183151816
 21
139.1940837589
  0
LINE
  5
261
100
AcDbEntity
  8
0
100
AcDbLine
 62
7
  6
CONTINUOUS
 10
115.1863880251
 20
262.1572944114
 11
115.1863880251
 21
263.3003977954
  0
LINE
  5
262
100
AcDbEntity
  8
0
100
AcDbLine
 62
7
  6
CONTINUOUS
 10
117.6612514554
 20
264.729252334
 11
117.6612514554
 21
262.6501421134
  0
LINE
  5
263
100
AcDbEntity
  8
0
100
AcDbLine
 62
7
  6
CONTINUOUS
 10
117.6612897269
 20
259.4221004294
 11
117.6612897269
 21
256.972593178
  0
LINE
  5
264
100
AcDbEntity
  8
0
100
AcDbLine
 62
7
  6
CONTINUOUS
 10
118.156646895
 20
161.8103748439
 11
118.156646895
 21
125.067766073
  0
LINE
  5
265
100
AcDbEntity
  8
0
100
AcDbLine
 62
7
  6
CONTINUOUS
 10
120.0654427734
 20
232.5591469199
 11
120.0654427734
 21
231.7426445028
  0
LINE
  5
266
100
AcDbEntity
  8
0
100
AcDbLine
 62
7
  6
CONTINUOUS
 10
120.1361531572
 20
258.4014477166
 11
120.1361531572
 21
255.543744663
  0
LINE
  5
267
100
AcDbEntity
  8
0
100
AcDbLine
 62
7
  6
CONTINUOUS
 10
120.1361531572
 20
253.1629809537
 11
120.1361531572
 21
232.8449220604
  0
LINE
  5
268
100
AcDbEntity
  8
0
100
AcDbLine
 62
7
  6
CONTINUOUS
 10
120.3077172005
 20
260.9325721479
 11
120.3077172005
 21
259.6261682805
  0
LINE
  5
269
100
AcDbEntity
  8
0
100
AcDbLine
 62
7
  6
CONTINUOUS
 10
120.944113598
 20
231.2933709858
 11
120.944113598
 21
233.7588785354
  0
LINE
  5
26A
100
AcDbEntity
  8
0
100
AcDbLine
 62
7
  6
CONTINUOUS
 10
121.0148239817
 20
234.069644324
 11
121.0148239817
 21
259.6261699801
  0
LINE
  5
26B
100
AcDbEntity
  8
0
100
AcDbLine
 62
7
  6
CONTINUOUS
 10
119.8929553918
 20
236.9341886603
 11
120.1715242464
 21
255.5233236171
  0
LINE
  5
26C
100
AcDbEntity
  8
0
100
AcDbLine
 62
7
  6
CONTINUOUS
 10
116.1215970247
 20
188.4766271017
 11
115.2527685679
 21
183.5197611207
  0
LINE
  5
26D
100
AcDbEntity
  8
0
100
AcDbLine
 62
7
  6
CONTINUOUS
 10
151.3904212613
 20
212.0246267695
 11
119.5707485866
 21
193.6536398453
  0
LINE
  5
26E
100
AcDbEntity
  8
0
100
AcDbLine
 62
7
  6
CONTINUOUS
 10
65.1644415088
 20
205.0314880214
 11
167.3775256779
 21
146.0200713783
  0
LINE
  5
26F
100
AcDbEntity
  8
0
100
AcDbLine
 62
7
  6
CONTINUOUS
 10
49.4082396532
 20
218.6715986333
 11
67.5678740372
 21
208.1873660183
  0
LINE
  5
270
100
AcDbEntity
  8
0
100
AcDbLine
 62
7
  6
CONTINUOUS
 10
170.5843607075
 20
151.5747741964
 11
68.3713937907
 21
210.5861231454
  0
LINE
  5
271
100
AcDbEntity
  8
0
100
AcDbLine
 62
7
  6
CONTINUOUS
 10
68.4467507861
 20
211.0160521195
 11
79.7605063885
 21
204.4842000472
  0
LINE
  5
272
100
AcDbEntity
  8
0
100
AcDbLine
 62
7
  6
CONTINUOUS
 10
128.8495720773
 20
181.1282935203
 11
127.9807436206
 21
176.1714275394
  0
LINE
  5
273
100
AcDbEntity
  8
0
100
AcDbLine
 62
7
  6
CONTINUOUS
 10
112.0458162861
 20
177.9651259967
 11
108.1874997013
 21
174.7342911401
  0
LINE
  5
274
100
AcDbEntity
  8
0
100
AcDbLine
 62
7
  6
CONTINUOUS
 10
164.1183963139
 20
204.6762931881
 11
132.2987236393
 21
186.3053062639
  0
LINE
  5
275
100
AcDbEntity
  8
0
100
AcDbLine
 62
7
  6
CONTINUOUS
 10
179.8165666468
 20
149.2370056411
 11
172.7454693953
 21
153.3194131863
  0
LINE
  5
276
100
AcDbEntity
  8
0
100
AcDbLine
 62
7
  6
CONTINUOUS
 10
228.2834691165
 20
121.4873865654
 11
208.4843968124
 21
132.918127692
  0
LINE
  5
277
100
AcDbEntity
  8
0
100
AcDbLine
 62
7
  6
CONTINUOUS
 10
82.2083202896
 20
208.0560236087
 11
174.8812446068
 21
154.5524962191
  0
LINE
  5
278
100
AcDbEntity
  8
0
100
AcDbLine
 62
7
  6
CONTINUOUS
 10
68.4467507861
 20
218.2705369467
 11
79.7605063885
 21
211.7386848744
  0
LINE
  5
279
100
AcDbEntity
  8
0
100
AcDbLine
 62
7
  6
CONTINUOUS
 10
79.6897960047
 20
211.9428111842
 11
68.3760404024
 21
218.4746632565
  0
LINE
  5
27A
100
AcDbEntity
  8
0
100
AcDbLine
 62
7
  6
CONTINUOUS
 10
43.6225124188
 20
233.7864804657
 11
69.8656902234
 21
218.635317461
  0
LINE
  5
27B
100
AcDbEntity
  8
0
100
AcDbLine
 62
7
  6
CONTINUOUS
 10
124.7737913387
 20
170.6167924153
 11
120.915474754
 21
167.3859575587
  0
LINE
  5
27C
100
AcDbEntity
  8
0
100
AcDbLine
 62
7
  6
CONTINUOUS
 10
181.0892946744
 20
158.136694202
 11
86.1244585872
 21
212.9634275341
  0
LINE
  5
27D
100
AcDbEntity
  8
0
100
AcDbLine
 62
7
  6
CONTINUOUS
 10
86.9128492166
 20
217.8453001478
 11
88.8220454745
 21
216.7430501106
  0
LINE
  5
27E
100
AcDbEntity
  8
0
100
AcDbLine
 62
7
  6
CONTINUOUS
 10
87.9940269729
 20
218.5174436839
 11
86.084830715
 21
219.6196937211
  0
LINE
  5
27F
100
AcDbEntity
  8
0
100
AcDbLine
 62
7
  6
CONTINUOUS
 10
72.9722695133
 20
238.479087701
 11
40.515933129
 21
257.2173383335
  0
LINE
  5
280
100
AcDbEntity
  8
0
100
AcDbLine
 62
7
  6
CONTINUOUS
 10
219.0699737578
 20
154.5193364415
 11
220.4841932081
 21
153.7028549325
  0
LINE
  5
281
100
AcDbEntity
  8
0
100
AcDbLine
 62
7
  6
CONTINUOUS
 10
79.6897960047
 20
235.0498295889
 11
74.8549131845
 21
237.8411873377
  0
LINE
  5
282
100
AcDbEntity
  8
0
100
AcDbLine
 62
7
  6
CONTINUOUS
 10
40.9048013091
 20
257.4418501418
 11
32.3927532987
 21
262.3561721751
  0
LINE
  5
283
100
AcDbEntity
  8
0
100
AcDbLine
 62
7
  6
CONTINUOUS
 10
42.4251134895
 20
258.319597549
 11
74.8814498737
 21
239.5813469165
  0
LINE
  5
284
100
AcDbEntity
  8
0
100
AcDbLine
 62
7
  6
CONTINUOUS
 10
35.495438183
 20
263.0143839978
 11
39.7380965339
 21
260.5649394707
  0
LINE
  5
285
100
AcDbEntity
  8
0
100
AcDbLine
 62
7
  6
CONTINUOUS
 10
77.2149119667
 20
238.9281794811
 11
79.6897960047
 21
237.4993368403
  0
LINE
  5
286
100
AcDbEntity
  8
0
100
AcDbLine
 62
7
  6
CONTINUOUS
 10
33.5511032684
 20
266.5864281404
 11
35.495438183
 21
265.4638912492
  0
LINE
  5
287
100
AcDbEntity
  8
0
100
AcDbLine
 62
7
  6
CONTINUOUS
 10
39.7380965339
 20
263.0144467221
 11
77.2149119667
 21
241.3776867325
  0
LINE
  5
288
100
AcDbEntity
  8
0
100
AcDbLine
 62
7
  6
CONTINUOUS
 10
87.7154581183
 20
236.7849169544
 11
85.8062618604
 21
237.8871669916
  0
LINE
  5
289
100
AcDbEntity
  8
0
100
AcDbLine
 62
7
  6
CONTINUOUS
 10
84.8111045724
 20
239.8497446591
 11
86.4073001221
 21
238.9282015769
  0
LINE
  5
28A
100
AcDbEntity
  8
0
100
AcDbLine
 62
7
  6
CONTINUOUS
 10
83.932416084
 20
242.8065514691
 11
86.4073001221
 21
241.3777088283
  0
LINE
  5
28B
100
AcDbEntity
  8
0
100
AcDbLine
 62
7
  6
CONTINUOUS
 10
163.4116693044
 20
135.6829665546
 11
163.4116693044
 21
98.9403577837
  0
LINE
  5
28C
100
AcDbEntity
  8
0
100
AcDbLine
 62
7
  6
CONTINUOUS
 10
166.9472179301
 20
87.264425489
 11
166.9472179301
 21
96.8991540111
  0
LINE
  5
28D
100
AcDbEntity
  8
0
100
AcDbLine
 62
7
  6
CONTINUOUS
 10
166.9472179301
 20
133.641762782
 11
166.9472179301
 21
143.2764913041
  0
LINE
  5
28E
100
AcDbEntity
  8
0
100
AcDbLine
 62
7
  6
CONTINUOUS
 10
120.0654427734
 20
231.7426445028
 11
120.410112463
 21
231.6019298764
  0
LINE
  5
28F
100
AcDbEntity
  8
0
100
AcDbLine
 62
7
  6
CONTINUOUS
 10
117.9441312618
 20
231.3344144583
 11
212.908967349
 21
176.5076811262
  0
LINE
  5
290
100
AcDbEntity
  8
0
100
AcDbLine
 62
7
  6
CONTINUOUS
 10
120.410021568
 20
231.6017221872
 11
214.373400829
 21
177.3531671432
  0
LINE
  5
291
100
AcDbEntity
  8
0
100
AcDbLine
 62
7
  6
CONTINUOUS
 10
174.0183151816
 20
83.1820179438
 11
174.0183151816
 21
139.1940837589
  0
LINE
  5
292
100
AcDbEntity
  8
0
100
AcDbLine
 62
7
  6
CONTINUOUS
 10
174.1045944867
 20
155.000885231
 11
173.9297103289
 21
154.0031309269
  0
LINE
  5
293
100
AcDbEntity
  8
0
100
AcDbLine
 62
7
  6
CONTINUOUS
 10
209.3734187233
 20
178.5488848988
 11
177.5537460487
 21
160.1778979746
  0
LINE
  5
294
100
AcDbEntity
  8
0
100
AcDbLine
 62
7
  6
CONTINUOUS
 10
172.7454693953
 20
153.3194131863
 11
181.0892946744
 21
158.136694202
  0
LINE
  5
295
100
AcDbEntity
  8
0
100
AcDbLine
 62
7
  6
CONTINUOUS
 10
212.908967349
 20
176.5076811262
 11
221.2527926282
 21
181.3249621419
  0
LINE
  5
296
100
AcDbEntity
  8
0
100
AcDbLine
 62
7
  6
CONTINUOUS
 10
221.2527926282
 20
181.3249621419
 11
228.3238898796
 21
177.2425545967
  0
LINE
  5
297
100
AcDbEntity
  8
0
100
AcDbLine
 62
7
  6
CONTINUOUS
 10
232.4238203148
 20
177.6486832501
 11
225.3527230634
 21
181.7310907953
  0
LINE
  5
298
100
AcDbEntity
  8
0
100
AcDbLine
 62
7
  6
CONTINUOUS
 10
166.9472179301
 20
141.9089511926
 11
166.1704971634
 21
141.2585492694
  0
LINE
  5
299
100
AcDbEntity
  8
0
100
AcDbLine
 62
7
  6
CONTINUOUS
 10
179.8165666468
 20
149.2370056411
 11
228.3238898796
 21
177.2425545967
  0
LINE
  5
29A
100
AcDbEntity
  8
0
100
AcDbLine
 62
7
  6
CONTINUOUS
 10
120.1715242464
 20
255.5233236171
 11
118.2623279885
 21
256.6255736543
  0
LINE
  5
29B
100
AcDbEntity
  8
0
100
AcDbLine
 62
7
  6
CONTINUOUS
 10
117.6612897269
 20
259.4221004294
 11
115.1864056889
 21
260.8509430702
  0
LINE
  5
29C
100
AcDbEntity
  8
0
100
AcDbLine
 62
7
  6
CONTINUOUS
 10
117.6612514554
 20
264.729252334
 11
112.9270916539
 21
267.4624589363
  0
LINE
  5
29D
100
AcDbEntity
  8
0
100
AcDbLine
 62
7
  6
CONTINUOUS
 10
111.0815701198
 20
268.5279471863
 11
80.1844360226
 21
286.3660123235
  0
LINE
  5
29E
100
AcDbEntity
  8
0
100
AcDbLine
 62
7
  6
CONTINUOUS
 10
75.9417776717
 20
288.8154568507
 11
73.997442757
 21
289.9379937419
  0
LINE
  5
29F
100
AcDbEntity
  8
0
100
AcDbLine
 62
7
  6
CONTINUOUS
 10
234.1221413448
 20
173.894836838
 11
234.1221413448
 21
117.8827710229
  0
LINE
  5
2A0
100
AcDbEntity
  8
0
100
AcDbLine
 62
7
  6
CONTINUOUS
 10
228.3238898796
 20
107.8398491407
 11
179.8165666468
 21
79.8343001851
  0
ARC
  5
2A1
100
AcDbEntity
  8
0
100
AcDbCircle
 62
7
  6
CONTINUOUS
 10
117.8702446962
 20
178.3067788868
 40
10.3599210556
100
AcDbArc
 50
329.9945174517
 51
333.725411002
  0
ARC
  5
2A2
100
AcDbEntity
  8
0
100
AcDbCircle
 62
7
  6
CONTINUOUS
 10
72.1202454792
 20
204.7199557042
 40
10.3599210556
100
AcDbArc
 50
329.9945174563
 51
333.725411002
  0
ARC
  5
2A3
100
AcDbEntity
  8
0
100
AcDbCircle
 62
7
  6
CONTINUOUS
 10
105.1422696436
 20
185.6551124681
 40
10.3599210556
100
AcDbArc
 50
329.9945174586
 51
333.725411002
  0
ARC
  5
2A4
100
AcDbEntity
  8
0
100
AcDbCircle
 62
7
  6
CONTINUOUS
 10
117.86924285
 20
178.305010633
 40
10.3599045579
100
AcDbArc
 50
326.2748611175
 51
330.0057570086
  0
ARC
  5
2A5
100
AcDbEntity
  8
0
100
AcDbCircle
 62
7
  6
CONTINUOUS
 10
72.119243633
 20
204.7181874504
 40
10.3599045579
100
AcDbArc
 50
326.2748611175
 51
330.0057570132
  0
ARC
  5
2A6
100
AcDbEntity
  8
0
100
AcDbCircle
 62
7
  6
CONTINUOUS
 10
105.1412677973
 20
185.6533442144
 40
10.359904558
100
AcDbArc
 50
326.2748611175
 51
330.0057570155
  0
ARC
  5
2A7
100
AcDbEntity
  8
0
100
AcDbCircle
 62
7
  6
CONTINUOUS
 10
137.2771796755
 20
179.3485436289
 40
8.6353616228
100
AcDbArc
 50
146.3311742059
 51
153.7688580169
  0
ARC
  5
2A8
100
AcDbEntity
  8
0
100
AcDbCircle
 62
7
  6
CONTINUOUS
 10
91.5271804584
 20
205.7617204464
 40
8.6353616227
100
AcDbArc
 50
146.3311741998
 51
153.7688580169
  0
ARC
  5
2A9
100
AcDbEntity
  8
0
100
AcDbCircle
 62
7
  6
CONTINUOUS
 10
124.5492046228
 20
186.6968772103
 40
8.6353616227
100
AcDbArc
 50
146.3311741999
 51
153.7688580169
  0
ARC
  5
2AA
100
AcDbEntity
  8
0
100
AcDbCircle
 62
7
  6
CONTINUOUS
 10
182.5322020847
 20
153.2211353397
 40
8.6353616226
100
AcDbArc
 50
146.3311741898
 51
153.768858017
  0
ARC
  5
2AB
100
AcDbEntity
  8
0
100
AcDbCircle
 62
7
  6
CONTINUOUS
 10
126.6706216008
 20
160.9773504503
 40
8.6353584879
100
AcDbArc
 50
146.2314161687
 51
153.669102603
  0
ARC
  5
2AC
100
AcDbEntity
  8
0
100
AcDbCircle
 62
7
  6
CONTINUOUS
 10
80.9206223837
 20
187.3905272679
 40
8.6353584878
100
AcDbArc
 50
146.2314161687
 51
153.6691026097
  0
ARC
  5
2AD
100
AcDbEntity
  8
0
100
AcDbCircle
 62
7
  6
CONTINUOUS
 10
113.9426465481
 20
168.3256840317
 40
8.6353584879
100
AcDbArc
 50
146.2314161687
 51
153.6691026064
  0
ARC
  5
2AE
100
AcDbEntity
  8
0
100
AcDbCircle
 62
7
  6
CONTINUOUS
 10
171.92564401
 20
134.8499421611
 40
8.6353584878
100
AcDbArc
 50
146.2314161686
 51
153.6691026161
  0
ARC
  5
2AF
100
AcDbEntity
  8
0
100
AcDbCircle
 62
7
  6
CONTINUOUS
 10
81.8111075792
 20
239.6987411733
 40
5.1562245781
100
AcDbArc
 50
263.5258730156
 51
276.4737961813
  0
ARC
  5
2B0
100
AcDbEntity
  8
0
100
AcDbCircle
 62
7
  6
CONTINUOUS
 10
40.0873362999
 20
267.8998078825
 40
5.1068003709
100
AcDbArc
 50
266.0731906641
 51
266.2771437939
  0
ARC
  5
2B1
100
AcDbEntity
  8
0
100
AcDbCircle
 62
7
  6
CONTINUOUS
 10
117.3120125348
 20
264.3074487466
 40
5.1067891964
100
AcDbArc
 50
273.7231339531
 51
273.927243542
  0
ARC
  5
2B2
100
AcDbEntity
  8
0
100
AcDbCircle
 62
7
  6
CONTINUOUS
 10
40.0868755382
 20
267.8931797832
 40
5.1001562782
100
AcDbArc
 50
265.6065755674
 51
266.0732555268
  0
ARC
  5
2B3
100
AcDbEntity
  8
0
100
AcDbCircle
 62
7
  6
CONTINUOUS
 10
117.3124735501
 20
264.300817686
 40
5.1001421319
100
AcDbArc
 50
273.9271786806
 51
274.3938670824
  0
ARC
  5
2B4
100
AcDbEntity
  8
0
100
AcDbCircle
 62
7
  6
CONTINUOUS
 10
73.9726022714
 20
284.8519002885
 40
1.4229332174
100
AcDbArc
 50
143.756465207
 51
147.9787180414
  0
SPLINE
  5
2B5
100
AcDbEntity
  8
0
100
AcDbSpline
 62
7
  6
CONTINUOUS
 70
0
 71
3
 72
23
 73
19
 74
0
 42
0.0000001
 43
0.0000001
 44
0.0000000001
 40
0.0
 40
0.0
 40
0.0
 40
0.0
 40
0.0623916662
 40
0.1287422574
 40
0.1983449549
 40
0.2703325193
 40
0.343721676
 40
0.4174661908
 40
0.4905030473
 40
0.5618015998
 40
0.6304102062
 40
0.6955084213
 40
0.7564659163
 40
0.812912384
 40
0.8648213917
 40
0.9126040094
 40
0.9571857337
 40
1.0
 40
1.0
 40
1.0
 40
1.0
 10
225.2835200176
 20
111.3921902525
 30
0.0
 10
225.4990848272
 20
111.5166459105
 30
0.0
 10
225.9273264066
 20
111.8028330714
 30
0.0
 10
226.5337757971
 20
112.3131904118
 30
0.0
 10
227.11347662
 20
112.9083960549
 30
0.0
 10
227.6540448031
 20
113.5756955355
 30
0.0
 10
228.1440269578
 20
114.3009439492
 30
0.0
 10
228.5729747635
 20
115.0686581696
 30
0.0
 10
228.9317316753
 20
115.8624646759
 30
0.0
 10
229.2126510909
 20
116.6654438586
 30
0.0
 10
229.4097486381
 20
117.4605466336
 30
0.0
 10
229.5188026806
 20
118.2309965021
 30
0.0
 10
229.5373724287
 20
118.9606944571
 30
0.0
 10
229.4646767364
 20
119.6345859213
 30
0.0
 10
229.3014050905
 20
120.2388198368
 30
0.0
 10
229.0492496457
 20
120.7606577696
 30
0.0
 10
228.7118020711
 20
121.1873589961
 30
0.0
 10
228.4313928324
 20
121.4019817215
 30
0.0
 10
228.2834677988
 20
121.4873842829
 30
0.0
  0
SPLINE
  5
2B6
100
AcDbEntity
  8
0
100
AcDbSpline
 62
7
  6
CONTINUOUS
 70
0
 71
3
 72
14
 73
10
 74
0
 42
0.0000001
 43
0.0000001
 44
0.0000000001
 40
0.0
 40
0.0
 40
0.0
 40
0.0
 40
0.2892789174
 40
0.4225378361
 40
0.5484923876
 40
0.6678923001
 40
0.7818656908
 40
0.8919500098
 40
1.0
 40
1.0
 40
1.0
 40
1.0
 10
205.4844477135
 20
132.6209603846
 30
0.0
 10
205.7478159266
 20
132.7730151857
 30
0.0
 10
206.15215032
 20
132.9654575231
 30
0.0
 10
206.7066577593
 20
133.1271490861
 30
0.0
 10
207.1002467382
 20
133.1931516628
 30
0.0
 10
207.4789621189
 20
133.2063526008
 30
0.0
 10
207.8392202358
 20
133.1661664518
 30
0.0
 10
208.1771570921
 20
133.0727089439
 30
0.0
 10
208.3860230114
 20
132.9749192321
 30
0.0
 10
208.4843954538
 20
132.9181253389
 30
0.0
  0
SPLINE
  5
2B7
100
AcDbEntity
  8
0
100
AcDbSpline
 62
7
  6
CONTINUOUS
 70
0
 71
3
 72
23
 73
19
 74
0
 42
0.0000001
 43
0.0000001
 44
0.0000000001
 40
0.0
 40
0.0
 40
0.0
 40
0.0
 40
0.0428149486
 40
0.0873974399
 40
0.1351808513
 40
0.1870905552
 40
0.2435375166
 40
0.3044952199
 40
0.3695932857
 40
0.4382013398
 40
0.5094989997
 40
0.5825347875
 40
0.6562782518
 40
0.7296665777
 40
0.8016537119
 40
0.8712563163
 40
0.9376075815
 40
1.0
 40
1.0
 40
1.0
 40
1.0
 10
202.4844999732
 20
122.5257664248
 30
0.0
 10
202.3365725036
 20
122.6111701894
 30
0.0
 10
202.0561593064
 20
122.8257976694
 30
0.0
 10
201.7187088329
 20
123.2525081402
 30
0.0
 10
201.4665538429
 20
123.7743563893
 30
0.0
 10
201.303285284
 20
124.3785993105
 30
0.0
 10
201.2305942803
 20
125.0524968396
 30
0.0
 10
201.2491689945
 20
125.7821967974
 30
0.0
 10
201.3582270137
 20
126.5526440269
 30
0.0
 10
201.5553263949
 20
127.3477396972
 30
0.0
 10
201.8362449527
 20
128.1507084515
 30
0.0
 10
202.1949983978
 20
128.9445032318
 30
0.0
 10
202.623941046
 20
129.7122067337
 30
0.0
 10
203.1139177285
 20
130.4374476211
 30
0.0
 10
203.6544819102
 20
131.1047432554
 30
0.0
 10
204.2341815379
 20
131.6999508437
 30
0.0
 10
204.840634586
 20
132.2103120431
 30
0.0
 10
205.2688803184
 20
132.496503234
 30
0.0
 10
205.4844477135
 20
132.6209603846
 30
0.0
  0
SPLINE
  5
2B8
100
AcDbEntity
  8
0
100
AcDbSpline
 62
7
  6
CONTINUOUS
 70
0
 71
3
 72
14
 73
10
 74
0
 42
0.0000001
 43
0.0000001
 44
0.0000000001
 40
0.0
 40
0.0
 40
0.0
 40
0.0
 40
0.1080486344
 40
0.2181318132
 40
0.332104308
 40
0.4515037172
 40
0.5774578707
 40
0.7107174119
 40
1.0
 40
1.0
 40
1.0
 40
1.0
 10
222.2835722364
 20
111.0950252276
 30
0.0
 10
222.3819433842
 20
111.0382319466
 30
0.0
 10
222.5908067382
 20
110.9404429616
 30
0.0
 10
222.9287400216
 20
110.8469861582
 30
0.0
 10
223.2889952216
 20
110.806798372
 30
0.0
 10
223.6677087727
 20
110.8199980824
 30
0.0
 10
224.0612977228
 20
110.8859988289
 30
0.0
 10
224.6158097723
 20
111.047689355
 30
0.0
 10
225.0201484668
 20
111.2401335244
 30
0.0
 10
225.2835200176
 20
111.3921902525
 30
0.0
  0
SPLINE
  5
2B9
100
AcDbEntity
  8
0
100
AcDbSpline
 62
7
  6
CONTINUOUS
 70
0
 71
3
 72
23
 73
19
 74
0
 42
0.0000001
 43
0.0000001
 44
0.0000000001
 40
0.0
 40
0.0
 40
0.0
 40
0.0
 40
0.0623916662
 40
0.1287422574
 40
0.1983449549
 40
0.2703325193
 40
0.343721676
 40
0.4174661908
 40
0.4905030473
 40
0.5618015998
 40
0.6304102062
 40
0.6955084213
 40
0.7564659163
 40
0.812912384
 40
0.8648213917
 40
0.9126040094
 40
0.9571857337
 40
1.0
 40
1.0
 40
1.0
 40
1.0
 10
225.2835200176
 20
121.1902192581
 30
0.0
 10
225.067955208
 20
121.0657636001
 30
0.0
 10
224.6397136287
 20
120.7795764392
 30
0.0
 10
224.0332642381
 20
120.2692190987
 30
0.0
 10
223.4535634152
 20
119.6740134556
 30
0.0
 10
222.9129952322
 20
119.0067139751
 30
0.0
 10
222.4230130774
 20
118.2814655614
 30
0.0
 10
221.9940652717
 20
117.513751341
 30
0.0
 10
221.6353083599
 20
116.7199448346
 30
0.0
 10
221.3543889443
 20
115.9169656519
 30
0.0
 10
221.1572913971
 20
115.121862877
 30
0.0
 10
221.0482373546
 20
114.3514130084
 30
0.0
 10
221.0296676066
 20
113.6217150534
 30
0.0
 10
221.1023632988
 20
112.9478235893
 30
0.0
 10
221.2656349447
 20
112.3435896737
 30
0.0
 10
221.5177903896
 20
111.8217517409
 30
0.0
 10
221.8552379641
 20
111.3950505144
 30
0.0
 10
222.1356472029
 20
111.1804277891
 30
0.0
 10
222.2835722364
 20
111.0950252276
 30
0.0
  0
SPLINE
  5
2BA
100
AcDbEntity
  8
0
100
AcDbSpline
 62
7
  6
CONTINUOUS
 70
0
 71
3
 72
14
 73
10
 74
0
 42
0.0000001
 43
0.0000001
 44
0.0000000001
 40
0.0
 40
0.0
 40
0.0
 40
0.0
 40
0.1080486344
 40
0.2181318132
 40
0.332104308
 40
0.4515037172
 40
0.5774578707
 40
0.7107174119
 40
1.0
 40
1.0
 40
1.0
 40
1.0
 10
228.2834677988
 20
121.4873842829
 30
0.0
 10
228.185096651
 20
121.5441775639
 30
0.0
 10
227.976233297
 20
121.641966549
 30
0.0
 10
227.6383000137
 20
121.7354233524
 30
0.0
 10
227.2780448136
 20
121.7756111386
 30
0.0
 10
226.8993312625
 20
121.7624114281
 30
0.0
 10
226.5057423124
 20
121.6964106817
 30
0.0
 10
225.9512302629
 20
121.5347201556
 30
0.0
 10
225.5468915684
 20
121.3422759862
 30
0.0
 10
225.2835200176
 20
121.1902192581
 30
0.0
  0
SPLINE
  5
2BB
100
AcDbEntity
  8
0
100
AcDbSpline
 62
7
  6
CONTINUOUS
 70
0
 71
3
 72
11
 73
7
 74
0
 42
0.0000001
 43
0.0000001
 44
0.0000000001
 40
0.0
 40
0.0
 40
0.0
 40
0.0
 40
0.2898006839
 40
0.5490477601
 40
0.7822275063
 40
1.0
 40
1.0
 40
1.0
 40
1.0
 10
69.8656902234
 20
218.635317461
 30
0.0
 10
70.041267977
 20
218.5339498909
 30
0.0
 10
70.3903697353
 20
218.3677535435
 30
0.0
 10
70.9270773371
 20
218.2383315802
 30
0.0
 10
71.4305660678
 20
218.250946021
 30
0.0
 10
71.7337423215
 20
218.3610470164
 30
0.0
 10
71.8656777989
 20
218.4372263541
 30
0.0
  0
SPLINE
  5
2BC
100
AcDbEntity
  8
0
100
AcDbSpline
 62
7
  6
CONTINUOUS
 70
0
 71
3
 72
15
 73
11
 74
0
 42
0.0000001
 43
0.0000001
 44
0.0000000001
 40
0.0
 40
0.0
 40
0.0
 40
0.0
 40
0.1148263591
 40
0.2383901443
 40
0.3681607991
 40
0.501083093
 40
0.6338551732
 40
0.7631866601
 40
0.8860576628
 40
1.0
 40
1.0
 40
1.0
 40
1.0
 10
40.7945043032
 20
238.628204716
 30
0.0
 10
40.7978414372
 20
238.4055168161
 30
0.0
 10
40.8443213201
 20
237.9433664571
 30
0.0
 10
41.0129877058
 20
237.2476538806
 30
0.0
 10
41.2772806133
 20
236.5447751554
 30
0.0
 10
41.6275301906
 20
235.8606024602
 30
0.0
 10
42.0508934549
 20
235.2201112261
 30
0.0
 10
42.531951339
 20
234.6467252268
 30
0.0
 10
43.0529772462
 20
234.1614912219
 30
0.0
 10
43.4311212054
 20
233.8969777345
 30
0.0
 10
43.6225124188
 20
233.7864804657
 30
0.0
  0
SPLINE
  5
2BD
100
AcDbEntity
  8
0
100
AcDbSpline
 62
7
  6
CONTINUOUS
 70
0
 71
3
 72
11
 73
7
 74
0
 42
0.0000001
 43
0.0000001
 44
0.0000000001
 40
0.0
 40
0.0
 40
0.0
 40
0.0
 40
0.2887885927
 40
0.5476717144
 40
0.7812596444
 40
1.0
 40
1.0
 40
1.0
 40
1.0
 10
74.6028786995
 20
221.3138723069
 30
0.0
 10
74.5998809132
 20
221.1172906399
 30
0.0
 10
74.5645691983
 20
220.7436640068
 30
0.0
 10
74.405726517
 20
220.2311983907
 30
0.0
 10
74.1454749755
 20
219.8153020764
 30
0.0
 10
73.9038208069
 20
219.6139484127
 30
0.0
 10
73.7748581586
 20
219.5394855708
 30
0.0
  0
SPLINE
  5
2BE
100
AcDbEntity
  8
0
100
AcDbSpline
 62
7
  6
CONTINUOUS
 70
0
 71
3
 72
11
 73
7
 74
0
 42
0.0000001
 43
0.0000001
 44
0.0000000001
 40
0.0
 40
0.0
 40
0.0
 40
0.0
 40
0.2187403653
 40
0.4523283028
 40
0.7112114152
 40
1.0
 40
1.0
 40
1.0
 40
1.0
 10
71.8656777989
 20
218.4372263541
 30
0.0
 10
71.9946404579
 20
218.511689191
 30
0.0
 10
72.236294631
 20
218.7130428738
 30
0.0
 10
72.4965461649
 20
219.1289391969
 30
0.0
 10
72.6553888452
 20
219.6414048072
 30
0.0
 10
72.6907005528
 20
220.0150314296
 30
0.0
 10
72.6936983391
 20
220.2116130914
 30
0.0
  0
SPLINE
  5
2BF
100
AcDbEntity
  8
0
100
AcDbSpline
 62
7
  6
CONTINUOUS
 70
0
 71
3
 72
15
 73
11
 74
0
 42
0.0000001
 43
0.0000001
 44
0.0000000001
 40
0.0
 40
0.0
 40
0.0
 40
0.0
 40
0.113942031
 40
0.2368128637
 40
0.3661442943
 40
0.4989164145
 40
0.6318388157
 40
0.7616096149
 40
0.8851735401
 40
1.0
 40
1.0
 40
1.0
 40
1.0
 10
117.0649708243
 20
232.0924508147
 30
0.0
 10
117.2563606109
 20
232.2029490999
 30
0.0
 10
117.6345016539
 20
232.46746464
 30
0.0
 10
118.155523169
 20
232.9527011827
 30
0.0
 10
118.6365769786
 20
233.5260895089
 30
0.0
 10
119.059936642
 20
234.1665827481
 30
0.0
 10
119.4101832257
 20
234.8507570594
 30
0.0
 10
119.6744738519
 20
235.5536369347
 30
0.0
 10
119.843138784
 20
236.2493501515
 30
0.0
 10
119.889618285
 20
236.7115006993
 30
0.0
 10
119.8929553918
 20
236.9341886603
 30
0.0
  0
SPLINE
  5
2C0
100
AcDbEntity
  8
0
100
AcDbSpline
 62
7
  6
CONTINUOUS
 70
0
 71
3
 72
11
 73
7
 74
0
 42
0.0000001
 43
0.0000001
 44
0.0000000001
 40
0.0
 40
0.0
 40
0.0
 40
0.0
 40
0.2177721143
 40
0.450951665
 40
0.7101988429
 40
1.0
 40
1.0
 40
1.0
 40
1.0
 10
88.8220489457
 20
216.7430561208
 30
0.0
 10
88.9539831972
 20
216.6668787509
 30
0.0
 10
89.2571564258
 20
216.5567815481
 30
0.0
 10
89.7606390541
 20
216.5441715664
 30
0.0
 10
90.2973395414
 20
216.6735965699
 30
0.0
 10
90.6464362828
 20
216.8397938316
 30
0.0
 10
90.8220115404
 20
216.9411616488
 30
0.0
  0
SPLINE
  5
2C1
100
AcDbEntity
  8
0
100
AcDbSpline
 62
7
  6
CONTINUOUS
 70
0
 71
3
 72
11
 73
7
 74
0
 42
0.0000001
 43
0.0000001
 44
0.0000000001
 40
0.0
 40
0.0
 40
0.0
 40
0.0
 40
0.2187395274
 40
0.4523270716
 40
0.7112104613
 40
1.0
 40
1.0
 40
1.0
 40
1.0
 10
86.9128526871
 20
217.8453061567
 30
0.0
 10
86.7838898253
 20
217.919767868
 30
0.0
 10
86.542234938
 20
218.121120235
 30
0.0
 10
86.281982982
 20
218.5370163597
 30
0.0
 10
86.123140149
 20
219.0494832388
 30
0.0
 10
86.0878284901
 20
219.4231111676
 30
0.0
 10
86.084830715
 20
219.6196937211
 30
0.0
  0
SPLINE
  5
2C2
100
AcDbEntity
  8
0
100
AcDbSpline
 62
7
  6
CONTINUOUS
 70
0
 71
3
 72
11
 73
7
 74
0
 42
0.0000001
 43
0.0000001
 44
0.0000000001
 40
0.0
 40
0.0
 40
0.0
 40
0.0
 40
0.2887895466
 40
0.5476729455
 40
0.7812604823
 40
1.0
 40
1.0
 40
1.0
 40
1.0
 10
87.9940269729
 20
218.5174436839
 30
0.0
 10
87.9970247481
 20
218.3208611253
 30
0.0
 10
88.0323364141
 20
217.9472331857
 30
0.0
 10
88.1911792483
 20
217.4347663009
 30
0.0
 10
88.4514312119
 20
217.0188701849
 30
0.0
 10
88.6930860947
 20
216.8175178371
 30
0.0
 10
88.8220489457
 20
216.7430561208
 30
0.0
  0
SPLINE
  5
2C3
100
AcDbEntity
  8
0
100
AcDbSpline
 62
7
  6
CONTINUOUS
 70
0
 71
3
 72
11
 73
7
 74
0
 42
0.0000001
 43
0.0000001
 44
0.0000000001
 40
0.0
 40
0.0
 40
0.0
 40
0.0
 40
0.2368169205
 40
0.4825917025
 40
0.7371052518
 40
1.0
 40
1.0
 40
1.0
 40
1.0
 10
32.3927532987
 20
262.3561721751
 30
0.0
 10
31.6725362957
 20
257.0433713207
 30
0.0
 10
30.5914892052
 20
246.1614417114
 30
0.0
 10
30.0228673814
 20
229.4731880572
 30
0.0
 10
30.478401634
 20
212.1915690566
 30
0.0
 10
31.4483003197
 20
200.511123327
 30
0.0
 10
32.0957222465
 20
194.5946581483
 30
0.0
  0
SPLINE
  5
2C4
100
AcDbEntity
  8
0
100
AcDbSpline
 62
7
  6
CONTINUOUS
 70
0
 71
3
 72
11
 73
7
 74
0
 42
0.0000001
 43
0.0000001
 44
0.0000000001
 40
0.0
 40
0.0
 40
0.0
 40
0.0
 40
0.2372251801
 40
0.5000005261
 40
0.7627755858
 40
1.0
 40
1.0
 40
1.0
 40
1.0
 10
119.4290287122
 20
262.1573046095
 30
0.0
 10
119.1278784966
 20
262.3311698342
 30
0.0
 10
118.4275225417
 20
262.5849161673
 30
0.0
 10
117.3077050335
 20
262.7064641147
 30
0.0
 10
116.1878892148
 20
262.584911057
 30
0.0
 10
115.4875360146
 20
262.3311612464
 30
0.0
 10
115.1863880251
 20
262.1572944114
 30
0.0
  0
SPLINE
  5
2C5
100
AcDbEntity
  8
0
100
AcDbSpline
 62
7
  6
CONTINUOUS
 70
0
 71
3
 72
11
 73
7
 74
0
 42
0.0000001
 43
0.0000001
 44
0.0000000001
 40
0.0
 40
0.0
 40
0.0
 40
0.0
 40
0.2177753738
 40
0.4509336309
 40
0.7102261693
 40
1.0
 40
1.0
 40
1.0
 40
1.0
 10
113.3880913775
 20
266.4847362814
 30
0.0
 10
113.3880913755
 20
266.637087102
 30
0.0
 10
113.3318258999
 20
266.9546717132
 30
0.0
 10
113.0910572507
 20
267.397060463
 30
0.0
 10
112.7105600387
 20
267.7970997488
 30
0.0
 10
112.3920865077
 20
268.0163549447
 30
0.0
 10
112.2165254131
 20
268.1177128969
 30
0.0
  0
SPLINE
  5
2C6
100
AcDbEntity
  8
0
100
AcDbSpline
 62
7
  6
CONTINUOUS
 70
0
 71
3
 72
11
 73
7
 74
0
 42
0.0000001
 43
0.0000001
 44
0.0000000001
 40
0.0
 40
0.0
 40
0.0
 40
0.0
 40
0.2372279391
 40
0.4999994739
 40
0.762771295
 40
1.0
 40
1.0
 40
1.0
 40
1.0
 10
83.9324366918
 20
235.049839787
 30
0.0
 10
83.6312844066
 20
234.8759704719
 30
0.0
 10
82.9309292018
 20
234.6222258594
 30
0.0
 10
81.8111196834
 20
234.5006762959
 30
0.0
 10
80.6913084755
 20
234.6222207491
 30
0.0
 10
79.9909505161
 20
234.8759618841
 30
0.0
 10
79.6897960047
 20
235.0498295889
 30
0.0
  0
SPLINE
  5
2C7
100
AcDbEntity
  8
0
100
AcDbSpline
 62
7
  6
CONTINUOUS
 70
0
 71
3
 72
11
 73
7
 74
0
 42
0.0000001
 43
0.0000001
 44
0.0000000001
 40
0.0
 40
0.0
 40
0.0
 40
0.0
 40
0.2177796924
 40
0.4509239527
 40
0.7102593987
 40
1.0
 40
1.0
 40
1.0
 40
1.0
 10
43.091612879
 20
265.6680235274
 30
0.0
 10
43.0916330864
 20
265.5537604264
 30
0.0
 10
43.0493776948
 20
265.3155886709
 30
0.0
 10
42.8688480526
 20
264.9837702453
 30
0.0
 10
42.5834480615
 20
264.6837713995
 30
0.0
 10
42.3446125125
 20
264.5193104411
 30
0.0
 10
42.2129599642
 20
264.4433012606
 30
0.0
  0
SPLINE
  5
2C8
100
AcDbEntity
  8
0
100
AcDbSpline
 62
7
  6
CONTINUOUS
 70
0
 71
3
 72
14
 73
10
 74
0
 42
0.0000001
 43
0.0000001
 44
0.0000000001
 40
0.0
 40
0.0
 40
0.0
 40
0.0
 40
0.1226989437
 40
0.2568992029
 40
0.3974837805
 40
0.5383988281
 40
0.6735697257
 40
0.7977144843
 40
1.0
 40
1.0
 40
1.0
 40
1.0
 10
77.7095725923
 20
284.937157785
 30
0.0
 10
77.5170608943
 20
284.8260117678
 30
0.0
 10
77.0865314335
 20
284.6398063443
 30
0.0
 10
76.383271523
 20
284.4724836449
 30
0.0
 10
75.6296609524
 20
284.4114435245
 30
0.0
 10
74.8741211114
 20
284.4602850791
 30
0.0
 10
74.1613349816
 20
284.6176601017
 30
0.0
 10
73.3890154887
 20
284.9309915386
 30
0.0
 10
72.894190529
 20
285.3282129295
 30
0.0
 10
72.7215111726
 20
285.6514607276
 30
0.0
  0
SPLINE
  5
2C9
100
AcDbEntity
  8
0
100
AcDbSpline
 62
7
  6
CONTINUOUS
 70
0
 71
3
 72
9
 73
5
 74
0
 42
0.0000001
 43
0.0000001
 44
0.0000000001
 40
0.0
 40
0.0
 40
0.0
 40
0.0
 40
0.5104125976
 40
1.0
 40
1.0
 40
1.0
 40
1.0
 10
72.7215111726
 20
285.6514607276
 30
0.0
 10
72.6788958839
 20
285.7312345844
 30
0.0
 10
72.6117989757
 20
285.8972260823
 30
0.0
 10
72.5882766689
 20
286.0751272127
 30
0.0
 10
72.5882613266
 20
286.1618800454
 30
0.0
  0
SPLINE
  5
2CA
100
AcDbEntity
  8
0
100
AcDbSpline
 62
7
  6
CONTINUOUS
 70
0
 71
3
 72
11
 73
7
 74
0
 42
0.0000001
 43
0.0000001
 44
0.0000000001
 40
0.0
 40
0.0
 40
0.0
 40
0.0
 40
0.2897781767
 40
0.5490726313
 40
0.7822276909
 40
1.0
 40
1.0
 40
1.0
 40
1.0
 10
115.1864056889
 20
260.8509430702
 30
0.0
 10
115.054733328
 20
260.9269624235
 30
0.0
 10
114.8158778112
 20
261.0914075234
 30
0.0
 10
114.5305064531
 20
261.3914391021
 30
0.0
 10
114.3499369392
 20
261.723230295
 30
0.0
 10
114.3077392544
 20
261.9614144017
 30
0.0
 10
114.3077392529
 20
262.0756755319
 30
0.0
  0
SPLINE
  5
2CB
100
AcDbEntity
  8
0
100
AcDbSpline
 62
7
  6
CONTINUOUS
 70
0
 71
3
 72
9
 73
5
 74
0
 42
0.0000001
 43
0.0000001
 44
0.0000000001
 40
0.0
 40
0.0
 40
0.0
 40
0.0
 40
0.4595354296
 40
1.0
 40
1.0
 40
1.0
 40
1.0
 10
78.5212638492
 20
285.3826486801
 30
0.0
 10
78.4571017052
 20
285.5550032113
 30
0.0
 10
78.2242452851
 20
285.8959039864
 30
0.0
 10
77.8968759484
 20
286.1353617316
 30
0.0
 10
77.7095549285
 20
286.2435091262
 30
0.0
  0
SPLINE
  5
2CC
100
AcDbEntity
  8
0
100
AcDbSpline
 62
7
  6
CONTINUOUS
 70
0
 71
3
 72
11
 73
7
 74
0
 42
0.0000001
 43
0.0000001
 44
0.0000000001
 40
0.0
 40
0.0
 40
0.0
 40
0.0
 40
0.2228964003
 40
0.4583021121
 40
0.7156030448
 40
1.0
 40
1.0
 40
1.0
 40
1.0
 10
121.0148019294
 20
259.6261699801
 30
0.0
 10
121.0148019281
 20
259.7268749329
 30
0.0
 10
120.9825373623
 20
259.9350921122
 30
0.0
 10
120.8424823461
 20
260.2305712707
 30
0.0
 10
120.6181672868
 20
260.5043181133
 30
0.0
 10
120.4273625281
 20
260.6600069964
 30
0.0
 10
120.3218379279
 20
260.7333179537
 30
0.0
  0
SPLINE
  5
2CD
100
AcDbEntity
  8
0
100
AcDbSpline
 62
7
  6
CONTINUOUS
 70
0
 71
3
 72
11
 73
7
 74
0
 42
0.0000001
 43
0.0000001
 44
0.0000000001
 40
0.0
 40
0.0
 40
0.0
 40
0.0
 40
0.2177727701
 40
0.4509280213
 40
0.7102223029
 40
1.0
 40
1.0
 40
1.0
 40
1.0
 10
121.0148019294
 20
257.1766627288
 30
0.0
 10
121.0148019308
 20
257.0624028286
 30
0.0
 10
120.9726052096
 20
256.8242214701
 30
0.0
 10
120.7920396019
 20
256.4924334897
 30
0.0
 10
120.5066740396
 20
256.1924041349
 30
0.0
 10
120.2678230558
 20
256.0279596628
 30
0.0
 10
120.1361531572
 20
255.9519404652
 30
0.0
  0
SPLINE
  5
2CE
100
AcDbEntity
  8
0
100
AcDbSpline
 62
7
  6
CONTINUOUS
 70
0
 71
3
 72
11
 73
7
 74
0
 42
0.0000001
 43
0.0000001
 44
0.0000000001
 40
0.0
 40
0.0
 40
0.0
 40
0.0
 40
0.2372251801
 40
0.5000005261
 40
0.7627755858
 40
1.0
 40
1.0
 40
1.0
 40
1.0
 10
77.7095549285
 20
286.2435091262
 30
0.0
 10
77.408404713
 20
286.4173743509
 30
0.0
 10
76.708048758
 20
286.671120684
 30
0.0
 10
75.5882312498
 20
286.7926686314
 30
0.0
 10
74.4684154312
 20
286.6711155737
 30
0.0
 10
73.7680622309
 20
286.4173657631
 30
0.0
 10
73.4669142414
 20
286.2434989281
 30
0.0
  0
SPLINE
  5
2CF
100
AcDbEntity
  8
0
100
AcDbSpline
 62
7
  6
CONTINUOUS
 70
0
 71
3
 72
11
 73
7
 74
0
 42
0.0000001
 43
0.0000001
 44
0.0000000001
 40
0.0
 40
0.0
 40
0.0
 40
0.0
 40
0.2897733512
 40
0.5490657165
 40
0.7822241652
 40
1.0
 40
1.0
 40
1.0
 40
1.0
 10
79.689775397
 20
241.6634378871
 30
0.0
 10
79.5581070383
 20
241.5874195785
 30
0.0
 10
79.3192564229
 20
241.4229788094
 30
0.0
 10
79.0338893098
 20
241.1229515689
 30
0.0
 10
78.8533167292
 20
240.7911632191
 30
0.0
 10
78.811118586
 20
240.5529775089
 30
0.0
 10
78.8111185875
 20
240.4387156235
 30
0.0
  0
SPLINE
  5
2D0
100
AcDbEntity
  8
0
100
AcDbSpline
 62
7
  6
CONTINUOUS
 70
0
 71
3
 72
11
 73
7
 74
0
 42
0.0000001
 43
0.0000001
 44
0.0000000001
 40
0.0
 40
0.0
 40
0.0
 40
0.0
 40
0.2897733512
 40
0.5490657165
 40
0.7822241652
 40
1.0
 40
1.0
 40
1.0
 40
1.0
 10
37.9703016133
 20
265.7496424038
 30
0.0
 10
37.8386332546
 20
265.6736240952
 30
0.0
 10
37.5997826393
 20
265.5091833261
 30
0.0
 10
37.3144155261
 20
265.2091560856
 30
0.0
 10
37.1338429456
 20
264.8773677358
 30
0.0
 10
37.0916448023
 20
264.6391820256
 30
0.0
 10
37.0916448038
 20
264.5249201402
 30
0.0
  0
SPLINE
  5
2D1
100
AcDbEntity
  8
0
100
AcDbSpline
 62
7
  6
CONTINUOUS
 70
0
 71
3
 72
11
 73
7
 74
0
 42
0.0000001
 43
0.0000001
 44
0.0000000001
 40
0.0
 40
0.0
 40
0.0
 40
0.0
 40
0.2897733512
 40
0.5490657165
 40
0.7822241652
 40
1.0
 40
1.0
 40
1.0
 40
1.0
 10
106.5596711637
 20
268.1176992995
 30
0.0
 10
106.3841133521
 20
268.0163415547
 30
0.0
 10
106.065645865
 20
267.7970871959
 30
0.0
 10
105.6851563807
 20
267.3970508752
 30
0.0
 10
105.44439294
 20
266.9546664088
 30
0.0
 10
105.3881287491
 20
266.6370854619
 30
0.0
 10
105.388128751
 20
266.4847362814
 30
0.0
  0
SPLINE
  5
2D2
100
AcDbEntity
  8
0
100
AcDbSpline
 62
7
  6
CONTINUOUS
 70
0
 71
3
 72
13
 73
9
 74
0
 42
0.0000001
 43
0.0000001
 44
0.0000000001
 40
0.0
 40
0.0
 40
0.0
 40
0.0
 40
0.1142466307
 40
0.237544229
 40
0.5000005226
 40
0.7624565301
 40
0.8857537943
 40
1.0
 40
1.0
 40
1.0
 40
1.0
 10
112.2165254131
 20
268.1177128969
 30
0.0
 10
112.0229134644
 20
268.2294922788
 30
0.0
 10
111.5994727941
 20
268.4266838007
 30
0.0
 10
110.6610313372
 20
268.711699143
 30
0.0
 10
109.3880938574
 20
268.8501544532
 30
0.0
 10
108.1151576017
 20
268.7116932575
 30
0.0
 10
107.1767196616
 20
268.4266732988
 30
0.0
 10
106.753281586
 20
268.2294796617
 30
0.0
 10
106.5596711637
 20
268.1176992995
 30
0.0
  0
SPLINE
  5
2D3
100
AcDbEntity
  8
0
100
AcDbSpline
 62
7
  6
CONTINUOUS
 70
0
 71
3
 72
11
 73
7
 74
0
 42
0.0000001
 43
0.0000001
 44
0.0000000001
 40
0.0
 40
0.0
 40
0.0
 40
0.0
 40
0.2177753738
 40
0.4509336309
 40
0.7102261693
 40
1.0
 40
1.0
 40
1.0
 40
1.0
 10
120.3077031855
 20
260.9325721479
 30
0.0
 10
120.307703184
 20
261.0468352633
 30
0.0
 10
120.2655040773
 20
261.2850237217
 30
0.0
 10
120.0849275904
 20
261.6168152841
 30
0.0
 10
119.7995546814
 20
261.9168447485
 30
0.0
 10
119.5606995331
 20
262.0812861454
 30
0.0
 10
119.4290287122
 20
262.1573046095
 30
0.0
  0
SPLINE
  5
2D4
100
AcDbEntity
  8
0
100
AcDbSpline
 62
7
  6
CONTINUOUS
 70
0
 71
3
 72
11
 73
7
 74
0
 42
0.0000001
 43
0.0000001
 44
0.0000000001
 40
0.0
 40
0.0
 40
0.0
 40
0.0
 40
0.2177753738
 40
0.4509336309
 40
0.7102261693
 40
1.0
 40
1.0
 40
1.0
 40
1.0
 10
84.8110905573
 20
240.4387156235
 30
0.0
 10
84.8110905559
 20
240.552978739
 30
0.0
 10
84.7688914491
 20
240.7911671974
 30
0.0
 10
84.5883149622
 20
241.1229587597
 30
0.0
 10
84.3029420532
 20
241.4229882241
 30
0.0
 10
84.064086905
 20
241.587429621
 30
0.0
 10
83.932416084
 20
241.6634480851
 30
0.0
  0
SPLINE
  5
2D5
100
AcDbEntity
  8
0
100
AcDbSpline
 62
7
  6
CONTINUOUS
 70
0
 71
3
 72
11
 73
7
 74
0
 42
0.0000001
 43
0.0000001
 44
0.0000000001
 40
0.0
 40
0.0
 40
0.0
 40
0.0
 40
0.237228705
 40
0.5000005261
 40
0.7627720609
 40
1.0
 40
1.0
 40
1.0
 40
1.0
 10
79.6897960047
 20
237.4993368403
 30
0.0
 10
79.9909505161
 20
237.3254691355
 30
0.0
 10
80.6913084755
 20
237.0717280005
 30
0.0
 10
81.8111196834
 20
236.9501835473
 30
0.0
 10
82.9309292018
 20
237.0717331107
 30
0.0
 10
83.6312844066
 20
237.3254777233
 30
0.0
 10
83.9324366918
 20
237.4993470384
 30
0.0
  0
SPLINE
  5
2D6
100
AcDbEntity
  8
0
100
AcDbSpline
 62
7
  6
CONTINUOUS
 70
0
 71
3
 72
17
 73
13
 74
0
 42
0.0000001
 43
0.0000001
 44
0.0000000001
 40
0.0
 40
0.0
 40
0.0
 40
0.0
 40
0.1286923651
 40
0.2702770074
 40
0.417433908
 40
0.5617794078
 40
0.6954504941
 40
0.8127129393
 40
0.8646788001
 40
0.9125109544
 40
0.9571403961
 40
1.0
 40
1.0
 40
1.0
 40
1.0
 10
83.9324337478
 20
237.9075894926
 30
0.0
 10
83.7103561667
 20
237.7793737067
 30
0.0
 10
83.2075537609
 20
237.5719110396
 30
0.0
 10
82.3880768301
 20
237.407989118
 30
0.0
 10
81.5213382664
 20
237.3839750332
 30
0.0
 10
80.6780613753
 20
237.5024628442
 30
0.0
 10
79.9266064184
 20
237.7534436114
 30
0.0
 10
79.4040292104
 20
238.0716142374
 30
0.0
 10
79.0972628608
 20
238.3793739317
 30
0.0
 10
78.9344005041
 20
238.6190707904
 30
0.0
 10
78.8339363357
 20
238.8718303665
 30
0.0
 10
78.8111375855
 20
239.0469096034
 30
0.0
 10
78.8111224822
 20
239.1323117529
 30
0.0
  0
SPLINE
  5
2D7
100
AcDbEntity
  8
0
100
AcDbSpline
 62
7
  6
CONTINUOUS
 70
0
 71
3
 72
11
 73
7
 74
0
 42
0.0000001
 43
0.0000001
 44
0.0000000001
 40
0.0
 40
0.0
 40
0.0
 40
0.0
 40
0.2372279391
 40
0.4999994739
 40
0.762771295
 40
1.0
 40
1.0
 40
1.0
 40
1.0
 10
79.689775397
 20
242.8065412711
 30
0.0
 10
79.9909276822
 20
242.9804105862
 30
0.0
 10
80.691282887
 20
243.2341551987
 30
0.0
 10
81.8110924053
 20
243.3557047622
 30
0.0
 10
82.9309036133
 20
243.2341603089
 30
0.0
 10
83.6312615727
 20
242.9804191739
 30
0.0
 10
83.932416084
 20
242.8065514691
 30
0.0
  0
SPLINE
  5
2D8
100
AcDbEntity
  8
0
100
AcDbSpline
 62
7
  6
CONTINUOUS
 70
0
 71
3
 72
17
 73
13
 74
0
 42
0.0000001
 43
0.0000001
 44
0.0000000001
 40
0.0
 40
0.0
 40
0.0
 40
0.0
 40
0.1286923651
 40
0.2702770074
 40
0.417433908
 40
0.5617794078
 40
0.6954504941
 40
0.8127129393
 40
0.8646788001
 40
0.9125109544
 40
0.9571403961
 40
1.0
 40
1.0
 40
1.0
 40
1.0
 10
37.9703016133
 20
266.8927457878
 30
0.0
 10
38.1923791944
 20
267.0209615737
 30
0.0
 10
38.6951816002
 20
267.2284242407
 30
0.0
 10
39.514658531
 20
267.3923461623
 30
0.0
 10
40.3813970947
 20
267.4163602471
 30
0.0
 10
41.2246739859
 20
267.2978724361
 30
0.0
 10
41.9761289428
 20
267.0468916689
 30
0.0
 10
42.4987061507
 20
266.7287210429
 30
0.0
 10
42.8054725003
 20
266.4209613486
 30
0.0
 10
42.9683348571
 20
266.1812644899
 30
0.0
 10
43.0687990255
 20
265.9285049138
 30
0.0
 10
43.0915977756
 20
265.753425677
 30
0.0
 10
43.091612879
 20
265.6680235274
 30
0.0
  0
SPLINE
  5
2D9
100
AcDbEntity
  8
0
100
AcDbSpline
 62
7
  6
CONTINUOUS
 70
0
 71
3
 72
11
 73
7
 74
0
 42
0.0000001
 43
0.0000001
 44
0.0000000001
 40
0.0
 40
0.0
 40
0.0
 40
0.0
 40
0.2177796924
 40
0.4509239527
 40
0.7102593987
 40
1.0
 40
1.0
 40
1.0
 40
1.0
 10
72.5882613266
 20
286.1618800454
 30
0.0
 10
72.5882411192
 20
286.2761431463
 30
0.0
 10
72.6304965108
 20
286.5143149019
 30
0.0
 10
72.811026153
 20
286.8461333274
 30
0.0
 10
73.0964261441
 20
287.1461321733
 30
0.0
 10
73.3352616932
 20
287.3105931316
 30
0.0
 10
73.4669142414
 20
287.3866023121
 30
0.0
  0
SPLINE
  5
2DA
100
AcDbEntity
  8
0
100
AcDbSpline
 62
7
  6
CONTINUOUS
 70
0
 71
3
 72
17
 73
13
 74
0
 42
0.0000001
 43
0.0000001
 44
0.0000000001
 40
0.0
 40
0.0
 40
0.0
 40
0.0
 40
0.1286902347
 40
0.2702748016
 40
0.4174293138
 40
0.5617764465
 40
0.6954484688
 40
0.8127147336
 40
0.8646780237
 40
0.9125120584
 40
0.9571415929
 40
1.0
 40
1.0
 40
1.0
 40
1.0
 10
112.2165489648
 20
261.9940148034
 30
0.0
 10
111.9204501005
 20
261.8230630648
 30
0.0
 10
111.2500498196
 20
261.546455057
 30
0.0
 10
110.1574303872
 20
261.327868748
 30
0.0
 10
109.0017804683
 20
261.295843174
 30
0.0
 10
107.877403178
 20
261.4538379231
 30
0.0
 10
106.8754776999
 20
261.7885198395
 30
0.0
 10
106.1786226139
 20
262.2126631378
 30
0.0
 10
105.7696878521
 20
262.623097986
 30
0.0
 10
105.5524520586
 20
262.9426358878
 30
0.0
 10
105.4185625709
 20
263.2796791367
 30
0.0
 10
105.3881422804
 20
263.5131113453
 30
0.0
 10
105.3881395963
 20
263.626977825
 30
0.0
  0
SPLINE
  5
2DB
100
AcDbEntity
  8
0
100
AcDbSpline
 62
7
  6
CONTINUOUS
 70
0
 71
3
 72
11
 73
7
 74
0
 42
0.0000001
 43
0.0000001
 44
0.0000000001
 40
0.0
 40
0.0
 40
0.0
 40
0.0
 40
0.2177753738
 40
0.4509336309
 40
0.7102261693
 40
1.0
 40
1.0
 40
1.0
 40
1.0
 10
105.388128751
 20
266.4847362814
 30
0.0
 10
105.388128753
 20
266.3323854608
 30
0.0
 10
105.4443942286
 20
266.0148008496
 30
0.0
 10
105.6851628778
 20
265.5724120998
 30
0.0
 10
106.0656600898
 20
265.1723728139
 30
0.0
 10
106.3841336208
 20
264.9531176181
 30
0.0
 10
106.5596947154
 20
264.8517596659
 30
0.0
  0
SPLINE
  5
2DC
100
AcDbEntity
  8
0
100
AcDbSpline
 62
7
  6
CONTINUOUS
 70
0
 71
3
 72
11
 73
7
 74
0
 42
0.0000001
 43
0.0000001
 44
0.0000000001
 40
0.0
 40
0.0
 40
0.0
 40
0.0
 40
0.2897776971
 40
0.5490719787
 40
0.7822272299
 40
1.0
 40
1.0
 40
1.0
 40
1.0
 10
120.1361531572
 20
258.4014477166
 30
0.0
 10
120.2678230558
 20
258.4774669142
 30
0.0
 10
120.5066740396
 20
258.6419113863
 30
0.0
 10
120.7920396019
 20
258.9419407411
 30
0.0
 10
120.9726052096
 20
259.2737287215
 30
0.0
 10
121.0148019308
 20
259.51191008
 30
0.0
 10
121.0148019294
 20
259.6261699801
 30
0.0
  0
SPLINE
  5
2DD
100
AcDbEntity
  8
0
100
AcDbSpline
 62
7
  6
CONTINUOUS
 70
0
 71
3
 72
9
 73
5
 74
0
 42
0.0000001
 43
0.0000001
 44
0.0000000001
 40
0.0
 40
0.0
 40
0.0
 40
0.0
 40
0.2709897213
 40
1.0
 40
1.0
 40
1.0
 40
1.0
 10
73.4669142414
 20
286.2434989281
 30
0.0
 10
73.400520379
 20
286.2051666426
 30
0.0
 10
73.1616972885
 20
286.0540336958
 30
0.0
 10
72.9468352559
 20
285.859567153
 30
0.0
 10
72.8249905211
 20
285.6931649387
 30
0.0
  0
SPLINE
  5
2DE
100
AcDbEntity
  8
0
100
AcDbSpline
 62
7
  6
CONTINUOUS
 70
0
 71
3
 72
9
 73
5
 74
0
 42
0.0000001
 43
0.0000001
 44
0.0000000001
 40
0.0
 40
0.0
 40
0.0
 40
0.0
 40
0.4750938762
 40
1.0
 40
1.0
 40
1.0
 40
1.0
 10
119.429046376
 20
258.4014460169
 30
0.0
 10
119.1757788694
 20
258.2552228267
 30
0.0
 10
118.595827121
 20
258.0276650445
 30
0.0
 10
117.9841607883
 20
257.9283865256
 30
0.0
 10
117.6618096668
 20
257.9062544715
 30
0.0
  0
SPLINE
  5
2DF
100
AcDbEntity
  8
0
100
AcDbSpline
 62
7
  6
CONTINUOUS
 70
0
 71
3
 72
11
 73
7
 74
0
 42
0.0000001
 43
0.0000001
 44
0.0000000001
 40
0.0
 40
0.0
 40
0.0
 40
0.0
 40
0.2372251801
 40
0.5000005261
 40
0.7627755858
 40
1.0
 40
1.0
 40
1.0
 40
1.0
 10
83.932416084
 20
241.6634480851
 30
0.0
 10
83.6312658685
 20
241.8373133098
 30
0.0
 10
82.9309099136
 20
242.0910596429
 30
0.0
 10
81.8110924053
 20
242.2126075904
 30
0.0
 10
80.6912765867
 20
242.0910545327
 30
0.0
 10
79.9909233864
 20
241.837304722
 30
0.0
 10
79.689775397
 20
241.6634378871
 30
0.0
  0
SPLINE
  5
2E0
100
AcDbEntity
  8
0
100
AcDbSpline
 62
7
  6
CONTINUOUS
 70
0
 71
3
 72
11
 73
7
 74
0
 42
0.0000001
 43
0.0000001
 44
0.0000000001
 40
0.0
 40
0.0
 40
0.0
 40
0.0
 40
0.2897733512
 40
0.5490657165
 40
0.7822241652
 40
1.0
 40
1.0
 40
1.0
 40
1.0
 10
83.9324337478
 20
239.21399336
 30
0.0
 10
84.0641021065
 20
239.2900116685
 30
0.0
 10
84.3029527219
 20
239.4544524376
 30
0.0
 10
84.5883198351
 20
239.7544796782
 30
0.0
 10
84.7688924156
 20
240.086268028
 30
0.0
 10
84.8110905588
 20
240.3244537381
 30
0.0
 10
84.8110905573
 20
240.4387156235
 30
0.0
  0
SPLINE
  5
2E1
100
AcDbEntity
  8
0
100
AcDbSpline
 62
7
  6
CONTINUOUS
 70
0
 71
3
 72
11
 73
7
 74
0
 42
0.0000001
 43
0.0000001
 44
0.0000000001
 40
0.0
 40
0.0
 40
0.0
 40
0.0
 40
0.2372251801
 40
0.5000005261
 40
0.7627755858
 40
1.0
 40
1.0
 40
1.0
 40
1.0
 10
79.6897930608
 20
239.2139831619
 30
0.0
 10
79.9909432763
 20
239.0401179373
 30
0.0
 10
80.6912992313
 20
238.7863716042
 30
0.0
 10
81.8111167395
 20
238.6648236567
 30
0.0
 10
82.9309325581
 20
238.7863767144
 30
0.0
 10
83.6312857584
 20
239.040126525
 30
0.0
 10
83.9324337478
 20
239.21399336
 30
0.0
  0
SPLINE
  5
2E2
100
AcDbEntity
  8
0
100
AcDbSpline
 62
7
  6
CONTINUOUS
 70
0
 71
3
 72
11
 73
7
 74
0
 42
0.0000001
 43
0.0000001
 44
0.0000000001
 40
0.0
 40
0.0
 40
0.0
 40
0.0
 40
0.2897733512
 40
0.5490657165
 40
0.7822241652
 40
1.0
 40
1.0
 40
1.0
 40
1.0
 10
119.429046376
 20
259.7078498843
 30
0.0
 10
119.5607147347
 20
259.7838681929
 30
0.0
 10
119.79956535
 20
259.948308962
 30
0.0
 10
120.0849324632
 20
260.2483362025
 30
0.0
 10
120.2655050437
 20
260.5801245523
 30
0.0
 10
120.3077031869
 20
260.8183102625
 30
0.0
 10
120.3077031855
 20
260.9325721479
 30
0.0
  0
SPLINE
  5
2E3
100
AcDbEntity
  8
0
100
AcDbSpline
 62
7
  6
CONTINUOUS
 70
0
 71
3
 72
14
 73
10
 74
0
 42
0.0000001
 43
0.0000001
 44
0.0000000001
 40
0.0
 40
0.0
 40
0.0
 40
0.0
 40
0.3072080201
 40
0.4497478615
 40
0.5815297174
 40
0.701315719
 40
0.8092838373
 40
0.9074709308
 40
1.0
 40
1.0
 40
1.0
 40
1.0
 10
39.7335316271
 20
261.4988853631
 30
0.0
 10
39.3843096717
 20
261.5231072324
 30
0.0
 10
38.8734490636
 20
261.6103031602
 30
0.0
 10
38.2500906121
 20
261.8393204971
 30
0.0
 10
37.8524461774
 20
262.0517624527
 30
0.0
 10
37.5258757289
 20
262.3027964233
 30
0.0
 10
37.2808711679
 20
262.5861439506
 30
0.0
 10
37.1271704506
 20
262.8944486252
 30
0.0
 10
37.0916673449
 20
263.1130801748
 30
0.0
 10
37.0916486985
 20
263.2185162696
 30
0.0
  0
SPLINE
  5
2E4
100
AcDbEntity
  8
0
100
AcDbSpline
 62
7
  6
CONTINUOUS
 70
0
 71
3
 72
9
 73
5
 74
0
 42
0.0000001
 43
0.0000001
 44
0.0000000001
 40
0.0
 40
0.0
 40
0.0
 40
0.0
 40
0.2270441754
 40
1.0
 40
1.0
 40
1.0
 40
1.0
 10
42.933423188
 20
265.0799498216
 30
0.0
 10
42.8955483259
 20
265.1446095925
 30
0.0
 10
42.7043019192
 20
265.4152141158
 30
0.0
 10
42.4338787667
 20
265.6220977592
 30
0.0
 10
42.2129423004
 20
265.7496526018
 30
0.0
  0
SPLINE
  5
2E5
100
AcDbEntity
  8
0
100
AcDbSpline
 62
7
  6
CONTINUOUS
 70
0
 71
3
 72
11
 73
7
 74
0
 42
0.0000001
 43
0.0000001
 44
0.0000000001
 40
0.0
 40
0.0
 40
0.0
 40
0.0
 40
0.2177753738
 40
0.4509336309
 40
0.7102261693
 40
1.0
 40
1.0
 40
1.0
 40
1.0
 10
78.8111185875
 20
240.4387156235
 30
0.0
 10
78.811118589
 20
240.3244525081
 30
0.0
 10
78.8533176957
 20
240.0862640497
 30
0.0
 10
79.0338941826
 20
239.7544724873
 30
0.0
 10
79.3192670916
 20
239.4544430229
 30
0.0
 10
79.5581222398
 20
239.2900016261
 30
0.0
 10
79.6897930608
 20
239.2139831619
 30
0.0
  0
SPLINE
  5
2E6
100
AcDbEntity
  8
0
100
AcDbSpline
 62
7
  6
CONTINUOUS
 70
0
 71
3
 72
11
 73
7
 74
0
 42
0.0000001
 43
0.0000001
 44
0.0000000001
 40
0.0
 40
0.0
 40
0.0
 40
0.0
 40
0.2372251801
 40
0.5000005261
 40
0.7627755858
 40
1.0
 40
1.0
 40
1.0
 40
1.0
 10
42.2129423004
 20
265.7496526018
 30
0.0
 10
41.9117920848
 20
265.9235178265
 30
0.0
 10
41.2114361299
 20
266.1772641596
 30
0.0
 10
40.0916186217
 20
266.2988121071
 30
0.0
 10
38.971802803
 20
266.1772590494
 30
0.0
 10
38.2714496027
 20
265.9235092387
 30
0.0
 10
37.9703016133
 20
265.7496424038
 30
0.0
  0
SPLINE
  5
2E7
100
AcDbEntity
  8
0
100
AcDbSpline
 62
7
  6
CONTINUOUS
 70
0
 71
3
 72
9
 73
5
 74
0
 42
0.0000001
 43
0.0000001
 44
0.0000000001
 40
0.0
 40
0.0
 40
0.0
 40
0.0
 40
0.4752390475
 40
1.0
 40
1.0
 40
1.0
 40
1.0
 10
37.9703192771
 20
263.3001876786
 30
0.0
 10
38.2180043022
 20
263.1571898977
 30
0.0
 10
38.784058688
 20
262.9330494266
 30
0.0
 10
39.3813052488
 20
262.8322024415
 30
0.0
 10
39.6961801037
 20
262.8080100575
 30
0.0
  0
SPLINE
  5
2E8
100
AcDbEntity
  8
0
100
AcDbSpline
 62
7
  6
CONTINUOUS
 70
0
 71
3
 72
11
 73
7
 74
0
 42
0.0000001
 43
0.0000001
 44
0.0000000001
 40
0.0
 40
0.0
 40
0.0
 40
0.0
 40
0.2177753738
 40
0.4509336309
 40
0.7102261693
 40
1.0
 40
1.0
 40
1.0
 40
1.0
 10
37.0916448038
 20
264.5249201402
 30
0.0
 10
37.0916448053
 20
264.4106570248
 30
0.0
 10
37.133843912
 20
264.1724685664
 30
0.0
 10
37.3144203989
 20
263.840677004
 30
0.0
 10
37.5997933079
 20
263.5406475396
 30
0.0
 10
37.8386484562
 20
263.3762061428
 30
0.0
 10
37.9703192771
 20
263.3001876786
 30
0.0
  0
SPLINE
  5
2E9
100
AcDbEntity
  8
0
100
AcDbSpline
 62
7
  6
CONTINUOUS
 70
0
 71
3
 72
11
 73
7
 74
0
 42
0.0000001
 43
0.0000001
 44
0.0000000001
 40
0.0
 40
0.0
 40
0.0
 40
0.0
 40
0.2897733512
 40
0.5490657165
 40
0.7822241652
 40
1.0
 40
1.0
 40
1.0
 40
1.0
 10
112.2165489648
 20
264.8517732633
 30
0.0
 10
112.3921067764
 20
264.9531310081
 30
0.0
 10
112.7105742635
 20
265.1723853668
 30
0.0
 10
113.0910637478
 20
265.5724216876
 30
0.0
 10
113.3318271885
 20
266.014806154
 30
0.0
 10
113.3880913794
 20
266.3323871008
 30
0.0
 10
113.3880913775
 20
266.4847362814
 30
0.0
  0
SPLINE
  5
2EA
100
AcDbEntity
  8
0
100
AcDbSpline
 62
7
  6
CONTINUOUS
 70
0
 71
3
 72
13
 73
9
 74
0
 42
0.0000001
 43
0.0000001
 44
0.0000000001
 40
0.0
 40
0.0
 40
0.0
 40
0.0
 40
0.1142466307
 40
0.237544229
 40
0.5000005226
 40
0.7624565301
 40
0.8857537943
 40
1.0
 40
1.0
 40
1.0
 40
1.0
 10
106.5596947154
 20
264.8517596659
 30
0.0
 10
106.7533066641
 20
264.739980284
 30
0.0
 10
107.1767473344
 20
264.5427887621
 30
0.0
 10
108.1151887913
 20
264.2577734197
 30
0.0
 10
109.3881262711
 20
264.1193181096
 30
0.0
 10
110.6610625268
 20
264.2577793053
 30
0.0
 10
111.5995004669
 20
264.542799264
 30
0.0
 10
112.0229385425
 20
264.7399929011
 30
0.0
 10
112.2165489648
 20
264.8517732633
 30
0.0
  0
SPLINE
  5
2EB
100
AcDbEntity
  8
0
100
AcDbSpline
 62
7
  6
CONTINUOUS
 70
0
 71
3
 72
11
 73
7
 74
0
 42
0.0000001
 43
0.0000001
 44
0.0000000001
 40
0.0
 40
0.0
 40
0.0
 40
0.0
 40
0.2177727366
 40
0.450931526
 40
0.7102279717
 40
1.0
 40
1.0
 40
1.0
 40
1.0
 10
113.3880805322
 20
263.6269778179
 30
0.0
 10
113.3880841233
 20
263.4746311822
 30
0.0
 10
113.3318200994
 20
263.1570526151
 30
0.0
 10
113.0910631269
 20
262.714665459
 30
0.0
 10
112.7105727361
 20
262.314628024
 30
0.0
 10
112.3921055401
 20
262.0953718343
 30
0.0
 10
112.2165489648
 20
261.9940148034
 30
0.0
  0
SPLINE
  5
2EC
100
AcDbEntity
  8
0
100
AcDbSpline
 62
7
  6
CONTINUOUS
 70
0
 71
3
 72
9
 73
5
 74
0
 42
0.0000001
 43
0.0000001
 44
0.0000000001
 40
0.0
 40
0.0
 40
0.0
 40
0.0
 40
0.5247613351
 40
1.0
 40
1.0
 40
1.0
 40
1.0
 10
117.7032071873
 20
259.2156650835
 30
0.0
 10
118.0180787757
 20
259.2398596636
 30
0.0
 10
118.615318311
 20
259.340709846
 30
0.0
 10
119.1813651844
 20
259.5648519353
 30
0.0
 10
119.429046376
 20
259.7078498843
 30
0.0
  0
SPLINE
  5
2ED
100
AcDbEntity
  8
0
100
AcDbSpline
 62
7
  6
CONTINUOUS
 70
0
 71
3
 72
11
 73
7
 74
0
 42
0.0000001
 43
0.0000001
 44
0.0000000001
 40
0.0
 40
0.0
 40
0.0
 40
0.0
 40
0.2177796924
 40
0.4509239527
 40
0.7102593987
 40
1.0
 40
1.0
 40
1.0
 40
1.0
 10
120.3076992908
 20
259.6261682837
 30
0.0
 10
120.3077194982
 20
259.5119051827
 30
0.0
 10
120.2654641066
 20
259.2737334272
 30
0.0
 10
120.0849344644
 20
258.9419150016
 30
0.0
 10
119.7995344733
 20
258.6419161558
 30
0.0
 10
119.5606989243
 20
258.4774551974
 30
0.0
 10
119.429046376
 20
258.4014460169
 30
0.0
  0
SPLINE
  5
2EE
100
AcDbEntity
  8
0
100
AcDbSpline
 62
7
  6
CONTINUOUS
 70
0
 71
3
 72
11
 73
7
 74
0
 42
0.0000001
 43
0.0000001
 44
0.0000000001
 40
0.0
 40
0.0
 40
0.0
 40
0.0
 40
0.2177727701
 40
0.4509280213
 40
0.7102223029
 40
1.0
 40
1.0
 40
1.0
 40
1.0
 10
84.81108252
 20
239.1323117561
 30
0.0
 10
84.8110825215
 20
239.018051856
 30
0.0
 10
84.7688858003
 20
238.7798704975
 30
0.0
 10
84.5883201926
 20
238.4480825171
 30
0.0
 10
84.3029546303
 20
238.1480531623
 30
0.0
 10
84.0641036465
 20
237.9836086902
 30
0.0
 10
83.9324337478
 20
237.9075894926
 30
0.0
  0
SPLINE
  5
2EF
100
AcDbEntity
  8
0
100
AcDbSpline
 62
7
  6
CONTINUOUS
 70
0
 71
3
 72
11
 73
7
 74
0
 42
0.0000001
 43
0.0000001
 44
0.0000000001
 40
0.0
 40
0.0
 40
0.0
 40
0.0
 40
0.2177727701
 40
0.4509280213
 40
0.7102223029
 40
1.0
 40
1.0
 40
1.0
 40
1.0
 10
114.3077392529
 20
262.0756755319
 30
0.0
 10
114.3077392514
 20
262.189935432
 30
0.0
 10
114.3499359727
 20
262.4281167905
 30
0.0
 10
114.5305015803
 20
262.7599047709
 30
0.0
 10
114.8158671427
 20
263.0599341257
 30
0.0
 10
115.0547181265
 20
263.2243785978
 30
0.0
 10
115.1863880251
 20
263.3003977954
 30
0.0
  0
SPLINE
  5
2F0
100
AcDbEntity
  8
0
100
AcDbSpline
 62
7
  6
CONTINUOUS
 70
0
 71
3
 72
9
 73
5
 74
0
 42
0.0000001
 43
0.0000001
 44
0.0000000001
 40
0.0
 40
0.0
 40
0.0
 40
0.0
 40
0.2744293402
 40
1.0
 40
1.0
 40
1.0
 40
1.0
 10
115.1863880251
 20
262.1572944114
 30
0.0
 10
115.1108252528
 20
262.1136684849
 30
0.0
 10
114.8435148055
 20
261.9425304475
 30
0.0
 10
114.6065830829
 20
261.7144148862
 30
0.0
 10
114.4846451196
 20
261.5185877295
 30
0.0
  0
SPLINE
  5
2F1
100
AcDbEntity
  8
0
100
AcDbSpline
 62
7
  6
CONTINUOUS
 70
0
 71
3
 72
11
 73
7
 74
0
 42
0.0000001
 43
0.0000001
 44
0.0000000001
 40
0.0
 40
0.0
 40
0.0
 40
0.0
 40
0.2177801763
 40
0.4509351099
 40
0.7102274479
 40
1.0
 40
1.0
 40
1.0
 40
1.0
 10
106.4642611734
 20
130.1272169338
 30
0.0
 10
106.2993261093
 20
130.2224341317
 30
0.0
 10
105.990665995
 20
130.4818150734
 30
0.0
 10
105.6622512323
 20
131.0189700687
 30
0.0
 10
105.4669834461
 20
131.6808948675
 30
0.0
 10
105.4286718424
 20
132.1626964975
 30
0.0
 10
105.4286718424
 20
132.4160996544
 30
0.0
  0
SPLINE
  5
2F2
100
AcDbEntity
  8
0
100
AcDbSpline
 62
7
  6
CONTINUOUS
 70
0
 71
3
 72
11
 73
7
 74
0
 42
0.0000001
 43
0.0000001
 44
0.0000000001
 40
0.0
 40
0.0
 40
0.0
 40
0.0
 40
0.2897710621
 40
0.5490628373
 40
0.782218381
 40
1.0
 40
1.0
 40
1.0
 40
1.0
 10
151.3904212613
 20
212.0246267695
 30
0.0
 10
151.6098653387
 20
212.1513221104
 30
0.0
 10
152.0462550724
 20
212.3590341554
 30
0.0
 10
152.7171047403
 20
212.5208827821
 30
0.0
 10
153.3464780572
 20
212.5050480456
 30
0.0
 10
153.7254266526
 20
212.3674411517
 30
0.0
 10
153.8903511195
 20
212.2722181632
 30
0.0
  0
SPLINE
  5
2F3
100
AcDbEntity
  8
0
100
AcDbSpline
 62
7
  6
CONTINUOUS
 70
0
 71
3
 72
11
 73
7
 74
0
 42
0.0000001
 43
0.0000001
 44
0.0000000001
 40
0.0
 40
0.0
 40
0.0
 40
0.0
 40
0.2495718911
 40
0.5121454504
 40
0.7682614652
 40
1.0
 40
1.0
 40
1.0
 40
1.0
 10
116.1215970247
 20
188.4766271017
 30
0.0
 10
116.2133090839
 20
188.9998654729
 30
0.0
 10
116.5346704337
 20
190.0520423357
 30
0.0
 10
117.3109398
 20
191.5018420895
 30
0.0
 10
118.3227325495
 20
192.7498687726
 30
0.0
 10
119.1435751018
 20
193.4070125909
 30
0.0
 10
119.5707485866
 20
193.6536398453
 30
0.0
  0
SPLINE
  5
2F4
100
AcDbEntity
  8
0
100
AcDbSpline
 62
7
  6
CONTINUOUS
 70
0
 71
3
 72
11
 73
7
 74
0
 42
0.0000001
 43
0.0000001
 44
0.0000000001
 40
0.0
 40
0.0
 40
0.0
 40
0.0
 40
0.2434006546
 40
0.4999988583
 40
0.7565976583
 40
1.0
 40
1.0
 40
1.0
 40
1.0
 10
112.0458162861
 20
177.9651259967
 30
0.0
 10
112.451842854
 20
178.3051200743
 30
0.0
 10
113.2148361504
 20
179.0907038381
 30
0.0
 10
114.1522508445
 20
180.4520546739
 30
0.0
 10
114.8625019265
 20
181.944561924
 30
0.0
 10
115.1613384032
 20
182.9981310225
 30
0.0
 10
115.2527685679
 20
183.5197611207
 30
0.0
  0
SPLINE
  5
2F5
100
AcDbEntity
  8
0
100
AcDbSpline
 62
7
  6
CONTINUOUS
 70
0
 71
3
 72
11
 73
7
 74
0
 42
0.0000001
 43
0.0000001
 44
0.0000000001
 40
0.0
 40
0.0
 40
0.0
 40
0.0
 40
0.2317404913
 40
0.4878572774
 40
0.7504301505
 40
1.0
 40
1.0
 40
1.0
 40
1.0
 10
105.4286718424
 20
169.1587084252
 30
0.0
 10
105.4286718424
 20
169.651970137
 30
0.0
 10
105.5873532476
 20
170.6914197996
 30
0.0
 10
106.162275111
 20
172.1916805989
 30
0.0
 10
107.0296955886
 20
173.5888528905
 30
0.0
 10
107.7802211087
 20
174.3932486557
 30
0.0
 10
108.1874997013
 20
174.7342911401
 30
0.0
  0
SPLINE
  5
2F6
100
AcDbEntity
  8
0
100
AcDbSpline
 62
7
  6
CONTINUOUS
 70
0
 71
3
 72
9
 73
5
 74
0
 42
0.0000001
 43
0.0000001
 44
0.0000000001
 40
0.0
 40
0.0
 40
0.0
 40
0.0
 40
0.5128299243
 40
1.0
 40
1.0
 40
1.0
 40
1.0
 10
118.5088492687
 20
123.4948247667
 30
0.0
 10
118.591377838
 20
123.3452973705
 30
0.0
 10
118.786885112
 20
123.0705749499
 30
0.0
 10
119.0517250456
 20
122.8600006413
 30
0.0
 10
119.1922362311
 20
122.7788833606
 30
0.0
  0
SPLINE
  5
2F7
100
AcDbEntity
  8
0
100
AcDbSpline
 62
7
  6
CONTINUOUS
 70
0
 71
3
 72
9
 73
5
 74
0
 42
0.0000001
 43
0.0000001
 44
0.0000000001
 40
0.0
 40
0.0
 40
0.0
 40
0.0
 40
0.4871718667
 40
1.0
 40
1.0
 40
1.0
 40
1.0
 10
166.6183261767
 20
204.9238845902
 30
0.0
 10
166.4778302409
 20
205.0050032119
 30
0.0
 10
166.1630727925
 20
205.1290612746
 30
0.0
 10
165.8274306262
 20
205.1610158014
 30
0.0
 10
165.6566861807
 20
205.1577270841
 30
0.0
  0
SPLINE
  5
2F8
100
AcDbEntity
  8
0
100
AcDbSpline
 62
7
  6
CONTINUOUS
 70
0
 71
3
 72
9
 73
5
 74
0
 42
0.0000001
 43
0.0000001
 44
0.0000000001
 40
0.0
 40
0.0
 40
0.0
 40
0.0
 40
0.4873063004
 40
1.0
 40
1.0
 40
1.0
 40
1.0
 10
127.9807436206
 20
176.1714275394
 30
0.0
 10
127.908082357
 20
175.7568783347
 30
0.0
 10
127.6886096184
 20
174.9177539633
 30
0.0
 10
127.3557761145
 20
174.1177852911
 30
0.0
 10
127.1598082009
 20
173.7207158506
 30
0.0
  0
SPLINE
  5
2F9
100
AcDbEntity
  8
0
100
AcDbSpline
 62
7
  6
CONTINUOUS
 70
0
 71
3
 72
9
 73
5
 74
0
 42
0.0000001
 43
0.0000001
 44
0.0000000001
 40
0.0
 40
0.0
 40
0.0
 40
0.0
 40
0.5126946698
 40
1.0
 40
1.0
 40
1.0
 40
1.0
 10
126.4856852919
 20
172.5530942485
 30
0.0
 10
126.2397997071
 20
172.1848465786
 30
0.0
 10
125.7134293951
 20
171.4966214702
 30
0.0
 10
125.0964680054
 20
170.8869918661
 30
0.0
 10
124.7737913387
 20
170.6167924153
 30
0.0
  0
SPLINE
  5
2FA
100
AcDbEntity
  8
0
100
AcDbSpline
 62
7
  6
CONTINUOUS
 70
0
 71
3
 72
9
 73
5
 74
0
 42
0.0000001
 43
0.0000001
 44
0.0000000001
 40
0.0
 40
0.0
 40
0.0
 40
0.0
 40
0.2466708782
 40
1.0
 40
1.0
 40
1.0
 40
1.0
 10
130.7604385315
 20
185.0104920288
 30
0.0
 10
130.7005380109
 20
184.9424791478
 30
0.0
 10
130.462578384
 20
184.6624907538
 30
0.0
 10
130.243813302
 20
184.3662587529
 30
0.0
 10
130.0903491399
 20
184.1359163123
 30
0.0
  0
SPLINE
  5
2FB
100
AcDbEntity
  8
0
100
AcDbSpline
 62
7
  6
CONTINUOUS
 70
0
 71
3
 72
9
 73
5
 74
0
 42
0.0000001
 43
0.0000001
 44
0.0000000001
 40
0.0
 40
0.0
 40
0.0
 40
0.0
 40
0.2529535339
 40
1.0
 40
1.0
 40
1.0
 40
1.0
 10
118.9312042765
 20
164.8076031438
 30
0.0
 10
118.8899875813
 20
164.7243043202
 30
0.0
 10
118.7324576718
 20
164.3923588708
 30
0.0
 10
118.5965231415
 20
164.0500890829
 30
0.0
 10
118.5088469692
 20
163.7899951717
 30
0.0
  0
SPLINE
  5
2FC
100
AcDbEntity
  8
0
100
AcDbSpline
 62
7
  6
CONTINUOUS
 70
0
 71
3
 72
9
 73
5
 74
0
 42
0.0000001
 43
0.0000001
 44
0.0000000001
 40
0.0
 40
0.0
 40
0.0
 40
0.0
 40
0.2436557738
 40
1.0
 40
1.0
 40
1.0
 40
1.0
 10
35.0579302909
 20
173.6209366385
 30
0.0
 10
34.8921831916
 20
174.0608426505
 30
0.0
 10
34.2642243809
 20
175.8857753542
 30
0.0
 10
33.8447363792
 20
177.7806464705
 30
0.0
 10
33.6356622786
 20
179.2248372122
 30
0.0
  0
SPLINE
  5
2FD
100
AcDbEntity
  8
0
100
AcDbSpline
 62
7
  6
CONTINUOUS
 70
0
 71
3
 72
9
 73
5
 74
0
 42
0.0000001
 43
0.0000001
 44
0.0000000001
 40
0.0
 40
0.0
 40
0.0
 40
0.0
 40
0.4766463765
 40
1.0
 40
1.0
 40
1.0
 40
1.0
 10
37.0502042462
 20
170.2022905639
 30
0.0
 10
36.753865145
 20
170.3733885572
 30
0.0
 10
36.2051856009
 20
170.8664772455
 30
0.0
 10
35.8598656268
 20
171.5097560552
 30
0.0
 10
35.7257773731
 20
171.8607317995
 30
0.0
  0
SPLINE
  5
2FE
100
AcDbEntity
  8
0
100
AcDbSpline
 62
7
  6
CONTINUOUS
 70
0
 71
3
 72
11
 73
7
 74
0
 42
0.0000001
 43
0.0000001
 44
0.0000000001
 40
0.0
 40
0.0
 40
0.0
 40
0.0
 40
0.2434006546
 40
0.4999988583
 40
0.7565976583
 40
1.0
 40
1.0
 40
1.0
 40
1.0
 10
65.1644415088
 20
205.0314880214
 30
0.0
 10
65.5704680767
 20
205.371482099
 30
0.0
 10
66.3334613731
 20
206.1570658628
 30
0.0
 10
67.2708760673
 20
207.5184166986
 30
0.0
 10
67.9811271492
 20
209.0109239487
 30
0.0
 10
68.2799636259
 20
210.0644930472
 30
0.0
 10
68.3713937907
 20
210.5861231454
 30
0.0
  0
SPLINE
  5
2FF
100
AcDbEntity
  8
0
100
AcDbSpline
 62
7
  6
CONTINUOUS
 70
0
 71
3
 72
9
 73
5
 74
0
 42
0.0000001
 43
0.0000001
 44
0.0000000001
 40
0.0
 40
0.0
 40
0.0
 40
0.0
 40
0.2555794523
 40
1.0
 40
1.0
 40
1.0
 40
1.0
 10
46.3305002266
 20
201.7454908257
 30
0.0
 10
46.3305002266
 20
202.9837515902
 30
0.0
 10
46.3406245771
 20
207.8286540712
 30
0.0
 10
46.3996411598
 20
212.673511494
 30
0.0
 10
46.475954553
 20
216.2793584447
 30
0.0
  0
SPLINE
  5
300
100
AcDbEntity
  8
0
100
AcDbSpline
 62
7
  6
CONTINUOUS
 70
0
 71
3
 72
9
 73
5
 74
0
 42
0.0000001
 43
0.0000001
 44
0.0000000001
 40
0.0
 40
0.0
 40
0.0
 40
0.0
 40
0.5119210855
 40
1.0
 40
1.0
 40
1.0
 40
1.0
 10
47.0451384951
 20
168.2169357496
 30
0.0
 10
46.7886133553
 20
173.934151922
 30
0.0
 10
46.4423358145
 20
185.1094833266
 30
0.0
 10
46.3305002266
 20
196.2890636075
 30
0.0
 10
46.3305002266
 20
201.7454908257
 30
0.0
  0
SPLINE
  5
301
100
AcDbEntity
  8
0
100
AcDbSpline
 62
7
  6
CONTINUOUS
 70
0
 71
3
 72
9
 73
5
 74
0
 42
0.0000001
 43
0.0000001
 44
0.0000000001
 40
0.0
 40
0.0
 40
0.0
 40
0.0
 40
0.2476643289
 40
1.0
 40
1.0
 40
1.0
 40
1.0
 10
31.7335698087
 20
194.8037422257
 30
0.0
 10
31.8611916281
 20
193.5143168112
 30
0.0
 10
32.4066961084
 20
188.3109983525
 30
0.0
 10
33.0717221338
 20
183.1202844914
 30
0.0
 10
33.6356622786
 20
179.2248372122
 30
0.0
  0
SPLINE
  5
302
100
AcDbEntity
  8
0
100
AcDbSpline
 62
7
  6
CONTINUOUS
 70
0
 71
3
 72
11
 73
7
 74
0
 42
0.0000001
 43
0.0000001
 44
0.0000000001
 40
0.0
 40
0.0
 40
0.0
 40
0.0
 40
0.2840365369
 40
0.5436764542
 40
0.7806372748
 40
1.0
 40
1.0
 40
1.0
 40
1.0
 10
117.9441312618
 20
231.3344144583
 30
0.0
 10
118.1257363338
 20
231.4392635696
 30
0.0
 10
118.4874131855
 20
231.6172739587
 30
0.0
 10
119.0419909896
 20
231.7850876255
 30
0.0
 10
119.5720468996
 20
231.8359255512
 30
0.0
 10
119.9098452315
 20
231.7875637046
 30
0.0
 10
120.0654427734
 20
231.7426445028
 30
0.0
  0
SPLINE
  5
303
100
AcDbEntity
  8
0
100
AcDbSpline
 62
7
  6
CONTINUOUS
 70
0
 71
3
 72
11
 73
7
 74
0
 42
0.0000001
 43
0.0000001
 44
0.0000000001
 40
0.0
 40
0.0
 40
0.0
 40
0.0
 40
0.2682905642
 40
0.527595896
 40
0.7738196402
 40
1.0
 40
1.0
 40
1.0
 40
1.0
 10
62.789955416
 20
193.7756259228
 30
0.0
 10
61.5424178749
 20
194.9117228519
 30
0.0
 10
59.1683652725
 20
197.2343891659
 30
0.0
 10
55.9158156694
 20
200.8583869311
 30
0.0
 10
53.0445376278
 20
204.4576182342
 30
0.0
 10
51.3098953119
 20
206.8708612345
 30
0.0
 10
50.499332373
 20
208.0398166045
 30
0.0
  0
SPLINE
  5
304
100
AcDbEntity
  8
0
100
AcDbSpline
 62
7
  6
CONTINUOUS
 70
0
 71
3
 72
9
 73
5
 74
0
 42
0.0000001
 43
0.0000001
 44
0.0000000001
 40
0.0
 40
0.0
 40
0.0
 40
0.0
 40
0.5128299243
 40
1.0
 40
1.0
 40
1.0
 40
1.0
 10
72.7588500517
 20
149.9080015842
 30
0.0
 10
72.841378621
 20
149.7584741879
 30
0.0
 10
73.036885895
 20
149.4837517673
 30
0.0
 10
73.3017258286
 20
149.2731774588
 30
0.0
 10
73.4422370141
 20
149.1920601781
 30
0.0
  0
SPLINE
  5
305
100
AcDbEntity
  8
0
100
AcDbSpline
 62
7
  6
CONTINUOUS
 70
0
 71
3
 72
9
 73
5
 74
0
 42
0.0000001
 43
0.0000001
 44
0.0000000001
 40
0.0
 40
0.0
 40
0.0
 40
0.0
 40
0.2529535339
 40
1.0
 40
1.0
 40
1.0
 40
1.0
 10
73.181205059
 20
191.2207799604
 30
0.0
 10
73.1399883639
 20
191.1374811368
 30
0.0
 10
72.9824584545
 20
190.8055356877
 30
0.0
 10
72.8465239244
 20
190.4632659002
 30
0.0
 10
72.7588477521
 20
190.2031719891
 30
0.0
  0
SPLINE
  5
306
100
AcDbEntity
  8
0
100
AcDbSpline
 62
7
  6
CONTINUOUS
 70
0
 71
3
 72
9
 73
5
 74
0
 42
0.0000001
 43
0.0000001
 44
0.0000000001
 40
0.0
 40
0.0
 40
0.0
 40
0.0
 40
0.2396897868
 40
1.0
 40
1.0
 40
1.0
 40
1.0
 10
82.2307444036
 20
202.5846043568
 30
0.0
 10
82.1950252623
 20
202.3808184486
 30
0.0
 10
82.0110046992
 20
201.5369104698
 30
0.0
 10
81.7002569723
 20
200.7223972766
 30
0.0
 10
81.4098089838
 20
200.133892668
 30
0.0
  0
SPLINE
  5
307
100
AcDbEntity
  8
0
100
AcDbSpline
 62
7
  6
CONTINUOUS
 70
0
 71
3
 72
9
 73
5
 74
0
 42
0.0000001
 43
0.0000001
 44
0.0000000001
 40
0.0
 40
0.0
 40
0.0
 40
0.0
 40
0.2587979021
 40
1.0
 40
1.0
 40
1.0
 40
1.0
 10
80.7356860749
 20
198.966271066
 30
0.0
 10
80.611650647
 20
198.7805108584
 30
0.0
 10
80.1091399603
 20
198.0788640974
 30
0.0
 10
79.5142636157
 20
197.4406748771
 30
0.0
 10
79.0237921217
 20
197.0299692328
 30
0.0
  0
SPLINE
  5
308
100
AcDbEntity
  8
0
100
AcDbSpline
 62
7
  6
CONTINUOUS
 70
0
 71
3
 72
9
 73
5
 74
0
 42
0.0000001
 43
0.0000001
 44
0.0000000001
 40
0.0
 40
0.0
 40
0.0
 40
0.0
 40
0.2466708782
 40
1.0
 40
1.0
 40
1.0
 40
1.0
 10
85.0104393145
 20
211.4236688462
 30
0.0
 10
84.950538794
 20
211.3556559653
 30
0.0
 10
84.7125791673
 20
211.0756675716
 30
0.0
 10
84.4938140854
 20
210.7794355709
 30
0.0
 10
84.3403499234
 20
210.5490931305
 30
0.0
  0
SPLINE
  5
309
100
AcDbEntity
  8
0
100
AcDbSpline
 62
7
  6
CONTINUOUS
 70
0
 71
3
 72
9
 73
5
 74
0
 42
0.0000001
 43
0.0000001
 44
0.0000000001
 40
0.0
 40
0.0
 40
0.0
 40
0.0
 40
0.2555445293
 40
1.0
 40
1.0
 40
1.0
 40
1.0
 10
120.0654427734
 20
232.5591469199
 30
0.0
 10
120.0861046294
 20
232.5710759768
 30
0.0
 10
120.1663559638
 20
232.6187889686
 30
0.0
 10
120.2441419445
 20
232.6706833268
 30
0.0
 10
120.3002068309
 20
232.7117630443
 30
0.0
  0
SPLINE
  5
30A
100
AcDbEntity
  8
0
100
AcDbSpline
 62
7
  6
CONTINUOUS
 70
0
 71
3
 72
9
 73
5
 74
0
 42
0.0000001
 43
0.0000001
 44
0.0000000001
 40
0.0
 40
0.0
 40
0.0
 40
0.0
 40
0.5375710342
 40
1.0
 40
1.0
 40
1.0
 40
1.0
 10
120.3002068309
 20
232.7117630443
 30
0.0
 10
120.4621465733
 20
232.8304191102
 30
0.0
 10
120.7399269919
 20
233.0903942742
 30
0.0
 10
120.9003786755
 20
233.4434153792
 30
0.0
 10
120.9295330596
 20
233.6136325119
 30
0.0
  0
SPLINE
  5
30B
100
AcDbEntity
  8
0
100
AcDbSpline
 62
7
  6
CONTINUOUS
 70
0
 71
3
 72
9
 73
5
 74
0
 42
0.0000001
 43
0.0000001
 44
0.0000000001
 40
0.0
 40
0.0
 40
0.0
 40
0.0
 40
0.4871718667
 40
1.0
 40
1.0
 40
1.0
 40
1.0
 10
120.8683269597
 20
231.3370614077
 30
0.0
 10
120.7278310239
 20
231.4181800294
 30
0.0
 10
120.4130735755
 20
231.5422380921
 30
0.0
 10
120.0774314092
 20
231.5741926189
 30
0.0
 10
119.9066869637
 20
231.5709039015
 30
0.0
  0
SPLINE
  5
30C
100
AcDbEntity
  8
0
100
AcDbSpline
 62
7
  6
CONTINUOUS
 70
0
 71
3
 72
11
 73
7
 74
0
 42
0.0000001
 43
0.0000001
 44
0.0000000001
 40
0.0
 40
0.0
 40
0.0
 40
0.0
 40
0.2372405738
 40
0.5000004574
 40
0.7627600882
 40
1.0
 40
1.0
 40
1.0
 40
1.0
 10
79.7605063885
 20
211.7386848744
 30
0.0
 10
80.0616758652
 20
211.5648085295
 30
0.0
 10
80.7620391836
 20
211.3110829593
 30
0.0
 10
81.8818298097
 20
211.189523629
 30
0.0
 10
83.0016189085
 20
211.3110879735
 30
0.0
 10
83.701979693
 20
211.564817041
 30
0.0
 10
84.0031470755
 20
211.7386950725
 30
0.0
  0
SPLINE
  5
30D
100
AcDbEntity
  8
0
100
AcDbSpline
 62
7
  6
CONTINUOUS
 70
0
 71
3
 72
9
 73
5
 74
0
 42
0.0000001
 43
0.0000001
 44
0.0000000001
 40
0.0
 40
0.0
 40
0.0
 40
0.0
 40
0.5246789304
 40
1.0
 40
1.0
 40
1.0
 40
1.0
 10
84.0031470755
 20
210.9221926553
 30
0.0
 10
84.2980743199
 20
211.3478853378
 30
0.0
 10
84.9344646207
 20
212.1105415595
 30
0.0
 10
85.7181545441
 20
212.7288491857
 30
0.0
 10
86.1244585872
 20
212.9634275341
 30
0.0
  0
SPLINE
  5
30E
100
AcDbEntity
  8
0
100
AcDbSpline
 62
7
  6
CONTINUOUS
 70
0
 71
3
 72
10
 73
6
 74
0
 42
0.0000001
 43
0.0000001
 44
0.0000000001
 40
0.0
 40
0.0
 40
0.0
 40
0.0
 40
0.2310840566
 40
0.476709409
 40
1.0
 40
1.0
 40
1.0
 40
1.0
 10
82.2083202896
 20
208.0560236087
 30
0.0
 10
82.2932857223
 20
208.3030896543
 30
0.0
 10
82.526156606
 20
208.7928481374
 30
0.0
 10
83.135914893
 20
209.7458872305
 30
0.0
 10
83.6662114298
 20
210.4358658015
 30
0.0
 10
84.0031470755
 20
210.9221926553
 30
0.0
  0
SPLINE
  5
30F
100
AcDbEntity
  8
0
100
AcDbSpline
 62
7
  6
CONTINUOUS
 70
0
 71
3
 72
9
 73
5
 74
0
 42
0.0000001
 43
0.0000001
 44
0.0000000001
 40
0.0
 40
0.0
 40
0.0
 40
0.0
 40
0.4806765314
 40
1.0
 40
1.0
 40
1.0
 40
1.0
 10
54.5089244848
 20
160.1226314875
 30
0.0
 10
55.738464194
 20
159.4129116482
 30
0.0
 10
58.4557379984
 20
158.2105220028
 30
0.0
 10
61.2998566034
 20
157.3966055536
 30
0.0
 10
62.789955416
 20
157.033017152
 30
0.0
  0
SPLINE
  5
310
100
AcDbEntity
  8
0
100
AcDbSpline
 62
7
  6
CONTINUOUS
 70
0
 71
3
 72
11
 73
7
 74
0
 42
0.0000001
 43
0.0000001
 44
0.0000000001
 40
0.0
 40
0.0
 40
0.0
 40
0.0
 40
0.2372398078
 40
0.4999994051
 40
0.7627593222
 40
1.0
 40
1.0
 40
1.0
 40
1.0
 10
83.9324366918
 20
211.9428213822
 30
0.0
 10
83.6312694413
 20
211.768943427
 30
0.0
 10
82.9309088774
 20
211.5152143792
 30
0.0
 10
81.811119941
 20
211.3936499387
 30
0.0
 10
80.6913291525
 20
211.5152091732
 30
0.0
 10
79.9909656135
 20
211.7689347631
 30
0.0
 10
79.6897960047
 20
211.9428111842
 30
0.0
  0
SPLINE
  5
311
100
AcDbEntity
  8
0
100
AcDbSpline
 62
7
  6
CONTINUOUS
 70
0
 71
3
 72
9
 73
5
 74
0
 42
0.0000001
 43
0.0000001
 44
0.0000000001
 40
0.0
 40
0.0
 40
0.0
 40
0.0
 40
0.2456835789
 40
1.0
 40
1.0
 40
1.0
 40
1.0
 10
121.0148090121
 20
234.069644324
 30
0.0
 10
121.0148090015
 20
234.0319098783
 30
0.0
 10
121.0061371587
 20
233.8783561507
 30
0.0
 10
120.9617222586
 20
233.7275273317
 30
0.0
 10
120.9130631992
 20
233.6223859239
 30
0.0
  0
SPLINE
  5
312
100
AcDbEntity
  8
0
100
AcDbSpline
 62
7
  6
CONTINUOUS
 70
0
 71
3
 72
9
 73
5
 74
0
 42
0.0000001
 43
0.0000001
 44
0.0000000001
 40
0.0
 40
0.0
 40
0.0
 40
0.0
 40
0.2244719364
 40
1.0
 40
1.0
 40
1.0
 40
1.0
 10
120.9130631992
 20
233.6223859239
 30
0.0
 10
120.8781991202
 20
233.5470524015
 30
0.0
 10
120.6877465705
 20
233.2274194225
 30
0.0
 10
120.3845217284
 20
232.988316866
 30
0.0
 10
120.1361531572
 20
232.8449220604
 30
0.0
  0
SPLINE
  5
313
100
AcDbEntity
  8
0
100
AcDbSpline
 62
7
  6
CONTINUOUS
 70
0
 71
3
 72
9
 73
5
 74
0
 42
0.0000001
 43
0.0000001
 44
0.0000000001
 40
0.0
 40
0.0
 40
0.0
 40
0.0
 40
0.2349022509
 40
1.0
 40
1.0
 40
1.0
 40
1.0
 10
79.6897960047
 20
235.0498295889
 30
0.0
 10
79.7632293394
 20
235.0074337925
 30
0.0
 10
80.083998568
 20
234.8411592586
 30
0.0
 10
80.4307331714
 20
234.7277076119
 30
0.0
 10
80.6998714915
 20
234.6657467914
 30
0.0
  0
SPLINE
  5
314
100
AcDbEntity
  8
0
100
AcDbSpline
 62
7
  6
CONTINUOUS
 70
0
 71
3
 72
9
 73
5
 74
0
 42
0.0000001
 43
0.0000001
 44
0.0000000001
 40
0.0
 40
0.0
 40
0.0
 40
0.0
 40
0.2465708886
 40
1.0
 40
1.0
 40
1.0
 40
1.0
 10
80.6998714915
 20
234.6657467914
 30
0.0
 10
80.7429352487
 20
234.6558326857
 30
0.0
 10
80.9181699408
 20
234.6181931905
 30
0.0
 10
81.0955591246
 20
234.5906861049
 30
0.0
 10
81.229719871
 20
234.5753984918
 30
0.0
  0
SPLINE
  5
315
100
AcDbEntity
  8
0
100
AcDbSpline
 62
7
  6
CONTINUOUS
 70
0
 71
3
 72
9
 73
5
 74
0
 42
0.0000001
 43
0.0000001
 44
0.0000000001
 40
0.0
 40
0.0
 40
0.0
 40
0.0
 40
0.2532154778
 40
1.0
 40
1.0
 40
1.0
 40
1.0
 10
82.3924657072
 20
234.5753951352
 30
0.0
 10
82.4375510091
 20
234.5805323325
 30
0.0
 10
82.6153158177
 20
234.6032352872
 30
0.0
 10
82.791855246
 20
234.6357081656
 30
0.0
 10
82.9222705211
 20
234.665729985
 30
0.0
  0
SPLINE
  5
316
100
AcDbEntity
  8
0
100
AcDbSpline
 62
7
  6
CONTINUOUS
 70
0
 71
3
 72
9
 73
5
 74
0
 42
0.0000001
 43
0.0000001
 44
0.0000000001
 40
0.0
 40
0.0
 40
0.0
 40
0.0
 40
0.2642673046
 40
1.0
 40
1.0
 40
1.0
 40
1.0
 10
82.9222705211
 20
234.665729985
 30
0.0
 10
83.0152263737
 20
234.6871285812
 30
0.0
 10
83.3641248826
 20
234.7792219783
 30
0.0
 10
83.7024528388
 20
234.9170593401
 30
0.0
 10
83.9324366918
 20
235.049839787
 30
0.0
  0
SPLINE
  5
317
100
AcDbEntity
  8
0
100
AcDbSpline
 62
7
  6
CONTINUOUS
 70
0
 71
3
 72
9
 73
5
 74
0
 42
0.0000001
 43
0.0000001
 44
0.0000000001
 40
0.0
 40
0.0
 40
0.0
 40
0.0
 40
0.2604112263
 40
1.0
 40
1.0
 40
1.0
 40
1.0
 10
120.8014135873
 20
256.5350994825
 30
0.0
 10
120.8221552644
 20
256.565130398
 30
0.0
 10
120.8974222658
 20
256.6833557246
 30
0.0
 10
120.9535959122
 20
256.8142052435
 30
0.0
 10
120.9801710736
 20
256.9143967413
 30
0.0
  0
SPLINE
  5
318
100
AcDbEntity
  8
0
100
AcDbSpline
 62
7
  6
CONTINUOUS
 70
0
 71
3
 72
9
 73
5
 74
0
 42
0.0000001
 43
0.0000001
 44
0.0000000001
 40
0.0
 40
0.0
 40
0.0
 40
0.0
 40
0.2527278947
 40
1.0
 40
1.0
 40
1.0
 40
1.0
 10
120.9801710736
 20
256.9143967413
 30
0.0
 10
120.985893666
 20
256.9359715908
 30
0.0
 10
121.0058811191
 20
257.0220180584
 30
0.0
 10
121.0148090244
 20
257.1106637636
 30
0.0
 10
121.0148090121
 20
257.1766627287
 30
0.0
  0
SPLINE
  5
319
100
AcDbEntity
  8
0
100
AcDbSpline
 62
7
  6
CONTINUOUS
 70
0
 71
3
 72
11
 73
7
 74
0
 42
0.0000001
 43
0.0000001
 44
0.0000000001
 40
0.0
 40
0.0
 40
0.0
 40
0.0
 40
0.2898012489
 40
0.5490510236
 40
0.7822290598
 40
1.0
 40
1.0
 40
1.0
 40
1.0
 10
234.1221413448
 20
173.894836838
 30
0.0
 10
234.1221413448
 20
174.3104633352
 30
0.0
 10
234.0593724055
 20
175.1006203259
 30
0.0
 10
233.7390212916
 20
176.186158434
 30
0.0
 10
233.2005384773
 20
177.067129087
 30
0.0
 10
232.6942938361
 20
177.4925126656
 30
0.0
 10
232.4238133154
 20
177.6486711264
 30
0.0
  0
SPLINE
  5
31A
100
AcDbEntity
  8
0
100
AcDbSpline
 62
7
  6
CONTINUOUS
 70
0
 71
3
 72
15
 73
11
 74
0
 42
0.0000001
 43
0.0000001
 44
0.0000000001
 40
0.0
 40
0.0
 40
0.0
 40
0.0
 40
0.1141543519
 40
0.237325601
 40
0.366974755
 40
0.4999984147
 40
0.6330222943
 40
0.7626720931
 40
0.8858443543
 40
1.0
 40
1.0
 40
1.0
 40
1.0
 10
228.3238898796
 20
107.8398491407
 30
0.0
 10
228.7208269138
 20
108.0690194763
 30
0.0
 10
229.5048486248
 20
108.6186131527
 30
0.0
 10
230.5836196896
 20
109.6278910241
 30
0.0
 10
231.5777655234
 20
110.8209327773
 30
0.0
 10
232.4498410948
 20
112.152983597
 30
0.0
 10
233.1673873124
 20
113.5742544417
 30
0.0
 10
233.7035153502
 20
115.0317401235
 30
0.0
 10
234.0381891055
 20
116.4706345114
 30
0.0
 10
234.1221413448
 20
117.424423105
 30
0.0
 10
234.1221413448
 20
117.8827710229
 30
0.0
  0
SPLINE
  5
31B
100
AcDbEntity
  8
0
100
AcDbSpline
 62
7
  6
CONTINUOUS
 70
0
 71
3
 72
10
 73
6
 74
0
 42
0.0000001
 43
0.0000001
 44
0.0000000001
 40
0.0
 40
0.0
 40
0.0
 40
0.0
 40
0.530349335
 40
0.769658094
 40
1.0
 40
1.0
 40
1.0
 40
1.0
 10
229.306029847
 20
117.1239492764
 30
0.0
 10
229.5025191745
 20
117.1882070361
 30
0.0
 10
229.8073256442
 20
117.2419105379
 30
0.0
 10
230.1951871683
 20
117.1805759808
 30
0.0
 10
230.3660753454
 20
117.1088770959
 30
0.0
 10
230.443827493
 20
117.0639737385
 30
0.0
  0
SPLINE
  5
31C
100
AcDbEntity
  8
0
100
AcDbSpline
 62
7
  6
CONTINUOUS
 70
0
 71
3
 72
17
 73
13
 74
0
 42
0.0000001
 43
0.0000001
 44
0.0000000001
 40
0.0
 40
0.0
 40
0.0
 40
0.0
 40
0.1286933065
 40
0.2702801751
 40
0.4174384432
 40
0.5617797022
 40
0.6954488753
 40
0.8127120148
 40
0.8646745954
 40
0.9125103814
 40
0.9571382807
 40
1.0
 40
1.0
 40
1.0
 40
1.0
 10
226.5207750947
 20
170.0777638758
 30
0.0
 10
226.5207750947
 20
170.3555662853
 30
0.0
 10
226.5984816633
 20
170.9396717005
 30
0.0
 10
226.8885717261
 20
171.7972974984
 30
0.0
 10
227.3355272694
 20
172.6234642495
 30
0.0
 10
227.9034759621
 20
173.350420204
 30
0.0
 10
228.5459711307
 20
173.9194441224
 30
0.0
 10
229.1275052247
 20
174.2374645486
 30
0.0
 10
229.5824241052
 20
174.3584553454
 30
0.0
 10
229.8955192917
 20
174.3815494703
 30
0.0
 10
230.1870538644
 20
174.3387503637
 30
0.0
 10
230.3637060984
 20
174.2654145806
 30
0.0
 10
230.443827493
 20
174.2191429376
 30
0.0
  0
SPLINE
  5
31D
100
AcDbEntity
  8
0
100
AcDbSpline
 62
7
  6
CONTINUOUS
 70
0
 71
3
 72
17
 73
13
 74
0
 42
0.0000001
 43
0.0000001
 44
0.0000000001
 40
0.0
 40
0.0
 40
0.0
 40
0.0
 40
0.1286933065
 40
0.2702801751
 40
0.4174384432
 40
0.5617797022
 40
0.6954488753
 40
0.8127120148
 40
0.8646745954
 40
0.9125103814
 40
0.9571382807
 40
1.0
 40
1.0
 40
1.0
 40
1.0
 10
177.0235064898
 20
141.5006731048
 30
0.0
 10
177.0235064898
 20
141.7784755143
 30
0.0
 10
177.1012130584
 20
142.3625809295
 30
0.0
 10
177.3913031211
 20
143.2202067274
 30
0.0
 10
177.8382586645
 20
144.0463734785
 30
0.0
 10
178.4062073572
 20
144.773329433
 30
0.0
 10
179.0487025257
 20
145.3423533514
 30
0.0
 10
179.6302366197
 20
145.6603737776
 30
0.0
 10
180.0851555003
 20
145.7813645744
 30
0.0
 10
180.3982506868
 20
145.8044586993
 30
0.0
 10
180.6897852595
 20
145.7616595927
 30
0.0
 10
180.8664374934
 20
145.6883238096
 30
0.0
 10
180.946558888
 20
145.6420521666
 30
0.0
  0
SPLINE
  5
31E
100
AcDbEntity
  8
0
100
AcDbSpline
 62
7
  6
CONTINUOUS
 70
0
 71
3
 72
17
 73
13
 74
0
 42
0.0000001
 43
0.0000001
 44
0.0000000001
 40
0.0
 40
0.0
 40
0.0
 40
0.0
 40
0.1286933065
 40
0.2702801751
 40
0.4174384432
 40
0.5617797022
 40
0.6954488753
 40
0.8127120148
 40
0.8646745954
 40
0.9125103814
 40
0.9571382807
 40
1.0
 40
1.0
 40
1.0
 40
1.0
 10
177.0235064898
 20
84.3455039058
 30
0.0
 10
177.0235064898
 20
84.6233063152
 30
0.0
 10
177.1012130584
 20
85.2074117304
 30
0.0
 10
177.3913031211
 20
86.0650375283
 30
0.0
 10
177.8382586645
 20
86.8912042794
 30
0.0
 10
178.4062073572
 20
87.6181602339
 30
0.0
 10
179.0487025257
 20
88.1871841523
 30
0.0
 10
179.6302366197
 20
88.5052045785
 30
0.0
 10
180.0851555003
 20
88.6261953753
 30
0.0
 10
180.3982506868
 20
88.6492895002
 30
0.0
 10
180.6897852595
 20
88.6064903936
 30
0.0
 10
180.8664374934
 20
88.5331546105
 30
0.0
 10
180.946558888
 20
88.4868829675
 30
0.0
  0
SPLINE
  5
31F
100
AcDbEntity
  8
0
100
AcDbSpline
 62
7
  6
CONTINUOUS
 70
0
 71
3
 72
15
 73
11
 74
0
 42
0.0000001
 43
0.0000001
 44
0.0000000001
 40
0.0
 40
0.0
 40
0.0
 40
0.0
 40
0.114155658
 40
0.2373279333
 40
0.3669777387
 40
0.5000016213
 40
0.633025278
 40
0.7626744253
 40
0.8858456604
 40
1.0
 40
1.0
 40
1.0
 40
1.0
 10
166.9472179301
 20
143.2764913041
 30
0.0
 10
166.9472179301
 20
143.7348392714
 30
0.0
 10
167.0311701969
 20
144.68862797
 30
0.0
 10
167.3658440009
 20
146.1275224832
 30
0.0
 10
167.9019721205
 20
147.5850082374
 30
0.0
 10
168.6195183861
 20
149.0062790869
 30
0.0
 10
169.4915939774
 20
150.3383298626
 30
0.0
 10
170.4857397895
 20
151.5313715088
 30
0.0
 10
171.56451077
 20
152.5406492754
 30
0.0
 10
172.3485324039
 20
153.0902428754
 30
0.0
 10
172.7454693953
 20
153.3194131863
 30
0.0
  0
SPLINE
  5
320
100
AcDbEntity
  8
0
100
AcDbSpline
 62
7
  6
CONTINUOUS
 70
0
 71
3
 72
17
 73
13
 74
0
 42
0.0000001
 43
0.0000001
 44
0.0000000001
 40
0.0
 40
0.0
 40
0.0
 40
0.0
 40
0.0467176553
 40
0.094106334
 40
0.1427902564
 40
0.1933108374
 40
0.3013164673
 40
0.4204419242
 40
0.5511474245
 40
0.6926024306
 40
0.8430316625
 40
1.0
 40
1.0
 40
1.0
 40
1.0
 10
190.4847185398
 20
101.7410651753
 30
0.0
 10
190.9127283783
 20
101.4939856157
 30
0.0
 10
191.8133506021
 20
101.0598069369
 30
0.0
 10
193.2601027185
 20
100.6086268036
 30
0.0
 10
194.7954405348
 20
100.3578440004
 30
0.0
 10
196.991833782
 20
100.2911418896
 30
0.0
 10
199.9204262653
 20
100.7479184615
 30
0.0
 10
203.4896325004
 20
102.0648101137
 30
0.0
 10
207.1035515323
 20
104.1144883076
 30
0.0
 10
210.6642610744
 20
106.837224633
 30
0.0
 10
214.0742790769
 20
110.1551964578
 30
0.0
 10
216.1528977506
 20
112.6648601717
 30
0.0
 10
217.147258748
 20
113.9947178752
 30
0.0
  0
SPLINE
  5
321
100
AcDbEntity
  8
0
100
AcDbSpline
 62
7
  6
CONTINUOUS
 70
0
 71
3
 72
11
 73
7
 74
0
 42
0.0000001
 43
0.0000001
 44
0.0000000001
 40
0.0
 40
0.0
 40
0.0
 40
0.0
 40
0.2662558106
 40
0.523671946
 40
0.7691019864
 40
1.0
 40
1.0
 40
1.0
 40
1.0
 10
223.1869283851
 20
124.4456937662
 30
0.0
 10
223.7482729967
 20
125.7515312458
 30
0.0
 10
224.7435933262
 20
128.3684424434
 30
0.0
 10
225.8511385338
 20
132.3282030835
 30
0.0
 10
226.5322030462
 20
136.1921523714
 30
0.0
 10
226.6975628299
 20
138.7366451109
 30
0.0
 10
226.6975628299
 20
139.969270498
 30
0.0
  0
SPLINE
  5
322
100
AcDbEntity
  8
0
100
AcDbSpline
 62
7
  6
CONTINUOUS
 70
0
 71
3
 72
11
 73
7
 74
0
 42
0.0000001
 43
0.0000001
 44
0.0000000001
 40
0.0
 40
0.0
 40
0.0
 40
0.0
 40
0.2177830968
 40
0.450915839
 40
0.7103069095
 40
1.0
 40
1.0
 40
1.0
 40
1.0
 10
177.6966290334
 20
140.0128810432
 30
0.0
 10
177.5894304546
 20
140.0747902797
 30
0.0
 10
177.3888342939
 20
140.2433947624
 30
0.0
 10
177.1752949739
 20
140.592558094
 30
0.0
 10
177.0484721223
 20
141.0228388431
 30
0.0
 10
177.0235064898
 20
141.3360070303
 30
0.0
 10
177.0235064898
 20
141.5006731048
 30
0.0
  0
SPLINE
  5
323
100
AcDbEntity
  8
0
100
AcDbSpline
 62
7
  6
CONTINUOUS
 70
0
 71
3
 72
11
 73
7
 74
0
 42
0.0000001
 43
0.0000001
 44
0.0000000001
 40
0.0
 40
0.0
 40
0.0
 40
0.0
 40
0.2177830968
 40
0.450915839
 40
0.7103069095
 40
1.0
 40
1.0
 40
1.0
 40
1.0
 10
177.6966290334
 20
82.8577118442
 30
0.0
 10
177.5894304546
 20
82.9196210806
 30
0.0
 10
177.3888342939
 20
83.0882255633
 30
0.0
 10
177.1752949739
 20
83.4373888949
 30
0.0
 10
177.0484721223
 20
83.867669644
 30
0.0
 10
177.0235064898
 20
84.1808378312
 30
0.0
 10
177.0235064898
 20
84.3455039058
 30
0.0
  0
SPLINE
  5
324
100
AcDbEntity
  8
0
100
AcDbSpline
 62
7
  6
CONTINUOUS
 70
0
 71
3
 72
11
 73
7
 74
0
 42
0.0000001
 43
0.0000001
 44
0.0000000001
 40
0.0
 40
0.0
 40
0.0
 40
0.0
 40
0.2177830968
 40
0.450915839
 40
0.7103069095
 40
1.0
 40
1.0
 40
1.0
 40
1.0
 10
227.1938976384
 20
168.5899718143
 30
0.0
 10
227.0866990596
 20
168.6518810507
 30
0.0
 10
226.8861028989
 20
168.8204855334
 30
0.0
 10
226.6725635789
 20
169.169648865
 30
0.0
 10
226.5457407273
 20
169.5999296141
 30
0.0
 10
226.5207750947
 20
169.9130978013
 30
0.0
 10
226.5207750947
 20
170.0777638758
 30
0.0
  0
SPLINE
  5
325
100
AcDbEntity
  8
0
100
AcDbSpline
 62
7
  6
CONTINUOUS
 70
0
 71
3
 72
11
 73
7
 74
0
 42
0.0000001
 43
0.0000001
 44
0.0000000001
 40
0.0
 40
0.0
 40
0.0
 40
0.0
 40
0.2897710621
 40
0.5490628373
 40
0.782218381
 40
1.0
 40
1.0
 40
1.0
 40
1.0
 10
209.3734187233
 20
178.5488848988
 30
0.0
 10
209.5928628008
 20
178.6755802397
 30
0.0
 10
210.0292525344
 20
178.8832922848
 30
0.0
 10
210.7001022024
 20
179.0451409115
 30
0.0
 10
211.3294755193
 20
179.0293061749
 30
0.0
 10
211.7084241147
 20
178.8916992811
 30
0.0
 10
211.8733485816
 20
178.7964762925
 30
0.0
  0
SPLINE
  5
326
100
AcDbEntity
  8
0
100
AcDbSpline
 62
7
  6
CONTINUOUS
 70
0
 71
3
 72
11
 73
7
 74
0
 42
0.0000001
 43
0.0000001
 44
0.0000000001
 40
0.0
 40
0.0
 40
0.0
 40
0.0
 40
0.2495718911
 40
0.5121454504
 40
0.7682614652
 40
1.0
 40
1.0
 40
1.0
 40
1.0
 10
174.1045944867
 20
155.000885231
 30
0.0
 10
174.196306546
 20
155.5241236022
 30
0.0
 10
174.5176678957
 20
156.576300465
 30
0.0
 10
175.293937262
 20
158.0261002188
 30
0.0
 10
176.3057300115
 20
159.2741269019
 30
0.0
 10
177.1265725638
 20
159.9312707203
 30
0.0
 10
177.5537460487
 20
160.1778979746
 30
0.0
  0
SPLINE
  5
327
100
AcDbEntity
  8
0
100
AcDbSpline
 62
7
  6
CONTINUOUS
 70
0
 71
3
 72
11
 73
7
 74
0
 42
0.0000001
 43
0.0000001
 44
0.0000000001
 40
0.0
 40
0.0
 40
0.0
 40
0.0
 40
0.2317404913
 40
0.4878572774
 40
0.7504301505
 40
1.0
 40
1.0
 40
1.0
 40
1.0
 10
163.4116693044
 20
135.6829665546
 30
0.0
 10
163.4116693044
 20
136.1762282663
 30
0.0
 10
163.5703507097
 20
137.215677929
 30
0.0
 10
164.145272573
 20
138.7159387283
 30
0.0
 10
165.0126930507
 20
140.1131110198
 30
0.0
 10
165.7632185707
 20
140.917506785
 30
0.0
 10
166.1704971634
 20
141.2585492694
 30
0.0
  0
SPLINE
  5
328
100
AcDbEntity
  8
0
100
AcDbSpline
 62
7
  6
CONTINUOUS
 70
0
 71
3
 72
11
 73
7
 74
0
 42
0.0000001
 43
0.0000001
 44
0.0000000001
 40
0.0
 40
0.0
 40
0.0
 40
0.0
 40
0.2177709505
 40
0.4509489942
 40
0.7101987597
 40
1.0
 40
1.0
 40
1.0
 40
1.0
 10
168.6455459595
 20
83.5105912006
 30
0.0
 10
168.3750654117
 20
83.6667496443
 30
0.0
 10
167.8688207664
 20
84.0921332743
 30
0.0
 10
167.3303379645
 20
84.9731039412
 30
0.0
 10
167.0099868549
 20
86.0586420376
 30
0.0
 10
166.9472179301
 20
86.848799004
 30
0.0
 10
166.9472179301
 20
87.264425489
 30
0.0
  0
SPLINE
  5
329
100
AcDbEntity
  8
0
100
AcDbSpline
 62
7
  6
CONTINUOUS
 70
0
 71
3
 72
11
 73
7
 74
0
 42
0.0000001
 43
0.0000001
 44
0.0000000001
 40
0.0
 40
0.0
 40
0.0
 40
0.0
 40
0.2177723674
 40
0.4509510027
 40
0.7102002307
 40
1.0
 40
1.0
 40
1.0
 40
1.0
 10
175.716643211
 20
79.4281836554
 30
0.0
 10
175.9871147897
 20
79.272030357
 30
0.0
 10
176.6086104553
 20
79.0463180595
 30
0.0
 10
177.6407555599
 20
79.0204689453
 30
0.0
 10
178.7409889294
 20
79.285794488
 30
0.0
 10
179.4566391006
 20
79.6264971598
 30
0.0
 10
179.8165666468
 20
79.8343001851
 30
0.0
  0
SPLINE
  5
32A
100
AcDbEntity
  8
0
100
AcDbSpline
 62
7
  6
CONTINUOUS
 70
0
 71
3
 72
11
 73
7
 74
0
 42
0.0000001
 43
0.0000001
 44
0.0000000001
 40
0.0
 40
0.0
 40
0.0
 40
0.0
 40
0.2177801763
 40
0.4509351099
 40
0.7102274479
 40
1.0
 40
1.0
 40
1.0
 40
1.0
 10
164.4472586355
 20
96.6514750631
 30
0.0
 10
164.2823235713
 20
96.7466922611
 30
0.0
 10
163.973663457
 20
97.0060732027
 30
0.0
 10
163.6452486943
 20
97.543228198
 30
0.0
 10
163.4499809081
 20
98.2051529968
 30
0.0
 10
163.4116693044
 20
98.6869546268
 30
0.0
 10
163.4116693044
 20
98.9403577837
 30
0.0
  0
SPLINE
  5
32B
100
AcDbEntity
  8
0
100
AcDbSpline
 62
7
  6
CONTINUOUS
 70
0
 71
3
 72
10
 73
6
 74
0
 42
0.0000001
 43
0.0000001
 44
0.0000000001
 40
0.0
 40
0.0
 40
0.0
 40
0.0
 40
0.2303406004
 40
0.4696087758
 40
1.0
 40
1.0
 40
1.0
 40
1.0
 10
227.1938976384
 20
111.4348026152
 30
0.0
 10
227.1161869148
 20
111.4796820493
 30
0.0
 10
226.9687414867
 20
111.5917428896
 30
0.0
 10
226.7216983595
 20
111.8967069576
 30
0.0
 10
226.6157808716
 20
112.1873639128
 30
0.0
 10
226.573181828
 20
112.3895621798
 30
0.0
  0
SPLINE
  5
32C
100
AcDbEntity
  8
0
100
AcDbSpline
 62
7
  6
CONTINUOUS
 70
0
 71
3
 72
14
 73
10
 74
0
 42
0.0000001
 43
0.0000001
 44
0.0000000001
 40
0.0
 40
0.0
 40
0.0
 40
0.0
 40
0.2892811527
 40
0.4225393337
 40
0.5484966937
 40
0.6678951432
 40
0.7818688351
 40
0.8919525302
 40
1.0
 40
1.0
 40
1.0
 40
1.0
 10
226.6975628299
 20
139.969270498
 30
0.0
 10
226.6975628299
 20
141.4898976807
 30
0.0
 10
226.5200262695
 20
143.7219234536
 30
0.0
 10
225.8338536501
 20
146.5273658443
 30
0.0
 10
225.1356985408
 20
148.3967619521
 30
0.0
 10
224.24595394
 20
150.0696807678
 30
0.0
 10
223.1713067687
 20
151.5292624489
 30
0.0
 10
221.9217022016
 20
152.7589295257
 30
0.0
 10
220.9760600064
 20
153.4188745538
 30
0.0
 10
220.4841768872
 20
153.7028265884
 30
0.0
  0
SPLINE
  5
32D
100
AcDbEntity
  8
0
100
AcDbSpline
 62
7
  6
CONTINUOUS
 70
0
 71
3
 72
11
 73
7
 74
0
 42
0.0000001
 43
0.0000001
 44
0.0000000001
 40
0.0
 40
0.0
 40
0.0
 40
0.0
 40
0.289799778
 40
0.5490490151
 40
0.7822276429
 40
1.0
 40
1.0
 40
1.0
 40
1.0
 10
221.2527926282
 20
181.3249621419
 30
0.0
 10
221.6127201849
 20
181.5327651732
 30
0.0
 10
222.3283703844
 20
181.8734678447
 30
0.0
 10
223.4286037662
 20
182.1387933896
 30
0.0
 10
224.4607488649
 20
182.1129442577
 30
0.0
 10
225.082244484
 20
181.8872319378
 30
0.0
 10
225.3527160639
 20
181.7310786716
 30
0.0
  0
SPLINE
  5
32E
100
AcDbEntity
  8
0
100
AcDbSpline
 62
7
  6
CONTINUOUS
 70
0
 71
3
 72
11
 73
7
 74
0
 42
0.0000001
 43
0.0000001
 44
0.0000000001
 40
0.0
 40
0.0
 40
0.0
 40
0.0
 40
0.2898012489
 40
0.5490510236
 40
0.7822290598
 40
1.0
 40
1.0
 40
1.0
 40
1.0
 10
174.0183151816
 20
83.1820179438
 30
0.0
 10
174.0183151816
 20
82.7663914466
 30
0.0
 10
174.0810841209
 20
81.9762344559
 30
0.0
 10
174.4014352348
 20
80.8906963478
 30
0.0
 10
174.9399180491
 20
80.0097256948
 30
0.0
 10
175.4461626903
 20
79.5843421162
 30
0.0
 10
175.716643211
 20
79.4281836554
 30
0.0
  0
SPLINE
  5
32F
100
AcDbEntity
  8
0
100
AcDbSpline
 62
7
  6
CONTINUOUS
 70
0
 71
3
 72
11
 73
7
 74
0
 42
0.0000001
 43
0.0000001
 44
0.0000000001
 40
0.0
 40
0.0
 40
0.0
 40
0.0
 40
0.2177830968
 40
0.450915839
 40
0.7103069095
 40
1.0
 40
1.0
 40
1.0
 40
1.0
 10
180.946558888
 20
88.4868829675
 30
0.0
 10
181.0537574668
 20
88.4249737311
 30
0.0
 10
181.2543536275
 20
88.2563692484
 30
0.0
 10
181.4678929475
 20
87.9072059168
 30
0.0
 10
181.5947157991
 20
87.4769251677
 30
0.0
 10
181.6196814317
 20
87.1637569805
 30
0.0
 10
181.6196814317
 20
86.9990909059
 30
0.0
  0
SPLINE
  5
330
100
AcDbEntity
  8
0
100
AcDbSpline
 62
7
  6
CONTINUOUS
 70
0
 71
3
 72
17
 73
13
 74
0
 42
0.0000001
 43
0.0000001
 44
0.0000000001
 40
0.0
 40
0.0
 40
0.0
 40
0.0
 40
0.1286933065
 40
0.2702801751
 40
0.4174384432
 40
0.5617797022
 40
0.6954488753
 40
0.8127120148
 40
0.8646745954
 40
0.9125103814
 40
0.9571382807
 40
1.0
 40
1.0
 40
1.0
 40
1.0
 10
181.6196814317
 20
86.9990909059
 30
0.0
 10
181.6196814317
 20
86.7212884965
 30
0.0
 10
181.5419748631
 20
86.1371830813
 30
0.0
 10
181.2518848003
 20
85.2795572834
 30
0.0
 10
180.804929257
 20
84.4533905323
 30
0.0
 10
180.2369805643
 20
83.7264345778
 30
0.0
 10
179.5944853957
 20
83.1574106594
 30
0.0
 10
179.0129513017
 20
82.8393902332
 30
0.0
 10
178.5580324212
 20
82.7183994364
 30
0.0
 10
178.2449372347
 20
82.6953053115
 30
0.0
 10
177.953402662
 20
82.7381044181
 30
0.0
 10
177.776750428
 20
82.8114402012
 30
0.0
 10
177.6966290334
 20
82.8577118442
 30
0.0
  0
SPLINE
  5
331
100
AcDbEntity
  8
0
100
AcDbSpline
 62
7
  6
CONTINUOUS
 70
0
 71
3
 72
11
 73
7
 74
0
 42
0.0000001
 43
0.0000001
 44
0.0000000001
 40
0.0
 40
0.0
 40
0.0
 40
0.0
 40
0.2177830968
 40
0.450915839
 40
0.7103069095
 40
1.0
 40
1.0
 40
1.0
 40
1.0
 10
230.443827493
 20
174.2191429376
 30
0.0
 10
230.5510260718
 20
174.1572337012
 30
0.0
 10
230.7516222325
 20
173.9886292185
 30
0.0
 10
230.9651615525
 20
173.6394658869
 30
0.0
 10
231.0919844041
 20
173.2091851378
 30
0.0
 10
231.1169500366
 20
172.8960169506
 30
0.0
 10
231.1169500366
 20
172.731350876
 30
0.0
  0
SPLINE
  5
332
100
AcDbEntity
  8
0
100
AcDbSpline
 62
7
  6
CONTINUOUS
 70
0
 71
3
 72
24
 73
20
 74
0
 42
0.0000001
 43
0.0000001
 44
0.0000000001
 40
0.0
 40
0.0
 40
0.0
 40
0.0
 40
0.0213337567
 40
0.0428958398
 40
0.0874738268
 40
0.1352524067
 40
0.1871570235
 40
0.2435986869
 40
0.3045508914
 40
0.3696432797
 40
0.4382455054
 40
0.5095371747
 40
0.5825668228
 40
0.6563038798
 40
0.7296865655
 40
0.8016685554
 40
0.8712667296
 40
0.9376114098
 40
1.0
 40
1.0
 40
1.0
 40
1.0
 10
220.4841768872
 20
153.7028265884
 30
0.0
 10
220.1155944841
 20
153.9156001502
 30
0.0
 10
219.3461105135
 20
154.2963722402
 30
0.0
 10
217.6933081045
 20
154.8680523093
 30
0.0
 10
215.4221214379
 20
155.2023682696
 30
0.0
 10
212.5331860654
 20
154.9889317467
 30
0.0
 10
209.5083204714
 20
154.1855078133
 30
0.0
 10
206.4086915655
 20
152.8154746891
 30
0.0
 10
203.2954650371
 20
150.9108223926
 30
0.0
 10
200.2320394484
 20
148.5124709027
 30
0.0
 10
197.2819746955
 20
145.6712723823
 30
0.0
 10
194.5073686103
 20
142.4474430584
 30
0.0
 10
191.9670804978
 20
138.9095186772
 30
0.0
 10
189.7152267197
 20
135.1328963524
 30
0.0
 10
187.7998373469
 20
131.198124311
 30
0.0
 10
186.2617710973
 20
127.1891540961
 30
0.0
 10
185.1337608561
 20
123.190956031
 30
0.0
 10
184.4399445965
 20
119.2890381881
 30
0.0
 10
184.2713325971
 20
116.7192153281
 30
0.0
 10
184.2713325971
 20
115.4746212657
 30
0.0
  0
SPLINE
  5
333
100
AcDbEntity
  8
0
100
AcDbSpline
 62
7
  6
CONTINUOUS
 70
0
 71
3
 72
24
 73
20
 74
0
 42
0.0000001
 43
0.0000001
 44
0.0000000001
 40
0.0
 40
0.0
 40
0.0
 40
0.0
 40
0.0623884177
 40
0.1287327202
 40
0.1983306326
 40
0.2703124927
 40
0.343695351
 40
0.4174326981
 40
0.4904625163
 40
0.5617542301
 40
0.6303564953
 40
0.6954489519
 40
0.7564012195
 40
0.8128429324
 40
0.8647476095
 40
0.9125262532
 40
0.9571042449
 40
0.9786662918
 40
1.0
 40
1.0
 40
1.0
 40
1.0
 10
182.8571131468
 20
116.2911027747
 30
0.0
 10
182.8571131468
 20
117.5356934078
 30
0.0
 10
183.0257232551
 20
120.1055053811
 30
0.0
 10
183.719535407
 20
124.0074074307
 30
0.0
 10
184.84753608
 20
128.0055922167
 30
0.0
 10
186.3855970487
 20
132.0145598558
 30
0.0
 10
188.3009851595
 20
135.9493399718
 30
0.0
 10
190.5528431498
 20
139.7259746181
 30
0.0
 10
193.0931355048
 20
143.2639084259
 30
0.0
 10
195.8677437281
 20
146.4877426696
 30
0.0
 10
198.8178097187
 20
149.3289443574
 30
0.0
 10
201.8812373082
 20
151.7272989059
 30
0.0
 10
204.9944665023
 20
153.6319539002
 30
0.0
 10
208.0940983572
 20
155.0019889219
 30
0.0
 10
211.1189674283
 20
155.8054140645
 30
0.0
 10
214.0079052787
 20
156.018849446
 30
0.0
 10
216.2790931821
 20
155.6845342544
 30
0.0
 10
217.9318925132
 20
155.1128505697
 30
0.0
 10
218.7013759677
 20
154.7320813847
 30
0.0
 10
219.0699575202
 20
154.5193082755
 30
0.0
  0
SPLINE
  5
334
100
AcDbEntity
  8
0
100
AcDbSpline
 62
7
  6
CONTINUOUS
 70
0
 71
3
 72
11
 73
7
 74
0
 42
0.0000001
 43
0.0000001
 44
0.0000000001
 40
0.0
 40
0.0
 40
0.0
 40
0.0
 40
0.2177723674
 40
0.4509510027
 40
0.7102002307
 40
1.0
 40
1.0
 40
1.0
 40
1.0
 10
232.4238133154
 20
177.6486711264
 30
0.0
 10
232.1533417367
 20
177.8048244247
 30
0.0
 10
231.5318460711
 20
178.0305367223
 30
0.0
 10
230.4997009665
 20
178.0563858365
 30
0.0
 10
229.399467597
 20
177.7910602938
 30
0.0
 10
228.6838174258
 20
177.4503576219
 30
0.0
 10
228.3238898796
 20
177.2425545967
 30
0.0
  0
SPLINE
  5
335
100
AcDbEntity
  8
0
100
AcDbSpline
 62
7
  6
CONTINUOUS
 70
0
 71
3
 72
15
 73
11
 74
0
 42
0.0000001
 43
0.0000001
 44
0.0000000001
 40
0.0
 40
0.0
 40
0.0
 40
0.0
 40
0.1141543519
 40
0.237325601
 40
0.366974755
 40
0.4999984147
 40
0.6330222943
 40
0.7626720931
 40
0.8858443543
 40
1.0
 40
1.0
 40
1.0
 40
1.0
 10
179.8165666468
 20
149.2370056411
 30
0.0
 10
179.4196296126
 20
149.0078353055
 30
0.0
 10
178.6356079016
 20
148.4582416291
 30
0.0
 10
177.5568368368
 20
147.4489637577
 30
0.0
 10
176.562691003
 20
146.2559220045
 30
0.0
 10
175.6906154316
 20
144.9238711847
 30
0.0
 10
174.973069214
 20
143.5026003401
 30
0.0
 10
174.4369411762
 20
142.0451146583
 30
0.0
 10
174.1022674209
 20
140.6062202704
 30
0.0
 10
174.0183151816
 20
139.6524316768
 30
0.0
 10
174.0183151816
 20
139.1940837589
 30
0.0
  0
SPLINE
  5
336
100
AcDbEntity
  8
0
100
AcDbSpline
 62
7
  6
CONTINUOUS
 70
0
 71
3
 72
17
 73
13
 74
0
 42
0.0000001
 43
0.0000001
 44
0.0000000001
 40
0.0
 40
0.0
 40
0.0
 40
0.0
 40
0.1286933065
 40
0.2702801751
 40
0.4174384432
 40
0.5617797022
 40
0.6954488753
 40
0.8127120148
 40
0.8646745954
 40
0.9125103814
 40
0.9571382807
 40
1.0
 40
1.0
 40
1.0
 40
1.0
 10
231.1169500366
 20
115.5761816769
 30
0.0
 10
231.1169500366
 20
115.2983792675
 30
0.0
 10
231.039243468
 20
114.7142738523
 30
0.0
 10
230.7491534053
 20
113.8566480544
 30
0.0
 10
230.3021978619
 20
113.0304813033
 30
0.0
 10
229.7342491692
 20
112.3035253488
 30
0.0
 10
229.0917540007
 20
111.7345014304
 30
0.0
 10
228.5102199067
 20
111.4164810042
 30
0.0
 10
228.0553010261
 20
111.2954902074
 30
0.0
 10
227.7422058396
 20
111.2723960825
 30
0.0
 10
227.4506712669
 20
111.3151951891
 30
0.0
 10
227.274019033
 20
111.3885309722
 30
0.0
 10
227.1938976384
 20
111.4348026152
 30
0.0
  0
SPLINE
  5
337
100
AcDbEntity
  8
0
100
AcDbSpline
 62
7
  6
CONTINUOUS
 70
0
 71
3
 72
11
 73
7
 74
0
 42
0.0000001
 43
0.0000001
 44
0.0000000001
 40
0.0
 40
0.0
 40
0.0
 40
0.0
 40
0.2177830968
 40
0.450915839
 40
0.7103069095
 40
1.0
 40
1.0
 40
1.0
 40
1.0
 10
230.443827493
 20
117.0639737385
 30
0.0
 10
230.5510260718
 20
117.0020645021
 30
0.0
 10
230.7516222325
 20
116.8334600194
 30
0.0
 10
230.9651615525
 20
116.4842966878
 30
0.0
 10
231.0919844041
 20
116.0540159387
 30
0.0
 10
231.1169500366
 20
115.7408477515
 30
0.0
 10
231.1169500366
 20
115.5761816769
 30
0.0
  0
SPLINE
  5
338
100
AcDbEntity
  8
0
100
AcDbSpline
 62
7
  6
CONTINUOUS
 70
0
 71
3
 72
14
 73
10
 74
0
 42
0.0000001
 43
0.0000001
 44
0.0000000001
 40
0.0
 40
0.0
 40
0.0
 40
0.0
 40
0.1080469037
 40
0.2181301649
 40
0.3321037019
 40
0.4515022972
 40
0.5774597547
 40
0.7107183252
 40
1.0
 40
1.0
 40
1.0
 40
1.0
 10
189.0704990062
 20
102.5575465062
 30
0.0
 10
188.5786185084
 20
102.8414970788
 30
0.0
 10
187.6329814394
 20
103.5014401214
 30
0.0
 10
186.3833802473
 20
104.7311013438
 30
0.0
 10
185.3087300806
 20
106.190678042
 30
0.0
 10
184.4189864475
 20
107.8635978399
 30
0.0
 10
183.7208252922
 20
109.7329950207
 30
0.0
 10
183.0346509934
 20
112.5384425883
 30
0.0
 10
182.8571131468
 20
114.7704729156
 30
0.0
 10
182.8571131468
 20
116.2911027747
 30
0.0
  0
SPLINE
  5
339
100
AcDbEntity
  8
0
100
AcDbSpline
 62
7
  6
CONTINUOUS
 70
0
 71
3
 72
17
 73
13
 74
0
 42
0.0000001
 43
0.0000001
 44
0.0000000001
 40
0.0
 40
0.0
 40
0.0
 40
0.0
 40
0.1286933065
 40
0.2702801751
 40
0.4174384432
 40
0.5617797022
 40
0.6954488753
 40
0.8127120148
 40
0.8646745954
 40
0.9125103814
 40
0.9571382807
 40
1.0
 40
1.0
 40
1.0
 40
1.0
 10
231.1169500366
 20
172.731350876
 30
0.0
 10
231.1169500366
 20
172.4535484666
 30
0.0
 10
231.039243468
 20
171.8694430513
 30
0.0
 10
230.7491534053
 20
171.0118172535
 30
0.0
 10
230.3021978619
 20
170.1856505024
 30
0.0
 10
229.7342491692
 20
169.4586945479
 30
0.0
 10
229.0917540007
 20
168.8896706295
 30
0.0
 10
228.5102199067
 20
168.5716502033
 30
0.0
 10
228.0553010261
 20
168.4506594065
 30
0.0
 10
227.7422058396
 20
168.4275652816
 30
0.0
 10
227.4506712669
 20
168.4703643881
 30
0.0
 10
227.274019033
 20
168.5437001713
 30
0.0
 10
227.1938976384
 20
168.5899718143
 30
0.0
  0
SPLINE
  5
33A
100
AcDbEntity
  8
0
100
AcDbSpline
 62
7
  6
CONTINUOUS
 70
0
 71
3
 72
14
 73
10
 74
0
 42
0.0000001
 43
0.0000001
 44
0.0000000001
 40
0.0
 40
0.0
 40
0.0
 40
0.0
 40
0.2892811527
 40
0.4225393337
 40
0.5484966937
 40
0.6678951432
 40
0.7818688351
 40
0.8919525302
 40
1.0
 40
1.0
 40
1.0
 40
1.0
 10
184.2713325971
 20
115.4746212657
 30
0.0
 10
184.2713325971
 20
113.953994083
 30
0.0
 10
184.4488691575
 20
111.7219683101
 30
0.0
 10
185.1350417769
 20
108.9165259194
 30
0.0
 10
185.8331968862
 20
107.0471298116
 30
0.0
 10
186.722941487
 20
105.3742109959
 30
0.0
 10
187.7975886583
 20
103.9146293148
 30
0.0
 10
189.0471932254
 20
102.684962238
 30
0.0
 10
189.9928354206
 20
102.0250172099
 30
0.0
 10
190.4847185398
 20
101.7410651753
 30
0.0
  0
SPLINE
  5
33B
100
AcDbEntity
  8
0
100
AcDbSpline
 62
7
  6
CONTINUOUS
 70
0
 71
3
 72
11
 73
7
 74
0
 42
0.0000001
 43
0.0000001
 44
0.0000000001
 40
0.0
 40
0.0
 40
0.0
 40
0.0
 40
0.2177830968
 40
0.450915839
 40
0.7103069095
 40
1.0
 40
1.0
 40
1.0
 40
1.0
 10
180.946558888
 20
145.6420521666
 30
0.0
 10
181.0537574668
 20
145.5801429302
 30
0.0
 10
181.2543536275
 20
145.4115384475
 30
0.0
 10
181.4678929475
 20
145.0623751159
 30
0.0
 10
181.5947157991
 20
144.6320943668
 30
0.0
 10
181.6196814317
 20
144.3189261796
 30
0.0
 10
181.6196814317
 20
144.154260105
 30
0.0
  0
SPLINE
  5
33C
100
AcDbEntity
  8
0
100
AcDbSpline
 62
7
  6
CONTINUOUS
 70
0
 71
3
 72
17
 73
13
 74
0
 42
0.0000001
 43
0.0000001
 44
0.0000000001
 40
0.0
 40
0.0
 40
0.0
 40
0.0
 40
0.1286933065
 40
0.2702801751
 40
0.4174384432
 40
0.5617797022
 40
0.6954488753
 40
0.8127120148
 40
0.8646745954
 40
0.9125103814
 40
0.9571382807
 40
1.0
 40
1.0
 40
1.0
 40
1.0
 10
181.6196814317
 20
144.154260105
 30
0.0
 10
181.6196814317
 20
143.8764576956
 30
0.0
 10
181.5419748631
 20
143.2923522803
 30
0.0
 10
181.2518848003
 20
142.4347264825
 30
0.0
 10
180.804929257
 20
141.6085597313
 30
0.0
 10
180.2369805643
 20
140.8816037769
 30
0.0
 10
179.5944853957
 20
140.3125798585
 30
0.0
 10
179.0129513017
 20
139.9945594323
 30
0.0
 10
178.5580324212
 20
139.8735686355
 30
0.0
 10
178.2449372347
 20
139.8504745106
 30
0.0
 10
177.953402662
 20
139.8932736171
 30
0.0
 10
177.776750428
 20
139.9666094003
 30
0.0
 10
177.6966290334
 20
140.0128810432
 30
0.0
  0
SPLINE
  5
33D
100
AcDbEntity
  8
0
100
AcDbSpline
 62
7
  6
CONTINUOUS
 70
0
 71
3
 72
11
 73
7
 74
0
 42
0.0000001
 43
0.0000001
 44
0.0000000001
 40
0.0
 40
0.0
 40
0.0
 40
0.0
 40
0.2177801763
 40
0.4509351099
 40
0.7102274479
 40
1.0
 40
1.0
 40
1.0
 40
1.0
 10
73.4422370091
 20
149.1920601699
 30
0.0
 10
73.2773019449
 20
149.2872773678
 30
0.0
 10
72.9686418306
 20
149.5466583095
 30
0.0
 10
72.6402270679
 20
150.0838133048
 30
0.0
 10
72.4449592817
 20
150.7457381036
 30
0.0
 10
72.406647678
 20
151.2275397336
 30
0.0
 10
72.406647678
 20
151.4809428905
 30
0.0
  0
SPLINE
  5
33E
100
AcDbEntity
  8
0
100
AcDbSpline
 62
7
  6
CONTINUOUS
 70
0
 71
3
 72
11
 73
7
 74
0
 42
0.0000001
 43
0.0000001
 44
0.0000000001
 40
0.0
 40
0.0
 40
0.0
 40
0.0
 40
0.2825634604
 40
0.5421275945
 40
0.7797884149
 40
1.0
 40
1.0
 40
1.0
 40
1.0
 10
118.3683970969
 20
231.0894700056
 30
0.0
 10
118.5418243539
 20
231.1895976814
 30
0.0
 10
118.887390728
 20
231.3609267158
 30
0.0
 10
119.416925886
 20
231.5279536947
 30
0.0
 10
119.9249631268
 20
231.58932039
 30
0.0
 10
120.2514070298
 20
231.556004829
 30
0.0
 10
120.4033277945
 20
231.5202711612
 30
0.0
  0
SPLINE
  5
33F
100
AcDbEntity
  8
0
100
AcDbSpline
 62
7
  6
CONTINUOUS
 70
0
 71
3
 72
9
 73
5
 74
0
 42
0.0000001
 43
0.0000001
 44
0.0000000001
 40
0.0
 40
0.0
 40
0.0
 40
0.0
 40
0.2534896757
 40
1.0
 40
1.0
 40
1.0
 40
1.0
 10
120.4033277945
 20
231.5202711612
 30
0.0
 10
120.4445192353
 20
231.5105824181
 30
0.0
 10
120.6056373143
 20
231.4667450374
 30
0.0
 10
120.7604069592
 20
231.3993715267
 30
0.0
 10
120.8683269552
 20
231.3370613993
 30
0.0
  0
SPLINE
  5
340
100
AcDbEntity
  8
0
100
AcDbSpline
 62
7
  6
CONTINUOUS
 70
0
 71
3
 72
11
 73
7
 74
0
 42
0.0000001
 43
0.0000001
 44
0.0000000001
 40
0.0
 40
0.0
 40
0.0
 40
0.0
 40
0.2495718911
 40
0.5121454504
 40
0.7682614652
 40
1.0
 40
1.0
 40
1.0
 40
1.0
 10
83.0995728603
 20
207.5414703378
 30
0.0
 10
83.1912849195
 20
208.064708709
 30
0.0
 10
83.5126462693
 20
209.1168855718
 30
0.0
 10
84.2889156356
 20
210.5666853256
 30
0.0
 10
85.3007083851
 20
211.8147120086
 30
0.0
 10
86.1215509374
 20
212.471855827
 30
0.0
 10
86.5487244223
 20
212.7184830814
 30
0.0
  0
SPLINE
  5
341
100
AcDbEntity
  8
0
100
AcDbSpline
 62
7
  6
CONTINUOUS
 70
0
 71
3
 72
11
 73
7
 74
0
 42
0.0000001
 43
0.0000001
 44
0.0000000001
 40
0.0
 40
0.0
 40
0.0
 40
0.0
 40
0.2434006546
 40
0.4999988583
 40
0.7565976583
 40
1.0
 40
1.0
 40
1.0
 40
1.0
 10
79.0237921217
 20
197.0299692328
 30
0.0
 10
79.4298186896
 20
197.3699633104
 30
0.0
 10
80.192811986
 20
198.1555470742
 30
0.0
 10
81.1302266802
 20
199.51689791
 30
0.0
 10
81.8404777621
 20
201.0094051601
 30
0.0
 10
82.1393142388
 20
202.0629742586
 30
0.0
 10
82.2307444036
 20
202.5846043568
 30
0.0
  0
SPLINE
  5
342
100
AcDbEntity
  8
0
100
AcDbSpline
 62
7
  6
CONTINUOUS
 70
0
 71
3
 72
11
 73
7
 74
0
 42
0.0000001
 43
0.0000001
 44
0.0000000001
 40
0.0
 40
0.0
 40
0.0
 40
0.0
 40
0.2317404913
 40
0.4878572774
 40
0.7504301505
 40
1.0
 40
1.0
 40
1.0
 40
1.0
 10
72.406647678
 20
188.2235516613
 30
0.0
 10
72.406647678
 20
188.7168133731
 30
0.0
 10
72.5653290833
 20
189.7562630357
 30
0.0
 10
73.1402509466
 20
191.256523835
 30
0.0
 10
74.0076714243
 20
192.6536961266
 30
0.0
 10
74.7581969443
 20
193.4580918918
 30
0.0
 10
75.1654755369
 20
193.7991343762
 30
0.0
  0
SPLINE
  5
343
100
AcDbEntity
  8
0
100
AcDbSpline
 62
7
  6
CONTINUOUS
 70
0
 71
3
 72
9
 73
5
 74
0
 42
0.0000001
 43
0.0000001
 44
0.0000000001
 40
0.0
 40
0.0
 40
0.0
 40
0.0
 40
0.5128299243
 40
1.0
 40
1.0
 40
1.0
 40
1.0
 10
105.780874216
 20
130.8431583481
 30
0.0
 10
105.8634027854
 20
130.6936309518
 30
0.0
 10
106.0589100594
 20
130.4189085312
 30
0.0
 10
106.323749993
 20
130.2083342227
 30
0.0
 10
106.4642611785
 20
130.127216942
 30
0.0
  0
SPLINE
  5
344
100
AcDbEntity
  8
0
100
AcDbSpline
 62
7
  6
CONTINUOUS
 70
0
 71
3
 72
9
 73
5
 74
0
 42
0.0000001
 43
0.0000001
 44
0.0000000001
 40
0.0
 40
0.0
 40
0.0
 40
0.0
 40
0.4871718667
 40
1.0
 40
1.0
 40
1.0
 40
1.0
 10
153.8903511241
 20
212.2722181716
 30
0.0
 10
153.7498551882
 20
212.3533367933
 30
0.0
 10
153.4350977398
 20
212.477394856
 30
0.0
 10
153.0994555736
 20
212.5093493828
 30
0.0
 10
152.928711128
 20
212.5060606654
 30
0.0
  0
SPLINE
  5
345
100
AcDbEntity
  8
0
100
AcDbSpline
 62
7
  6
CONTINUOUS
 70
0
 71
3
 72
9
 73
5
 74
0
 42
0.0000001
 43
0.0000001
 44
0.0000000001
 40
0.0
 40
0.0
 40
0.0
 40
0.0
 40
0.4873063004
 40
1.0
 40
1.0
 40
1.0
 40
1.0
 10
115.2527685679
 20
183.5197611207
 30
0.0
 10
115.1801073043
 20
183.1052119161
 30
0.0
 10
114.9606345658
 20
182.2660875446
 30
0.0
 10
114.6278010618
 20
181.4661188725
 30
0.0
 10
114.4318331482
 20
181.0690494319
 30
0.0
  0
SPLINE
  5
346
100
AcDbEntity
  8
0
100
AcDbSpline
 62
7
  6
CONTINUOUS
 70
0
 71
3
 72
9
 73
5
 74
0
 42
0.0000001
 43
0.0000001
 44
0.0000000001
 40
0.0
 40
0.0
 40
0.0
 40
0.0
 40
0.5126946698
 40
1.0
 40
1.0
 40
1.0
 40
1.0
 10
113.7577102392
 20
179.9014278299
 30
0.0
 10
113.5118246544
 20
179.53318016
 30
0.0
 10
112.9854543425
 20
178.8449550516
 30
0.0
 10
112.3684929528
 20
178.2353254475
 30
0.0
 10
112.0458162861
 20
177.9651259967
 30
0.0
  0
SPLINE
  5
347
100
AcDbEntity
  8
0
100
AcDbSpline
 62
7
  6
CONTINUOUS
 70
0
 71
3
 72
9
 73
5
 74
0
 42
0.0000001
 43
0.0000001
 44
0.0000000001
 40
0.0
 40
0.0
 40
0.0
 40
0.0
 40
0.2466708782
 40
1.0
 40
1.0
 40
1.0
 40
1.0
 10
118.0324634789
 20
192.3588256101
 30
0.0
 10
117.9725629583
 20
192.2908127292
 30
0.0
 10
117.7346033316
 20
192.0108243355
 30
0.0
 10
117.5158382498
 20
191.7145923348
 30
0.0
 10
117.3623740878
 20
191.4842498944
 30
0.0
  0
SPLINE
  5
348
100
AcDbEntity
  8
0
100
AcDbSpline
 62
7
  6
CONTINUOUS
 70
0
 71
3
 72
9
 73
5
 74
0
 42
0.0000001
 43
0.0000001
 44
0.0000000001
 40
0.0
 40
0.0
 40
0.0
 40
0.0
 40
0.2529535339
 40
1.0
 40
1.0
 40
1.0
 40
1.0
 10
106.2032292236
 20
172.1559367247
 30
0.0
 10
106.1620125284
 20
172.0726379011
 30
0.0
 10
106.004482619
 20
171.7406924519
 30
0.0
 10
105.8685480888
 20
171.3984226642
 30
0.0
 10
105.7808719165
 20
171.138328753
 30
0.0
  0
SPLINE
  5
349
100
AcDbEntity
  8
0
100
AcDbSpline
 62
7
  6
CONTINUOUS
 70
0
 71
3
 72
11
 73
7
 74
0
 42
0.0000001
 43
0.0000001
 44
0.0000000001
 40
0.0
 40
0.0
 40
0.0
 40
0.0
 40
0.2177801763
 40
0.4509351099
 40
0.7102274479
 40
1.0
 40
1.0
 40
1.0
 40
1.0
 10
119.1922362261
 20
122.7788833524
 30
0.0
 10
119.0273011619
 20
122.8741005504
 30
0.0
 10
118.7186410476
 20
123.133481492
 30
0.0
 10
118.3902262849
 20
123.6706364873
 30
0.0
 10
118.1949584987
 20
124.3325612861
 30
0.0
 10
118.156646895
 20
124.8143629161
 30
0.0
 10
118.156646895
 20
125.067766073
 30
0.0
  0
SPLINE
  5
34A
100
AcDbEntity
  8
0
100
AcDbSpline
 62
7
  6
CONTINUOUS
 70
0
 71
3
 72
11
 73
7
 74
0
 42
0.0000001
 43
0.0000001
 44
0.0000000001
 40
0.0
 40
0.0
 40
0.0
 40
0.0
 40
0.2897710621
 40
0.5490628373
 40
0.782218381
 40
1.0
 40
1.0
 40
1.0
 40
1.0
 10
164.1183963139
 20
204.6762931881
 30
0.0
 10
164.3378403914
 20
204.802988529
 30
0.0
 10
164.774230125
 20
205.0107005741
 30
0.0
 10
165.445079793
 20
205.1725492008
 30
0.0
 10
166.0744531099
 20
205.1567144642
 30
0.0
 10
166.4534017053
 20
205.0191075704
 30
0.0
 10
166.6183261722
 20
204.9238845818
 30
0.0
  0
SPLINE
  5
34B
100
AcDbEntity
  8
0
100
AcDbSpline
 62
7
  6
CONTINUOUS
 70
0
 71
3
 72
11
 73
7
 74
0
 42
0.0000001
 43
0.0000001
 44
0.0000000001
 40
0.0
 40
0.0
 40
0.0
 40
0.0
 40
0.2495718911
 40
0.5121454504
 40
0.7682614652
 40
1.0
 40
1.0
 40
1.0
 40
1.0
 10
128.8495720773
 20
181.1282935203
 30
0.0
 10
128.9412841365
 20
181.6515318915
 30
0.0
 10
129.2626454863
 20
182.7037087543
 30
0.0
 10
130.0389148526
 20
184.1535085081
 30
0.0
 10
131.0507076021
 20
185.4015351912
 30
0.0
 10
131.8715501544
 20
186.0586790096
 30
0.0
 10
132.2987236393
 20
186.3053062639
 30
0.0
  0
SPLINE
  5
34C
100
AcDbEntity
  8
0
100
AcDbSpline
 62
7
  6
CONTINUOUS
 70
0
 71
3
 72
11
 73
7
 74
0
 42
0.0000001
 43
0.0000001
 44
0.0000000001
 40
0.0
 40
0.0
 40
0.0
 40
0.0
 40
0.2434006546
 40
0.4999988583
 40
0.7565976583
 40
1.0
 40
1.0
 40
1.0
 40
1.0
 10
124.7737913387
 20
170.6167924153
 30
0.0
 10
125.1798179066
 20
170.9567864929
 30
0.0
 10
125.942811203
 20
171.7423702567
 30
0.0
 10
126.8802258972
 20
173.1037210926
 30
0.0
 10
127.5904769791
 20
174.5962283426
 30
0.0
 10
127.8893134558
 20
175.6497974412
 30
0.0
 10
127.9807436206
 20
176.1714275394
 30
0.0
  0
SPLINE
  5
34D
100
AcDbEntity
  8
0
100
AcDbSpline
 62
7
  6
CONTINUOUS
 70
0
 71
3
 72
11
 73
7
 74
0
 42
0.0000001
 43
0.0000001
 44
0.0000000001
 40
0.0
 40
0.0
 40
0.0
 40
0.0
 40
0.2317404913
 40
0.4878572774
 40
0.7504301505
 40
1.0
 40
1.0
 40
1.0
 40
1.0
 10
118.156646895
 20
161.8103748439
 30
0.0
 10
118.156646895
 20
162.3036365556
 30
0.0
 10
118.3153283003
 20
163.3430862183
 30
0.0
 10
118.8902501636
 20
164.8433470176
 30
0.0
 10
119.7576706413
 20
166.2405193091
 30
0.0
 10
120.5081961613
 20
167.0449150743
 30
0.0
 10
120.915474754
 20
167.3859575587
 30
0.0
  0
SPLINE
  5
34E
100
AcDbEntity
  8
0
100
AcDbSpline
 62
7
  6
CONTINUOUS
 70
0
 71
3
 72
9
 73
5
 74
0
 42
0.0000001
 43
0.0000001
 44
0.0000000001
 40
0.0
 40
0.0
 40
0.0
 40
0.0
 40
0.5128299243
 40
1.0
 40
1.0
 40
1.0
 40
1.0
 10
163.7638716781
 20
97.3674164774
 30
0.0
 10
163.8464002474
 20
97.2178890812
 30
0.0
 10
164.0419075214
 20
96.9431666606
 30
0.0
 10
164.306747455
 20
96.732592352
 30
0.0
 10
164.4472586405
 20
96.6514750713
 30
0.0
  0
SPLINE
  5
34F
100
AcDbEntity
  8
0
100
AcDbSpline
 62
7
  6
CONTINUOUS
 70
0
 71
3
 72
9
 73
5
 74
0
 42
0.0000001
 43
0.0000001
 44
0.0000000001
 40
0.0
 40
0.0
 40
0.0
 40
0.0
 40
0.4871718667
 40
1.0
 40
1.0
 40
1.0
 40
1.0
 10
211.8733485861
 20
178.7964763009
 30
0.0
 10
211.7328526503
 20
178.8775949226
 30
0.0
 10
211.4180952019
 20
179.0016529853
 30
0.0
 10
211.0824530356
 20
179.0336075121
 30
0.0
 10
210.9117085901
 20
179.0303187948
 30
0.0
  0
SPLINE
  5
350
100
AcDbEntity
  8
0
100
AcDbSpline
 62
7
  6
CONTINUOUS
 70
0
 71
3
 72
9
 73
5
 74
0
 42
0.0000001
 43
0.0000001
 44
0.0000000001
 40
0.0
 40
0.0
 40
0.0
 40
0.0
 40
0.2466708782
 40
1.0
 40
1.0
 40
1.0
 40
1.0
 10
176.0154609409
 20
158.8830837395
 30
0.0
 10
175.9555604205
 20
158.8150708587
 30
0.0
 10
175.7176007941
 20
158.5350824653
 30
0.0
 10
175.4988357125
 20
158.2388504651
 30
0.0
 10
175.3453715507
 20
158.008508025
 30
0.0
  0
SPLINE
  5
351
100
AcDbEntity
  8
0
100
AcDbSpline
 62
7
  6
CONTINUOUS
 70
0
 71
3
 72
9
 73
5
 74
0
 42
0.0000001
 43
0.0000001
 44
0.0000000001
 40
0.0
 40
0.0
 40
0.0
 40
0.0
 40
0.2529535339
 40
1.0
 40
1.0
 40
1.0
 40
1.0
 10
164.186226685
 20
138.6801948528
 30
0.0
 10
164.1450099899
 20
138.5968960292
 30
0.0
 10
163.9874800808
 20
138.2649505804
 30
0.0
 10
163.8515455508
 20
137.9226807932
 30
0.0
 10
163.7638693786
 20
137.6625868824
 30
0.0
  0
ELLIPSE
  5
352
100
AcDbEntity
  8
0
100
AcDbEllipse
 62
7
  6
CONTINUOUS
 10
233.2217962727
 20
97.441467522
 30
0.0
 11
-191.5312592708
 21
234.963531181
 31
0.0
 40
0.438137976
 41
0.9174822473
 42
0.9248822729
  0
ELLIPSE
  5
353
100
AcDbEntity
  8
0
100
AcDbEllipse
 62
7
  6
CONTINUOUS
 10
105.2161856488
 20
167.230478236
 30
0.0
 11
59.8499961587
 21
-9.6778015949
 31
0.0
 40
0.4381204127
 41
-2.8233236748
 42
-2.6480758869
  0
ELLIPSE
  5
354
100
AcDbEntity
  8
0
100
AcDbEllipse
 62
7
  6
CONTINUOUS
 10
182.2960683909
 20
56.526983299
 30
0.0
 11
871.935592654
 21
710.7610326789
 31
0.0
 40
0.1863610854
 41
1.571289078
 42
1.5746531597
  0
ELLIPSE
  5
355
100
AcDbEntity
  8
0
100
AcDbEllipse
 62
7
  6
CONTINUOUS
 10
105.2161856488
 20
232.5674633034
 30
0.0
 11
59.124567494
 21
14.9102965783
 31
0.0
 40
0.6848977203
 41
-3.1073452867
 42
-2.8898353134
  0
ELLIPSE
  5
356
100
AcDbEntity
  8
0
100
AcDbEllipse
 62
7
  6
CONTINUOUS
 10
81.8818179001
 20
216.586769646
 30
0.0
 11
1.9660993352
 21
12.158860306
 31
0.0
 40
0.1863606599
 41
-3.2123189773
 42
-2.3178748399
  0
ENDSEC
  0
SECTION
  2
OBJECTS
  0
DICTIONARY
  5
C
100
AcDbDictionary
280
0
281
1
  3
ACAD_GROUP
350
D
  3
ACAD_MLINESTYLE
350
17
  3
ACAD_LAYOUT
350
1A
  3
ACAD_PLOTSETTINGS
350
19
  3
ACAD_PLOTSTYLENAME
350
E
  0
DICTIONARY
  5
D
102
{ACAD_REACTORS
330
C
102
}
100
AcDbDictionary
280
0
281
1
  0
ACDBDICTIONARYWDFLT
  5
E
102
{ACAD_REACTORS
330
C
102
}
100
AcDbDictionary
281
1
  3
Normal
350
F
100
AcDbDictionaryWithDefault
340
F
  0
DICTIONARY
  5
17
102
{ACAD_REACTORS
330
C
102
}
100
AcDbDictionary
280
0
281
1
  3
Standard
350
18
  0
DICTIONARY
  5
19
102
{ACAD_REACTORS
330
C
102
}
100
AcDbDictionary
281
1
  0
DICTIONARY
  5
1A
102
{ACAD_REACTORS
330
C
102
}
100
AcDbDictionary
281
1
  3
Model
350
357
  3
Layout1
350
358
  0
ACDBPLACEHOLDER
  5
F
102
{ACAD_REACTORS
330
E
102
}
  0
MLINESTYLE
  5
18
102
{ACAD_REACTORS
330
17
102
}
100
AcDbMlineStyle
  2
STANDARD
 70
0
  3

 62
256
 51
90.0
 52
90.0
 71
2
 49
0.5
 62
256
  6
BYLAYER
 49
-0.5
 62
256
  6
BYLAYER
  0
LAYOUT
  5
357
102
{ACAD_REACTORS
330
1A
102
}
100
AcDbPlotSettings
  1

  2
none_device
  4

  6

 40
0.0
 41
0.0
 42
0.0
 43
0.0
 44
210.0
 45
297.0
 46
0.0
 47
0.0
 48
0.0
 49
0.0
140
0.0
141
0.0
142
1.0
143
1.0
 70
1024
 72
1
 73
0
 74
0
  7

 75
0
147
1.0
148
0.0
149
0.0
100
AcDbLayout
  1
Model
 70
0
 71
0
 10
0.0
 20
0.0
 11
210.0
 21
297.0
 12
0.0
 22
0.0
 32
0.0
 14
0.0
 24
0.0
 34
0.0
 15
0.0
 25
0.0
 35
0.0
146
0.0
 13
0.0
 23
0.0
 33
0.0
 16
1.0
 26
0.0
 36
0.0
 17
0.0
 27
1.0
 37
0.0
 76
0
330
210
345
0
346
0
  0
LAYOUT
  5
358
102
{ACAD_REACTORS
330
1A
102
}
100
AcDbPlotSettings
  1

  2
none_device
  4

  6

 40
0.0
 41
0.0
 42
0.0
 43
0.0
 44
210.0
 45
297.0
 46
0.0
 47
0.0
 48
0.0
 49
0.0
140
0.0
141
0.0
142
1.0
143
1.0
 70
0
 72
1
 73
0
 74
0
  7

 75
0
147
1.0
148
0.0
149
0.0
100
AcDbLayout
  1
Layout1
 70
0
 71
1
 10
0.0
 20
0.0
 11
210.0
 21
297.0
 12
0.0
 22
0.0
 32
0.0
 14
0.0
 24
0.0
 34
0.0
 15
0.0
 25
0.0
 35
0.0
146
0.0
 13
0.0
 23
0.0
 33
0.0
 16
1.0
 26
0.0
 36
0.0
 17
0.0
 27
1.0
 37
0.0
 76
0
330
211
345
0
346
0
  0
ENDSEC
  0
EOF
