999
DXF file: C:\Users\sesa63760\Dev\_Creo\CAD\MCADID0004738_3D-CAD\drw0001_3.dxf
999
Pro/ENGINEER 2019471 by Parametric Technology Corporation
  0
SECTION
  2
HEADER
  9
$ACADVER
  1
AC1024
  9
$DWGCODEPAGE
  3
ANSI_1252
  9
$EXTMAX
 10
35.9212012136
 20
50.8028417163
 30
0.0
  9
$EXTMIN
 10
0.0
 20
0.0
 30
0.0
  9
$LIMMIN
 10
0.0
 20
0.0
  9
$LIMMAX
 10
35.9212012136
 20
50.8028417163
  9
$VIEWCTR
 10
17.9606006068
 20
25.4014208582
  9
$VIEWSIZE
 40
50.8028417163
  9
$CLAYER
  8
0
  9
$LTSCALE
 40
3.3115926452
  9
$CELTYPE
  6
BYLAYER
  9
$DIMSCALE
 40
1.0
  9
$DIMASZ
 40
0.4276333478
  9
$DIMEXO
 40
1.0
  9
$DIMDLI
 40
2.288009464
  9
$DIMEXE
 40
1.0
  9
$DIMCEN
 40
0.5418969783
  9
$DIMLFAC
 40
1.0
  9
$DIMBLK
  1
_FILLED
  9
$DIMALT
 70
0
  9
$DIMALTF
 40
0.0393700787
  9
$DIMTXT
 40
0.5986866869
  9
$DIMTOL
 70
1
  9
$DIMLIM
 70
0
  9
$DIMTFAC
 40
1.0
  9
$DIMTP
 40
0.01
  9
$DIMTM
 40
0.01
  9
$DIMGAP
 40
0.625
  9
$DIMDSEP
 70
46
  9
$AUNITS
 70
0
  9
$PDMODE
 70
3
  9
$PDSIZE
 40
0.3125
  9
$HANDSEED
  5
363
  9
$TILEMODE
 70
1
  9
$MEASUREMENT
 70
1
  9
$INSUNITS
 70
4
  0
ENDSEC
  0
SECTION
  2
CLASSES
  0
CLASS
  1
ACDBDICTIONARYWDFLT
  2
AcDbDictionaryWithDefault
  3
AutoCAD 2000
 90
0
 91
1
280
0
281
0
  0
CLASS
  1
ACDBPLACEHOLDER
  2
AcDbPlaceHolder
  3
AutoCAD 2000
 90
0
 91
1
280
0
281
0
  0
CLASS
  1
LAYOUT
  2
AcDbLayout
  3
AutoCAD 2000
 90
0
 91
0
280
0
281
0
  0
ENDSEC
  0
SECTION
  2
TABLES
  0
TABLE
  2
VPORT
  5
8
100
AcDbSymbolTable
 70
2
  0
VPORT
  5
1F4
100
AcDbSymbolTableRecord
100
AcDbViewportTableRecord
  2
*ACTIVE
 70
0
 10
0.0
 20
0.0
 11
1.0
 21
1.0
 12
17.9606006068
 22
25.4014208582
 13
0.0
 23
0.0
 14
1.0
 24
1.0
 15
0.0
 25
0.0
 16
0.0
 26
0.0
 36
1.0
 17
0.0
 27
0.0
 37
0.0
 40
50.8028417163
 41
0.7070707071
 42
50.0
 43
0.0
 44
0.0
 50
0.0
 51
0.0
 71
0
 72
100
 73
1
 74
1
 75
0
 76
0
 77
0
 78
0
  0
ENDTAB
  0
TABLE
  2
LTYPE
  5
5
100
AcDbSymbolTable
 70
6
  0
LTYPE
  5
14
100
AcDbSymbolTableRecord
100
AcDbLinetypeTableRecord
  2
BYBLOCK
 70
0
  3

 72
65
 73
0
 40
0.0
  0
LTYPE
  5
15
100
AcDbSymbolTableRecord
100
AcDbLinetypeTableRecord
  2
BYLAYER
 70
0
  3

 72
65
 73
0
 40
0.0
  0
LTYPE
  5
16
100
AcDbSymbolTableRecord
100
AcDbLinetypeTableRecord
  2
CONTINUOUS
 70
64
  3
Solid line
 72
65
 73
0
 40
0.0
  0
LTYPE
  5
1F5
100
AcDbSymbolTableRecord
100
AcDbLinetypeTableRecord
  2
CENTER
 70
64
  3
____ _ ____ _ ____ _ ____ _ ____ _ ____ _ ____
 72
65
 73
4
 40
0.6
 49
0.375
 74
0
 49
-0.075
 74
0
 49
0.075
 74
0
 49
-0.075
 74
0
  0
LTYPE
  5
1F6
100
AcDbSymbolTableRecord
100
AcDbLinetypeTableRecord
  2
HIDDEN
 70
64
  3
- - - - - - - - - - - - - - - - - - - -
 72
65
 73
2
 40
0.2
 49
0.1
 74
0
 49
-0.1
 74
0
  0
LTYPE
  5
1F7
100
AcDbSymbolTableRecord
100
AcDbLinetypeTableRecord
  2
PHANTOM
 70
64
  3
_____ _ _ _____ _ _ _____ _ _ _____
 72
65
 73
6
 40
0.8
 49
0.45
 74
0
 49
-0.05
 74
0
 49
0.1
 74
0
 49
-0.05
 74
0
 49
0.1
 74
0
 49
-0.05
 74
0
  0
LTYPE
  5
1F8
100
AcDbSymbolTableRecord
100
AcDbLinetypeTableRecord
  2
DOT
 70
64
  3
. . . . . . . . . . . . . . . . . . . .
 72
65
 73
2
 40
0.2
 49
0.1
 74
0
 49
-0.1
 74
0
  0
LTYPE
  5
1F9
100
AcDbSymbolTableRecord
100
AcDbLinetypeTableRecord
  2
DASHED
 70
64
  3
- - - - - - - - - - - - - - - - - - - -
 72
65
 73
2
 40
0.2
 49
0.1
 74
0
 49
-0.1
 74
0
  0
ENDTAB
  0
TABLE
  2
LAYER
  5
2
100
AcDbSymbolTable
 70
36
  0
LAYER
  5
10
100
AcDbSymbolTableRecord
100
AcDbLayerTableRecord
  2
0
 70
0
 62
7
  6
CONTINUOUS
370
-3
390
F
  0
LAYER
  5
1FA
100
AcDbSymbolTableRecord
100
AcDbLayerTableRecord
  2
DEFAULT_1
 70
0
 62
7
  6
CENTER
370
-3
390
F
  0
LAYER
  5
1FB
100
AcDbSymbolTableRecord
100
AcDbLayerTableRecord
  2
DEFAULT_2
 70
0
 62
7
  6
HIDDEN
370
-3
390
F
  0
LAYER
  5
1FC
100
AcDbSymbolTableRecord
100
AcDbLayerTableRecord
  2
DEFAULT_3
 70
0
 62
7
  6
PHANTOM
370
-3
390
F
  0
LAYER
  5
1FD
100
AcDbSymbolTableRecord
100
AcDbLayerTableRecord
  2
00_COMPONENTS
 70
0
 62
7
  6
CONTINUOUS
370
-3
390
F
  0
LAYER
  5
1FE
100
AcDbSymbolTableRecord
100
AcDbLayerTableRecord
  2
01_1_DEFAULT_DATUMS
 70
0
 62
7
  6
CONTINUOUS
370
-3
390
F
  0
LAYER
  5
1FF
100
AcDbSymbolTableRecord
100
AcDbLayerTableRecord
  2
01_PLANES
 70
0
 62
7
  6
CONTINUOUS
370
-3
390
F
  0
LAYER
  5
200
100
AcDbSymbolTableRecord
100
AcDbLayerTableRecord
  2
02_COORD_SYS
 70
0
 62
7
  6
CONTINUOUS
370
-3
390
F
  0
LAYER
  5
201
100
AcDbSymbolTableRecord
100
AcDbLayerTableRecord
  2
03_AXES
 70
0
 62
7
  6
CONTINUOUS
370
-3
390
F
  0
LAYER
  5
202
100
AcDbSymbolTableRecord
100
AcDbLayerTableRecord
  2
04_POINTS
 70
0
 62
7
  6
CONTINUOUS
370
-3
390
F
  0
LAYER
  5
203
100
AcDbSymbolTableRecord
100
AcDbLayerTableRecord
  2
05_CURVES
 70
0
 62
7
  6
CONTINUOUS
370
-3
390
F
  0
LAYER
  5
204
100
AcDbSymbolTableRecord
100
AcDbLayerTableRecord
  2
06_SURFS
 70
0
 62
7
  6
CONTINUOUS
370
-3
390
F
  0
LAYER
  5
205
100
AcDbSymbolTableRecord
100
AcDbLayerTableRecord
  2
07_COSMETICS
 70
0
 62
7
  6
CONTINUOUS
370
-3
390
F
  0
LAYER
  5
206
100
AcDbSymbolTableRecord
100
AcDbLayerTableRecord
  2
10_NOTES
 70
0
 62
7
  6
CONTINUOUS
370
-3
390
F
  0
LAYER
  5
207
100
AcDbSymbolTableRecord
100
AcDbLayerTableRecord
  2
11_NOTES_PUB
 70
0
 62
7
  6
CONTINUOUS
370
-3
390
F
  0
LAYER
  5
208
100
AcDbSymbolTableRecord
100
AcDbLayerTableRecord
  2
13_REF_GTOL
 70
0
 62
7
  6
CONTINUOUS
370
-3
390
F
  0
LAYER
  5
209
100
AcDbSymbolTableRecord
100
AcDbLayerTableRecord
  2
16_MISC
 70
0
 62
7
  6
CONTINUOUS
370
-3
390
F
  0
LAYER
  5
20A
100
AcDbSymbolTableRecord
100
AcDbLayerTableRecord
  2
17_NO_PRINT
 70
0
 62
7
  6
CONTINUOUS
370
-3
390
F
  0
LAYER
  5
20B
100
AcDbSymbolTableRecord
100
AcDbLayerTableRecord
  2
18_DATUM_CAMS_JOINTS
 70
0
 62
7
  6
CONTINUOUS
370
-3
390
F
  0
LAYER
  5
20C
100
AcDbSymbolTableRecord
100
AcDbLayerTableRecord
  2
19_DATUM_FUNCTIONAL
 70
0
 62
7
  6
CONTINUOUS
370
-3
390
F
  0
LAYER
  5
20D
100
AcDbSymbolTableRecord
100
AcDbLayerTableRecord
  2
20_DATUM_KINEMATIC_SCHEME
 70
0
 62
7
  6
CONTINUOUS
370
-3
390
F
  0
ENDTAB
  0
TABLE
  2
STYLE
  5
3
100
AcDbSymbolTable
 70
1
  0
STYLE
  5
11
100
AcDbSymbolTableRecord
100
AcDbTextStyleTableRecord
  2
STANDARD
 70
0
 40
0.0
 41
1.0
 50
0.0
 71
0
 42
0.2
  3
ARIAL.TTF
  4

  0
STYLE
  5
20E
100
AcDbSymbolTableRecord
100
AcDbTextStyleTableRecord
  2
TEXTSTYLE_1
 70
0
 40
0.0
 41
0.8
 50
0.0
 71
0
 42
0.2
  3
gdt
  4

  0
ENDTAB
  0
TABLE
  2
VIEW
  5
6
100
AcDbSymbolTable
 70
0
  0
ENDTAB
  0
TABLE
  2
UCS
  5
7
100
AcDbSymbolTable
 70
0
  0
ENDTAB
  0
TABLE
  2
APPID
  5
9
100
AcDbSymbolTable
 70
1
  0
APPID
  5
20F
100
AcDbSymbolTableRecord
100
AcDbRegAppTableRecord
  2
ACAD
 70
0
  0
ENDTAB
  0
TABLE
  2
BLOCK_RECORD
  5
1
100
AcDbSymbolTable
 70
0
  0
BLOCK_RECORD
  5
210
100
AcDbSymbolTableRecord
100
AcDbBlockTableRecord
  2
*Model_Space
  0
BLOCK_RECORD
  5
211
100
AcDbSymbolTableRecord
100
AcDbBlockTableRecord
  2
*Paper_Space
  0
BLOCK_RECORD
  5
212
100
AcDbSymbolTableRecord
100
AcDbBlockTableRecord
  2
_FILLED
  0
ENDTAB
  0
TABLE
  2
DIMSTYLE
  5
A
100
AcDbSymbolTable
 70
1
100
AcDbDimStyleTable
 71
0
  0
DIMSTYLE
105
213
100
AcDbSymbolTableRecord
100
AcDbDimStyleTableRecord
  2
STANDARD
 70
0
  3

  4

 40
1.0
 41
0.4276333478
 42
1.0
 43
0.38
 44
1.0
 45
0.0
 46
0.0
 47
0.01
 48
0.01
140
0.5986866869
141
0.09
142
0.0
143
25.4
144
1.0
145
0.0
146
1.0
147
0.625
 71
1
 72
0
 73
0
 74
0
 75
0
 76
0
 77
1
 78
8
 79
2
170
0
171
1
172
0
173
0
174
0
175
0
176
0
177
0
178
0
270
2
179
2
271
2
272
2
273
2
274
2
275
0
280
0
281
0
282
0
283
1
284
8
285
0
286
0
287
3
288
0
340
11
278
46
341
212
342
212
343
212
344
212
  0
ENDTAB
  0
ENDSEC
  0
SECTION
  2
BLOCKS
  0
BLOCK
  5
20
100
AcDbEntity
  8
0
100
AcDbBlockBegin
  2
*Model_Space
 70
0
 10
0.0
 20
0.0
 30
0.0
  3
*Model_Space
  1

  0
ENDBLK
  5
21
100
AcDbEntity
  8
0
100
AcDbBlockEnd
  0
BLOCK
  5
1C
100
AcDbEntity
  8
0
100
AcDbBlockBegin
  2
*Paper_Space
 70
0
 10
0.0
 20
0.0
 30
0.0
  3
*Paper_Space
  1

  0
ENDBLK
  5
1D
100
AcDbEntity
  8
0
100
AcDbBlockEnd
  0
BLOCK
  5
214
100
AcDbEntity
  8
0
100
AcDbBlockBegin
  2
_FILLED
 70
64
 10
0.0
 20
0.0
  3
_FILLED
  1

  0
SOLID
  5
215
100
AcDbEntity
  8
0
  6
BYBLOCK
 62
0
100
AcDbTrace
 10
0.0
 20
0.0
 11
-1.0
 21
0.25
 12
-1.0
 22
-0.25
 13
-1.0
 23
-0.25
  0
ENDBLK
  5
216
100
AcDbEntity
  8
0
  6
BYBLOCK
 62
0
100
AcDbBlockEnd
  0
ENDSEC
  0
SECTION
  2
ENTITIES
  0
LINE
  5
217
100
AcDbEntity
  8
0
100
AcDbLine
 62
7
  6
BYLAYER
 10
4.2494297396
 20
24.9754307312
 11
4.2494297396
 21
26.0761398377
  0
LINE
  5
218
100
AcDbEntity
  8
0
100
AcDbLine
 62
7
  6
BYLAYER
 10
4.4294297396
 20
20.7401571058
 11
4.4294297396
 21
30.244411615
  0
LINE
  5
219
100
AcDbEntity
  8
0
100
AcDbLine
 62
7
  6
BYLAYER
 10
4.6294297396
 20
20.5431745261
 11
4.6294297396
 21
20.6051179467
  0
LINE
  5
21A
100
AcDbEntity
  8
0
100
AcDbLine
 62
7
  6
BYLAYER
 10
4.6294297396
 20
20.8207877902
 11
4.6294297396
 21
21.0023967101
  0
LINE
  5
21B
100
AcDbEntity
  8
0
100
AcDbLine
 62
7
  6
BYLAYER
 10
4.6294297396
 20
21.4190388537
 11
4.6294297396
 21
21.7079369253
  0
LINE
  5
21C
100
AcDbEntity
  8
0
100
AcDbLine
 62
7
  6
BYLAYER
 10
4.6294297396
 20
22.2971578953
 11
4.6294297396
 21
22.6736571923
  0
LINE
  5
21D
100
AcDbEntity
  8
0
100
AcDbLine
 62
7
  6
BYLAYER
 10
4.6294297396
 20
23.3953025536
 11
4.6294297396
 21
23.8337452711
  0
LINE
  5
21E
100
AcDbEntity
  8
0
100
AcDbLine
 62
7
  6
BYLAYER
 10
4.6294297396
 20
24.6386360847
 11
4.6294297396
 21
25.1091430762
  0
LINE
  5
21F
100
AcDbEntity
  8
0
100
AcDbLine
 62
7
  6
BYLAYER
 10
4.6294297396
 20
25.9424273633
 11
4.6294297396
 21
26.4129343548
  0
LINE
  5
220
100
AcDbEntity
  8
0
100
AcDbLine
 62
7
  6
BYLAYER
 10
4.6294297396
 20
27.2178251684
 11
4.6294297396
 21
27.656267886
  0
LINE
  5
221
100
AcDbEntity
  8
0
100
AcDbLine
 62
7
  6
BYLAYER
 10
4.6294297396
 20
28.3779132472
 11
4.6294297396
 21
28.7544125442
  0
LINE
  5
222
100
AcDbEntity
  8
0
100
AcDbLine
 62
7
  6
BYLAYER
 10
4.6294297396
 20
29.3436335143
 11
4.6294297396
 21
29.6325315858
  0
LINE
  5
223
100
AcDbEntity
  8
0
100
AcDbLine
 62
7
  6
BYLAYER
 10
4.6294297396
 20
30.0491737294
 11
4.6294297396
 21
30.2307826493
  0
LINE
  5
224
100
AcDbEntity
  8
0
100
AcDbLine
 62
7
  6
BYLAYER
 10
4.6294297396
 20
30.4464524928
 11
4.6294297396
 21
30.5083959134
  0
LINE
  5
225
100
AcDbEntity
  8
0
100
AcDbLine
 62
7
  6
BYLAYER
 10
6.2294297396
 20
20.0557852198
 11
6.2294297396
 21
30.9957852198
  0
LINE
  5
226
100
AcDbEntity
  8
0
100
AcDbLine
 62
7
  6
BYLAYER
 10
6.7294297396
 20
33.5257852198
 11
6.7294297396
 21
17.5257852198
  0
LINE
  5
227
100
AcDbEntity
  8
0
100
AcDbLine
 62
7
  6
BYLAYER
 10
7.1232400047
 20
18.0318799024
 11
7.1232400047
 21
33.0196905371
  0
LWPOLYLINE
  5
228
100
AcDbEntity
  8
0
100
AcDbPolyline
 62
7
  6
BYLAYER
 90
6
 70
0
 10
24.7294297491
 20
17.5260550696
 10
27.0000223379
 20
17.8550591047
 10
29.0929689628
 20
18.8208957282
 10
30.8294225215
 20
20.3500890274
 10
32.0540549638
 20
22.308753229
 10
32.6666839112
 20
24.525787093
  0
LINE
  5
229
100
AcDbEntity
  8
0
100
AcDbLine
 62
7
  6
BYLAYER
 10
10.9294297396
 20
18.0907852198
 11
10.9294297396
 21
32.9607852198
  0
LINE
  5
22A
100
AcDbEntity
  8
0
100
AcDbLine
 62
7
  6
BYLAYER
 10
24.7294297396
 20
17.5257852198
 11
6.7294297396
 21
17.5257852198
  0
LINE
  5
22B
100
AcDbEntity
  8
0
100
AcDbLine
 62
7
  6
BYLAYER
 10
22.6105295211
 20
17.8114995055
 11
6.7294297396
 21
17.8114995055
  0
LINE
  5
22C
100
AcDbEntity
  8
0
100
AcDbLine
 62
7
  6
BYLAYER
 10
10.9294297396
 20
18.0907852198
 11
7.1232400047
 21
18.0318799024
  0
LINE
  5
22D
100
AcDbEntity
  8
0
100
AcDbLine
 62
7
  6
BYLAYER
 10
14.5755069227
 20
18.1007744723
 11
10.9294297396
 21
18.0907852198
  0
LINE
  5
22E
100
AcDbEntity
  8
0
100
AcDbLine
 62
7
  6
BYLAYER
 10
14.5755069227
 20
18.5257852198
 11
18.5294297396
 21
18.5257852198
  0
LINE
  5
22F
100
AcDbEntity
  8
0
100
AcDbLine
 62
7
  6
BYLAYER
 10
14.8294297396
 20
18.7257852198
 11
16.8294297396
 21
18.7257852198
  0
LINE
  5
230
100
AcDbEntity
  8
0
100
AcDbLine
 62
7
  6
BYLAYER
 10
14.5755069227
 20
18.8347113477
 11
18.5294297396
 21
18.8347113477
  0
LINE
  5
231
100
AcDbEntity
  8
0
100
AcDbLine
 62
7
  6
BYLAYER
 10
6.7294297396
 20
19.1217448157
 11
24.7294297396
 21
19.1217448157
  0
LINE
  5
232
100
AcDbEntity
  8
0
100
AcDbLine
 62
7
  6
BYLAYER
 10
6.2294297396
 20
20.0557852198
 11
14.8294297396
 21
20.0557852198
  0
LINE
  5
233
100
AcDbEntity
  8
0
100
AcDbLine
 62
7
  6
BYLAYER
 10
29.0406802023
 20
20.9257852198
 11
26.0468270935
 21
20.9101092983
  0
LINE
  5
234
100
AcDbEntity
  8
0
100
AcDbLine
 62
7
  6
BYLAYER
 10
23.4604389813
 20
20.8965668781
 11
19.7294297396
 21
20.8770311808
  0
LINE
  5
235
100
AcDbEntity
  8
0
100
AcDbLine
 62
7
  6
BYLAYER
 10
4.6294297396
 20
20.5431745261
 11
6.2294297396
 21
20.5431745261
  0
LINE
  5
236
100
AcDbEntity
  8
0
100
AcDbLine
 62
7
  6
BYLAYER
 10
6.2294297396
 20
20.6051179467
 11
4.6294297396
 21
20.6051179467
  0
LINE
  5
237
100
AcDbEntity
  8
0
100
AcDbLine
 62
7
  6
BYLAYER
 10
17.0294530054
 20
20.6319793259
 11
18.5294297396
 21
20.6319793259
  0
LINE
  5
238
100
AcDbEntity
  8
0
100
AcDbLine
 62
7
  6
BYLAYER
 10
17.0294297396
 20
20.660581075
 11
18.5294297396
 21
20.660581075
  0
LINE
  5
239
100
AcDbEntity
  8
0
100
AcDbLine
 62
7
  6
BYLAYER
 10
17.0706304022
 20
20.7757129663
 11
18.5294297396
 21
20.7757129663
  0
LINE
  5
23A
100
AcDbEntity
  8
0
100
AcDbLine
 62
7
  6
BYLAYER
 10
4.6294297396
 20
20.8207877902
 11
6.2294297396
 21
20.8207877902
  0
LINE
  5
23B
100
AcDbEntity
  8
0
100
AcDbLine
 62
7
  6
BYLAYER
 10
18.5294297396
 20
20.8770311808
 11
19.7294297396
 21
20.8770311808
  0
LINE
  5
23C
100
AcDbEntity
  8
0
100
AcDbLine
 62
7
  6
BYLAYER
 10
18.4294297396
 20
21.0007852198
 11
20.4660795049
 21
21.0007852198
  0
LINE
  5
23D
100
AcDbEntity
  8
0
100
AcDbLine
 62
7
  6
BYLAYER
 10
21.3954591697
 20
21.0007852198
 11
28.0770799628
 21
21.0007852198
  0
LINE
  5
23E
100
AcDbEntity
  8
0
100
AcDbLine
 62
7
  6
BYLAYER
 10
6.2294297396
 20
21.0023967101
 11
4.6294297396
 21
21.0023967101
  0
LINE
  5
23F
100
AcDbEntity
  8
0
100
AcDbLine
 62
7
  6
BYLAYER
 10
18.5294297396
 20
21.0647917706
 11
17.5294297396
 21
21.0647917706
  0
LINE
  5
240
100
AcDbEntity
  8
0
100
AcDbLine
 62
7
  6
BYLAYER
 10
18.4294297396
 20
21.2222544835
 11
16.8294297396
 21
21.2222544835
  0
LINE
  5
241
100
AcDbEntity
  8
0
100
AcDbLine
 62
7
  6
BYLAYER
 10
14.5755069227
 20
32.9507864693
 11
14.5755069227
 21
18.1007839013
  0
LINE
  5
242
100
AcDbEntity
  8
0
100
AcDbLine
 62
7
  6
BYLAYER
 10
14.5794297239
 20
31.489435653
 11
14.5794297239
 21
26.6548436712
  0
LINE
  5
243
100
AcDbEntity
  8
0
100
AcDbLine
 62
7
  6
BYLAYER
 10
14.5794297239
 20
19.5621347865
 11
14.5794297239
 21
24.3967267683
  0
LINE
  5
244
100
AcDbEntity
  8
0
100
AcDbLine
 62
7
  6
BYLAYER
 10
14.8294297396
 20
18.7257852198
 11
14.8294297396
 21
32.3257852198
  0
LINE
  5
245
100
AcDbEntity
  8
0
100
AcDbLine
 62
7
  6
BYLAYER
 10
30.7294297396
 20
24.2267014027
 11
29.253313124
 21
23.9212872182
  0
LINE
  5
246
100
AcDbEntity
  8
0
100
AcDbLine
 62
7
  6
BYLAYER
 10
31.4748180478
 20
22.482803693
 11
30.7953265036
 21
22.4531364515
  0
LINE
  5
247
100
AcDbEntity
  8
0
100
AcDbLine
 62
7
  6
BYLAYER
 10
4.6294297396
 20
21.4190388537
 11
6.2294297396
 21
21.4190388537
  0
LINE
  5
248
100
AcDbEntity
  8
0
100
AcDbLine
 62
7
  6
BYLAYER
 10
18.5294297396
 20
21.6460896288
 11
17.0365654377
 21
21.6460896288
  0
LINE
  5
249
100
AcDbEntity
  8
0
100
AcDbLine
 62
7
  6
BYLAYER
 10
6.2294297396
 20
21.7079369253
 11
4.6294297396
 21
21.7079369253
  0
LINE
  5
24A
100
AcDbEntity
  8
0
100
AcDbLine
 62
7
  6
BYLAYER
 10
17.5294297396
 20
21.8938111204
 11
18.5294297396
 21
21.8938111204
  0
LINE
  5
24B
100
AcDbEntity
  8
0
100
AcDbLine
 62
7
  6
BYLAYER
 10
4.6294297396
 20
22.2971578953
 11
6.2294297396
 21
22.2971578953
  0
LINE
  5
24C
100
AcDbEntity
  8
0
100
AcDbLine
 62
7
  6
BYLAYER
 10
28.8794297396
 20
22.3214912258
 11
28.5794297396
 21
22.3214912258
  0
LINE
  5
24D
100
AcDbEntity
  8
0
100
AcDbLine
 62
7
  6
BYLAYER
 10
20.8794297396
 20
22.3214912258
 11
20.5794297396
 21
22.3214912258
  0
LINE
  5
24E
100
AcDbEntity
  8
0
100
AcDbLine
 62
7
  6
BYLAYER
 10
6.2294297396
 20
22.6736571923
 11
4.6294297396
 21
22.6736571923
  0
LINE
  5
24F
100
AcDbEntity
  8
0
100
AcDbLine
 62
7
  6
BYLAYER
 10
30.4294298271
 20
22.8792315212
 11
28.4294297338
 21
22.8792315212
  0
LINE
  5
250
100
AcDbEntity
  8
0
100
AcDbLine
 62
7
  6
BYLAYER
 10
30.4294297396
 20
22.899667947
 11
28.4294297396
 21
22.899667947
  0
LINE
  5
251
100
AcDbEntity
  8
0
100
AcDbLine
 62
7
  6
BYLAYER
 10
18.4294297396
 20
23.0757852198
 11
16.8294297396
 21
23.0757852198
  0
LINE
  5
252
100
AcDbEntity
  8
0
100
AcDbLine
 62
7
  6
BYLAYER
 10
30.4294298271
 20
23.0792315212
 11
28.4294297338
 21
23.0792315212
  0
LINE
  5
253
100
AcDbEntity
  8
0
100
AcDbLine
 62
7
  6
BYLAYER
 10
4.4294297396
 20
23.2260196811
 11
6.2294297396
 21
23.2260196811
  0
LINE
  5
254
100
AcDbEntity
  8
0
100
AcDbLine
 62
7
  6
BYLAYER
 10
4.6294297396
 20
23.3953025536
 11
6.2294297396
 21
23.3953025536
  0
LINE
  5
255
100
AcDbEntity
  8
0
100
AcDbLine
 62
7
  6
BYLAYER
 10
28.1294297396
 20
23.4185062025
 11
27.9294297396
 21
23.4185062025
  0
LWPOLYLINE
  5
256
100
AcDbEntity
  8
0
100
AcDbPolyline
 62
7
  6
BYLAYER
 90
5
 70
0
 10
30.4294312505
 20
22.8792325745
 10
30.4878963006
 20
22.8771504798
 10
30.5743175862
 20
22.8661642334
 10
30.6753127063
 20
22.8398584687
 10
30.7294297396
 20
22.8173954932
  0
LINE
  5
257
100
AcDbEntity
  8
0
100
AcDbLine
 62
7
  6
BYLAYER
 10
18.6635329756
 20
22.4531364515
 11
17.9840414315
 21
22.482803693
  0
LINE
  5
258
100
AcDbEntity
  8
0
100
AcDbLine
 62
7
  6
BYLAYER
 10
16.8294297396
 20
32.3257852198
 11
16.8294297396
 21
18.7257852198
  0
LINE
  5
259
100
AcDbEntity
  8
0
100
AcDbLine
 62
7
  6
BYLAYER
 10
17.0294297396
 20
30.4192573566
 11
17.0294297396
 21
29.4737705752
  0
LINE
  5
25A
100
AcDbEntity
  8
0
100
AcDbLine
 62
7
  6
BYLAYER
 10
17.0294297396
 20
21.5777998644
 11
17.0294297396
 21
20.6323130829
  0
LINE
  5
25B
100
AcDbEntity
  8
0
100
AcDbLine
 62
7
  6
BYLAYER
 10
18.0749633756
 20
26.923766412
 11
17.4263033914
 21
26.7192447046
  0
LINE
  5
25C
100
AcDbEntity
  8
0
100
AcDbLine
 62
7
  6
BYLAYER
 10
18.5294297396
 20
24.4047753257
 11
14.5794297239
 21
24.3967267683
  0
LINE
  5
25D
100
AcDbEntity
  8
0
100
AcDbLine
 62
7
  6
BYLAYER
 10
6.2294297396
 20
23.8337452711
 11
4.6294297396
 21
23.8337452711
  0
LINE
  5
25E
100
AcDbEntity
  8
0
100
AcDbLine
 62
7
  6
BYLAYER
 10
19.0294297396
 20
23.8598207669
 11
20.2275024638
 21
23.8607553642
  0
LINE
  5
25F
100
AcDbEntity
  8
0
100
AcDbLine
 62
7
  6
BYLAYER
 10
4.4294297396
 20
24.213978562
 11
6.2294297396
 21
24.213978562
  0
LINE
  5
260
100
AcDbEntity
  8
0
100
AcDbLine
 62
7
  6
BYLAYER
 10
20.0597732142
 20
24.4148445762
 11
19.0294297396
 21
24.4148445762
  0
LINE
  5
261
100
AcDbEntity
  8
0
100
AcDbLine
 62
7
  6
BYLAYER
 10
29.3990989877
 20
24.4148445762
 11
30.7294297396
 21
24.4148445762
  0
LWPOLYLINE
  5
262
100
AcDbEntity
  8
0
100
AcDbPolyline
 62
7
  6
BYLAYER
 90
3
 70
0
 10
28.3395402705
 20
22.8878028982
 10
28.3837623086
 20
22.8814000826
 10
28.4294297174
 20
22.8792328624
  0
LINE
  5
263
100
AcDbEntity
  8
0
100
AcDbLine
 62
7
  6
BYLAYER
 10
18.0921766437
 20
24.0564689059
 11
17.4380185773
 21
24.262724152
  0
LINE
  5
264
100
AcDbEntity
  8
0
100
AcDbLine
 62
7
  6
BYLAYER
 10
17.7485402077
 20
24.230724857
 11
18.0748930628
 21
24.127826197
  0
LWPOLYLINE
  5
265
100
AcDbEntity
  8
0
100
AcDbPolyline
 62
7
  6
BYLAYER
 90
3
 70
0
 10
18.0323320654
 20
25.3285899975
 10
18.0311016113
 20
25.3761034544
 10
18.0306131932
 20
25.3998575916
  0
LINE
  5
266
100
AcDbEntity
  8
0
100
AcDbLine
 62
7
  6
BYLAYER
 10
17.5294297396
 20
29.986778669
 11
17.5294297396
 21
29.1577593192
  0
LINE
  5
267
100
AcDbEntity
  8
0
100
AcDbLine
 62
7
  6
BYLAYER
 10
17.5294297396
 20
21.8938111204
 11
17.5294297396
 21
21.0647917706
  0
LINE
  5
268
100
AcDbEntity
  8
0
100
AcDbLine
 62
7
  6
BYLAYER
 10
18.4294297396
 20
21.0008200864
 11
18.4294297396
 21
30.050750393
  0
LINE
  5
269
100
AcDbEntity
  8
0
100
AcDbLine
 62
7
  6
BYLAYER
 10
18.5294297396
 20
32.5257852198
 11
18.5294297396
 21
18.5257852198
  0
LINE
  5
26A
100
AcDbEntity
  8
0
100
AcDbLine
 62
7
  6
BYLAYER
 10
17.9380491347
 20
25.2271886818
 11
17.3595631283
 21
24.8586524508
  0
LINE
  5
26B
100
AcDbEntity
  8
0
100
AcDbLine
 62
7
  6
BYLAYER
 10
17.6512219639
 20
24.9699303082
 11
17.9398231368
 21
25.1537895327
  0
LINE
  5
26C
100
AcDbEntity
  8
0
100
AcDbLine
 62
7
  6
BYLAYER
 10
18.5294297396
 20
24.6257894051
 11
14.5755069227
 21
24.6257894051
  0
LINE
  5
26D
100
AcDbEntity
  8
0
100
AcDbLine
 62
7
  6
BYLAYER
 10
4.6294297396
 20
24.6386360847
 11
6.2294297396
 21
24.6386360847
  0
LINE
  5
26E
100
AcDbEntity
  8
0
100
AcDbLine
 62
7
  6
BYLAYER
 10
4.2494297396
 20
24.9754179621
 11
4.4294297396
 21
24.9754179621
  0
LINE
  5
26F
100
AcDbEntity
  8
0
100
AcDbLine
 62
7
  6
BYLAYER
 10
6.2294297396
 20
25.1091430762
 11
4.6294297396
 21
25.1091430762
  0
LINE
  5
270
100
AcDbEntity
  8
0
100
AcDbLine
 62
7
  6
BYLAYER
 10
4.4294297396
 20
25.1254179621
 11
4.2494297396
 21
25.1254179621
  0
LINE
  5
271
100
AcDbEntity
  8
0
100
AcDbLine
 62
7
  6
BYLAYER
 10
4.4294297396
 20
25.2913348988
 11
6.2294297396
 21
25.2913348988
  0
LINE
  5
272
100
AcDbEntity
  8
0
100
AcDbLine
 62
7
  6
BYLAYER
 10
17.9398846611
 20
25.8977417115
 11
17.366261343
 21
26.2631800684
  0
LWPOLYLINE
  5
273
100
AcDbEntity
  8
0
100
AcDbPolyline
 62
7
  6
BYLAYER
 90
3
 70
0
 10
18.2262634998
 20
23.9136962803
 10
18.2154634719
 20
23.9579065719
 10
18.2094796076
 20
23.9829792448
  0
LINE
  5
274
100
AcDbEntity
  8
0
100
AcDbLine
 62
7
  6
BYLAYER
 10
19.0294297396
 20
27.1917496727
 11
19.0294297396
 21
23.8598207669
  0
LINE
  5
275
100
AcDbEntity
  8
0
100
AcDbLine
 62
7
  6
BYLAYER
 10
6.2294297396
 20
25.7602355407
 11
4.4294297396
 21
25.7602355407
  0
LINE
  5
276
100
AcDbEntity
  8
0
100
AcDbLine
 62
7
  6
BYLAYER
 10
4.2494297396
 20
25.9261524775
 11
4.4294297396
 21
25.9261524775
  0
LINE
  5
277
100
AcDbEntity
  8
0
100
AcDbLine
 62
7
  6
BYLAYER
 10
4.6294297396
 20
25.9424273633
 11
6.2294297396
 21
25.9424273633
  0
LINE
  5
278
100
AcDbEntity
  8
0
100
AcDbLine
 62
7
  6
BYLAYER
 10
4.2494297396
 20
26.0761524775
 11
4.4294297396
 21
26.0761524775
  0
LINE
  5
279
100
AcDbEntity
  8
0
100
AcDbLine
 62
7
  6
BYLAYER
 10
6.2294297396
 20
26.4129343548
 11
4.6294297396
 21
26.4129343548
  0
LINE
  5
27A
100
AcDbEntity
  8
0
100
AcDbLine
 62
7
  6
BYLAYER
 10
14.5755069227
 20
26.4257810345
 11
18.5294297396
 21
26.4257810345
  0
LINE
  5
27B
100
AcDbEntity
  8
0
100
AcDbLine
 62
7
  6
BYLAYER
 10
19.0294297396
 20
26.6367258634
 11
20.0597732142
 21
26.6367258634
  0
LINE
  5
27C
100
AcDbEntity
  8
0
100
AcDbLine
 62
7
  6
BYLAYER
 10
29.3990989877
 20
26.6367258634
 11
30.7294297396
 21
26.6367258634
  0
LINE
  5
27D
100
AcDbEntity
  8
0
100
AcDbLine
 62
7
  6
BYLAYER
 10
14.5794297239
 20
26.6548436712
 11
18.5294297396
 21
26.6467951138
  0
LINE
  5
27E
100
AcDbEntity
  8
0
100
AcDbLine
 62
7
  6
BYLAYER
 10
19.7294297396
 20
30.1745392587
 11
19.7294297396
 21
20.8770311808
  0
LINE
  5
27F
100
AcDbEntity
  8
0
100
AcDbLine
 62
7
  6
BYLAYER
 10
20.5794297396
 20
28.7300792138
 11
20.5794297396
 21
27.9377346388
  0
LINE
  5
280
100
AcDbEntity
  8
0
100
AcDbLine
 62
7
  6
BYLAYER
 10
20.5794297396
 20
23.1138358007
 11
20.5794297396
 21
22.3214912258
  0
LINE
  5
281
100
AcDbEntity
  8
0
100
AcDbLine
 62
7
  6
BYLAYER
 10
18.2675022236
 20
23.4092392642
 11
17.8080070526
 21
22.907788278
  0
LWPOLYLINE
  5
282
100
AcDbEntity
  8
0
100
AcDbPolyline
 62
7
  6
BYLAYER
 90
5
 70
0
 10
30.7294297396
 20
28.2341730411
 10
30.6738192135
 20
28.2111953247
 10
30.5701214162
 20
28.1846450341
 10
30.4862494593
 20
28.1743043147
 10
30.4294300268
 20
28.1723378897
  0
LWPOLYLINE
  5
283
100
AcDbEntity
  8
0
100
AcDbPolyline
 62
7
  6
BYLAYER
 90
5
 70
0
 10
28.4294297174
 20
28.1723379519
 10
28.3157189963
 20
28.1585347968
 10
28.1773160847
 20
28.0995512039
 10
28.0160978972
 20
27.9382200765
 10
27.9294445724
 20
27.6330642483
  0
LINE
  5
284
100
AcDbEntity
  8
0
100
AcDbLine
 62
7
  6
BYLAYER
 10
6.2294297396
 20
26.8375918775
 11
4.4294297396
 21
26.8375918775
  0
LINE
  5
285
100
AcDbEntity
  8
0
100
AcDbLine
 62
7
  6
BYLAYER
 10
4.6294297396
 20
27.2178251684
 11
6.2294297396
 21
27.2178251684
  0
LINE
  5
286
100
AcDbEntity
  8
0
100
AcDbLine
 62
7
  6
BYLAYER
 10
27.9294297396
 20
27.6330642379
 11
28.1294297396
 21
27.6330642379
  0
LINE
  5
287
100
AcDbEntity
  8
0
100
AcDbLine
 62
7
  6
BYLAYER
 10
6.2294297396
 20
27.656267886
 11
4.6294297396
 21
27.656267886
  0
LINE
  5
288
100
AcDbEntity
  8
0
100
AcDbLine
 62
7
  6
BYLAYER
 10
6.2294297396
 20
27.8255507584
 11
4.4294297396
 21
27.8255507584
  0
LINE
  5
289
100
AcDbEntity
  8
0
100
AcDbLine
 62
7
  6
BYLAYER
 10
19.0294297396
 20
27.1917496727
 11
20.2275024638
 21
27.1908150754
  0
LINE
  5
28A
100
AcDbEntity
  8
0
100
AcDbLine
 62
7
  6
BYLAYER
 10
17.8080070526
 20
28.1437821616
 11
18.2675022236
 21
27.6423311753
  0
LINE
  5
28B
100
AcDbEntity
  8
0
100
AcDbLine
 62
7
  6
BYLAYER
 10
20.8794297396
 20
28.7300792138
 11
20.8794297396
 21
28.5506525698
  0
LINE
  5
28C
100
AcDbEntity
  8
0
100
AcDbLine
 62
7
  6
BYLAYER
 10
20.8794297396
 20
22.5009178698
 11
20.8794297396
 21
22.3214912258
  0
LINE
  5
28D
100
AcDbEntity
  8
0
100
AcDbLine
 62
7
  6
BYLAYER
 10
18.6635329756
 20
28.5984339881
 11
17.9840414315
 21
28.5687667465
  0
LINE
  5
28E
100
AcDbEntity
  8
0
100
AcDbLine
 62
7
  6
BYLAYER
 10
28.4294297339
 20
27.9723389183
 11
30.429429672
 21
27.9723389183
  0
LINE
  5
28F
100
AcDbEntity
  8
0
100
AcDbLine
 62
7
  6
BYLAYER
 10
18.4294297396
 20
27.9757852198
 11
16.8294297396
 21
27.9757852198
  0
LINE
  5
290
100
AcDbEntity
  8
0
100
AcDbLine
 62
7
  6
BYLAYER
 10
28.4294297396
 20
28.1519024926
 11
30.4294297396
 21
28.1519024926
  0
LINE
  5
291
100
AcDbEntity
  8
0
100
AcDbLine
 62
7
  6
BYLAYER
 10
28.4294297339
 20
28.1723389183
 11
30.429429672
 21
28.1723389183
  0
LINE
  5
292
100
AcDbEntity
  8
0
100
AcDbLine
 62
7
  6
BYLAYER
 10
4.6294297396
 20
28.3779132472
 11
6.2294297396
 21
28.3779132472
  0
LINE
  5
293
100
AcDbEntity
  8
0
100
AcDbLine
 62
7
  6
BYLAYER
 10
28.8794297396
 20
28.7300792138
 11
28.5794297396
 21
28.7300792138
  0
LINE
  5
294
100
AcDbEntity
  8
0
100
AcDbLine
 62
7
  6
BYLAYER
 10
20.8794297396
 20
28.7300792138
 11
20.5794297396
 21
28.7300792138
  0
LINE
  5
295
100
AcDbEntity
  8
0
100
AcDbLine
 62
7
  6
BYLAYER
 10
6.2294297396
 20
28.7544125442
 11
4.6294297396
 21
28.7544125442
  0
LINE
  5
296
100
AcDbEntity
  8
0
100
AcDbLine
 62
7
  6
BYLAYER
 10
21.9794297396
 20
30.0152200468
 11
21.9794297396
 21
31.2494204283
  0
LINE
  5
297
100
AcDbEntity
  8
0
100
AcDbLine
 62
7
  6
BYLAYER
 10
22.6294297396
 20
31.518489117
 11
22.6294297396
 21
30.3535719866
  0
LINE
  5
298
100
AcDbEntity
  8
0
100
AcDbLine
 62
7
  6
BYLAYER
 10
18.5294297396
 20
29.1577593192
 11
17.5294297396
 21
29.1577593192
  0
LINE
  5
299
100
AcDbEntity
  8
0
100
AcDbLine
 62
7
  6
BYLAYER
 10
4.6294297396
 20
29.3436335143
 11
6.2294297396
 21
29.3436335143
  0
LINE
  5
29A
100
AcDbEntity
  8
0
100
AcDbLine
 62
7
  6
BYLAYER
 10
17.0365654377
 20
29.4054808107
 11
18.5294297396
 21
29.4054808107
  0
LINE
  5
29B
100
AcDbEntity
  8
0
100
AcDbLine
 62
7
  6
BYLAYER
 10
6.2294297396
 20
29.6325315858
 11
4.6294297396
 21
29.6325315858
  0
LINE
  5
29C
100
AcDbEntity
  8
0
100
AcDbLine
 62
7
  6
BYLAYER
 10
16.8294297396
 20
29.829315956
 11
18.4294297396
 21
29.829315956
  0
LINE
  5
29D
100
AcDbEntity
  8
0
100
AcDbLine
 62
7
  6
BYLAYER
 10
17.5294297396
 20
29.986778669
 11
18.5294297396
 21
29.986778669
  0
LINE
  5
29E
100
AcDbEntity
  8
0
100
AcDbLine
 62
7
  6
BYLAYER
 10
31.4748180478
 20
28.5687667465
 11
30.7953265036
 21
28.5984339881
  0
LINE
  5
29F
100
AcDbEntity
  8
0
100
AcDbLine
 62
7
  6
BYLAYER
 10
29.253313124
 20
27.1302832213
 11
30.7294297396
 21
26.8248690369
  0
LINE
  5
2A0
100
AcDbEntity
  8
0
100
AcDbLine
 62
7
  6
BYLAYER
 10
21.8794297396
 20
20.5894404182
 11
21.7294297396
 21
20.3296327971
  0
LINE
  5
2A1
100
AcDbEntity
  8
0
100
AcDbLine
 62
7
  6
BYLAYER
 10
27.5794297396
 20
30.4621300213
 11
27.7294297396
 21
30.7219376425
  0
LINE
  5
2A2
100
AcDbEntity
  8
0
100
AcDbLine
 62
7
  6
BYLAYER
 10
32.0325560879
 20
24.3323257349
 11
31.3838961037
 21
24.1278040275
  0
LINE
  5
2A3
100
AcDbEntity
  8
0
100
AcDbLine
 62
7
  6
BYLAYER
 10
4.6294297396
 20
30.0491737294
 11
6.2294297396
 21
30.0491737294
  0
LINE
  5
2A4
100
AcDbEntity
  8
0
100
AcDbLine
 62
7
  6
BYLAYER
 10
18.4294297396
 20
30.0507852198
 11
20.4195797255
 21
30.0507852198
  0
LINE
  5
2A5
100
AcDbEntity
  8
0
100
AcDbLine
 62
7
  6
BYLAYER
 10
21.3817795165
 20
30.0507852198
 11
28.0634003096
 21
30.0507852198
  0
LINE
  5
2A6
100
AcDbEntity
  8
0
100
AcDbLine
 62
7
  6
BYLAYER
 10
18.5294297396
 20
30.1745392587
 11
19.7294297396
 21
30.1745392587
  0
LINE
  5
2A7
100
AcDbEntity
  8
0
100
AcDbLine
 62
7
  6
BYLAYER
 10
6.2294297396
 20
30.2307826493
 11
4.6294297396
 21
30.2307826493
  0
LINE
  5
2A8
100
AcDbEntity
  8
0
100
AcDbLine
 62
7
  6
BYLAYER
 10
18.5294297396
 20
30.2758574732
 11
17.0706304022
 21
30.2758574732
  0
LINE
  5
2A9
100
AcDbEntity
  8
0
100
AcDbLine
 62
7
  6
BYLAYER
 10
18.5294297396
 20
30.3909893646
 11
17.0294297396
 21
30.3909893646
  0
LINE
  5
2AA
100
AcDbEntity
  8
0
100
AcDbLine
 62
7
  6
BYLAYER
 10
17.0294415259
 20
30.419536443
 11
18.5294297396
 21
30.419536443
  0
LINE
  5
2AB
100
AcDbEntity
  8
0
100
AcDbLine
 62
7
  6
BYLAYER
 10
4.6294297396
 20
30.4464524928
 11
6.2294297396
 21
30.4464524928
  0
LINE
  5
2AC
100
AcDbEntity
  8
0
100
AcDbLine
 62
7
  6
BYLAYER
 10
6.2294297396
 20
30.5083959134
 11
4.6294297396
 21
30.5083959134
  0
LINE
  5
2AD
100
AcDbEntity
  8
0
100
AcDbLine
 62
7
  6
BYLAYER
 10
14.8294297396
 20
30.9957852198
 11
6.2294297396
 21
30.9957852198
  0
LINE
  5
2AE
100
AcDbEntity
  8
0
100
AcDbLine
 62
7
  6
BYLAYER
 10
29.0406802023
 20
30.1257852198
 11
26.0468270935
 21
30.1414611412
  0
LINE
  5
2AF
100
AcDbEntity
  8
0
100
AcDbLine
 62
7
  6
BYLAYER
 10
23.4604389813
 20
30.1550035615
 11
19.7294297396
 21
30.1745392587
  0
LINE
  5
2B0
100
AcDbEntity
  8
0
100
AcDbLine
 62
7
  6
BYLAYER
 10
31.3839657185
 20
26.9237444626
 11
31.7103192716
 21
26.8208455826
  0
LINE
  5
2B1
100
AcDbEntity
  8
0
100
AcDbLine
 62
7
  6
BYLAYER
 10
32.020840902
 20
26.7888462875
 11
31.3666864975
 21
26.995100379
  0
LINE
  5
2B2
100
AcDbEntity
  8
0
100
AcDbLine
 62
7
  6
BYLAYER
 10
27.5794297396
 20
20.5894404182
 11
27.7294297396
 21
20.3296327971
  0
LINE
  5
2B3
100
AcDbEntity
  8
0
100
AcDbLine
 62
7
  6
BYLAYER
 10
21.8794297396
 20
30.4621300213
 11
21.7294297396
 21
30.7219376425
  0
LINE
  5
2B4
100
AcDbEntity
  8
0
100
AcDbLine
 62
7
  6
BYLAYER
 10
24.7294297396
 20
17.5257852557
 11
24.7294297396
 21
19.1217477955
  0
LINE
  5
2B5
100
AcDbEntity
  8
0
100
AcDbLine
 62
7
  6
BYLAYER
 10
24.7294297396
 20
31.9298240406
 11
24.7294297396
 21
33.5257851839
  0
LINE
  5
2B6
100
AcDbEntity
  8
0
100
AcDbLine
 62
7
  6
BYLAYER
 10
24.7294297396
 20
31.9298256238
 11
6.7294297396
 21
31.9298256238
  0
LINE
  5
2B7
100
AcDbEntity
  8
0
100
AcDbLine
 62
7
  6
BYLAYER
 10
31.5190387974
 20
25.8977824708
 11
31.8076375154
 21
26.0816401314
  0
LINE
  5
2B8
100
AcDbEntity
  8
0
100
AcDbLine
 62
7
  6
BYLAYER
 10
32.099296351
 20
26.1929179887
 11
31.5208191563
 21
25.8243873715
  0
LINE
  5
2B9
100
AcDbEntity
  8
0
100
AcDbLine
 62
7
  6
BYLAYER
 10
18.5294297396
 20
32.2168590918
 11
14.5755069227
 21
32.2168590918
  0
LINE
  5
2BA
100
AcDbEntity
  8
0
100
AcDbLine
 62
7
  6
BYLAYER
 10
16.8294297396
 20
32.3257852198
 11
14.8294297396
 21
32.3257852198
  0
LINE
  5
2BB
100
AcDbEntity
  8
0
100
AcDbLine
 62
7
  6
BYLAYER
 10
14.5755069227
 20
32.5257852198
 11
18.5294297396
 21
32.5257852198
  0
LINE
  5
2BC
100
AcDbEntity
  8
0
100
AcDbLine
 62
7
  6
BYLAYER
 10
6.7294297396
 20
33.2400709341
 11
22.6105295214
 21
33.2400709341
  0
LINE
  5
2BD
100
AcDbEntity
  8
0
100
AcDbLine
 62
7
  6
BYLAYER
 10
14.5755069227
 20
32.9507959672
 11
10.9294297396
 21
32.9607852198
  0
LINE
  5
2BE
100
AcDbEntity
  8
0
100
AcDbLine
 62
7
  6
BYLAYER
 10
10.9294297396
 20
32.9607852198
 11
7.1232400047
 21
33.0196905371
  0
LINE
  5
2BF
100
AcDbEntity
  8
0
100
AcDbLine
 62
7
  6
BYLAYER
 10
32.0925981363
 20
24.7883903711
 11
31.5189748181
 21
25.153828728
  0
LINE
  5
2C0
100
AcDbEntity
  8
0
100
AcDbLine
 62
7
  6
BYLAYER
 10
26.8294297396
 20
30.3535719866
 11
26.8294297396
 21
31.518489117
  0
LINE
  5
2C1
100
AcDbEntity
  8
0
100
AcDbLine
 62
7
  6
BYLAYER
 10
31.6508524267
 20
28.1437821616
 11
31.1913572557
 21
27.6423311753
  0
LINE
  5
2C2
100
AcDbEntity
  8
0
100
AcDbLine
 62
7
  6
BYLAYER
 10
24.7294297396
 20
33.5257852198
 11
6.7294297396
 21
33.5257852198
  0
LINE
  5
2C3
100
AcDbEntity
  8
0
100
AcDbLine
 62
7
  6
BYLAYER
 10
31.6508524267
 20
22.907788278
 11
31.1913572557
 21
23.4092392642
  0
LWPOLYLINE
  5
2C4
100
AcDbEntity
  8
0
100
AcDbPolyline
 62
7
  6
BYLAYER
 90
4
 70
0
 10
27.9294369127
 20
23.4185061922
 10
27.9817653694
 20
23.1765846044
 10
28.1334019985
 20
22.9828636696
 10
28.3395309253
 20
22.8877960878
  0
LINE
  5
2C5
100
AcDbEntity
  8
0
100
AcDbLine
 62
7
  6
BYLAYER
 10
27.4794297396
 20
31.2494204283
 11
27.4794297396
 21
30.0152200468
  0
LINE
  5
2C6
100
AcDbEntity
  8
0
100
AcDbLine
 62
7
  6
BYLAYER
 10
27.9294297396
 20
27.6330642379
 11
27.9294297396
 21
23.4185062025
  0
LINE
  5
2C7
100
AcDbEntity
  8
0
100
AcDbLine
 62
7
  6
BYLAYER
 10
28.1294297396
 20
23.4185062025
 11
28.1294297396
 21
27.6330642379
  0
LINE
  5
2C8
100
AcDbEntity
  8
0
100
AcDbLine
 62
7
  6
BYLAYER
 10
30.5294297396
 20
21.9245456505
 11
29.1448972794
 21
21.1251854619
  0
LINE
  5
2C9
100
AcDbEntity
  8
0
100
AcDbLine
 62
7
  6
BYLAYER
 10
30.7294297396
 20
21.9007852198
 11
29.0406802023
 21
20.9257852198
  0
LINE
  5
2CA
100
AcDbEntity
  8
0
100
AcDbLine
 62
7
  6
BYLAYER
 10
30.5294297396
 20
29.1270247891
 11
29.0788301765
 21
29.9645288373
  0
LINE
  5
2CB
100
AcDbEntity
  8
0
100
AcDbLine
 62
7
  6
BYLAYER
 10
30.7294297396
 20
29.1507852198
 11
29.0406802023
 21
30.1257852198
  0
LINE
  5
2CC
100
AcDbEntity
  8
0
100
AcDbLine
 62
7
  6
BYLAYER
 10
28.4294297338
 20
22.8792315212
 11
28.4294297339
 21
28.1723389183
  0
LINE
  5
2CD
100
AcDbEntity
  8
0
100
AcDbLine
 62
7
  6
BYLAYER
 10
28.5794297396
 20
28.7300792138
 11
28.5794297396
 21
28.5506525698
  0
LINE
  5
2CE
100
AcDbEntity
  8
0
100
AcDbLine
 62
7
  6
BYLAYER
 10
28.5794297396
 20
22.5009178698
 11
28.5794297396
 21
22.3214912258
  0
LINE
  5
2CF
100
AcDbEntity
  8
0
100
AcDbLine
 62
7
  6
BYLAYER
 10
28.8794297396
 20
22.3214912258
 11
28.8794297396
 21
23.1138358007
  0
LINE
  5
2D0
100
AcDbEntity
  8
0
100
AcDbLine
 62
7
  6
BYLAYER
 10
28.8794297396
 20
27.9377346388
 11
28.8794297396
 21
28.7300792138
  0
LINE
  5
2D1
100
AcDbEntity
  8
0
100
AcDbLine
 62
7
  6
BYLAYER
 10
28.9294297396
 20
29.3424760828
 11
28.9294297396
 21
21.7344631641
  0
LINE
  5
2D2
100
AcDbEntity
  8
0
100
AcDbLine
 62
7
  6
BYLAYER
 10
29.0406802023
 20
30.1257852198
 11
29.0406802023
 21
20.9257852198
  0
LINE
  5
2D3
100
AcDbEntity
  8
0
100
AcDbLine
 62
7
  6
BYLAYER
 10
30.429429672
 20
28.1723389183
 11
30.4294297396
 21
26.6367258634
  0
LINE
  5
2D4
100
AcDbEntity
  8
0
100
AcDbLine
 62
7
  6
BYLAYER
 10
30.4294298271
 20
22.8792315212
 11
30.4294297396
 21
24.4148445762
  0
LINE
  5
2D5
100
AcDbEntity
  8
0
100
AcDbLine
 62
7
  6
BYLAYER
 10
30.5294297396
 20
29.1270200251
 11
30.5294297396
 21
27.8243263058
  0
LINE
  5
2D6
100
AcDbEntity
  8
0
100
AcDbLine
 62
7
  6
BYLAYER
 10
30.5294297396
 20
23.2950541971
 11
30.5294297396
 21
21.9245504145
  0
LINE
  5
2D7
100
AcDbEntity
  8
0
100
AcDbLine
 62
7
  6
BYLAYER
 10
31.4265258622
 20
25.7230312874
 11
31.4274808868
 21
25.6873443347
  0
LINE
  5
2D8
100
AcDbEntity
  8
0
100
AcDbLine
 62
7
  6
BYLAYER
 10
31.4274808868
 20
25.6873443347
 11
31.4282452863
 21
25.6517624865
  0
LINE
  5
2D9
100
AcDbEntity
  8
0
100
AcDbLine
 62
7
  6
BYLAYER
 10
30.7294297396
 20
29.1507852198
 11
30.7294297396
 21
21.9007852198
  0
LWPOLYLINE
  5
2DA
100
AcDbEntity
  8
0
100
AcDbPolyline
 62
7
  6
BYLAYER
 90
3
 70
0
 10
31.2325962135
 20
27.1378726316
 10
31.244349791
 20
27.089696118
 10
31.2493854672
 20
27.0685681653
  0
LINE
  5
2DB
100
AcDbEntity
  8
0
100
AcDbLine
 62
7
  6
BYLAYER
 10
32.6666836728
 20
24.5257852198
 11
32.6666836728
 21
26.5257852198
  0
LWPOLYLINE
  5
2DC
100
AcDbEntity
  8
0
100
AcDbPolyline
 62
7
  6
BYLAYER
 90
6
 70
0
 10
32.6666852926
 20
26.5257723677
 10
32.054063215
 20
28.7427993263
 10
30.8294594964
 20
30.7014374801
 10
29.092894199
 20
32.2307225374
 10
26.999578613
 20
33.1966423766
 10
24.7294297488
 20
33.5255153703
  0
ARC
  5
2DD
100
AcDbEntity
  8
0
100
AcDbCircle
 62
7
  6
BYLAYER
 10
7.1294297396
 20
17.6319277963
 40
0.4
100
AcDbArc
 50
90.8866496139
 51
180.0
  0
ARC
  5
2DE
100
AcDbEntity
  8
0
100
AcDbCircle
 62
7
  6
BYLAYER
 10
18.0145925331
 20
23.936851431
 40
0.2002685653
100
AcDbArc
 50
13.3013619082
 51
72.4764704374
  0
ARC
  5
2DF
100
AcDbEntity
  8
0
100
AcDbCircle
 62
7
  6
BYLAYER
 10
17.8322009113
 20
25.3226231112
 40
0.2002204282
100
AcDbArc
 50
302.5144204957
 51
1.6961245408
  0
ARC
  5
2E0
100
AcDbEntity
  8
0
100
AcDbCircle
 62
7
  6
BYLAYER
 10
18.1200467562
 20
23.5443573058
 40
0.2
100
AcDbArc
 50
317.4999999989
 51
16.6882128295
  0
ARC
  5
2E1
100
AcDbEntity
  8
0
100
AcDbCircle
 62
7
  6
BYLAYER
 10
18.6548090982
 20
22.2533268072
 40
0.2
100
AcDbArc
 50
28.3117871708
 51
87.5000000009
  0
ARC
  5
2E2
100
AcDbEntity
  8
0
100
AcDbCircle
 62
7
  6
BYLAYER
 10
7.1294297396
 20
33.4196426432
 40
0.4
100
AcDbArc
 50
180.0
 51
269.1133503861
  0
ARC
  5
2E3
100
AcDbEntity
  8
0
100
AcDbCircle
 62
7
  6
BYLAYER
 10
18.6548090982
 20
28.7982436324
 40
0.2
100
AcDbArc
 50
272.4999999989
 51
331.6882128292
  0
ARC
  5
2E4
100
AcDbEntity
  8
0
100
AcDbCircle
 62
7
  6
BYLAYER
 10
18.1200467562
 20
27.5072131338
 40
0.2
100
AcDbArc
 50
343.3117871705
 51
42.5000000008
  0
ARC
  5
2E5
100
AcDbEntity
  8
0
100
AcDbCircle
 62
7
  6
BYLAYER
 10
18.0148222157
 20
27.1145098022
 40
0.2
100
AcDbArc
 50
287.4999999994
 51
346.6882128298
  0
ARC
  5
2E6
100
AcDbEntity
  8
0
100
AcDbCircle
 62
7
  6
BYLAYER
 10
17.8324247395
 20
25.7290634224
 40
0.2
100
AcDbArc
 50
358.3117871702
 51
57.5
  0
ARC
  5
2E7
100
AcDbEntity
  8
0
100
AcDbCircle
 62
7
  6
BYLAYER
 10
22.8794297396
 20
22.3214912258
 40
2.3
100
AcDbArc
 50
180.0
 51
240.0
  0
ARC
  5
2E8
100
AcDbEntity
  8
0
100
AcDbCircle
 62
7
  6
BYLAYER
 10
26.5794297396
 20
22.3214912258
 40
2.3
100
AcDbArc
 50
300.0
 51
360.0
  0
ARC
  5
2E9
100
AcDbEntity
  8
0
100
AcDbCircle
 62
7
  6
BYLAYER
 10
26.5794297396
 20
22.3214912258
 40
2.0
100
AcDbArc
 50
300.0
 51
360.0
  0
ARC
  5
2EA
100
AcDbEntity
  8
0
100
AcDbCircle
 62
7
  6
BYLAYER
 10
22.8794297396
 20
22.3214912258
 40
2.0
100
AcDbArc
 50
180.0
 51
240.0
  0
ARC
  5
2EB
100
AcDbEntity
  8
0
100
AcDbCircle
 62
7
  6
BYLAYER
 10
30.8040503811
 20
22.2533268072
 40
0.2
100
AcDbArc
 50
92.4999999989
 51
151.6882128292
  0
ARC
  5
2EC
100
AcDbEntity
  8
0
100
AcDbCircle
 62
7
  6
BYLAYER
 10
31.3388127231
 20
23.5443573058
 40
0.2
100
AcDbArc
 50
163.3117871705
 51
222.5000000008
  0
ARC
  5
2ED
100
AcDbEntity
  8
0
100
AcDbCircle
 62
7
  6
BYLAYER
 10
31.4440372636
 20
23.9370606374
 40
0.2
100
AcDbArc
 50
107.4999999994
 51
166.6882128298
  0
ARC
  5
2EE
100
AcDbEntity
  8
0
100
AcDbCircle
 62
7
  6
BYLAYER
 10
31.6264347398
 20
25.3225070172
 40
0.2
100
AcDbArc
 50
178.3117871702
 51
237.5
  0
ARC
  5
2EF
100
AcDbEntity
  8
0
100
AcDbCircle
 62
7
  6
BYLAYER
 10
24.7294297396
 20
25.5257852198
 40
8.0
100
AcDbArc
 50
7.1806247225
 51
352.8193985713
  0
ARC
  5
2F0
100
AcDbEntity
  8
0
100
AcDbCircle
 62
7
  6
BYLAYER
 10
24.7294297396
 20
25.5257852198
 40
7.4
100
AcDbArc
 50
200.7188983855
 51
204.2811016145
  0
ARC
  5
2F1
100
AcDbEntity
  8
0
100
AcDbCircle
 62
7
  6
BYLAYER
 10
24.7294297396
 20
25.5257852198
 40
7.4
100
AcDbArc
 50
335.7188983855
 51
339.2811016145
  0
ARC
  5
2F2
100
AcDbEntity
  8
0
100
AcDbCircle
 62
7
  6
BYLAYER
 10
24.7294297396
 20
25.5257852198
 40
7.4
100
AcDbArc
 50
350.7188983855
 51
354.2811016145
  0
ARC
  5
2F3
100
AcDbEntity
  8
0
100
AcDbCircle
 62
7
  6
BYLAYER
 10
24.7294297396
 20
25.5257852198
 40
7.4
100
AcDbArc
 50
5.1724135501
 51
9.8275864499
  0
ARC
  5
2F4
100
AcDbEntity
  8
0
100
AcDbCircle
 62
7
  6
BYLAYER
 10
24.7294297396
 20
25.5257852198
 40
7.4
100
AcDbArc
 50
20.7188983855
 51
24.2811016145
  0
ARC
  5
2F5
100
AcDbEntity
  8
0
100
AcDbCircle
 62
7
  6
BYLAYER
 10
24.7294297396
 20
25.5257852198
 40
7.4
100
AcDbArc
 50
155.7188983855
 51
159.2811016145
  0
ARC
  5
2F6
100
AcDbEntity
  8
0
100
AcDbCircle
 62
7
  6
BYLAYER
 10
24.7294297396
 20
25.5257852198
 40
7.4
100
AcDbArc
 50
170.7188983855
 51
174.2811016145
  0
ARC
  5
2F7
100
AcDbEntity
  8
0
100
AcDbCircle
 62
7
  6
BYLAYER
 10
24.7294297396
 20
25.5257852198
 40
7.4
100
AcDbArc
 50
185.1724135501
 51
189.8275864499
  0
ARC
  5
2F8
100
AcDbEntity
  8
0
100
AcDbCircle
 62
7
  6
BYLAYER
 10
24.7294297396
 20
25.5257852198
 40
7.1
100
AcDbArc
 50
199.4902485403
 51
205.5097514597
  0
ARC
  5
2F9
100
AcDbEntity
  8
0
100
AcDbCircle
 62
7
  6
BYLAYER
 10
24.7294297396
 20
25.5257852198
 40
7.1
100
AcDbArc
 50
334.4902485403
 51
340.5097514597
  0
ARC
  5
2FA
100
AcDbEntity
  8
0
100
AcDbCircle
 62
7
  6
BYLAYER
 10
24.7294297396
 20
25.5257852198
 40
7.1
100
AcDbArc
 50
349.4902485403
 51
355.5097514597
  0
ARC
  5
2FB
100
AcDbEntity
  8
0
100
AcDbCircle
 62
7
  6
BYLAYER
 10
24.7294297396
 20
25.5257852198
 40
7.1
100
AcDbArc
 50
4.4902485403
 51
10.5097514597
  0
ARC
  5
2FC
100
AcDbEntity
  8
0
100
AcDbCircle
 62
7
  6
BYLAYER
 10
24.7294297396
 20
25.5257852198
 40
7.1
100
AcDbArc
 50
19.4902485403
 51
25.5097514597
  0
ARC
  5
2FD
100
AcDbEntity
  8
0
100
AcDbCircle
 62
7
  6
BYLAYER
 10
24.7294297396
 20
25.5257852198
 40
7.1
100
AcDbArc
 50
154.4902485403
 51
160.5097514597
  0
ARC
  5
2FE
100
AcDbEntity
  8
0
100
AcDbCircle
 62
7
  6
BYLAYER
 10
24.7294297396
 20
25.5257852198
 40
7.1
100
AcDbArc
 50
169.4902485403
 51
175.5097514597
  0
ARC
  5
2FF
100
AcDbEntity
  8
0
100
AcDbCircle
 62
7
  6
BYLAYER
 10
24.7294297396
 20
25.5257852198
 40
7.1
100
AcDbArc
 50
184.4902485403
 51
190.5097514597
  0
ARC
  5
300
100
AcDbEntity
  8
0
100
AcDbCircle
 62
7
  6
BYLAYER
 10
24.5971261295
 20
25.6807674902
 40
6.9251759644
100
AcDbArc
 50
1.1882975746
 51
1.3548784414
  0
CIRCLE
  5
301
100
AcDbEntity
  8
0
100
AcDbCircle
 62
7
  6
BYLAYER
 10
24.7294297396
 20
25.5257852198
 40
6.7
  0
CIRCLE
  5
302
100
AcDbEntity
  8
0
100
AcDbCircle
 62
7
  6
BYLAYER
 10
24.7294297396
 20
25.5257852198
 40
6.35
  0
CIRCLE
  5
303
100
AcDbEntity
  8
0
100
AcDbCircle
 62
7
  6
BYLAYER
 10
24.7294297396
 20
25.5257852198
 40
6.3
  0
ARC
  5
304
100
AcDbEntity
  8
0
100
AcDbCircle
 62
7
  6
BYLAYER
 10
24.7294297396
 20
25.5257852198
 40
6.15
100
AcDbArc
 50
70.0339417029
 51
109.9660582971
  0
ARC
  5
305
100
AcDbEntity
  8
0
100
AcDbCircle
 62
7
  6
BYLAYER
 10
24.7294297396
 20
25.5257852198
 40
6.15
100
AcDbArc
 50
116.5612638402
 51
63.4387361598
  0
ARC
  5
306
100
AcDbEntity
  8
0
100
AcDbCircle
 62
7
  6
BYLAYER
 10
24.7294297396
 20
25.5257852198
 40
6.0
100
AcDbArc
 50
240.0
 51
300.0
  0
ARC
  5
307
100
AcDbEntity
  8
0
100
AcDbCircle
 62
7
  6
BYLAYER
 10
24.7294297396
 20
25.5257852198
 40
6.0
100
AcDbArc
 50
60.0
 51
120.0
  0
ARC
  5
308
100
AcDbEntity
  8
0
100
AcDbCircle
 62
7
  6
BYLAYER
 10
24.7294297396
 20
25.5257852198
 40
5.8
100
AcDbArc
 50
68.7726872381
 51
111.2273127619
  0
ARC
  5
309
100
AcDbEntity
  8
0
100
AcDbCircle
 62
7
  6
BYLAYER
 10
24.7294297396
 20
25.5257852198
 40
5.8
100
AcDbArc
 50
118.303235635
 51
61.696764365
  0
CIRCLE
  5
30A
100
AcDbEntity
  8
0
100
AcDbCircle
 62
7
  6
BYLAYER
 10
24.7294297396
 20
25.5257852198
 40
5.7
  0
CIRCLE
  5
30B
100
AcDbEntity
  8
0
100
AcDbCircle
 62
7
  6
BYLAYER
 10
24.7294297396
 20
25.5257852198
 40
5.6
  0
CIRCLE
  5
30C
100
AcDbEntity
  8
0
100
AcDbCircle
 62
7
  6
BYLAYER
 10
24.7294297396
 20
25.5257852198
 40
5.5
  0
ARC
  5
30D
100
AcDbEntity
  8
0
100
AcDbCircle
 62
7
  6
BYLAYER
 10
24.7294297396
 20
25.5257852198
 40
5.425
100
AcDbArc
 50
120.4583870395
 51
59.5416129605
  0
ARC
  5
30E
100
AcDbEntity
  8
0
100
AcDbCircle
 62
7
  6
BYLAYER
 10
24.7294297396
 20
25.5257852198
 40
5.425
100
AcDbArc
 50
67.2260275993
 51
112.7739724007
  0
ARC
  5
30F
100
AcDbEntity
  8
0
100
AcDbCircle
 62
7
  6
BYLAYER
 10
24.7294297396
 20
25.5257852198
 40
5.2647435897
100
AcDbArc
 50
113.5081695678
 51
121.4895219088
  0
ARC
  5
310
100
AcDbEntity
  8
0
100
AcDbCircle
 62
7
  6
BYLAYER
 10
24.7294297396
 20
25.5257852198
 40
5.2647435897
100
AcDbArc
 50
58.5104780912
 51
66.4918304322
  0
ARC
  5
311
100
AcDbEntity
  8
0
100
AcDbCircle
 62
7
  6
BYLAYER
 10
24.7294297396
 20
25.5257852198
 40
5.0083333333
100
AcDbArc
 50
325.9571329324
 51
34.0428670676
  0
ARC
  5
312
100
AcDbEntity
  8
0
100
AcDbCircle
 62
7
  6
BYLAYER
 10
24.7294297396
 20
25.5257852198
 40
5.0083333333
100
AcDbArc
 50
145.9571329324
 51
214.0428670676
  0
CIRCLE
  5
313
100
AcDbEntity
  8
0
100
AcDbCircle
 62
7
  6
BYLAYER
 10
24.7294297396
 20
25.5257852198
 40
4.8
  0
ARC
  5
314
100
AcDbEntity
  8
0
100
AcDbCircle
 62
7
  6
BYLAYER
 10
26.5794297396
 20
28.7300792138
 40
2.3
100
AcDbArc
 50
0.0
 51
60.0
  0
ARC
  5
315
100
AcDbEntity
  8
0
100
AcDbCircle
 62
7
  6
BYLAYER
 10
22.8794297396
 20
28.7300792138
 40
2.3
100
AcDbArc
 50
120.0
 51
180.0
  0
ARC
  5
316
100
AcDbEntity
  8
0
100
AcDbCircle
 62
7
  6
BYLAYER
 10
22.8794297396
 20
28.7300792138
 40
2.0
100
AcDbArc
 50
120.0
 51
180.0
  0
ARC
  5
317
100
AcDbEntity
  8
0
100
AcDbCircle
 62
7
  6
BYLAYER
 10
26.5794297396
 20
28.7300792138
 40
2.0
100
AcDbArc
 50
0.0
 51
60.0
  0
ARC
  5
318
100
AcDbEntity
  8
0
100
AcDbCircle
 62
7
  6
BYLAYER
 10
31.6284789626
 20
25.6555120651
 40
0.2002720587
100
AcDbArc
 50
122.5201135867
 51
181.074627303
  0
ARC
  5
319
100
AcDbEntity
  8
0
100
AcDbCircle
 62
7
  6
BYLAYER
 10
31.444260904
 20
27.1147134565
 40
0.2002613554
100
AcDbArc
 50
193.299850983
 51
252.4773807128
  0
ARC
  5
31A
100
AcDbEntity
  8
0
100
AcDbCircle
 62
7
  6
BYLAYER
 10
31.6266566335
 20
25.7289483596
 40
0.2002185345
100
AcDbArc
 50
122.5141541092
 51
181.6962023206
  0
ARC
  5
31B
100
AcDbEntity
  8
0
100
AcDbCircle
 62
7
  6
BYLAYER
 10
31.3388127231
 20
27.5072131338
 40
0.2
100
AcDbArc
 50
137.4999999989
 51
196.6882128295
  0
ARC
  5
31C
100
AcDbEntity
  8
0
100
AcDbCircle
 62
7
  6
BYLAYER
 10
30.8040503811
 20
28.7982436324
 40
0.2
100
AcDbArc
 50
208.3117871708
 51
267.5000000009
  0
SPLINE
  5
31D
100
AcDbEntity
  8
0
100
AcDbSpline
 62
7
  6
BYLAYER
 70
0
 71
3
 72
17
 73
13
 74
0
 42
0.0000001
 43
0.0000001
 44
0.0000000001
 40
0.0
 40
0.0
 40
0.0
 40
0.0
 40
0.1792926807
 40
0.3524475629
 40
0.5127936023
 40
0.6552368869
 40
0.7756949491
 40
0.8716737206
 40
0.9106355735
 40
0.9441529874
 40
0.9733445495
 40
1.0
 40
1.0
 40
1.0
 40
1.0
 10
4.6294297396
 20
27.656267886
 30
0.0
 10
4.6163596048
 20
27.656267886
 30
0.0
 10
4.5906606091
 20
27.6555227391
 30
0.0
 10
4.5533998616
 20
27.6522377406
 30
0.0
 10
4.5190882998
 20
27.6469077325
 30
0.0
 10
4.489023211
 20
27.6397678383
 30
0.0
 10
4.4642823372
 20
27.6311392106
 30
0.0
 10
4.4476531074
 20
27.6224435541
 30
0.0
 10
4.4380781474
 20
27.6146828187
 30
0.0
 10
4.4331937358
 20
27.6090410335
 30
0.0
 10
4.4301489843
 20
27.6031980351
 30
0.0
 10
4.4294297396
 20
27.5991039812
 30
0.0
 10
4.4294297396
 20
27.5971608437
 30
0.0
  0
SPLINE
  5
31E
100
AcDbEntity
  8
0
100
AcDbSpline
 62
7
  6
BYLAYER
 70
0
 71
3
 72
15
 73
11
 74
0
 42
0.0000001
 43
0.0000001
 44
0.0000000001
 40
0.0
 40
0.0
 40
0.0
 40
0.0
 40
0.1593060885
 40
0.314411577
 40
0.4606878168
 40
0.5949966776
 40
0.7152359524
 40
0.820941948
 40
0.9142679219
 40
1.0
 40
1.0
 40
1.0
 40
1.0
 10
4.6294297396
 20
28.7544125442
 30
0.0
 10
4.6163467751
 20
28.7544125442
 30
0.0
 10
4.5905051314
 20
28.7530497809
 30
0.0
 10
4.5530764951
 20
28.7470428729
 30
0.0
 10
4.5185590878
 20
28.7372712567
 30
0.0
 10
4.4882570653
 20
28.724121109
 30
0.0
 10
4.4632070147
 20
28.7080888567
 30
0.0
 10
4.444274676
 20
28.6896030298
 30
0.0
 10
4.4322825188
 20
28.6691293615
 30
0.0
 10
4.4294297396
 20
28.6543226509
 30
0.0
 10
4.4294297396
 20
28.6472819298
 30
0.0
  0
SPLINE
  5
31F
100
AcDbEntity
  8
0
100
AcDbSpline
 62
7
  6
BYLAYER
 70
0
 71
3
 72
13
 73
9
 74
0
 42
0.0000001
 43
0.0000001
 44
0.0000000001
 40
0.0
 40
0.0
 40
0.0
 40
0.0
 40
0.2839158331
 40
0.5485207148
 40
0.6705383987
 40
0.7852907454
 40
0.8943666502
 40
1.0
 40
1.0
 40
1.0
 40
1.0
 10
4.6294297396
 20
29.6325315858
 30
0.0
 10
4.6035149521
 20
29.6325315858
 30
0.0
 10
4.5531549317
 20
29.6254134187
 30
0.0
 10
4.49678707
 20
29.5984807873
 30
0.0
 10
4.4624540444
 20
29.5677976852
 30
0.0
 10
4.4436931204
 20
29.5420698264
 30
0.0
 10
4.4320942046
 20
29.5140057238
 30
0.0
 10
4.4294297396
 20
29.4943199953
 30
0.0
 10
4.4294297396
 20
29.4846781737
 30
0.0
  0
SPLINE
  5
320
100
AcDbEntity
  8
0
100
AcDbSpline
 62
7
  6
BYLAYER
 70
0
 71
3
 72
14
 73
10
 74
0
 42
0.0000001
 43
0.0000001
 44
0.0000000001
 40
0.0
 40
0.0
 40
0.0
 40
0.0
 40
0.2632780644
 40
0.3927166685
 40
0.5193943524
 40
0.6430501405
 40
0.7638611336
 40
0.8826353121
 40
1.0
 40
1.0
 40
1.0
 40
1.0
 10
4.6294297396
 20
30.2307826493
 30
0.0
 10
4.6033885895
 20
30.2307826493
 30
0.0
 10
4.5640634424
 20
30.2238729074
 30
0.0
 10
4.5175243001
 20
30.2016237931
 30
0.0
 10
4.4870400225
 20
30.1792620516
 30
0.0
 10
4.4620292128
 20
30.1520653605
 30
0.0
 10
4.4434391789
 20
30.1210083845
 30
0.0
 10
4.4320292658
 20
30.0873232111
 30
0.0
 10
4.4294297396
 20
30.0638910876
 30
0.0
 10
4.4294297396
 20
30.0522824051
 30
0.0
  0
SPLINE
  5
321
100
AcDbEntity
  8
0
100
AcDbSpline
 62
7
  6
BYLAYER
 70
0
 71
3
 72
11
 73
7
 74
0
 42
0.0000001
 43
0.0000001
 44
0.0000000001
 40
0.0
 40
0.0
 40
0.0
 40
0.0
 40
0.2530176579
 40
0.5041819856
 40
0.7528981552
 40
1.0
 40
1.0
 40
1.0
 40
1.0
 10
4.6294297396
 20
30.5083959134
 30
0.0
 10
4.6033012705
 20
30.5083959134
 30
0.0
 10
4.5506681722
 20
30.4981187025
 30
0.0
 10
4.4842012301
 20
30.4541588452
 30
0.0
 10
4.4397911027
 20
30.388703325
 30
0.0
 10
4.4294297396
 20
30.3369308924
 30
0.0
 10
4.4294297396
 20
30.3114133337
 30
0.0
  0
SPLINE
  5
322
100
AcDbEntity
  8
0
100
AcDbSpline
 62
7
  6
BYLAYER
 70
0
 71
3
 72
11
 73
7
 74
0
 42
0.0000001
 43
0.0000001
 44
0.0000000001
 40
0.0
 40
0.0
 40
0.0
 40
0.0
 40
0.2470981804
 40
0.4958135018
 40
0.7469790612
 40
1.0
 40
1.0
 40
1.0
 40
1.0
 10
4.4294297396
 20
20.7401571058
 30
0.0
 10
4.4294297396
 20
20.7146399256
 30
0.0
 10
4.4397908816
 20
20.6628679899
 30
0.0
 10
4.484200348
 20
20.5974124705
 30
0.0
 10
4.5506673321
 20
20.5534519172
 30
0.0
 10
4.6033009317
 20
20.5431745261
 30
0.0
 10
4.6294297396
 20
20.5431745261
 30
0.0
  0
SPLINE
  5
323
100
AcDbEntity
  8
0
100
AcDbSpline
 62
7
  6
BYLAYER
 70
0
 71
3
 72
14
 73
10
 74
0
 42
0.0000001
 43
0.0000001
 44
0.0000000001
 40
0.0
 40
0.0
 40
0.0
 40
0.0
 40
0.1173635679
 40
0.236135377
 40
0.3569452758
 40
0.4806011574
 40
0.6072788556
 40
0.7367185527
 40
1.0
 40
1.0
 40
1.0
 40
1.0
 10
4.4294297396
 20
20.9992880345
 30
0.0
 10
4.4294297396
 20
20.9876794622
 30
0.0
 10
4.4320289898
 20
20.9642476499
 30
0.0
 10
4.4434389036
 20
20.9305629553
 30
0.0
 10
4.4620284414
 20
20.8995061013
 30
0.0
 10
4.4870390121
 20
20.8723093021
 30
0.0
 10
4.5175232247
 20
20.8499472774
 30
0.0
 10
4.5640626307
 20
20.8276976547
 30
0.0
 10
4.6033882538
 20
20.8207877902
 30
0.0
 10
4.6294297396
 20
20.8207877902
 30
0.0
  0
SPLINE
  5
324
100
AcDbEntity
  8
0
100
AcDbSpline
 62
7
  6
BYLAYER
 70
0
 71
3
 72
13
 73
9
 74
0
 42
0.0000001
 43
0.0000001
 44
0.0000000001
 40
0.0
 40
0.0
 40
0.0
 40
0.0
 40
0.1056323181
 40
0.2147060388
 40
0.3294571906
 40
0.451474793
 40
0.7160805538
 40
1.0
 40
1.0
 40
1.0
 40
1.0
 10
4.4294297396
 20
21.5668922659
 30
0.0
 10
4.4294297396
 20
21.5572505379
 30
0.0
 10
4.43209393
 20
21.5375650637
 30
0.0
 10
4.4436928289
 20
21.5095013865
 30
0.0
 10
4.462453265
 20
21.4837735971
 30
0.0
 10
4.4967860802
 20
21.4530902809
 30
0.0
 10
4.5531541578
 20
21.4261571225
 30
0.0
 10
4.6035146208
 20
21.4190388537
 30
0.0
 10
4.6294297396
 20
21.4190388537
 30
0.0
  0
SPLINE
  5
325
100
AcDbEntity
  8
0
100
AcDbSpline
 62
7
  6
BYLAYER
 70
0
 71
3
 72
15
 73
11
 74
0
 42
0.0000001
 43
0.0000001
 44
0.0000000001
 40
0.0
 40
0.0
 40
0.0
 40
0.0
 40
0.0857311844
 40
0.1790552703
 40
0.2847598795
 40
0.4049987965
 40
0.5393072875
 40
0.6855844892
 40
0.8406927056
 40
1.0
 40
1.0
 40
1.0
 40
1.0
 10
4.4294297396
 20
22.4042885097
 30
0.0
 10
4.4294297396
 20
22.3972478612
 30
0.0
 10
4.4322822451
 20
22.3824413289
 30
0.0
 10
4.4442743511
 20
22.3619680111
 30
0.0
 10
4.4632062271
 20
22.3434821824
 30
0.0
 10
4.4882560621
 20
22.3274498691
 30
0.0
 10
4.5185580284
 20
22.3142995547
 30
0.0
 10
4.5530756611
 20
22.3045276787
 30
0.0
 10
4.5905047121
 20
22.2985207802
 30
0.0
 10
4.6163466745
 20
22.2971578953
 30
0.0
 10
4.6294297396
 20
22.2971578953
 30
0.0
  0
SPLINE
  5
326
100
AcDbEntity
  8
0
100
AcDbSpline
 62
7
  6
BYLAYER
 70
0
 71
3
 72
17
 73
13
 74
0
 42
0.0000001
 43
0.0000001
 44
0.0000000001
 40
0.0
 40
0.0
 40
0.0
 40
0.0
 40
0.0266552761
 40
0.0558462671
 40
0.0893629358
 40
0.1283240448
 40
0.2243011141
 40
0.3447584742
 40
0.4872011296
 40
0.6475480766
 40
0.820705986
 40
1.0
 40
1.0
 40
1.0
 40
1.0
 10
4.4294297396
 20
23.4544095959
 30
0.0
 10
4.4294297396
 20
23.4524664707
 30
0.0
 10
4.4301489178
 20
23.4483724679
 30
0.0
 10
4.4331935326
 20
23.442529514
 30
0.0
 10
4.4380778464
 20
23.4368878339
 30
0.0
 10
4.4476526455
 20
23.4291272746
 30
0.0
 10
4.4642815605
 20
23.4204315327
 30
0.0
 10
4.4890222181
 20
23.4118028991
 30
0.0
 10
4.5190872519
 20
23.4046629059
 30
0.0
 10
4.5533990476
 20
23.399332759
 30
0.0
 10
4.5906601887
 20
23.3960477676
 30
0.0
 10
4.616359505
 20
23.3953025536
 30
0.0
 10
4.6294297396
 20
23.3953025536
 30
0.0
  0
SPLINE
  5
327
100
AcDbEntity
  8
0
100
AcDbSpline
 62
7
  6
BYLAYER
 70
0
 71
3
 72
21
 73
17
 74
0
 42
0.0000001
 43
0.0000001
 44
0.0000000001
 40
0.0
 40
0.0
 40
0.0
 40
0.0
 40
0.1954776216
 40
0.3835943738
 40
0.55635631
 40
0.6349467958
 40
0.7073626751
 40
0.772941499
 40
0.8310275009
 40
0.8810895128
 40
0.9227316353
 40
0.955572192
 40
0.9793328296
 40
0.9939494791
 40
0.9979119582
 40
1.0
 40
1.0
 40
1.0
 40
1.0
 10
4.6294297396
 20
26.4129343548
 30
0.0
 10
4.6163651431
 20
26.4129343548
 30
0.0
 10
4.5907278115
 20
26.4128457997
 30
0.0
 10
4.553545917
 20
26.4124550474
 30
0.0
 10
4.5241789076
 20
26.4119124434
 30
0.0
 10
4.5025473583
 20
26.4113476891
 30
0.0
 10
4.4880793665
 20
26.410886257
 30
0.0
 10
4.4749839794
 20
26.4103794811
 30
0.0
 10
4.4633862944
 20
26.4098328216
 30
0.0
 10
4.4533903161
 20
26.4092507539
 30
0.0
 10
4.44509244
 20
26.4086459871
 30
0.0
 10
4.4385442059
 20
26.4080166606
 30
0.0
 10
4.4338494364
 20
26.4074052869
 30
0.0
 10
4.43102823
 20
26.406812819
 30
0.0
 10
4.4297726652
 20
26.4063467916
 30
0.0
 10
4.4294297396
 20
26.4060184846
 30
0.0
 10
4.4294297396
 20
26.4058789319
 30
0.0
  0
SPLINE
  5
328
100
AcDbEntity
  8
0
100
AcDbSpline
 62
7
  6
BYLAYER
 70
0
 71
3
 72
21
 73
17
 74
0
 42
0.0000001
 43
0.0000001
 44
0.0000000001
 40
0.0
 40
0.0
 40
0.0
 40
0.0
 40
0.0020879924
 40
0.0060502771
 40
0.0206663076
 40
0.0444263452
 40
0.0772662993
 40
0.1189073322
 40
0.1689684596
 40
0.2270542071
 40
0.2926323705
 40
0.3650475812
 40
0.4436379662
 40
0.6164008371
 40
0.8045209022
 40
1.0
 40
1.0
 40
1.0
 40
1.0
 10
4.4294297396
 20
24.6456915076
 30
0.0
 10
4.4294297396
 20
24.6455519583
 30
0.0
 10
4.429772633
 20
24.6452236526
 30
0.0
 10
4.4310281483
 20
24.6447576207
 30
0.0
 10
4.4338492502
 20
24.644165163
 30
0.0
 10
4.4385439048
 20
24.6435538047
 30
0.0
 10
4.4450919848
 20
24.6429244973
 30
0.0
 10
4.4533896892
 20
24.6423197265
 30
0.0
 10
4.4633855185
 20
24.6417376582
 30
0.0
 10
4.4749830841
 20
24.6411910028
 30
0.0
 10
4.4880783655
 20
24.6406842175
 30
0.0
 10
4.5025462623
 20
24.6402227776
 30
0.0
 10
4.5241778237
 20
24.6396580222
 30
0.0
 10
4.5535451116
 20
24.6391153979
 30
0.0
 10
4.5907273907
 20
24.6387246483
 30
0.0
 10
4.6163650438
 20
24.6386360847
 30
0.0
 10
4.6294297396
 20
24.6386360847
 30
0.0
  0
SPLINE
  5
329
100
AcDbEntity
  8
0
100
AcDbSpline
 62
7
  6
BYLAYER
 70
0
 71
3
 72
13
 73
9
 74
0
 42
0.0000001
 43
0.0000001
 44
0.0000000001
 40
0.0
 40
0.0
 40
0.0
 40
0.0
 40
0.1149652244
 40
0.2317498404
 40
0.3513255982
 40
0.4746895633
 40
0.731940924
 40
1.0
 40
1.0
 40
1.0
 40
1.0
 10
4.4294297396
 20
29.172188693
 30
0.0
 10
4.4294297396
 20
29.1833440157
 30
0.0
 10
4.4320411096
 20
29.2059093171
 30
0.0
 10
4.4434869827
 20
29.2383024375
 30
0.0
 10
4.4621195657
 20
29.268140516
 30
0.0
 10
4.4959081336
 20
29.3033902732
 30
0.0
 10
4.5520297328
 20
29.3350923761
 30
0.0
 10
4.6034193915
 20
29.3436335143
 30
0.0
 10
4.6294297396
 20
29.3436335143
 30
0.0
  0
SPLINE
  5
32A
100
AcDbEntity
  8
0
100
AcDbSpline
 62
7
  6
BYLAYER
 70
0
 71
3
 72
11
 73
7
 74
0
 42
0.0000001
 43
0.0000001
 44
0.0000000001
 40
0.0
 40
0.0
 40
0.0
 40
0.0
 40
0.2500789697
 40
0.5000412789
 40
0.7499793099
 40
1.0
 40
1.0
 40
1.0
 40
1.0
 10
4.6294297396
 20
20.6051179467
 30
0.0
 10
4.6032759293
 20
20.6051179467
 30
0.0
 10
4.5503907309
 20
20.6157530827
 30
0.0
 10
4.4839166049
 20
20.6610368585
 30
0.0
 10
4.439700113
 20
20.7281612092
 30
0.0
 10
4.4294297396
 20
20.7810111091
 30
0.0
 10
4.4294297396
 20
20.8071588245
 30
0.0
  0
SPLINE
  5
32B
100
AcDbEntity
  8
0
100
AcDbSpline
 62
7
  6
BYLAYER
 70
0
 71
3
 72
11
 73
7
 74
0
 42
0.0000001
 43
0.0000001
 44
0.0000000001
 40
0.0
 40
0.0
 40
0.0
 40
0.0
 40
0.2449352943
 40
0.4927581264
 40
0.7448197055
 40
1.0
 40
1.0
 40
1.0
 40
1.0
 10
4.4294297396
 20
29.8558433054
 30
0.0
 10
4.4294297396
 20
29.8809058981
 30
0.0
 10
4.4398612041
 20
29.9319019067
 30
0.0
 10
4.4844114065
 20
29.9961444159
 30
0.0
 10
4.5508651571
 20
30.0391502494
 30
0.0
 10
4.6033188445
 20
30.0491737294
 30
0.0
 10
4.6294297396
 20
30.0491737294
 30
0.0
  0
SPLINE
  5
32C
100
AcDbEntity
  8
0
100
AcDbSpline
 62
7
  6
BYLAYER
 70
0
 71
3
 72
11
 73
7
 74
0
 42
0.0000001
 43
0.0000001
 44
0.0000000001
 40
0.0
 40
0.0
 40
0.0
 40
0.0
 40
0.2551769897
 40
0.5072373614
 40
0.7550610682
 40
1.0
 40
1.0
 40
1.0
 40
1.0
 10
4.6294297396
 20
21.0023967101
 30
0.0
 10
4.6033191826
 20
21.0023967101
 30
0.0
 10
4.5508659915
 20
21.0124200164
 30
0.0
 10
4.4844122903
 20
21.0554251661
 30
0.0
 10
4.4398614285
 20
21.1196676681
 30
0.0
 10
4.4294297396
 20
21.1706641692
 30
0.0
 10
4.4294297396
 20
21.1957271342
 30
0.0
  0
SPLINE
  5
32D
100
AcDbEntity
  8
0
100
AcDbSpline
 62
7
  6
BYLAYER
 70
0
 71
3
 72
13
 73
9
 74
0
 42
0.0000001
 43
0.0000001
 44
0.0000000001
 40
0.0
 40
0.0
 40
0.0
 40
0.0
 40
0.2680556366
 40
0.5253059487
 40
0.6486698566
 40
0.7682467288
 40
0.885033675
 40
1.0
 40
1.0
 40
1.0
 40
1.0
 10
4.6294297396
 20
21.7079369253
 30
0.0
 10
4.6034197262
 20
21.7079369253
 30
0.0
 10
4.5520305413
 20
21.7164779298
 30
0.0
 10
4.4959091304
 20
21.7481794226
 30
0.0
 10
4.4621203389
 20
21.783428943
 30
0.0
 10
4.4434872612
 20
21.8132671309
 30
0.0
 10
4.4320413852
 20
21.845660718
 30
0.0
 10
4.4294297396
 20
21.8682263174
 30
0.0
 10
4.4294297396
 20
21.8793817466
 30
0.0
  0
SPLINE
  5
32E
100
AcDbEntity
  8
0
100
AcDbSpline
 62
7
  6
BYLAYER
 70
0
 71
3
 72
14
 73
10
 74
0
 42
0.0000001
 43
0.0000001
 44
0.0000000001
 40
0.0
 40
0.0
 40
0.0
 40
0.0
 40
0.1471614384
 40
0.2915220269
 40
0.5594192534
 40
0.6808489307
 40
0.7933842684
 40
0.8988269654
 40
1.0
 40
1.0
 40
1.0
 40
1.0
 10
4.6294297396
 20
22.6736571923
 30
0.0
 10
4.6163346812
 20
22.6736571923
 30
0.0
 10
4.590344846
 20
22.675430328
 30
0.0
 10
4.5415335204
 20
22.6855453535
 30
0.0
 10
4.4971624569
 20
22.7051498812
 30
0.0
 10
4.462619616
 20
22.7338552177
 30
0.0
 10
4.4438036396
 20
22.7578290014
 30
0.0
 10
4.4321254958
 20
22.7840520675
 30
0.0
 10
4.4294297396
 20
22.8025299175
 30
0.0
 10
4.4294297396
 20
22.8115327297
 30
0.0
  0
SPLINE
  5
32F
100
AcDbEntity
  8
0
100
AcDbSpline
 62
7
  6
BYLAYER
 70
0
 71
3
 72
15
 73
11
 74
0
 42
0.0000001
 43
0.0000001
 44
0.0000000001
 40
0.0
 40
0.0
 40
0.0
 40
0.0
 40
0.0787564863
 40
0.166874142
 40
0.2699148983
 40
0.3899598795
 40
0.5261517068
 40
0.6759122695
 40
0.8355902137
 40
1.0
 40
1.0
 40
1.0
 40
1.0
 10
4.4294297396
 20
27.122914905
 30
0.0
 10
4.4294297396
 20
27.1291801271
 30
0.0
 10
4.4323889955
 20
27.1425536587
 30
0.0
 10
4.4445318265
 20
27.1606826412
 30
0.0
 10
4.4634699016
 20
27.1769604516
 30
0.0
 10
4.4884698197
 20
27.1910840158
 30
0.0
 10
4.5187127559
 20
27.2026849648
 30
0.0
 10
4.553173925
 20
27.2113136302
 30
0.0
 10
4.5905526056
 20
27.2166210949
 30
0.0
 10
4.6163506413
 20
27.2178251684
 30
0.0
 10
4.6294297396
 20
27.2178251684
 30
0.0
  0
SPLINE
  5
330
100
AcDbEntity
  8
0
100
AcDbSpline
 62
7
  6
BYLAYER
 70
0
 71
3
 72
15
 73
11
 74
0
 42
0.0000001
 43
0.0000001
 44
0.0000000001
 40
0.0
 40
0.0
 40
0.0
 40
0.0
 40
0.1644085484
 40
0.3240836892
 40
0.4738433078
 40
0.6100355746
 40
0.7300810029
 40
0.8331232183
 40
0.9212426647
 40
1.0
 40
1.0
 40
1.0
 40
1.0
 10
4.6294297396
 20
23.8337452711
 30
0.0
 10
4.6163507416
 20
23.8337452711
 30
0.0
 10
4.5905530253
 20
23.8349492368
 30
0.0
 10
4.553174753
 20
23.8402567112
 30
0.0
 10
4.5187138125
 20
23.8488851475
 30
0.0
 10
4.4884708198
 20
23.8604859478
 30
0.0
 10
4.4634706898
 20
23.8746094629
 30
0.0
 10
4.4445321646
 20
23.8908872506
 30
0.0
 10
4.4323892697
 20
23.909016559
 30
0.0
 10
4.4294297396
 20
23.9223902458
 30
0.0
 10
4.4294297396
 20
23.9286555346
 30
0.0
  0
SPLINE
  5
331
100
AcDbEntity
  8
0
100
AcDbSpline
 62
7
  6
BYLAYER
 70
0
 71
3
 72
11
 73
7
 74
0
 42
0.0000001
 43
0.0000001
 44
0.0000000001
 40
0.0
 40
0.0
 40
0.0
 40
0.0
 40
0.2500169892
 40
0.4999542075
 40
0.7499177816
 40
1.0
 40
1.0
 40
1.0
 40
1.0
 10
4.4294297396
 20
30.244411615
 30
0.0
 10
4.4294297396
 20
30.2705589433
 30
0.0
 10
4.4396998963
 20
30.3234083403
 30
0.0
 10
4.4839157253
 20
30.3905326792
 30
0.0
 10
4.5503898829
 20
30.4358171677
 30
0.0
 10
4.6032755896
 20
30.4464524928
 30
0.0
 10
4.6294297396
 20
30.4464524928
 30
0.0
  0
SPLINE
  5
332
100
AcDbEntity
  8
0
100
AcDbSpline
 62
7
  6
BYLAYER
 70
0
 71
3
 72
18
 73
14
 74
0
 42
0.0000001
 43
0.0000001
 44
0.0000000001
 40
0.0
 40
0.0
 40
0.0
 40
0.0
 40
0.0213197681
 40
0.0459921816
 40
0.0761075731
 40
0.1127411834
 40
0.1562961234
 40
0.2068063736
 40
0.327917098
 40
0.4729488081
 40
0.637282913
 40
0.8153511866
 40
1.0
 40
1.0
 40
1.0
 40
1.0
 10
4.4294297396
 20
25.8969503515
 30
0.0
 10
4.4294297396
 20
25.8984591914
 30
0.0
 10
4.4302042779
 20
25.9017342222
 30
0.0
 10
4.4333193265
 20
25.9062238231
 30
0.0
 10
4.4382086642
 20
25.91052329
 30
0.0
 10
4.4448594728
 20
25.9146559216
 30
0.0
 10
4.4532305655
 20
25.9186231395
 30
0.0
 10
4.4674992824
 20
25.9239807914
 30
0.0
 10
4.4891990773
 20
25.9297621058
 30
0.0
 10
4.5191865115
 20
25.9352413959
 30
0.0
 10
4.5534599454
 20
25.939331122
 30
0.0
 10
4.5906877103
 20
25.9418550566
 30
0.0
 10
4.6163617973
 20
25.9424273633
 30
0.0
 10
4.6294297396
 20
25.9424273633
 30
0.0
  0
SPLINE
  5
333
100
AcDbEntity
  8
0
100
AcDbSpline
 62
7
  6
BYLAYER
 70
0
 71
3
 72
18
 73
14
 74
0
 42
0.0000001
 43
0.0000001
 44
0.0000000001
 40
0.0
 40
0.0
 40
0.0
 40
0.0
 40
0.1846474453
 40
0.3627126097
 40
0.5270458134
 40
0.6720782141
 40
0.7931897261
 40
0.843700769
 40
0.8872567138
 40
0.9238910176
 40
0.9540071011
 40
0.978680071
 40
1.0
 40
1.0
 40
1.0
 40
1.0
 10
4.6294297396
 20
25.1091430762
 30
0.0
 10
4.6163618969
 20
25.1091430762
 30
0.0
 10
4.5906881307
 20
25.1097153309
 30
0.0
 10
4.5534607563
 20
25.1122392725
 30
0.0
 10
4.5191875546
 20
25.1163288885
 30
0.0
 10
4.4892000742
 20
25.121808114
 30
0.0
 10
4.4675001062
 20
25.1275893862
 30
0.0
 10
4.453231198
 20
25.1329470328
 30
0.0
 10
4.4448599049
 20
25.1369142404
 30
0.0
 10
4.4382089653
 20
25.1410469855
 30
0.0
 10
4.4333195282
 20
25.1453465383
 30
0.0
 10
4.4302043511
 20
25.1498361619
 30
0.0
 10
4.4294297396
 20
25.1531112371
 30
0.0
 10
4.4294297396
 20
25.1546200881
 30
0.0
  0
SPLINE
  5
334
100
AcDbEntity
  8
0
100
AcDbSpline
 62
7
  6
BYLAYER
 70
0
 71
3
 72
14
 73
10
 74
0
 42
0.0000001
 43
0.0000001
 44
0.0000000001
 40
0.0
 40
0.0
 40
0.0
 40
0.0
 40
0.101172036
 40
0.2066126186
 40
0.3191467228
 40
0.440576256
 40
0.7084742905
 40
0.8528374306
 40
1.0
 40
1.0
 40
1.0
 40
1.0
 10
4.4294297396
 20
28.2400377098
 30
0.0
 10
4.4294297396
 20
28.2490404337
 30
0.0
 10
4.4321252216
 20
28.2675180482
 30
0.0
 10
4.4438033414
 20
28.293740706
 30
0.0
 10
4.4626188338
 20
28.3177144396
 30
0.0
 10
4.4971614733
 20
28.3464199681
 30
0.0
 10
4.5415326827
 20
28.3660249518
 30
0.0
 10
4.5903444271
 20
28.3761399592
 30
0.0
 10
4.6163345798
 20
28.3779132472
 30
0.0
 10
4.6294297396
 20
28.3779132472
 30
0.0
  0
SPLINE
  5
335
100
AcDbEntity
  8
0
100
AcDbSpline
 62
7
  6
BYLAYER
 70
0
 71
3
 72
13
 73
9
 74
0
 42
0.0000001
 43
0.0000001
 44
0.0000000001
 40
0.0
 40
0.0
 40
0.0
 40
0.0
 40
0.1625117053
 40
0.3303880659
 40
0.5004650892
 40
0.6703987873
 40
0.8377202937
 40
1.0
 40
1.0
 40
1.0
 40
1.0
 10
31.2325818755
 20
27.1379304824
 30
0.0
 10
31.23523014
 20
27.1272385025
 30
0.0
 10
31.2424174413
 20
27.1058920731
 30
0.0
 10
31.2585513526
 20
27.075841885
 30
0.0
 10
31.2799220617
 20
27.0484546577
 30
0.0
 10
31.3057790189
 20
27.0250982944
 30
0.0
 10
31.3349210655
 20
27.0068070655
 30
0.0
 10
31.3560720795
 20
26.9984552331
 30
0.0
 10
31.3666864561
 20
26.9951004698
 30
0.0
  0
SPLINE
  5
336
100
AcDbEntity
  8
0
100
AcDbSpline
 62
7
  6
BYLAYER
 70
0
 71
3
 72
13
 73
9
 74
0
 42
0.0000001
 43
0.0000001
 44
0.0000000001
 40
0.0
 40
0.0
 40
0.0
 40
0.0
 40
0.1625121117
 40
0.3303965756
 40
0.5004595098
 40
0.670419261
 40
0.8377484091
 40
1.0
 40
1.0
 40
1.0
 40
1.0
 10
18.2262779483
 20
23.913637972
 30
0.0
 10
18.2236301558
 20
23.9243302415
 30
0.0
 10
18.2164433802
 20
23.9456777899
 30
0.0
 10
18.2003099286
 20
23.9757282006
 30
0.0
 10
18.1789384807
 20
24.0031166857
 30
0.0
 10
18.1530805318
 20
24.0264734619
 30
0.0
 10
18.1239381641
 20
24.0447637106
 30
0.0
 10
18.1027889265
 20
24.0531146981
 30
0.0
 10
18.092176633
 20
24.0564688153
 30
0.0
  0
SPLINE
  5
337
100
AcDbEntity
  8
0
100
AcDbSpline
 62
7
  6
BYLAYER
 70
0
 71
3
 72
27
 73
23
 74
0
 42
0.0000001
 43
0.0000001
 44
0.0000000001
 40
0.0
 40
0.0
 40
0.0
 40
0.0
 40
0.0447213954
 40
0.0931252894
 40
0.142387335
 40
0.1923333833
 40
0.2428045617
 40
0.2937765441
 40
0.3451752411
 40
0.3968325076
 40
0.4486771258
 40
0.500623876
 40
0.552571497
 40
0.6044149809
 40
0.6560675418
 40
0.7074592261
 40
0.7584180477
 40
0.8088740491
 40
0.8588069214
 40
0.9080569469
 40
0.9564480097
 40
1.0
 40
1.0
 40
1.0
 40
1.0
 10
24.7294297396
 20
31.9298240406
 30
0.0
 10
25.0196618448
 20
31.9298083559
 30
0.0
 10
25.6250199263
 20
31.8828237294
 30
0.0
 10
26.5269564284
 20
31.6635599505
 30
0.0
 10
27.4116073648
 20
31.2845503851
 30
0.0
 10
28.23308826
 20
30.7579998874
 30
0.0
 10
28.9667131733
 20
30.0981263275
 30
0.0
 10
29.5923277814
 20
29.3231071242
 30
0.0
 10
30.0939269061
 20
28.4538750017
 30
0.0
 10
30.4595687998
 20
27.5133397271
 30
0.0
 10
30.6812453578
 20
26.5253279581
 30
0.0
 10
30.7544328605
 20
25.513557802
 30
0.0
 10
30.6776400699
 20
24.5020613168
 30
0.0
 10
30.4524182483
 20
23.5148825274
 30
0.0
 10
30.0833739109
 20
22.5757635727
 30
0.0
 10
29.5786203275
 20
21.7085420964
 30
0.0
 10
28.9502044979
 20
20.9360841704
 30
0.0
 10
28.2142238805
 20
20.2792402188
 30
0.0
 10
27.3908843992
 20
19.7560807762
 30
0.0
 10
26.5049522968
 20
19.3807224996
 30
0.0
 10
25.6096798073
 20
19.1669182152
 30
0.0
 10
25.0120726608
 20
19.1217653945
 30
0.0
 10
24.7294297396
 20
19.1217477955
 30
0.0
  0
LINE
  5
338
100
AcDbEntity
  8
0
100
AcDbLine
 62
7
  6
BYLAYER
 10
18.5294297396
 20
19.5488106226
 11
14.5755069227
 21
19.5621481346
  0
LINE
  5
339
100
AcDbEntity
  8
0
100
AcDbLine
 62
7
  6
BYLAYER
 10
14.5755069227
 20
31.4894223049
 11
18.5294297396
 21
31.5027598169
  0
SPLINE
  5
33A
100
AcDbEntity
  8
0
100
AcDbSpline
 62
7
  6
BYLAYER
 70
0
 71
3
 72
19
 73
15
 74
0
 42
0.0000001
 43
0.0000001
 44
0.0000000001
 40
0.0
 40
0.0
 40
0.0
 40
0.0
 40
0.0376097225
 40
0.0646360797
 40
0.0904464127
 40
0.1235096992
 40
0.1685828409
 40
0.2290938756
 40
0.3073790566
 40
0.4052585526
 40
0.5233577361
 40
0.6615777585
 40
0.8203294383
 40
1.0
 40
1.0
 40
1.0
 40
1.0
 10
28.5794297396
 20
28.5765240343
 30
0.0
 10
28.5794297396
 20
28.5820626688
 30
0.0
 10
28.5801758311
 20
28.591716025
 30
0.0
 10
28.5874764672
 20
28.6038671043
 30
0.0
 10
28.6003129221
 20
28.6080278956
 30
0.0
 10
28.6156587608
 20
28.605263095
 30
0.0
 10
28.6344541718
 20
28.5970797008
 30
0.0
 10
28.6574088817
 20
28.5825654368
 30
0.0
 10
28.6848462573
 20
28.5610101879
 30
0.0
 10
28.7167620335
 20
28.5316412327
 30
0.0
 10
28.752868302
 20
28.4939573827
 30
0.0
 10
28.7927263237
 20
28.4475783355
 30
0.0
 10
28.8358415592
 20
28.3921561018
 30
0.0
 10
28.86461744
 20
28.35144011
 30
0.0
 10
28.8794297396
 20
28.329515374
 30
0.0
  0
SPLINE
  5
33B
100
AcDbEntity
  8
0
100
AcDbSpline
 62
7
  6
BYLAYER
 70
0
 71
3
 72
13
 73
9
 74
0
 42
0.0000001
 43
0.0000001
 44
0.0000000001
 40
0.0
 40
0.0
 40
0.0
 40
0.0
 40
0.2307551132
 40
0.4404104719
 40
0.6318269107
 40
0.7897757588
 40
0.91440202
 40
1.0
 40
1.0
 40
1.0
 40
1.0
 10
28.8794297396
 20
27.9377346388
 30
0.0
 10
28.8529432
 20
27.983307377
 30
0.0
 10
28.8027860999
 20
28.0705099176
 30
0.0
 10
28.7321632558
 20
28.1964043737
 30
0.0
 10
28.6718616303
 20
28.3089093191
 30
0.0
 10
28.6240467775
 20
28.4062919523
 30
0.0
 10
28.5924252383
 20
28.4838559137
 30
0.0
 10
28.5794297396
 20
28.5310997027
 30
0.0
 10
28.5794297396
 20
28.5506525698
 30
0.0
  0
SPLINE
  5
33C
100
AcDbEntity
  8
0
100
AcDbSpline
 62
7
  6
BYLAYER
 70
0
 71
3
 72
13
 73
9
 74
0
 42
0.0000001
 43
0.0000001
 44
0.0000000001
 40
0.0
 40
0.0
 40
0.0
 40
0.0
 40
0.0859165337
 40
0.2108913955
 40
0.3690417536
 40
0.5603856281
 40
0.7697426912
 40
1.0
 40
1.0
 40
1.0
 40
1.0
 10
20.8794297396
 20
28.5506525698
 30
0.0
 10
20.8794297396
 20
28.5310270047
 30
0.0
 10
20.8663442513
 20
28.4836422084
 30
0.0
 10
20.834650661
 20
28.4058996032
 30
0.0
 10
20.7867467226
 20
28.3084368597
 30
0.0
 10
20.7264569271
 20
28.1959712855
 30
0.0
 10
20.6559262929
 20
28.0702528366
 30
0.0
 10
20.6058590485
 20
27.9832089058
 30
0.0
 10
20.5794297396
 20
27.9377346388
 30
0.0
  0
SPLINE
  5
33D
100
AcDbEntity
  8
0
100
AcDbSpline
 62
7
  6
BYLAYER
 70
0
 71
3
 72
19
 73
15
 74
0
 42
0.0000001
 43
0.0000001
 44
0.0000000001
 40
0.0
 40
0.0
 40
0.0
 40
0.0
 40
0.1795578993
 40
0.3382136853
 40
0.4763675172
 40
0.5944403177
 40
0.692296337
 40
0.7706230652
 40
0.8311766182
 40
0.8763437026
 40
0.9094375026
 40
0.9352933617
 40
0.9623360989
 40
1.0
 40
1.0
 40
1.0
 40
1.0
 10
20.5794297396
 20
28.329515374
 30
0.0
 10
20.594232718
 20
28.351426313
 30
0.0
 10
20.6229902524
 20
28.3921174757
 30
0.0
 10
20.6660779635
 20
28.4475095966
 30
0.0
 10
20.7059137251
 20
28.4938709026
 30
0.0
 10
20.7420028436
 20
28.5315473034
 30
0.0
 10
20.7739111867
 20
28.5609221137
 30
0.0
 10
20.8013483067
 20
28.5824921008
 30
0.0
 10
20.8243170399
 20
28.5970319256
 30
0.0
 10
20.8431289353
 20
28.6052406863
 30
0.0
 10
20.8584930789
 20
28.6080291125
 30
0.0
 10
20.8713544297
 20
28.6038949174
 30
0.0
 10
20.8786831975
 20
28.5917361055
 30
0.0
 10
20.8794297396
 20
28.582070635
 30
0.0
 10
20.8794297396
 20
28.5765240343
 30
0.0
  0
SPLINE
  5
33E
100
AcDbEntity
  8
0
100
AcDbSpline
 62
7
  6
BYLAYER
 70
0
 71
3
 72
19
 73
15
 74
0
 42
0.0000001
 43
0.0000001
 44
0.0000000001
 40
0.0
 40
0.0
 40
0.0
 40
0.0
 40
0.0376097225
 40
0.0646360797
 40
0.0904464127
 40
0.1235096992
 40
0.1685828409
 40
0.2290938756
 40
0.3073790566
 40
0.4052585526
 40
0.5233577361
 40
0.6615777585
 40
0.8203294383
 40
1.0
 40
1.0
 40
1.0
 40
1.0
 10
20.8794297396
 20
22.4750464053
 30
0.0
 10
20.8794297396
 20
22.4695077708
 30
0.0
 10
20.8786836482
 20
22.4598544146
 30
0.0
 10
20.8713830121
 20
22.4477033353
 30
0.0
 10
20.8585465572
 20
22.4435425439
 30
0.0
 10
20.8432007185
 20
22.4463073446
 30
0.0
 10
20.8244053075
 20
22.4544907387
 30
0.0
 10
20.8014505976
 20
22.4690050028
 30
0.0
 10
20.774013222
 20
22.4905602517
 30
0.0
 10
20.7420974458
 20
22.5199292068
 30
0.0
 10
20.7059911773
 20
22.5576130569
 30
0.0
 10
20.6661331556
 20
22.6039921041
 30
0.0
 10
20.6230179201
 20
22.6594143378
 30
0.0
 10
20.5942420393
 20
22.7001303295
 30
0.0
 10
20.5794297396
 20
22.7220550655
 30
0.0
  0
SPLINE
  5
33F
100
AcDbEntity
  8
0
100
AcDbSpline
 62
7
  6
BYLAYER
 70
0
 71
3
 72
13
 73
9
 74
0
 42
0.0000001
 43
0.0000001
 44
0.0000000001
 40
0.0
 40
0.0
 40
0.0
 40
0.0
 40
0.2307551132
 40
0.4404104719
 40
0.6318269107
 40
0.7897757588
 40
0.91440202
 40
1.0
 40
1.0
 40
1.0
 40
1.0
 10
20.5794297396
 20
23.1138358007
 30
0.0
 10
20.6059162793
 20
23.0682630625
 30
0.0
 10
20.6560733794
 20
22.9810605219
 30
0.0
 10
20.7266962235
 20
22.8551660658
 30
0.0
 10
20.786997849
 20
22.7426611205
 30
0.0
 10
20.8348127018
 20
22.6452784873
 30
0.0
 10
20.8664342409
 20
22.5677145259
 30
0.0
 10
20.8794297396
 20
22.5204707368
 30
0.0
 10
20.8794297396
 20
22.5009178698
 30
0.0
  0
SPLINE
  5
340
100
AcDbEntity
  8
0
100
AcDbSpline
 62
7
  6
BYLAYER
 70
0
 71
3
 72
13
 73
9
 74
0
 42
0.0000001
 43
0.0000001
 44
0.0000000001
 40
0.0
 40
0.0
 40
0.0
 40
0.0
 40
0.0859165337
 40
0.2108913955
 40
0.3690417536
 40
0.5603856281
 40
0.7697426912
 40
1.0
 40
1.0
 40
1.0
 40
1.0
 10
28.5794297396
 20
22.5009178698
 30
0.0
 10
28.5794297396
 20
22.5205434348
 30
0.0
 10
28.592515228
 20
22.5679282311
 30
0.0
 10
28.6242088183
 20
22.6456708363
 30
0.0
 10
28.6721127566
 20
22.7431335799
 30
0.0
 10
28.7324025522
 20
22.855599154
 30
0.0
 10
28.8029331864
 20
22.981317603
 30
0.0
 10
28.8530004308
 20
23.0683615337
 30
0.0
 10
28.8794297396
 20
23.1138358007
 30
0.0
  0
SPLINE
  5
341
100
AcDbEntity
  8
0
100
AcDbSpline
 62
7
  6
BYLAYER
 70
0
 71
3
 72
19
 73
15
 74
0
 42
0.0000001
 43
0.0000001
 44
0.0000000001
 40
0.0
 40
0.0
 40
0.0
 40
0.0
 40
0.1795578993
 40
0.3382136853
 40
0.4763675172
 40
0.5944403177
 40
0.692296337
 40
0.7706230652
 40
0.8311766182
 40
0.8763437026
 40
0.9094375026
 40
0.9352933617
 40
0.9623360989
 40
1.0
 40
1.0
 40
1.0
 40
1.0
 10
28.8794297396
 20
22.7220550655
 30
0.0
 10
28.8646267613
 20
22.7001441266
 30
0.0
 10
28.8358692269
 20
22.6594529638
 30
0.0
 10
28.7927815158
 20
22.6040608429
 30
0.0
 10
28.7529457542
 20
22.557699537
 30
0.0
 10
28.7168566357
 20
22.5200231361
 30
0.0
 10
28.6849482926
 20
22.4906483258
 30
0.0
 10
28.6575111726
 20
22.4690783387
 30
0.0
 10
28.6345424394
 20
22.454538514
 30
0.0
 10
28.615730544
 20
22.4463297532
 30
0.0
 10
28.6003664004
 20
22.443541327
 30
0.0
 10
28.5875050496
 20
22.4476755222
 30
0.0
 10
28.5801762818
 20
22.459834334
 30
0.0
 10
28.5794297396
 20
22.4694998046
 30
0.0
 10
28.5794297396
 20
22.4750464053
 30
0.0
  0
LINE
  5
342
100
AcDbEntity
  8
0
100
AcDbLine
 62
7
  6
BYLAYER
 10
26.3883573112
 20
21.0215694931
 11
23.1189087636
 21
21.0040353167
  0
SPLINE
  5
343
100
AcDbEntity
  8
0
100
AcDbSpline
 62
7
  6
BYLAYER
 70
0
 71
3
 72
47
 73
43
 74
0
 42
0.0000001
 43
0.0000001
 44
0.0000000001
 40
0.0
 40
0.0
 40
0.0
 40
0.0
 40
0.1315435592
 40
0.201435767
 40
0.2707453412
 40
0.3437770902
 40
0.3792052096
 40
0.4137130707
 40
0.4474693937
 40
0.4805230258
 40
0.544270347
 40
0.5849747046
 40
0.623998641
 40
0.6671436219
 40
0.7243871388
 40
0.7752534439
 40
0.8144258561
 40
0.8461927145
 40
0.8717547342
 40
0.8903797309
 40
0.8962001075
 40
0.9009094749
 40
0.9028556087
 40
0.9045358085
 40
0.9059558097
 40
0.9071214118
 40
0.9081688903
 40
0.9088255053
 40
0.9090551024
 40
0.909315505
 40
0.9100433427
 40
0.9112339045
 40
0.9128857521
 40
0.9149994511
 40
0.9206130877
 40
0.9280585405
 40
0.9373068255
 40
0.9483317221
 40
0.9593559416
 40
0.9716682414
 40
0.9852288835
 40
1.0
 40
1.0
 40
1.0
 40
1.0
 10
28.3777893585
 20
23.0848289215
 30
0.0
 10
28.3763155045
 20
23.0752598739
 30
0.0
 10
28.3737374231
 20
23.0606562382
 30
0.0
 10
28.3699708814
 20
23.0410883183
 30
0.0
 10
28.3669266883
 20
23.0257668446
 30
0.0
 10
28.364368061
 20
23.0129352745
 30
0.0
 10
28.36235226
 20
23.0026073668
 30
0.0
 10
28.3609404824
 20
22.9951070843
 30
0.0
 10
28.3595660891
 20
22.9877776046
 30
0.0
 10
28.3577292468
 20
22.9783454401
 30
0.0
 10
28.3557319902
 20
22.9684236885
 30
0.0
 10
28.3535933029
 20
22.9580824005
 30
0.0
 10
28.351740984
 20
22.9492303856
 30
0.0
 10
28.3496362933
 20
22.9391875231
 30
0.0
 10
28.3473641073
 20
22.9282890986
 30
0.0
 10
28.3452654728
 20
22.9176536465
 30
0.0
 10
28.3436092201
 20
22.9088427869
 30
0.0
 10
28.342271204
 20
22.9018672625
 30
0.0
 10
28.3412158602
 20
22.8963773731
 30
0.0
 10
28.3405196206
 20
22.8927632581
 30
0.0
 10
28.3401088856
 20
22.8906569691
 30
0.0
 10
28.3399316199
 20
22.8897561741
 30
0.0
 10
28.339812144
 20
22.889154094
 30
0.0
 10
28.3397388703
 20
22.888790666
 30
0.0
 10
28.3396752695
 20
22.8884811712
 30
0.0
 10
28.3396189504
 20
22.8882256172
 30
0.0
 10
28.3395703378
 20
22.88800345
 30
0.0
 10
28.339538496
 20
22.8878971569
 30
0.0
 10
28.3395244147
 20
22.8877686651
 30
0.0
 10
28.3395953509
 20
22.8878937673
 30
0.0
 10
28.3396378357
 20
22.8880064701
 30
0.0
 10
28.3397433391
 20
22.8882712299
 30
0.0
 10
28.3398583624
 20
22.888607369
 30
0.0
 10
28.3400738432
 20
22.8892684356
 30
0.0
 10
28.3403843164
 20
22.8903379205
 30
0.0
 10
28.340797044
 20
22.8919288333
 30
0.0
 10
28.3412530264
 20
22.8939170772
 30
0.0
 10
28.3417077231
 20
22.8961757802
 30
0.0
 10
28.342145767
 20
22.898666791
 30
0.0
 10
28.3425556698
 20
22.9013516403
 30
0.0
 10
28.3429406699
 20
22.9043184877
 30
0.0
 10
28.3431623746
 20
22.906392161
 30
0.0
 10
28.3432661107
 20
22.9074743862
 30
0.0
  0
SPLINE
  5
344
100
AcDbEntity
  8
0
100
AcDbSpline
 62
7
  6
BYLAYER
 70
0
 71
3
 72
12
 73
8
 74
0
 42
0.0000001
 43
0.0000001
 44
0.0000000001
 40
0.0
 40
0.0
 40
0.0
 40
0.0
 40
0.1735789571
 40
0.3570189525
 40
0.5536967301
 40
0.7664977777
 40
1.0
 40
1.0
 40
1.0
 40
1.0
 10
28.3777893891
 20
23.0848289156
 30
0.0
 10
28.3522609059
 20
23.0897707992
 30
0.0
 10
28.3010868987
 20
23.1079422087
 30
0.0
 10
28.2323815376
 20
23.1561598271
 30
0.0
 10
28.1760400201
 20
23.2263749664
 30
0.0
 10
28.1383211708
 20
23.3163643831
 30
0.0
 10
28.1302616069
 20
23.3835370402
 30
0.0
 10
28.1294297396
 20
23.4185061685
 30
0.0
  0
SPLINE
  5
345
100
AcDbEntity
  8
0
100
AcDbSpline
 62
7
  6
BYLAYER
 70
0
 71
3
 72
10
 73
6
 74
0
 42
0.0000001
 43
0.0000001
 44
0.0000000001
 40
0.0
 40
0.0
 40
0.0
 40
0.0
 40
0.3414376486
 40
0.6748603594
 40
1.0
 40
1.0
 40
1.0
 40
1.0
 10
28.4294297396
 20
23.0792315212
 30
0.0
 10
28.4235065789
 20
23.0793134045
 30
0.0
 10
28.4118153339
 20
23.0798408954
 30
0.0
 10
28.3944667058
 20
23.0810915306
 30
0.0
 10
28.3833283517
 20
23.0837610216
 30
0.0
 10
28.3777893891
 20
23.0848289156
 30
0.0
  0
SPLINE
  5
346
100
AcDbEntity
  8
0
100
AcDbSpline
 62
7
  6
BYLAYER
 70
0
 71
3
 72
12
 73
8
 74
0
 42
0.0000001
 43
0.0000001
 44
0.0000000001
 40
0.0
 40
0.0
 40
0.0
 40
0.0
 40
0.1392746366
 40
0.3263892351
 40
0.5498001076
 40
0.7867836734
 40
1.0
 40
1.0
 40
1.0
 40
1.0
 10
30.7294297396
 20
22.8922331071
 30
0.0
 10
30.7294297396
 20
22.9097903048
 30
0.0
 10
30.7121574135
 20
22.9499051345
 30
0.0
 10
30.6638318499
 20
23.0001019516
 30
0.0
 10
30.5938797592
 20
23.0439377467
 30
0.0
 10
30.5132012413
 20
23.0721191705
 30
0.0
 10
30.4563059158
 20
23.0795782766
 30
0.0
 10
30.4294297396
 20
23.0792315212
 30
0.0
  0
SPLINE
  5
347
100
AcDbEntity
  8
0
100
AcDbSpline
 62
7
  6
BYLAYER
 70
0
 71
3
 72
10
 73
6
 74
0
 42
0.0000001
 43
0.0000001
 44
0.0000000001
 40
0.0
 40
0.0
 40
0.0
 40
0.0
 40
0.3198215607
 40
0.6589173978
 40
1.0
 40
1.0
 40
1.0
 40
1.0
 10
30.7294297396
 20
22.8496869925
 30
0.0
 10
30.6987127766
 20
22.8604823185
 30
0.0
 10
30.6340740806
 20
22.8790663974
 30
0.0
 10
30.533450496
 20
22.8957449741
 30
0.0
 10
30.464152901
 20
22.8996793601
 30
0.0
 10
30.4294297396
 20
22.899667947
 30
0.0
  0
SPLINE
  5
348
100
AcDbEntity
  8
0
100
AcDbSpline
 62
7
  6
BYLAYER
 70
0
 71
3
 72
10
 73
6
 74
0
 42
0.0000001
 43
0.0000001
 44
0.0000000001
 40
0.0
 40
0.0
 40
0.0
 40
0.0
 40
0.3412490009
 40
0.6802515725
 40
1.0
 40
1.0
 40
1.0
 40
1.0
 10
30.4294297396
 20
28.1519024926
 30
0.0
 10
30.4641665414
 20
28.1519338515
 30
0.0
 10
30.5334619838
 20
28.1559192058
 30
0.0
 10
30.6340586929
 20
28.1726751081
 30
0.0
 10
30.6986974862
 20
28.1911490329
 30
0.0
 10
30.7294297396
 20
28.2018688377
 30
0.0
  0
SPLINE
  5
349
100
AcDbEntity
  8
0
100
AcDbSpline
 62
7
  6
BYLAYER
 70
0
 71
3
 72
12
 73
8
 74
0
 42
0.0000001
 43
0.0000001
 44
0.0000000001
 40
0.0
 40
0.0
 40
0.0
 40
0.0
 40
0.2123903257
 40
0.4477531865
 40
0.6716973618
 40
0.8599565777
 40
1.0
 40
1.0
 40
1.0
 40
1.0
 10
30.4294297396
 20
27.9723389183
 30
0.0
 10
30.4562033236
 20
27.9718365408
 30
0.0
 10
30.5128502879
 20
27.9790013048
 30
0.0
 10
30.5933347961
 20
28.0071359993
 30
0.0
 10
30.6631616917
 20
28.05116486
 30
0.0
 10
30.7119248953
 20
28.1013396034
 30
0.0
 10
30.7294297396
 20
28.1416805778
 30
0.0
 10
30.7294297396
 20
28.1593373346
 30
0.0
  0
SPLINE
  5
34A
100
AcDbEntity
  8
0
100
AcDbSpline
 62
7
  6
BYLAYER
 70
0
 71
3
 72
12
 73
8
 74
0
 42
0.0000001
 43
0.0000001
 44
0.0000000001
 40
0.0
 40
0.0
 40
0.0
 40
0.0
 40
0.2195727632
 40
0.4208158807
 40
0.612159361
 40
0.8026130563
 40
1.0
 40
1.0
 40
1.0
 40
1.0
 10
28.1294297396
 20
27.6330642711
 30
0.0
 10
28.1301657884
 20
27.6697114003
 30
0.0
 10
28.1389469089
 20
27.7403242549
 30
0.0
 10
28.1808261729
 20
27.8353058374
 30
0.0
 10
28.2467064905
 20
27.9089910347
 30
0.0
 10
28.3314399561
 20
27.9591271533
 30
0.0
 10
28.3965111199
 20
27.9708803754
 30
0.0
 10
28.4294297396
 20
27.9723389183
 30
0.0
  0
SPLINE
  5
34B
100
AcDbEntity
  8
0
100
AcDbSpline
 62
7
  6
BYLAYER
 70
0
 71
3
 72
12
 73
8
 74
0
 42
0.0000001
 43
0.0000001
 44
0.0000000001
 40
0.0
 40
0.0
 40
0.0
 40
0.0
 40
0.1923209278
 40
0.3881305846
 40
0.5876446562
 40
0.791775779
 40
1.0
 40
1.0
 40
1.0
 40
1.0
 10
28.3432658833
 20
22.9074690867
 30
0.0
 10
28.2984010874
 20
22.9156351626
 30
0.0
 10
28.2097227634
 20
22.9451605046
 30
0.0
 10
28.0934790801
 20
23.0251326521
 30
0.0
 10
28.0019694885
 20
23.1363319273
 30
0.0
 10
27.9430150562
 20
23.270812316
 30
0.0
 10
27.9294297396
 20
23.3691333651
 30
0.0
 10
27.9294297396
 20
23.4185061685
 30
0.0
  0
SPLINE
  5
34C
100
AcDbEntity
  8
0
100
AcDbSpline
 62
7
  6
BYLAYER
 70
0
 71
3
 72
11
 73
7
 74
0
 42
0.0000001
 43
0.0000001
 44
0.0000000001
 40
0.0
 40
0.0
 40
0.0
 40
0.0
 40
0.2497692933
 40
0.4996867092
 40
0.7497595924
 40
1.0
 40
1.0
 40
1.0
 40
1.0
 10
28.4294297396
 20
22.899667947
 30
0.0
 10
28.4222170835
 20
22.8996533138
 30
0.0
 10
28.407784355
 20
22.8999562379
 30
0.0
 10
28.3861760597
 20
22.9014180843
 30
0.0
 10
28.3646378094
 20
22.9038335029
 30
0.0
 10
28.3503759371
 20
22.9061782755
 30
0.0
 10
28.3432658833
 20
22.9074690867
 30
0.0
  0
SPLINE
  5
34D
100
AcDbEntity
  8
0
100
AcDbSpline
 62
7
  6
BYLAYER
 70
0
 71
3
 72
12
 73
8
 74
0
 42
0.0000001
 43
0.0000001
 44
0.0000000001
 40
0.0
 40
0.0
 40
0.0
 40
0.0
 40
0.2094359266
 40
0.4135586322
 40
0.6131451248
 40
0.8089221462
 40
1.0
 40
1.0
 40
1.0
 40
1.0
 10
27.9294297396
 20
27.6330642711
 30
0.0
 10
27.9294297396
 20
27.6887018182
 30
0.0
 10
27.9466978037
 20
27.7993422896
 30
0.0
 10
28.0209390181
 20
27.9471393141
 30
0.0
 10
28.1345551137
 20
28.0625519021
 30
0.0
 10
28.2752057729
 20
28.1352287719
 30
0.0
 10
28.3786691056
 20
28.1518664711
 30
0.0
 10
28.4294297396
 20
28.1519024926
 30
0.0
  0
LINE
  5
34E
100
AcDbEntity
  8
0
100
AcDbLine
 62
7
  6
BYLAYER
 10
23.1189087636
 20
30.0475351228
 11
26.3883573112
 21
30.0300009464
  0
SPLINE
  5
34F
100
AcDbEntity
  8
0
100
AcDbSpline
 62
7
  6
BYLAYER
 70
0
 71
3
 72
11
 73
7
 74
0
 42
0.0000001
 43
0.0000001
 44
0.0000000001
 40
0.0
 40
0.0
 40
0.0
 40
0.0
 40
0.2543806183
 40
0.5049098206
 40
0.7527936598
 40
1.0
 40
1.0
 40
1.0
 40
1.0
 10
17.5294297396
 20
29.986778669
 30
0.0
 10
17.4810075747
 20
29.986778669
 30
0.0
 10
17.3843506031
 20
30.0003263855
 30
0.0
 10
17.2518311732
 20
30.0594968959
 30
0.0
 10
17.142106983
 20
30.1524760225
 30
0.0
 10
17.0899920114
 20
30.2329687335
 30
0.0
 10
17.0706304022
 20
30.2758574732
 30
0.0
  0
SPLINE
  5
350
100
AcDbEntity
  8
0
100
AcDbSpline
 62
7
  6
BYLAYER
 70
0
 71
3
 72
10
 73
6
 74
0
 42
0.0000001
 43
0.0000001
 44
0.0000000001
 40
0.0
 40
0.0
 40
0.0
 40
0.0
 40
0.3236536298
 40
0.6566890269
 40
1.0
 40
1.0
 40
1.0
 40
1.0
 10
17.0365654377
 20
29.4054808107
 30
0.0
 10
17.0349507236
 20
29.4127237322
 30
0.0
 10
17.032277006
 20
29.4275598905
 30
0.0
 10
17.0299282661
 20
29.4503856807
 30
0.0
 10
17.0294297396
 20
29.4658991431
 30
0.0
 10
17.0294297396
 20
29.4737705752
 30
0.0
  0
SPLINE
  5
351
100
AcDbEntity
  8
0
100
AcDbSpline
 62
7
  6
BYLAYER
 70
0
 71
3
 72
12
 73
8
 74
0
 42
0.0000001
 43
0.0000001
 44
0.0000000001
 40
0.0
 40
0.0
 40
0.0
 40
0.0
 40
0.2431074564
 40
0.4686205823
 40
0.6701823029
 40
0.8477060973
 40
1.0
 40
1.0
 40
1.0
 40
1.0
 10
17.5294297396
 20
29.1577593192
 30
0.0
 10
17.4820890027
 20
29.1577593192
 30
0.0
 10
17.3906240547
 20
29.1654475875
 30
0.0
 10
17.2637713867
 20
29.1989690783
 30
0.0
 10
17.1572774691
 20
29.2513639469
 30
0.0
 10
17.0774724345
 20
29.3193427947
 30
0.0
 10
17.0447623588
 20
29.3769796552
 30
0.0
 10
17.0365654377
 20
29.4054808107
 30
0.0
  0
SPLINE
  5
352
100
AcDbEntity
  8
0
100
AcDbSpline
 62
7
  6
BYLAYER
 70
0
 71
3
 72
11
 73
7
 74
0
 42
0.0000001
 43
0.0000001
 44
0.0000000001
 40
0.0
 40
0.0
 40
0.0
 40
0.0
 40
0.0655473878
 40
0.2694459644
 40
0.5895575768
 40
1.0
 40
1.0
 40
1.0
 40
1.0
 10
17.0294415259
 20
30.419536443
 30
0.0
 10
17.0297164716
 20
30.4228035218
 30
0.0
 10
17.0312721139
 20
30.3931306641
 30
0.0
 10
17.0362813737
 20
30.3797037952
 30
0.0
 10
17.0487903367
 20
30.3260519159
 30
0.0
 10
17.0621832446
 20
30.2945691383
 30
0.0
 10
17.0706304022
 20
30.2758574732
 30
0.0
  0
SPLINE
  5
353
100
AcDbEntity
  8
0
100
AcDbSpline
 62
7
  6
BYLAYER
 70
0
 71
3
 72
11
 73
7
 74
0
 42
0.0000001
 43
0.0000001
 44
0.0000000001
 40
0.0
 40
0.0
 40
0.0
 40
0.0
 40
0.2472063402
 40
0.4950901794
 40
0.7456193817
 40
1.0
 40
1.0
 40
1.0
 40
1.0
 10
17.0706304022
 20
20.7757129663
 30
0.0
 10
17.0899920114
 20
20.818601706
 30
0.0
 10
17.142106983
 20
20.8990944171
 30
0.0
 10
17.2518311732
 20
20.9920735436
 30
0.0
 10
17.3843506031
 20
21.051244054
 30
0.0
 10
17.4810075747
 20
21.0647917706
 30
0.0
 10
17.5294297396
 20
21.0647917706
 30
0.0
  0
SPLINE
  5
354
100
AcDbEntity
  8
0
100
AcDbSpline
 62
7
  6
BYLAYER
 70
0
 71
3
 72
10
 73
6
 74
0
 42
0.0000001
 43
0.0000001
 44
0.0000000001
 40
0.0
 40
0.0
 40
0.0
 40
0.0
 40
0.3445530074
 40
0.6778091696
 40
1.0
 40
1.0
 40
1.0
 40
1.0
 10
17.0294297396
 20
21.5777998644
 30
0.0
 10
17.0294297396
 20
21.5856997744
 30
0.0
 10
17.0299312393
 20
21.6012468385
 30
0.0
 10
17.0322866295
 20
21.6240720092
 30
0.0
 10
17.0349580214
 20
21.6388794422
 30
0.0
 10
17.0365654377
 20
21.6460896288
 30
0.0
  0
SPLINE
  5
355
100
AcDbEntity
  8
0
100
AcDbSpline
 62
7
  6
BYLAYER
 70
0
 71
3
 72
11
 73
7
 74
0
 42
0.0000001
 43
0.0000001
 44
0.0000000001
 40
0.0
 40
0.0
 40
0.0
 40
0.0
 40
0.4116973956
 40
0.7316982212
 40
0.9349117071
 40
1.0
 40
1.0
 40
1.0
 40
1.0
 10
17.0706304022
 20
20.7757129663
 30
0.0
 10
17.0621574318
 20
20.7569441221
 30
0.0
 10
17.0487489856
 20
20.7254183654
 30
0.0
 10
17.0362504805
 20
20.6717236433
 30
0.0
 10
17.0312619244
 20
20.6583280742
 30
0.0
 10
17.0297145454
 20
20.6287898063
 30
0.0
 10
17.0294415259
 20
20.6320339965
 30
0.0
  0
SPLINE
  5
356
100
AcDbEntity
  8
0
100
AcDbSpline
 62
7
  6
BYLAYER
 70
0
 71
3
 72
12
 73
8
 74
0
 42
0.0000001
 43
0.0000001
 44
0.0000000001
 40
0.0
 40
0.0
 40
0.0
 40
0.0
 40
0.1518417813
 40
0.3293480634
 40
0.5312211008
 40
0.7570658042
 40
1.0
 40
1.0
 40
1.0
 40
1.0
 10
17.0365654377
 20
21.6460896288
 30
0.0
 10
17.0447380506
 20
21.674506263
 30
0.0
 10
17.0773564946
 20
21.7320749629
 30
0.0
 10
17.1570905641
 20
21.8000992677
 30
0.0
 10
17.2636824004
 20
21.8525821598
 30
0.0
 10
17.3906271436
 20
21.8861256154
 30
0.0
 10
17.4821225901
 20
21.8938111204
 30
0.0
 10
17.5294297396
 20
21.8938111204
 30
0.0
  0
SPLINE
  5
357
100
AcDbEntity
  8
0
100
AcDbSpline
 62
7
  6
BYLAYER
 70
0
 71
3
 72
13
 73
9
 74
0
 42
0.0000001
 43
0.0000001
 44
0.0000000001
 40
0.0
 40
0.0
 40
0.0
 40
0.0
 40
0.164883103
 40
0.3333601278
 40
0.5001804266
 40
0.661764008
 40
0.8375043496
 40
1.0
 40
1.0
 40
1.0
 40
1.0
 10
31.5203659608
 20
25.8445124864
 30
0.0
 10
31.5108211896
 20
25.8385451784
 30
0.0
 10
31.4925523983
 20
25.8247440176
 30
0.0
 10
31.4692017731
 20
25.7995979689
 30
0.0
 10
31.4506657272
 20
25.7709851308
 30
0.0
 10
31.4369967504
 20
25.7392297528
 30
0.0
 10
31.4290285305
 20
25.7058640126
 30
0.0
 10
31.4276011852
 20
25.6826931006
 30
0.0
 10
31.4278428289
 20
25.6716021078
 30
0.0
  0
SPLINE
  5
358
100
AcDbEntity
  8
0
100
AcDbSpline
 62
7
  6
BYLAYER
 70
0
 71
3
 72
15
 73
11
 74
0
 42
0.0000001
 43
0.0000001
 44
0.0000000001
 40
0.0
 40
0.0
 40
0.0
 40
0.0
 40
0.0830629814
 40
0.1631305753
 40
0.2433639448
 40
0.3330823559
 40
0.4993150131
 40
0.6612723936
 40
0.8504239958
 40
1.0
 40
1.0
 40
1.0
 40
1.0
 10
31.3668661034
 20
26.9950436703
 30
0.0
 10
31.3674887359
 20
26.9931067067
 30
0.0
 10
31.3681286712
 20
26.9891335684
 30
0.0
 10
31.3685821446
 20
26.9831827204
 30
0.0
 10
31.3702357835
 20
26.9772576918
 30
0.0
 10
31.3728560146
 20
26.9694568237
 30
0.0
 10
31.3753063422
 20
26.9595052125
 30
0.0
 10
31.3784909148
 20
26.9472438917
 30
0.0
 10
31.3814389273
 20
26.9353376889
 30
0.0
 10
31.3833026897
 20
26.9272529036
 30
0.0
 10
31.3841461921
 20
26.9236875535
 30
0.0
  0
SPLINE
  5
359
100
AcDbEntity
  8
0
100
AcDbSpline
 62
7
  6
BYLAYER
 70
0
 71
3
 72
9
 73
5
 74
0
 42
0.0000001
 43
0.0000001
 44
0.0000000001
 40
0.0
 40
0.0
 40
0.0
 40
0.0
 40
0.4937162328
 40
1.0
 40
1.0
 40
1.0
 40
1.0
 10
31.5190361345
 20
25.8977807737
 30
0.0
 10
31.5195159051
 20
25.8890234057
 30
0.0
 10
31.5204762395
 20
25.8712827752
 30
0.0
 10
31.5205689912
 20
25.8535080197
 30
0.0
 10
31.52037225
 20
25.8445164188
 30
0.0
  0
SPLINE
  5
35A
100
AcDbEntity
  8
0
100
AcDbSpline
 62
7
  6
BYLAYER
 70
0
 71
3
 72
12
 73
8
 74
0
 42
0.0000001
 43
0.0000001
 44
0.0000000001
 40
0.0
 40
0.0
 40
0.0
 40
0.0
 40
0.3385829861
 40
0.6193738656
 40
0.8302172557
 40
0.9586497157
 40
1.0
 40
1.0
 40
1.0
 40
1.0
 10
31.8076375154
 20
26.0816401314
 30
0.0
 10
31.8393417393
 20
26.1018379495
 30
0.0
 10
31.8982168657
 20
26.1393181247
 30
0.0
 10
31.9742664677
 20
26.1846750596
 30
0.0
 10
32.0392676133
 20
26.2267793935
 30
0.0
 10
32.0656510273
 20
26.2351348621
 30
0.0
 10
32.0933084767
 20
26.2560666875
 30
0.0
 10
32.0937587066
 20
26.2514978811
 30
0.0
  0
SPLINE
  5
35B
100
AcDbEntity
  8
0
100
AcDbSpline
 62
7
  6
BYLAYER
 70
0
 71
3
 72
12
 73
8
 74
0
 42
0.0000001
 43
0.0000001
 44
0.0000000001
 40
0.0
 40
0.0
 40
0.0
 40
0.0
 40
0.0413841758
 40
0.1695242499
 40
0.3797875637
 40
0.6603950364
 40
1.0
 40
1.0
 40
1.0
 40
1.0
 10
32.0306535401
 20
26.7308292088
 30
0.0
 10
32.0314017582
 20
26.7262958408
 30
0.0
 10
31.9993124537
 20
26.7393434769
 30
0.0
 10
31.971717539
 20
26.740583176
 30
0.0
 10
31.8981671607
 20
26.7643810359
 30
0.0
 10
31.8129405824
 20
26.7885136441
 30
0.0
 10
31.7462789881
 20
26.8095075275
 30
0.0
 10
31.7103192716
 20
26.8208455826
 30
0.0
  0
SPLINE
  5
35C
100
AcDbEntity
  8
0
100
AcDbSpline
 62
7
  6
BYLAYER
 70
0
 71
3
 72
10
 73
6
 74
0
 42
0.0000001
 43
0.0000001
 44
0.0000000001
 40
0.0
 40
0.0
 40
0.0
 40
0.0
 40
0.3636727612
 40
0.6987340462
 40
1.0
 40
1.0
 40
1.0
 40
1.0
 10
18.0305384825
 20
25.4035245165
 30
0.0
 10
18.0310115124
 20
25.3783682829
 30
0.0
 10
18.0241379069
 20
25.3292403428
 30
0.0
 10
17.9893337031
 20
25.2678104567
 30
0.0
 10
17.9556381179
 20
25.2381273737
 30
0.0
 10
17.9379394077
 20
25.2271187779
 30
0.0
  0
SPLINE
  5
35D
100
AcDbEntity
  8
0
100
AcDbSpline
 62
7
  6
BYLAYER
 70
0
 71
3
 72
12
 73
8
 74
0
 42
0.0000001
 43
0.0000001
 44
0.0000000001
 40
0.0
 40
0.0
 40
0.0
 40
0.0
 40
0.3385829861
 40
0.6193738656
 40
0.8302172557
 40
0.9586497157
 40
1.0
 40
1.0
 40
1.0
 40
1.0
 10
17.6512219639
 20
24.9699303082
 30
0.0
 10
17.61951774
 20
24.94973249
 30
0.0
 10
17.5606426136
 20
24.9122523148
 30
0.0
 10
17.4845930116
 20
24.86689538
 30
0.0
 10
17.419591866
 20
24.824791046
 30
0.0
 10
17.393208452
 20
24.8164355774
 30
0.0
 10
17.3655510026
 20
24.795503752
 30
0.0
 10
17.3651007727
 20
24.8000725585
 30
0.0
  0
SPLINE
  5
35E
100
AcDbEntity
  8
0
100
AcDbSpline
 62
7
  6
BYLAYER
 70
0
 71
3
 72
12
 73
8
 74
0
 42
0.0000001
 43
0.0000001
 44
0.0000000001
 40
0.0
 40
0.0
 40
0.0
 40
0.0
 40
0.0413841758
 40
0.1695242499
 40
0.3797875637
 40
0.6603950364
 40
1.0
 40
1.0
 40
1.0
 40
1.0
 10
17.4282059392
 20
24.3207412307
 30
0.0
 10
17.4274577211
 20
24.3252745988
 30
0.0
 10
17.4595470256
 20
24.3122269626
 30
0.0
 10
17.4871419403
 20
24.3109872635
 30
0.0
 10
17.5606923186
 20
24.2871894036
 30
0.0
 10
17.6459188969
 20
24.2630567955
 30
0.0
 10
17.7125804912
 20
24.2420629121
 30
0.0
 10
17.7485402077
 20
24.230724857
 30
0.0
  0
SPLINE
  5
35F
100
AcDbEntity
  8
0
100
AcDbSpline
 62
7
  6
BYLAYER
 70
0
 71
3
 72
9
 73
5
 74
0
 42
0.0000001
 43
0.0000001
 44
0.0000000001
 40
0.0
 40
0.0
 40
0.0
 40
0.0
 40
0.4936099133
 40
1.0
 40
1.0
 40
1.0
 40
1.0
 10
17.9398241933
 20
25.1537902055
 30
0.0
 10
17.9391632399
 20
25.1658552094
 30
0.0
 10
17.9378931653
 20
25.1903020511
 30
0.0
 10
17.9376922896
 20
25.2147985787
 30
0.0
 10
17.938050168
 20
25.2271893526
 30
0.0
  0
SPLINE
  5
360
100
AcDbEntity
  8
0
100
AcDbSpline
 62
7
  6
BYLAYER
 70
0
 71
3
 72
15
 73
11
 74
0
 42
0.0000001
 43
0.0000001
 44
0.0000000001
 40
0.0
 40
0.0
 40
0.0
 40
0.0
 40
0.0831675559
 40
0.1631879782
 40
0.1922785536
 40
0.3363464732
 40
0.4993065502
 40
0.6635828317
 40
0.8376709824
 40
1.0
 40
1.0
 40
1.0
 40
1.0
 10
18.0925856561
 20
24.056339231
 30
0.0
 10
18.0919630326
 20
24.0582790105
 30
0.0
 10
18.0913034308
 20
24.0622514681
 30
0.0
 10
18.090953951
 20
24.066949397
 30
0.0
 10
18.0896967708
 20
24.0730309112
 30
0.0
 10
18.0868640854
 20
24.080789989
 30
0.0
 10
18.0841453552
 20
24.0920158441
 30
0.0
 10
18.0809130811
 20
24.1038636907
 30
0.0
 10
18.0781531556
 20
24.115816024
 30
0.0
 10
18.0762193266
 20
24.1238263885
 30
0.0
 10
18.0753038846
 20
24.1276959532
 30
0.0
  0
ENDSEC
  0
SECTION
  2
OBJECTS
  0
DICTIONARY
  5
C
100
AcDbDictionary
280
0
281
1
  3
ACAD_GROUP
350
D
  3
ACAD_MLINESTYLE
350
17
  3
ACAD_LAYOUT
350
1A
  3
ACAD_PLOTSETTINGS
350
19
  3
ACAD_PLOTSTYLENAME
350
E
  0
DICTIONARY
  5
D
102
{ACAD_REACTORS
330
C
102
}
100
AcDbDictionary
280
0
281
1
  0
ACDBDICTIONARYWDFLT
  5
E
102
{ACAD_REACTORS
330
C
102
}
100
AcDbDictionary
281
1
  3
Normal
350
F
100
AcDbDictionaryWithDefault
340
F
  0
DICTIONARY
  5
17
102
{ACAD_REACTORS
330
C
102
}
100
AcDbDictionary
280
0
281
1
  3
Standard
350
18
  0
DICTIONARY
  5
19
102
{ACAD_REACTORS
330
C
102
}
100
AcDbDictionary
281
1
  0
DICTIONARY
  5
1A
102
{ACAD_REACTORS
330
C
102
}
100
AcDbDictionary
281
1
  3
Model
350
361
  3
Layout1
350
362
  0
ACDBPLACEHOLDER
  5
F
102
{ACAD_REACTORS
330
E
102
}
  0
MLINESTYLE
  5
18
102
{ACAD_REACTORS
330
17
102
}
100
AcDbMlineStyle
  2
STANDARD
 70
0
  3

 62
256
 51
90.0
 52
90.0
 71
2
 49
0.5
 62
256
  6
BYLAYER
 49
-0.5
 62
256
  6
BYLAYER
  0
LAYOUT
  5
361
102
{ACAD_REACTORS
330
1A
102
}
100
AcDbPlotSettings
  1

  2
none_device
  4

  6

 40
0.0
 41
0.0
 42
0.0
 43
0.0
 44
210.0
 45
297.0
 46
0.0
 47
0.0
 48
0.0
 49
0.0
140
0.0
141
0.0
142
1.0
143
1.0
 70
1024
 72
1
 73
0
 74
0
  7

 75
0
147
1.0
148
0.0
149
0.0
100
AcDbLayout
  1
Model
 70
0
 71
0
 10
0.0
 20
0.0
 11
210.0
 21
297.0
 12
0.0
 22
0.0
 32
0.0
 14
0.0
 24
0.0
 34
0.0
 15
0.0
 25
0.0
 35
0.0
146
0.0
 13
0.0
 23
0.0
 33
0.0
 16
1.0
 26
0.0
 36
0.0
 17
0.0
 27
1.0
 37
0.0
 76
0
330
210
345
0
346
0
  0
LAYOUT
  5
362
102
{ACAD_REACTORS
330
1A
102
}
100
AcDbPlotSettings
  1

  2
none_device
  4

  6

 40
0.0
 41
0.0
 42
0.0
 43
0.0
 44
210.0
 45
297.0
 46
0.0
 47
0.0
 48
0.0
 49
0.0
140
0.0
141
0.0
142
1.0
143
1.0
 70
0
 72
1
 73
0
 74
0
  7

 75
0
147
1.0
148
0.0
149
0.0
100
AcDbLayout
  1
Layout1
 70
0
 71
1
 10
0.0
 20
0.0
 11
210.0
 21
297.0
 12
0.0
 22
0.0
 32
0.0
 14
0.0
 24
0.0
 34
0.0
 15
0.0
 25
0.0
 35
0.0
146
0.0
 13
0.0
 23
0.0
 33
0.0
 16
1.0
 26
0.0
 36
0.0
 17
0.0
 27
1.0
 37
0.0
 76
0
330
211
345
0
346
0
  0
ENDSEC
  0
EOF
