999
DXF file: C:\Users\sesa63760\Dev\_Creo\CAD\MCADID0004738_3D-CAD\drw0001_6.dxf
999
Pro/ENGINEER 2019471 by Parametric Technology Corporation
  0
SECTION
  2
HEADER
  9
$ACADVER
  1
AC1024
  9
$DWGCODEPAGE
  3
ANSI_1252
  9
$EXTMAX
 10
24.3098581119
 20
34.381085044
 30
0.0
  9
$EXTMIN
 10
0.0
 20
0.0
 30
0.0
  9
$LIMMIN
 10
0.0
 20
0.0
  9
$LIMMAX
 10
24.3098581119
 20
34.381085044
  9
$VIEWCTR
 10
12.154929056
 20
17.190542522
  9
$VIEWSIZE
 40
34.381085044
  9
$CLAYER
  8
0
  9
$LTSCALE
 40
2.2411373955
  9
$CELTYPE
  6
BYLAYER
  9
$DIMSCALE
 40
1.0
  9
$DIMASZ
 40
0.2894030728
  9
$DIMEXO
 40
1.0
  9
$DIMDLI
 40
1.5484222005
  9
$DIMEXE
 40
1.0
  9
$DIMCEN
 40
0.3667315738
  9
$DIMLFAC
 40
1.0
  9
$DIMBLK
  1
_FILLED
  9
$DIMALT
 70
0
  9
$DIMALTF
 40
0.0393700787
  9
$DIMTXT
 40
0.4051643019
  9
$DIMTOL
 70
1
  9
$DIMLIM
 70
0
  9
$DIMTFAC
 40
1.0
  9
$DIMTP
 40
0.01
  9
$DIMTM
 40
0.01
  9
$DIMGAP
 40
0.625
  9
$DIMDSEP
 70
46
  9
$AUNITS
 70
0
  9
$PDMODE
 70
3
  9
$PDSIZE
 40
0.3125
  9
$HANDSEED
  5
309
  9
$TILEMODE
 70
1
  9
$MEASUREMENT
 70
1
  9
$INSUNITS
 70
4
  0
ENDSEC
  0
SECTION
  2
CLASSES
  0
CLASS
  1
ACDBDICTIONARYWDFLT
  2
AcDbDictionaryWithDefault
  3
AutoCAD 2000
 90
0
 91
1
280
0
281
0
  0
CLASS
  1
ACDBPLACEHOLDER
  2
AcDbPlaceHolder
  3
AutoCAD 2000
 90
0
 91
1
280
0
281
0
  0
CLASS
  1
LAYOUT
  2
AcDbLayout
  3
AutoCAD 2000
 90
0
 91
0
280
0
281
0
  0
ENDSEC
  0
SECTION
  2
TABLES
  0
TABLE
  2
VPORT
  5
8
100
AcDbSymbolTable
 70
2
  0
VPORT
  5
1F4
100
AcDbSymbolTableRecord
100
AcDbViewportTableRecord
  2
*ACTIVE
 70
0
 10
0.0
 20
0.0
 11
1.0
 21
1.0
 12
12.154929056
 22
17.190542522
 13
0.0
 23
0.0
 14
1.0
 24
1.0
 15
0.0
 25
0.0
 16
0.0
 26
0.0
 36
1.0
 17
0.0
 27
0.0
 37
0.0
 40
34.381085044
 41
0.7070707071
 42
50.0
 43
0.0
 44
0.0
 50
0.0
 51
0.0
 71
0
 72
100
 73
1
 74
1
 75
0
 76
0
 77
0
 78
0
  0
ENDTAB
  0
TABLE
  2
LTYPE
  5
5
100
AcDbSymbolTable
 70
6
  0
LTYPE
  5
14
100
AcDbSymbolTableRecord
100
AcDbLinetypeTableRecord
  2
BYBLOCK
 70
0
  3

 72
65
 73
0
 40
0.0
  0
LTYPE
  5
15
100
AcDbSymbolTableRecord
100
AcDbLinetypeTableRecord
  2
BYLAYER
 70
0
  3

 72
65
 73
0
 40
0.0
  0
LTYPE
  5
16
100
AcDbSymbolTableRecord
100
AcDbLinetypeTableRecord
  2
CONTINUOUS
 70
64
  3
Solid line
 72
65
 73
0
 40
0.0
  0
LTYPE
  5
1F5
100
AcDbSymbolTableRecord
100
AcDbLinetypeTableRecord
  2
CENTER
 70
64
  3
____ _ ____ _ ____ _ ____ _ ____ _ ____ _ ____
 72
65
 73
4
 40
0.6
 49
0.375
 74
0
 49
-0.075
 74
0
 49
0.075
 74
0
 49
-0.075
 74
0
  0
LTYPE
  5
1F6
100
AcDbSymbolTableRecord
100
AcDbLinetypeTableRecord
  2
HIDDEN
 70
64
  3
- - - - - - - - - - - - - - - - - - - -
 72
65
 73
2
 40
0.2
 49
0.1
 74
0
 49
-0.1
 74
0
  0
LTYPE
  5
1F7
100
AcDbSymbolTableRecord
100
AcDbLinetypeTableRecord
  2
PHANTOM
 70
64
  3
_____ _ _ _____ _ _ _____ _ _ _____
 72
65
 73
6
 40
0.8
 49
0.45
 74
0
 49
-0.05
 74
0
 49
0.1
 74
0
 49
-0.05
 74
0
 49
0.1
 74
0
 49
-0.05
 74
0
  0
LTYPE
  5
1F8
100
AcDbSymbolTableRecord
100
AcDbLinetypeTableRecord
  2
DOT
 70
64
  3
. . . . . . . . . . . . . . . . . . . .
 72
65
 73
2
 40
0.2
 49
0.1
 74
0
 49
-0.1
 74
0
  0
LTYPE
  5
1F9
100
AcDbSymbolTableRecord
100
AcDbLinetypeTableRecord
  2
DASHED
 70
64
  3
- - - - - - - - - - - - - - - - - - - -
 72
65
 73
2
 40
0.2
 49
0.1
 74
0
 49
-0.1
 74
0
  0
ENDTAB
  0
TABLE
  2
LAYER
  5
2
100
AcDbSymbolTable
 70
36
  0
LAYER
  5
10
100
AcDbSymbolTableRecord
100
AcDbLayerTableRecord
  2
0
 70
0
 62
7
  6
CONTINUOUS
370
-3
390
F
  0
LAYER
  5
1FA
100
AcDbSymbolTableRecord
100
AcDbLayerTableRecord
  2
DEFAULT_1
 70
0
 62
7
  6
CENTER
370
-3
390
F
  0
LAYER
  5
1FB
100
AcDbSymbolTableRecord
100
AcDbLayerTableRecord
  2
DEFAULT_2
 70
0
 62
7
  6
HIDDEN
370
-3
390
F
  0
LAYER
  5
1FC
100
AcDbSymbolTableRecord
100
AcDbLayerTableRecord
  2
DEFAULT_3
 70
0
 62
7
  6
PHANTOM
370
-3
390
F
  0
LAYER
  5
1FD
100
AcDbSymbolTableRecord
100
AcDbLayerTableRecord
  2
00_COMPONENTS
 70
0
 62
7
  6
CONTINUOUS
370
-3
390
F
  0
LAYER
  5
1FE
100
AcDbSymbolTableRecord
100
AcDbLayerTableRecord
  2
01_1_DEFAULT_DATUMS
 70
0
 62
7
  6
CONTINUOUS
370
-3
390
F
  0
LAYER
  5
1FF
100
AcDbSymbolTableRecord
100
AcDbLayerTableRecord
  2
01_PLANES
 70
0
 62
7
  6
CONTINUOUS
370
-3
390
F
  0
LAYER
  5
200
100
AcDbSymbolTableRecord
100
AcDbLayerTableRecord
  2
02_COORD_SYS
 70
0
 62
7
  6
CONTINUOUS
370
-3
390
F
  0
LAYER
  5
201
100
AcDbSymbolTableRecord
100
AcDbLayerTableRecord
  2
03_AXES
 70
0
 62
7
  6
CONTINUOUS
370
-3
390
F
  0
LAYER
  5
202
100
AcDbSymbolTableRecord
100
AcDbLayerTableRecord
  2
04_POINTS
 70
0
 62
7
  6
CONTINUOUS
370
-3
390
F
  0
LAYER
  5
203
100
AcDbSymbolTableRecord
100
AcDbLayerTableRecord
  2
05_CURVES
 70
0
 62
7
  6
CONTINUOUS
370
-3
390
F
  0
LAYER
  5
204
100
AcDbSymbolTableRecord
100
AcDbLayerTableRecord
  2
06_SURFS
 70
0
 62
7
  6
CONTINUOUS
370
-3
390
F
  0
LAYER
  5
205
100
AcDbSymbolTableRecord
100
AcDbLayerTableRecord
  2
07_COSMETICS
 70
0
 62
7
  6
CONTINUOUS
370
-3
390
F
  0
LAYER
  5
206
100
AcDbSymbolTableRecord
100
AcDbLayerTableRecord
  2
10_NOTES
 70
0
 62
7
  6
CONTINUOUS
370
-3
390
F
  0
LAYER
  5
207
100
AcDbSymbolTableRecord
100
AcDbLayerTableRecord
  2
11_NOTES_PUB
 70
0
 62
7
  6
CONTINUOUS
370
-3
390
F
  0
LAYER
  5
208
100
AcDbSymbolTableRecord
100
AcDbLayerTableRecord
  2
13_REF_GTOL
 70
0
 62
7
  6
CONTINUOUS
370
-3
390
F
  0
LAYER
  5
209
100
AcDbSymbolTableRecord
100
AcDbLayerTableRecord
  2
16_MISC
 70
0
 62
7
  6
CONTINUOUS
370
-3
390
F
  0
LAYER
  5
20A
100
AcDbSymbolTableRecord
100
AcDbLayerTableRecord
  2
17_NO_PRINT
 70
0
 62
7
  6
CONTINUOUS
370
-3
390
F
  0
LAYER
  5
20B
100
AcDbSymbolTableRecord
100
AcDbLayerTableRecord
  2
18_DATUM_CAMS_JOINTS
 70
0
 62
7
  6
CONTINUOUS
370
-3
390
F
  0
LAYER
  5
20C
100
AcDbSymbolTableRecord
100
AcDbLayerTableRecord
  2
19_DATUM_FUNCTIONAL
 70
0
 62
7
  6
CONTINUOUS
370
-3
390
F
  0
LAYER
  5
20D
100
AcDbSymbolTableRecord
100
AcDbLayerTableRecord
  2
20_DATUM_KINEMATIC_SCHEME
 70
0
 62
7
  6
CONTINUOUS
370
-3
390
F
  0
ENDTAB
  0
TABLE
  2
STYLE
  5
3
100
AcDbSymbolTable
 70
1
  0
STYLE
  5
11
100
AcDbSymbolTableRecord
100
AcDbTextStyleTableRecord
  2
STANDARD
 70
0
 40
0.0
 41
1.0
 50
0.0
 71
0
 42
0.2
  3
ARIAL.TTF
  4

  0
STYLE
  5
20E
100
AcDbSymbolTableRecord
100
AcDbTextStyleTableRecord
  2
TEXTSTYLE_1
 70
0
 40
0.0
 41
0.8
 50
0.0
 71
0
 42
0.2
  3
gdt
  4

  0
ENDTAB
  0
TABLE
  2
VIEW
  5
6
100
AcDbSymbolTable
 70
0
  0
ENDTAB
  0
TABLE
  2
UCS
  5
7
100
AcDbSymbolTable
 70
0
  0
ENDTAB
  0
TABLE
  2
APPID
  5
9
100
AcDbSymbolTable
 70
1
  0
APPID
  5
20F
100
AcDbSymbolTableRecord
100
AcDbRegAppTableRecord
  2
ACAD
 70
0
  0
ENDTAB
  0
TABLE
  2
BLOCK_RECORD
  5
1
100
AcDbSymbolTable
 70
0
  0
BLOCK_RECORD
  5
210
100
AcDbSymbolTableRecord
100
AcDbBlockTableRecord
  2
*Model_Space
  0
BLOCK_RECORD
  5
211
100
AcDbSymbolTableRecord
100
AcDbBlockTableRecord
  2
*Paper_Space
  0
BLOCK_RECORD
  5
212
100
AcDbSymbolTableRecord
100
AcDbBlockTableRecord
  2
_FILLED
  0
ENDTAB
  0
TABLE
  2
DIMSTYLE
  5
A
100
AcDbSymbolTable
 70
1
100
AcDbDimStyleTable
 71
0
  0
DIMSTYLE
105
213
100
AcDbSymbolTableRecord
100
AcDbDimStyleTableRecord
  2
STANDARD
 70
0
  3

  4

 40
1.0
 41
0.2894030728
 42
1.0
 43
0.38
 44
1.0
 45
0.0
 46
0.0
 47
0.01
 48
0.01
140
0.4051643019
141
0.09
142
0.0
143
25.4
144
1.0
145
0.0
146
1.0
147
0.625
 71
1
 72
0
 73
0
 74
0
 75
0
 76
0
 77
1
 78
8
 79
2
170
0
171
1
172
0
173
0
174
0
175
0
176
0
177
0
178
0
270
2
179
2
271
2
272
2
273
2
274
2
275
0
280
0
281
0
282
0
283
1
284
8
285
0
286
0
287
3
288
0
340
11
278
46
341
212
342
212
343
212
344
212
  0
ENDTAB
  0
ENDSEC
  0
SECTION
  2
BLOCKS
  0
BLOCK
  5
20
100
AcDbEntity
  8
0
100
AcDbBlockBegin
  2
*Model_Space
 70
0
 10
0.0
 20
0.0
 30
0.0
  3
*Model_Space
  1

  0
ENDBLK
  5
21
100
AcDbEntity
  8
0
100
AcDbBlockEnd
  0
BLOCK
  5
1C
100
AcDbEntity
  8
0
100
AcDbBlockBegin
  2
*Paper_Space
 70
0
 10
0.0
 20
0.0
 30
0.0
  3
*Paper_Space
  1

  0
ENDBLK
  5
1D
100
AcDbEntity
  8
0
100
AcDbBlockEnd
  0
BLOCK
  5
214
100
AcDbEntity
  8
0
100
AcDbBlockBegin
  2
_FILLED
 70
64
 10
0.0
 20
0.0
  3
_FILLED
  1

  0
SOLID
  5
215
100
AcDbEntity
  8
0
  6
BYBLOCK
 62
0
100
AcDbTrace
 10
0.0
 20
0.0
 11
-1.0
 21
0.25
 12
-1.0
 22
-0.25
 13
-1.0
 23
-0.25
  0
ENDBLK
  5
216
100
AcDbEntity
  8
0
  6
BYBLOCK
 62
0
100
AcDbBlockEnd
  0
ENDSEC
  0
SECTION
  2
ENTITIES
  0
LWPOLYLINE
  5
217
100
AcDbEntity
  8
0
100
AcDbPolyline
 62
7
  6
BYLAYER
 90
5
 70
0
 10
5.9596047414
 20
30.8865811651
 10
5.3311839524
 20
30.6401202878
 10
4.8145366344
 20
30.1904094623
 10
4.4790908409
 20
29.5929938302
 10
4.3656094533
 20
28.9285476466
  0
LINE
  5
218
100
AcDbEntity
  8
0
100
AcDbLine
 62
7
  6
BYLAYER
 10
6.2153396131
 20
2.840542522
 11
18.5153396131
 21
2.840542522
  0
LINE
  5
219
100
AcDbEntity
  8
0
100
AcDbLine
 62
7
  6
BYLAYER
 10
17.7903396131
 20
3.740542522
 11
7.6890029058
 21
3.740542522
  0
LINE
  5
21A
100
AcDbEntity
  8
0
100
AcDbLine
 62
7
  6
BYLAYER
 10
7.3632775384
 20
3.740542522
 11
6.9403396131
 21
3.740542522
  0
LINE
  5
21B
100
AcDbEntity
  8
0
100
AcDbLine
 62
7
  6
BYLAYER
 10
6.9403396131
 20
4.640542522
 11
7.3632775384
 21
4.640542522
  0
LINE
  5
21C
100
AcDbEntity
  8
0
100
AcDbLine
 62
7
  6
BYLAYER
 10
7.6890029058
 20
4.640542522
 11
17.7903396131
 21
4.640542522
  0
LINE
  5
21D
100
AcDbEntity
  8
0
100
AcDbLine
 62
7
  6
BYLAYER
 10
18.7153396131
 20
5.1265529825
 11
6.6417044046
 21
5.1265529825
  0
LINE
  5
21E
100
AcDbEntity
  8
0
100
AcDbLine
 62
7
  6
BYLAYER
 10
6.3726357159
 20
5.1265529825
 11
6.0153396131
 21
5.1265529825
  0
LINE
  5
21F
100
AcDbEntity
  8
0
100
AcDbLine
 62
7
  6
BYLAYER
 10
7.8759047862
 20
5.140542522
 11
7.0662830933
 21
5.140542522
  0
LINE
  5
220
100
AcDbEntity
  8
0
100
AcDbLine
 62
7
  6
BYLAYER
 10
6.3701726606
 20
5.940542522
 11
6.0153396131
 21
5.940542522
  0
LINE
  5
221
100
AcDbEntity
  8
0
100
AcDbLine
 62
7
  6
BYLAYER
 10
18.3605065657
 20
5.940542522
 11
18.7153396131
 21
5.940542522
  0
LINE
  5
222
100
AcDbEntity
  8
0
100
AcDbLine
 62
7
  6
BYLAYER
 10
6.3701726606
 20
5.940542522
 11
18.3605065657
 21
5.940542522
  0
LINE
  5
223
100
AcDbEntity
  8
0
100
AcDbLine
 62
7
  6
BYLAYER
 10
18.0653396131
 20
6.240542522
 11
15.4160784276
 21
6.240542522
  0
LINE
  5
224
100
AcDbEntity
  8
0
100
AcDbLine
 62
7
  6
BYLAYER
 10
9.3146007986
 20
6.240542522
 11
7.4289948116
 21
6.240542522
  0
LINE
  5
225
100
AcDbEntity
  8
0
100
AcDbLine
 62
7
  6
BYLAYER
 10
7.4289948116
 20
6.240542522
 11
6.6653396131
 21
6.240542522
  0
LINE
  5
226
100
AcDbEntity
  8
0
100
AcDbLine
 62
7
  6
BYLAYER
 10
18.0653396131
 20
6.290542522
 11
15.3902069632
 21
6.290542522
  0
LINE
  5
227
100
AcDbEntity
  8
0
100
AcDbLine
 62
7
  6
BYLAYER
 10
9.3404722631
 20
6.290542522
 11
6.6653396131
 21
6.290542522
  0
LINE
  5
228
100
AcDbEntity
  8
0
100
AcDbLine
 62
7
  6
BYLAYER
 10
6.3701726606
 20
6.540542522
 11
18.3605065657
 21
6.540542522
  0
LINE
  5
229
100
AcDbEntity
  8
0
100
AcDbLine
 62
7
  6
BYLAYER
 10
18.7153396131
 20
6.590542522
 11
6.0153396131
 21
6.590542522
  0
LINE
  5
22A
100
AcDbEntity
  8
0
100
AcDbLine
 62
7
  6
BYLAYER
 10
18.7153396131
 20
7.240542522
 11
6.0153396131
 21
7.240542522
  0
LINE
  5
22B
100
AcDbEntity
  8
0
100
AcDbLine
 62
7
  6
BYLAYER
 10
18.7153396131
 20
8.440542522
 11
6.0153396131
 21
8.440542522
  0
LINE
  5
22C
100
AcDbEntity
  8
0
100
AcDbLine
 62
7
  6
BYLAYER
 10
4.3653396131
 20
28.9281687572
 11
4.3653396131
 21
13.040542522
  0
LINE
  5
22D
100
AcDbEntity
  8
0
100
AcDbLine
 62
7
  6
BYLAYER
 10
18.7153396131
 20
9.590542522
 11
6.0153396131
 21
9.590542522
  0
LINE
  5
22E
100
AcDbEntity
  8
0
100
AcDbLine
 62
7
  6
BYLAYER
 10
6.2153396131
 20
2.840542522
 11
6.0153396131
 21
5.1265529825
  0
LINE
  5
22F
100
AcDbEntity
  8
0
100
AcDbLine
 62
7
  6
BYLAYER
 10
5.6653396131
 20
10.930542522
 11
5.6653396131
 21
13.040542522
  0
LINE
  5
230
100
AcDbEntity
  8
0
100
AcDbLine
 62
7
  6
BYLAYER
 10
6.0153396131
 20
9.590542522
 11
6.0153396131
 21
8.440542522
  0
LINE
  5
231
100
AcDbEntity
  8
0
100
AcDbLine
 62
7
  6
BYLAYER
 10
6.0153396131
 20
7.240542522
 11
6.0153396131
 21
6.590542522
  0
LINE
  5
232
100
AcDbEntity
  8
0
100
AcDbLine
 62
7
  6
BYLAYER
 10
6.0153396131
 20
5.940542522
 11
6.0153396131
 21
5.1265529825
  0
LINE
  5
233
100
AcDbEntity
  8
0
100
AcDbLine
 62
7
  6
BYLAYER
 10
6.3726357159
 20
5.940542522
 11
6.3726357159
 21
5.1265529825
  0
LINE
  5
234
100
AcDbEntity
  8
0
100
AcDbLine
 62
7
  6
BYLAYER
 10
6.6417044046
 20
5.940542522
 11
6.6417044046
 21
5.1265529825
  0
LINE
  5
235
100
AcDbEntity
  8
0
100
AcDbLine
 62
7
  6
BYLAYER
 10
6.6653396131
 20
6.290542522
 11
6.6653396131
 21
6.240542522
  0
LINE
  5
236
100
AcDbEntity
  8
0
100
AcDbLine
 62
7
  6
BYLAYER
 10
6.7653396131
 20
8.440542522
 11
6.7653396131
 21
7.240542522
  0
LINE
  5
237
100
AcDbEntity
  8
0
100
AcDbLine
 62
7
  6
BYLAYER
 10
6.8653396131
 20
10.930542522
 11
6.8653396131
 21
9.590542522
  0
LINE
  5
238
100
AcDbEntity
  8
0
100
AcDbLine
 62
7
  6
BYLAYER
 10
6.9403396131
 20
4.640542522
 11
6.9403396131
 21
3.740542522
  0
LINE
  5
239
100
AcDbEntity
  8
0
100
AcDbLine
 62
7
  6
BYLAYER
 10
5.6653396131
 20
10.930542522
 11
19.0653396131
 21
10.930542522
  0
LINE
  5
23A
100
AcDbEntity
  8
0
100
AcDbLine
 62
7
  6
BYLAYER
 10
15.5429441587
 20
11.240542522
 11
14.289334834
 21
11.240542522
  0
LINE
  5
23B
100
AcDbEntity
  8
0
100
AcDbLine
 62
7
  6
BYLAYER
 10
13.9080142077
 20
11.240542522
 11
12.5627256939
 21
11.240542522
  0
LINE
  5
23C
100
AcDbEntity
  8
0
100
AcDbLine
 62
7
  6
BYLAYER
 10
12.1679535324
 20
11.240542522
 11
10.8226650186
 21
11.240542522
  0
LINE
  5
23D
100
AcDbEntity
  8
0
100
AcDbLine
 62
7
  6
BYLAYER
 10
10.4413443923
 20
11.240542522
 11
9.1877350676
 21
11.240542522
  0
LINE
  5
23E
100
AcDbEntity
  8
0
100
AcDbLine
 62
7
  6
BYLAYER
 10
15.4083211399
 20
11.540542522
 11
14.983336555
 21
11.540542522
  0
LINE
  5
23F
100
AcDbEntity
  8
0
100
AcDbLine
 62
7
  6
BYLAYER
 10
11.6396269519
 20
11.540542522
 11
11.1602956241
 21
11.540542522
  0
LINE
  5
240
100
AcDbEntity
  8
0
100
AcDbLine
 62
7
  6
BYLAYER
 10
9.7473426713
 20
11.540542522
 11
9.3223580864
 21
11.540542522
  0
LINE
  5
241
100
AcDbEntity
  8
0
100
AcDbLine
 62
7
  6
BYLAYER
 10
13.0910522744
 20
11.540542522
 11
13.5703836022
 21
11.540542522
  0
LINE
  5
242
100
AcDbEntity
  8
0
100
AcDbLine
 62
7
  6
BYLAYER
 10
5.6742657411
 20
20.483925812
 11
6.401702528
 21
18.1172160231
  0
LINE
  5
243
100
AcDbEntity
  8
0
100
AcDbLine
 62
7
  6
BYLAYER
 10
7.4715883899
 20
20.9513519804
 11
7.5001354684
 21
19.7306899517
  0
LINE
  5
244
100
AcDbEntity
  8
0
100
AcDbLine
 62
7
  6
BYLAYER
 10
7.0662830933
 20
6.240542522
 11
7.0662830933
 21
5.140542522
  0
LINE
  5
245
100
AcDbEntity
  8
0
100
AcDbLine
 62
7
  6
BYLAYER
 10
7.3632775384
 20
4.640542522
 11
7.3632775384
 21
3.740542522
  0
LINE
  5
246
100
AcDbEntity
  8
0
100
AcDbLine
 62
7
  6
BYLAYER
 10
7.372594877
 20
6.240542522
 11
7.372594877
 21
5.140542522
  0
LINE
  5
247
100
AcDbEntity
  8
0
100
AcDbLine
 62
7
  6
BYLAYER
 10
7.4289948116
 20
6.290542522
 11
7.4289948116
 21
6.240542522
  0
LINE
  5
248
100
AcDbEntity
  8
0
100
AcDbLine
 62
7
  6
BYLAYER
 10
7.5653396131
 20
6.590542522
 11
7.5653396131
 21
23.540542522
  0
LINE
  5
249
100
AcDbEntity
  8
0
100
AcDbLine
 62
7
  6
BYLAYER
 10
7.6890029058
 20
4.640542522
 11
7.6890029058
 21
3.740542522
  0
LWPOLYLINE
  5
24A
100
AcDbEntity
  8
0
100
AcDbPolyline
 62
7
  6
BYLAYER
 90
4
 70
0
 10
9.739214753
 20
23.8286004432
 10
9.729101243
 20
23.8046014915
 10
9.7210509161
 20
23.7724321005
 10
9.7188354789
 20
23.7361049846
  0
LWPOLYLINE
  5
24B
100
AcDbEntity
  8
0
100
AcDbPolyline
 62
7
  6
BYLAYER
 90
3
 70
0
 10
9.7284309231
 20
23.8063790118
 10
9.7156832871
 20
23.7794720619
 10
9.689295191
 20
23.7213943137
  0
LWPOLYLINE
  5
24C
100
AcDbEntity
  8
0
100
AcDbPolyline
 62
7
  6
BYLAYER
 90
3
 70
0
 10
9.7391854979
 20
23.8285407616
 10
9.7365707135
 20
23.823216929
 10
9.7284309231
 20
23.8063790118
  0
LINE
  5
24D
100
AcDbEntity
  8
0
100
AcDbLine
 62
7
  6
BYLAYER
 10
8.7333655137
 20
19.638874337
 11
8.4856440222
 21
19.2850913825
  0
LINE
  5
24E
100
AcDbEntity
  8
0
100
AcDbLine
 62
7
  6
BYLAYER
 10
7.904346164
 20
21.2327001916
 11
7.6152673597
 21
21.1479501239
  0
LINE
  5
24F
100
AcDbEntity
  8
0
100
AcDbLine
 62
7
  6
BYLAYER
 10
9.1610456191
 20
6.590542522
 11
9.1610456191
 21
5.940542522
  0
LINE
  5
250
100
AcDbEntity
  8
0
100
AcDbLine
 62
7
  6
BYLAYER
 10
9.1877350676
 20
13.040542522
 11
9.1877350676
 21
11.240542522
  0
LINE
  5
251
100
AcDbEntity
  8
0
100
AcDbLine
 62
7
  6
BYLAYER
 10
20.3653396131
 20
13.040542522
 11
4.3653396131
 21
13.040542522
  0
LINE
  5
252
100
AcDbEntity
  8
0
100
AcDbLine
 62
7
  6
BYLAYER
 10
9.2926908448
 20
13.040542522
 11
9.2926908448
 21
11.240542522
  0
LINE
  5
253
100
AcDbEntity
  8
0
100
AcDbLine
 62
7
  6
BYLAYER
 10
9.3223580864
 20
13.040542522
 11
9.3223580864
 21
11.540542522
  0
LINE
  5
254
100
AcDbEntity
  8
0
100
AcDbLine
 62
7
  6
BYLAYER
 10
9.7473426713
 20
13.040542522
 11
9.7473426713
 21
11.540542522
  0
LINE
  5
255
100
AcDbEntity
  8
0
100
AcDbLine
 62
7
  6
BYLAYER
 10
10.2487936576
 20
13.040542522
 11
10.2487936576
 21
11.240542522
  0
LINE
  5
256
100
AcDbEntity
  8
0
100
AcDbLine
 62
7
  6
BYLAYER
 10
10.258060595
 20
23.740542522
 11
10.258060595
 21
23.540542522
  0
LINE
  5
257
100
AcDbEntity
  8
0
100
AcDbLine
 62
7
  6
BYLAYER
 10
10.4413443923
 20
13.040542522
 11
10.4413443923
 21
11.240542522
  0
LINE
  5
258
100
AcDbEntity
  8
0
100
AcDbLine
 62
7
  6
BYLAYER
 10
10.8226650186
 20
11.240542522
 11
10.8226650186
 21
13.040542522
  0
LINE
  5
259
100
AcDbEntity
  8
0
100
AcDbLine
 62
7
  6
BYLAYER
 10
10.9673584209
 20
13.040542522
 11
10.9673584209
 21
11.240542522
  0
LINE
  5
25A
100
AcDbEntity
  8
0
100
AcDbLine
 62
7
  6
BYLAYER
 10
11.1718801283
 20
11.540542522
 11
11.1718801283
 21
13.040542522
  0
LINE
  5
25B
100
AcDbEntity
  8
0
100
AcDbLine
 62
7
  6
BYLAYER
 10
11.2543989696
 20
19.6464431999
 11
11.2543989696
 21
23.540542522
  0
LINE
  5
25C
100
AcDbEntity
  8
0
100
AcDbLine
 62
7
  6
BYLAYER
 10
11.3653577689
 20
29.5311606748
 11
11.3653577689
 21
13.040542522
  0
LINE
  5
25D
100
AcDbEntity
  8
0
100
AcDbLine
 62
7
  6
BYLAYER
 10
7.5653396131
 20
6.590542522
 11
6.9403396131
 21
4.640542522
  0
LINE
  5
25E
100
AcDbEntity
  8
0
100
AcDbLine
 62
7
  6
BYLAYER
 10
10.6993751603
 20
18.2005567436
 11
11.2543989695
 21
19.6464431999
  0
LWPOLYLINE
  5
25F
100
AcDbEntity
  8
0
100
AcDbPolyline
 62
7
  6
BYLAYER
 90
4
 70
0
 10
14.9847170909
 20
23.6398847342
 10
14.9657592878
 20
23.6130062449
 10
14.9376724437
 20
23.5853609792
 10
14.9077225866
 20
23.5649960157
  0
LINE
  5
260
100
AcDbEntity
  8
0
100
AcDbLine
 62
7
  6
BYLAYER
 10
11.6279447645
 20
13.040542522
 11
11.6279447645
 21
11.540542522
  0
LINE
  5
261
100
AcDbEntity
  8
0
100
AcDbLine
 62
7
  6
BYLAYER
 10
11.9933831214
 20
11.240542522
 11
11.9933831214
 21
13.040542522
  0
LINE
  5
262
100
AcDbEntity
  8
0
100
AcDbLine
 62
7
  6
BYLAYER
 10
12.1679535324
 20
13.040542522
 11
12.1679535324
 21
11.240542522
  0
LINE
  5
263
100
AcDbEntity
  8
0
100
AcDbLine
 62
7
  6
BYLAYER
 10
14.9941484109
 20
23.658180499
 11
14.9847170909
 21
23.6398847342
  0
LINE
  5
264
100
AcDbEntity
  8
0
100
AcDbLine
 62
7
  6
BYLAYER
 10
11.4653437985
 20
15.5986402227
 11
11.2362811617
 21
15.2018920741
  0
LINE
  5
265
100
AcDbEntity
  8
0
100
AcDbLine
 62
7
  6
BYLAYER
 10
13.2653354278
 20
15.5986402227
 11
13.494406069
 21
15.2018782336
  0
LINE
  5
266
100
AcDbEntity
  8
0
100
AcDbLine
 62
7
  6
BYLAYER
 10
17.7903396131
 20
3.740542522
 11
18.1653396131
 21
2.840542522
  0
LWPOLYLINE
  5
267
100
AcDbEntity
  8
0
100
AcDbPolyline
 62
7
  6
BYLAYER
 90
4
 70
0
 10
9.7365848594
 20
23.6580612806
 10
9.725822393
 20
23.6881697974
 10
9.7203324211
 20
23.7163090864
 10
9.7187921802
 20
23.7390576763
  0
LINE
  5
268
100
AcDbEntity
  8
0
100
AcDbLine
 62
7
  6
BYLAYER
 10
12.5627256939
 20
13.040542522
 11
12.5627256939
 21
11.240542522
  0
LINE
  5
269
100
AcDbEntity
  8
0
100
AcDbLine
 62
7
  6
BYLAYER
 10
12.7372961049
 20
11.240542522
 11
12.7372961049
 21
13.040542522
  0
LINE
  5
26A
100
AcDbEntity
  8
0
100
AcDbLine
 62
7
  6
BYLAYER
 10
13.1027344618
 20
13.040542522
 11
13.1027344618
 21
11.540542522
  0
LINE
  5
26B
100
AcDbEntity
  8
0
100
AcDbLine
 62
7
  6
BYLAYER
 10
13.3653182305
 20
29.5311764369
 11
13.3653182305
 21
13.040542522
  0
LINE
  5
26C
100
AcDbEntity
  8
0
100
AcDbLine
 62
7
  6
BYLAYER
 10
13.4762802567
 20
23.540542522
 11
13.4762802567
 21
19.6464431999
  0
LINE
  5
26D
100
AcDbEntity
  8
0
100
AcDbLine
 62
7
  6
BYLAYER
 10
13.558799098
 20
11.540542522
 11
13.558799098
 21
13.040542522
  0
LINE
  5
26E
100
AcDbEntity
  8
0
100
AcDbLine
 62
7
  6
BYLAYER
 10
6.9403396131
 20
3.740542522
 11
6.5653396131
 21
2.840542522
  0
LINE
  5
26F
100
AcDbEntity
  8
0
100
AcDbLine
 62
7
  6
BYLAYER
 10
9.7460479021
 20
23.6397376478
 11
9.7365848594
 21
23.6580612806
  0
LINE
  5
270
100
AcDbEntity
  8
0
100
AcDbLine
 62
7
  6
BYLAYER
 10
13.7633208054
 20
13.040542522
 11
13.7633208054
 21
11.240542522
  0
LINE
  5
271
100
AcDbEntity
  8
0
100
AcDbLine
 62
7
  6
BYLAYER
 10
13.9080142077
 20
11.240542522
 11
13.9080142077
 21
13.040542522
  0
LINE
  5
272
100
AcDbEntity
  8
0
100
AcDbLine
 62
7
  6
BYLAYER
 10
14.289334834
 20
13.040542522
 11
14.289334834
 21
11.240542522
  0
LINE
  5
273
100
AcDbEntity
  8
0
100
AcDbLine
 62
7
  6
BYLAYER
 10
14.4726186304
 20
23.540542522
 11
14.4726186304
 21
23.740542522
  0
LINE
  5
274
100
AcDbEntity
  8
0
100
AcDbLine
 62
7
  6
BYLAYER
 10
14.4818855687
 20
13.040542522
 11
14.4818855687
 21
11.240542522
  0
LWPOLYLINE
  5
275
100
AcDbEntity
  8
0
100
AcDbPolyline
 62
7
  6
BYLAYER
 90
4
 70
0
 10
15.0118851653
 20
23.7388201234
 10
15.0103014563
 20
23.7159526363
 10
15.0048025134
 20
23.6879689475
 10
14.9941484109
 20
23.658180499
  0
LINE
  5
276
100
AcDbEntity
  8
0
100
AcDbLine
 62
7
  6
BYLAYER
 10
13.4762802567
 20
19.6464431999
 11
14.031304066
 21
18.2005567436
  0
LINE
  5
277
100
AcDbEntity
  8
0
100
AcDbLine
 62
7
  6
BYLAYER
 10
17.1653396131
 20
6.590542522
 11
17.7903396131
 21
4.640542522
  0
LWPOLYLINE
  5
278
100
AcDbEntity
  8
0
100
AcDbPolyline
 62
7
  6
BYLAYER
 90
5
 70
0
 10
15.0118451916
 20
23.7361786504
 10
15.0108109316
 20
23.7632227227
 10
15.0063269997
 20
23.7887543586
 10
14.9992481681
 20
23.8109091846
 10
14.9914711406
 20
23.8285868466
  0
LINE
  5
279
100
AcDbEntity
  8
0
100
AcDbLine
 62
7
  6
BYLAYER
 10
14.983336555
 20
13.040542522
 11
14.983336555
 21
11.540542522
  0
LINE
  5
27A
100
AcDbEntity
  8
0
100
AcDbLine
 62
7
  6
BYLAYER
 10
15.4083211399
 20
13.040542522
 11
15.4083211399
 21
11.540542522
  0
LINE
  5
27B
100
AcDbEntity
  8
0
100
AcDbLine
 62
7
  6
BYLAYER
 10
15.4379883814
 20
13.040542522
 11
15.4379883814
 21
11.240542522
  0
LINE
  5
27C
100
AcDbEntity
  8
0
100
AcDbLine
 62
7
  6
BYLAYER
 10
15.5429441587
 20
13.040542522
 11
15.5429441587
 21
11.240542522
  0
LINE
  5
27D
100
AcDbEntity
  8
0
100
AcDbLine
 62
7
  6
BYLAYER
 10
15.5696336071
 20
6.590542522
 11
15.5696336071
 21
5.940542522
  0
LWPOLYLINE
  5
27E
100
AcDbEntity
  8
0
100
AcDbPolyline
 62
7
  6
BYLAYER
 90
4
 70
0
 10
9.8229126072
 20
23.5650201229
 10
9.7929417489
 20
23.5854128492
 10
9.7649630123
 20
23.6129544242
 10
9.7460479021
 20
23.6397376478
  0
LINE
  5
27F
100
AcDbEntity
  8
0
100
AcDbLine
 62
7
  6
BYLAYER
 10
15.9973137125
 20
19.638874337
 11
16.2450352041
 21
19.2850913825
  0
LINE
  5
280
100
AcDbEntity
  8
0
100
AcDbLine
 62
7
  6
BYLAYER
 10
17.1653396131
 20
6.590542522
 11
17.1653396131
 21
23.540542522
  0
LINE
  5
281
100
AcDbEntity
  8
0
100
AcDbLine
 62
7
  6
BYLAYER
 10
17.3016844147
 20
6.290542522
 11
17.3016844147
 21
6.240542522
  0
LINE
  5
282
100
AcDbEntity
  8
0
100
AcDbLine
 62
7
  6
BYLAYER
 10
17.7903396131
 20
4.640542522
 11
17.7903396131
 21
3.740542522
  0
LINE
  5
283
100
AcDbEntity
  8
0
100
AcDbLine
 62
7
  6
BYLAYER
 10
17.8653396131
 20
10.930542522
 11
17.8653396131
 21
9.590542522
  0
LINE
  5
284
100
AcDbEntity
  8
0
100
AcDbLine
 62
7
  6
BYLAYER
 10
17.9653396131
 20
8.440542522
 11
17.9653396131
 21
7.240542522
  0
LINE
  5
285
100
AcDbEntity
  8
0
100
AcDbLine
 62
7
  6
BYLAYER
 10
17.2590908364
 20
20.9513519804
 11
17.2305437579
 21
19.7306899517
  0
LINE
  5
286
100
AcDbEntity
  8
0
100
AcDbLine
 62
7
  6
BYLAYER
 10
19.0564134852
 20
20.483925812
 11
18.3289766983
 21
18.1172160231
  0
LINE
  5
287
100
AcDbEntity
  8
0
100
AcDbLine
 62
7
  6
BYLAYER
 10
17.1154118666
 20
21.1479501239
 11
16.8263330623
 21
21.2327001916
  0
LWPOLYLINE
  5
288
100
AcDbEntity
  8
0
100
AcDbPolyline
 62
7
  6
BYLAYER
 90
4
 70
0
 10
9.8249293927
 20
23.5639332022
 10
9.8609659214
 20
23.5483563741
 10
9.8967662866
 20
23.5409863709
 10
9.9161643143
 20
23.5402148617
  0
LWPOLYLINE
  5
289
100
AcDbEntity
  8
0
100
AcDbPolyline
 62
7
  6
BYLAYER
 90
4
 70
0
 10
15.0413608372
 20
23.7214467773
 10
15.0108083949
 20
23.7883886681
 10
14.9981932612
 20
23.8147921312
 10
14.9914829236
 20
23.8285628108
  0
LINE
  5
28A
100
AcDbEntity
  8
0
100
AcDbLine
 62
7
  6
BYLAYER
 10
18.0653396131
 20
6.290542522
 11
18.0653396131
 21
6.240542522
  0
LINE
  5
28B
100
AcDbEntity
  8
0
100
AcDbLine
 62
7
  6
BYLAYER
 10
18.7153396131
 20
9.590542522
 11
18.7153396131
 21
8.440542522
  0
LINE
  5
28C
100
AcDbEntity
  8
0
100
AcDbLine
 62
7
  6
BYLAYER
 10
18.7153396131
 20
7.240542522
 11
18.7153396131
 21
6.590542522
  0
LINE
  5
28D
100
AcDbEntity
  8
0
100
AcDbLine
 62
7
  6
BYLAYER
 10
18.7153396131
 20
5.940542522
 11
18.7153396131
 21
5.1265529825
  0
LINE
  5
28E
100
AcDbEntity
  8
0
100
AcDbLine
 62
7
  6
BYLAYER
 10
19.0653396131
 20
10.930542522
 11
19.0653396131
 21
13.040542522
  0
LWPOLYLINE
  5
28F
100
AcDbEntity
  8
0
100
AcDbPolyline
 62
7
  6
BYLAYER
 90
4
 70
0
 10
14.8151783078
 20
23.5402441436
 10
14.8358075314
 20
23.5412076435
 10
14.8712680123
 20
23.5488812566
 10
14.9057309045
 20
23.5639235738
  0
LINE
  5
290
100
AcDbEntity
  8
0
100
AcDbLine
 62
7
  6
BYLAYER
 10
9.9161643143
 20
23.5402148617
 11
9.9483916954
 21
23.540515144
  0
LINE
  5
291
100
AcDbEntity
  8
0
100
AcDbLine
 62
7
  6
BYLAYER
 10
14.9988917258
 20
23.240542522
 11
13.4762802567
 21
23.240542522
  0
LINE
  5
292
100
AcDbEntity
  8
0
100
AcDbLine
 62
7
  6
BYLAYER
 10
11.2543989696
 20
23.240542522
 11
9.7317874983
 21
23.240542522
  0
LINE
  5
293
100
AcDbEntity
  8
0
100
AcDbLine
 62
7
  6
BYLAYER
 10
17.1653396131
 20
23.540542522
 11
16.8695553398
 21
23.540542522
  0
LINE
  5
294
100
AcDbEntity
  8
0
100
AcDbLine
 62
7
  6
BYLAYER
 10
14.8118933117
 20
23.540542522
 11
9.9187859146
 21
23.540542522
  0
LINE
  5
295
100
AcDbEntity
  8
0
100
AcDbLine
 62
7
  6
BYLAYER
 10
7.8611238865
 20
23.540542522
 11
7.5653396131
 21
23.540542522
  0
LINE
  5
296
100
AcDbEntity
  8
0
100
AcDbLine
 62
7
  6
BYLAYER
 10
10.258060595
 20
23.740542522
 11
14.4726186304
 21
23.740542522
  0
LINE
  5
297
100
AcDbEntity
  8
0
100
AcDbLine
 62
7
  6
BYLAYER
 10
14.7959570264
 20
23.5404486323
 11
14.8159587307
 21
23.5402433146
  0
LWPOLYLINE
  5
298
100
AcDbEntity
  8
0
100
AcDbPolyline
 62
7
  6
BYLAYER
 90
3
 70
0
 10
14.8118887281
 20
23.5405425226
 10
14.8110218837
 20
23.5405568352
 10
14.8087683146
 20
23.5406494248
  0
LINE
  5
299
100
AcDbEntity
  8
0
100
AcDbLine
 62
7
  6
BYLAYER
 10
18.5153396131
 20
2.840542522
 11
18.7153396131
 21
5.1265529825
  0
LINE
  5
29A
100
AcDbEntity
  8
0
100
AcDbLine
 62
7
  6
BYLAYER
 10
20.3653396131
 20
28.9281687572
 11
20.3653396131
 21
13.040542522
  0
LWPOLYLINE
  5
29B
100
AcDbEntity
  8
0
100
AcDbPolyline
 62
7
  6
BYLAYER
 90
5
 70
0
 10
20.3650697789
 20
28.9285476653
 10
20.2515570161
 20
29.5930828936
 10
19.9160225348
 20
30.1905562522
 10
19.3992611218
 20
30.6402618226
 10
18.770742141
 20
30.8866499963
  0
LWPOLYLINE
  5
29C
100
AcDbEntity
  8
0
100
AcDbPolyline
 62
7
  6
BYLAYER
 90
12
 70
0
 10
18.770742141
 20
30.8866499963
 10
18.5250569287
 20
30.9363296523
 10
17.8075424857
 20
31.0698965593
 10
16.6385345432
 20
31.251203723
 10
15.0916302508
 20
31.423086945
 10
13.3014234968
 20
31.5267176
 10
11.4312402825
 20
31.5267765228
 10
9.6408234602
 20
31.4232404852
 10
8.093748898
 20
31.2514219273
 10
6.9240368903
 20
31.0700533857
 10
6.2060848636
 20
30.9364216576
 10
5.9596047414
 20
30.8865811651
  0
ARC
  5
29D
100
AcDbEntity
  8
0
100
AcDbCircle
 62
7
  6
BYLAYER
 10
-817.2479140321
 20
-21.7025084975
 40
830.6387648085
100
AcDbArc
 50
2.272941052
 51
2.3972046609
  0
ARC
  5
29E
100
AcDbEntity
  8
0
100
AcDbCircle
 62
7
  6
BYLAYER
 10
227.9991869239
 20
-95.9431934009
 40
242.1095861752
100
AcDbArc
 50
155.6864543061
 51
155.9199562525
  0
ARC
  5
29F
100
AcDbEntity
  8
0
100
AcDbCircle
 62
7
  6
BYLAYER
 10
148.923639878
 20
-47.8685635953
 40
150.6798888568
100
AcDbArc
 50
159.4025812613
 51
159.6055543311
  0
ARC
  5
2A0
100
AcDbEntity
  8
0
100
AcDbCircle
 62
7
  6
BYLAYER
 10
116.738841744
 20
-48.9474225233
 40
121.1110606478
100
AcDbArc
 50
154.2122610697
 51
154.6841955482
  0
ARC
  5
2A1
100
AcDbEntity
  8
0
100
AcDbCircle
 62
7
  6
BYLAYER
 10
12.3336958199
 20
-22.6723439303
 40
52.2121813698
100
AcDbArc
 50
91.0626742761
 51
98.7785006103
  0
ARC
  5
2A2
100
AcDbEntity
  8
0
100
AcDbCircle
 62
7
  6
BYLAYER
 10
12.3968722391
 20
-22.6720230415
 40
52.2118793254
100
AcDbArc
 50
81.221325086
 51
88.9372010845
  0
ARC
  5
2A3
100
AcDbEntity
  8
0
100
AcDbCircle
 62
7
  6
BYLAYER
 10
12.3653396131
 20
-0.159457478
 40
31.7
100
AcDbArc
 50
78.3448801337
 51
101.6551198663
  0
ARC
  5
2A4
100
AcDbEntity
  8
0
100
AcDbCircle
 62
7
  6
BYLAYER
 10
6.3653396131
 20
6.240542522
 40
0.3
100
AcDbArc
 50
90.0
 51
270.0
  0
ARC
  5
2A5
100
AcDbEntity
  8
0
100
AcDbCircle
 62
7
  6
BYLAYER
 10
6.3653396131
 20
6.240542522
 40
0.3
100
AcDbArc
 50
270.0
 51
360.0
  0
ARC
  5
2A6
100
AcDbEntity
  8
0
100
AcDbCircle
 62
7
  6
BYLAYER
 10
6.3653396131
 20
6.290542522
 40
0.3
100
AcDbArc
 50
0.0
 51
90.0
  0
ARC
  5
2A7
100
AcDbEntity
  8
0
100
AcDbCircle
 62
7
  6
BYLAYER
 10
12.3653386968
 20
22.5405545039
 40
7.4250227293
100
AcDbArc
 50
270.0000070709
 51
278.7464692714
  0
ARC
  5
2A8
100
AcDbEntity
  8
0
100
AcDbCircle
 62
7
  6
BYLAYER
 10
12.3653301175
 20
22.5405377426
 40
7.4250155269
100
AcDbArc
 50
323.4351449066
 51
89.9999267262
  0
ARC
  5
2A9
100
AcDbEntity
  8
0
100
AcDbCircle
 62
7
  6
BYLAYER
 10
12.3062230206
 20
22.542463103
 40
4.6883332869
100
AcDbArc
 50
359.9765287295
 51
12.2915001367
  0
ARC
  5
2AA
100
AcDbEntity
  8
0
100
AcDbCircle
 62
7
  6
BYLAYER
 10
12.2831936648
 20
22.5413645242
 40
4.5335207718
100
AcDbArc
 50
167.2676950012
 51
180.0103886504
  0
ARC
  5
2AB
100
AcDbEntity
  8
0
100
AcDbCircle
 62
7
  6
BYLAYER
 10
6.3653396131
 20
28.9281687572
 40
2.0
100
AcDbArc
 50
101.6551198662
 51
180.0
  0
ARC
  5
2AC
100
AcDbEntity
  8
0
100
AcDbCircle
 62
7
  6
BYLAYER
 10
6.3653396131
 20
18.9349912465
 40
2.0
100
AcDbArc
 50
180.0
 51
211.0027191339
  0
ARC
  5
2AD
100
AcDbEntity
  8
0
100
AcDbCircle
 62
7
  6
BYLAYER
 10
8.0999714564
 20
19.7447180484
 40
0.6
100
AcDbArc
 50
181.3397066352
 51
309.9999999998
  0
ARC
  5
2AE
100
AcDbEntity
  8
0
100
AcDbCircle
 62
7
  6
BYLAYER
 10
9.9187859146
 20
23.740542522
 40
0.2
100
AcDbArc
 50
153.8727022342
 51
270.0
  0
ARC
  5
2AF
100
AcDbEntity
  8
0
100
AcDbCircle
 62
7
  6
BYLAYER
 10
7.6715337192
 20
20.9560280127
 40
0.2
100
AcDbArc
 50
106.3397066353
 51
181.3397066353
  0
ARC
  5
2B0
100
AcDbEntity
  8
0
100
AcDbCircle
 62
7
  6
BYLAYER
 10
18.3653396131
 20
6.240542522
 40
0.3
100
AcDbArc
 50
270.0
 51
90.0
  0
ARC
  5
2B1
100
AcDbEntity
  8
0
100
AcDbCircle
 62
7
  6
BYLAYER
 10
18.3653396131
 20
6.290542522
 40
0.3
100
AcDbArc
 50
90.0
 51
180.0
  0
ARC
  5
2B2
100
AcDbEntity
  8
0
100
AcDbCircle
 62
7
  6
BYLAYER
 10
18.3653396131
 20
6.240542522
 40
0.3
100
AcDbArc
 50
180.0
 51
270.0
  0
ARC
  5
2B3
100
AcDbEntity
  8
0
100
AcDbCircle
 62
7
  6
BYLAYER
 10
12.3653396131
 20
22.540542522
 40
9.0
100
AcDbArc
 50
211.0027191339
 51
328.9972808661
  0
CIRCLE
  5
2B4
100
AcDbEntity
  8
0
100
AcDbCircle
 62
7
  6
BYLAYER
 10
12.3653396131
 20
22.540542522
 40
7.8938574234
  0
CIRCLE
  5
2B5
100
AcDbEntity
  8
0
100
AcDbCircle
 62
7
  6
BYLAYER
 10
12.3653396131
 20
22.540542522
 40
7.4939053173
  0
CIRCLE
  5
2B6
100
AcDbEntity
  8
0
100
AcDbCircle
 62
7
  6
BYLAYER
 10
12.3653396131
 20
22.540542522
 40
7.435
  0
ARC
  5
2B7
100
AcDbEntity
  8
0
100
AcDbCircle
 62
7
  6
BYLAYER
 10
12.3653396131
 20
22.540542522
 40
7.4249958507
100
AcDbArc
 50
90.0000732738
 51
269.9999929291
  0
ARC
  5
2B8
100
AcDbEntity
  8
0
100
AcDbCircle
 62
7
  6
BYLAYER
 10
12.3653396131
 20
22.540542522
 40
7.4249958507
100
AcDbArc
 50
278.7464315344
 51
323.4353995144
  0
ARC
  5
2B9
100
AcDbEntity
  8
0
100
AcDbCircle
 62
7
  6
BYLAYER
 10
12.3653396131
 20
22.540542522
 40
7.4099958507
100
AcDbArc
 50
278.7013129143
 51
323.7660011071
  0
ARC
  5
2BA
100
AcDbEntity
  8
0
100
AcDbCircle
 62
7
  6
BYLAYER
 10
12.3653396131
 20
22.540542522
 40
7.4099958507
100
AcDbArc
 50
216.2339988929
 51
261.2986870857
  0
ARC
  5
2BB
100
AcDbEntity
  8
0
100
AcDbCircle
 62
7
  6
BYLAYER
 10
12.3653396131
 20
22.540542522
 40
7.0
100
AcDbArc
 50
262.6129861077
 51
277.3870138923
  0
ARC
  5
2BC
100
AcDbEntity
  8
0
100
AcDbCircle
 62
7
  6
BYLAYER
 10
12.3653396131
 20
22.5405080347
 40
7.0
100
AcDbArc
 50
342.9145581593
 51
197.0854418407
  0
CIRCLE
  5
2BD
100
AcDbEntity
  8
0
100
AcDbCircle
 62
7
  6
BYLAYER
 10
12.3653396131
 20
22.540542522
 40
6.8
  0
ARC
  5
2BE
100
AcDbEntity
  8
0
100
AcDbCircle
 62
7
  6
BYLAYER
 10
12.3653396131
 20
22.540542522
 40
5.148754039
100
AcDbArc
 50
198.1178856999
 51
219.9339788764
  0
ARC
  5
2BF
100
AcDbEntity
  8
0
100
AcDbCircle
 62
7
  6
BYLAYER
 10
12.3653396131
 20
22.540542522
 40
5.148754039
100
AcDbArc
 50
320.0660211236
 51
341.8821143001
  0
ARC
  5
2C0
100
AcDbEntity
  8
0
100
AcDbCircle
 62
7
  6
BYLAYER
 10
12.4278796617
 20
22.5420941789
 40
4.69176557
100
AcDbArc
 50
167.7129979874
 51
180.0189488419
  0
CIRCLE
  5
2C1
100
AcDbEntity
  8
0
100
AcDbCircle
 62
7
  6
BYLAYER
 10
12.3653396131
 20
22.540542522
 40
4.648754039
  0
ARC
  5
2C2
100
AcDbEntity
  8
0
100
AcDbCircle
 62
7
  6
BYLAYER
 10
12.3653396131
 20
22.540542522
 40
4.6
100
AcDbArc
 50
297.3063509016
 51
242.6936490984
  0
ARC
  5
2C3
100
AcDbEntity
  8
0
100
AcDbCircle
 62
7
  6
BYLAYER
 10
12.4327654638
 20
22.5397182425
 40
4.5482821224
100
AcDbArc
 50
0.0103837154
 51
12.7116649834
  0
CIRCLE
  5
2C4
100
AcDbEntity
  8
0
100
AcDbCircle
 62
7
  6
BYLAYER
 10
12.3653396131
 20
22.540542522
 40
4.525
  0
ARC
  5
2C5
100
AcDbEntity
  8
0
100
AcDbCircle
 62
7
  6
BYLAYER
 10
12.3653396131
 20
22.540542522
 40
3.625
100
AcDbArc
 50
291.0
 51
249.0
  0
CIRCLE
  5
2C6
100
AcDbEntity
  8
0
100
AcDbCircle
 62
7
  6
BYLAYER
 10
12.3653396131
 20
22.540542522
 40
3.6012395693
  0
ARC
  5
2C7
100
AcDbEntity
  8
0
100
AcDbCircle
 62
7
  6
BYLAYER
 10
12.3653396131
 20
22.540542522
 40
3.1
100
AcDbArc
 50
249.0
 51
291.0
  0
ARC
  5
2C8
100
AcDbEntity
  8
0
100
AcDbCircle
 62
7
  6
BYLAYER
 10
12.3653396131
 20
22.540542522
 40
2.925
100
AcDbArc
 50
23.8077071193
 51
156.1915839639
  0
ARC
  5
2C9
100
AcDbEntity
  8
0
100
AcDbCircle
 62
7
  6
BYLAYER
 10
12.3653396131
 20
22.540542522
 40
2.425
100
AcDbArc
 50
29.6595537732
 51
150.3404462268
  0
ARC
  5
2CA
100
AcDbEntity
  8
0
100
AcDbCircle
 62
7
  6
BYLAYER
 10
14.8118933117
 20
23.740542522
 40
0.2
100
AcDbArc
 50
270.0
 51
26.1272977658
  0
ARC
  5
2CB
100
AcDbEntity
  8
0
100
AcDbCircle
 62
7
  6
BYLAYER
 10
18.3653396131
 20
18.9349912465
 40
2.0
100
AcDbArc
 50
328.9972808661
 51
360.0
  0
ARC
  5
2CC
100
AcDbEntity
  8
0
100
AcDbCircle
 62
7
  6
BYLAYER
 10
16.6307077699
 20
19.7447180484
 40
0.6
100
AcDbArc
 50
229.9999999998
 51
358.6602933645
  0
ARC
  5
2CD
100
AcDbEntity
  8
0
100
AcDbCircle
 62
7
  6
BYLAYER
 10
17.059145507
 20
20.9560280127
 40
0.2
100
AcDbArc
 50
358.6602933647
 51
73.6602933647
  0
ARC
  5
2CE
100
AcDbEntity
  8
0
100
AcDbCircle
 62
7
  6
BYLAYER
 10
18.3653396131
 20
28.9281687572
 40
2.0
100
AcDbArc
 50
0.0
 51
78.3448801338
  0
ARC
  5
2CF
100
AcDbEntity
  8
0
100
AcDbCircle
 62
7
  6
BYLAYER
 10
624.1077966594
 20
-13.0509345204
 40
612.5962609579
100
AcDbArc
 50
177.6050939698
 51
177.7274361574
  0
LINE
  5
2D0
100
AcDbEntity
  8
0
100
AcDbLine
 62
7
  6
BYLAYER
 10
6.3726357159
 20
5.1265529825
 11
6.5849849527
 21
2.840542522
  0
SPLINE
  5
2D1
100
AcDbEntity
  8
0
100
AcDbSpline
 62
7
  6
BYLAYER
 70
0
 71
3
 72
12
 73
8
 74
0
 42
0.0000001
 43
0.0000001
 44
0.0000000001
 40
0.0
 40
0.0
 40
0.0
 40
0.0
 40
0.1897245812
 40
0.3818311218
 40
0.5800441789
 40
0.7847508854
 40
1.0
 40
1.0
 40
1.0
 40
1.0
 10
7.0662830933
 20
6.240542522
 30
0.0
 10
7.0662830933
 20
6.2098066316
 30
0.0
 10
7.0555448153
 20
6.1475413274
 30
0.0
 10
7.0105172565
 20
6.063350308
 30
0.0
 10
6.9394834675
 20
5.9957564293
 30
0.0
 10
6.8481676678
 20
5.9513290005
 30
0.0
 10
6.7797123478
 20
5.940542522
 30
0.0
 10
6.7448414146
 20
5.940542522
 30
0.0
  0
SPLINE
  5
2D2
100
AcDbEntity
  8
0
100
AcDbSpline
 62
7
  6
BYLAYER
 70
0
 71
3
 72
12
 73
8
 74
0
 42
0.0000001
 43
0.0000001
 44
0.0000000001
 40
0.0
 40
0.0
 40
0.0
 40
0.0
 40
0.2249747091
 40
0.4345151681
 40
0.6326122327
 40
0.8200174401
 40
1.0
 40
1.0
 40
1.0
 40
1.0
 10
7.0326573612
 20
5.940542522
 30
0.0
 10
7.0702048763
 20
5.940542522
 30
0.0
 10
7.143149881
 20
5.9516497182
 30
0.0
 10
7.2400618527
 20
5.9969362647
 30
0.0
 10
7.314701118
 20
6.0649826245
 30
0.0
 10
7.3614928665
 20
6.1487748022
 30
0.0
 10
7.372594877
 20
6.2105040438
 30
0.0
 10
7.372594877
 20
6.240542522
 30
0.0
  0
SPLINE
  5
2D3
100
AcDbEntity
  8
0
100
AcDbSpline
 62
7
  6
BYLAYER
 70
0
 71
3
 72
12
 73
8
 74
0
 42
0.0000001
 43
0.0000001
 44
0.0000000001
 40
0.0
 40
0.0
 40
0.0
 40
0.0
 40
0.2134274981
 40
0.4219224138
 40
0.622179076
 40
0.8138437093
 40
1.0
 40
1.0
 40
1.0
 40
1.0
 10
7.4289948116
 20
6.240542522
 30
0.0
 10
7.4289948116
 20
6.2093514814
 30
0.0
 10
7.4206156789
 20
6.1473502236
 30
0.0
 10
7.383831443
 20
6.0629063297
 30
0.0
 10
7.3259292335
 20
5.9950717062
 30
0.0
 10
7.2520894721
 20
5.9508699489
 30
0.0
 10
7.1963927214
 20
5.940542522
 30
0.0
 10
7.1691871904
 20
5.940542522
 30
0.0
  0
LINE
  5
2D4
100
AcDbEntity
  8
0
100
AcDbLine
 62
7
  6
BYLAYER
 10
13.9081963213
 20
11.2405426731
 11
13.9774867571
 21
13.04054252
  0
LINE
  5
2D5
100
AcDbEntity
  8
0
100
AcDbLine
 62
7
  6
BYLAYER
 10
12.491314583
 20
13.040542522
 11
12.5625883511
 21
11.240542522
  0
LINE
  5
2D6
100
AcDbEntity
  8
0
100
AcDbLine
 62
7
  6
BYLAYER
 10
10.8224816382
 20
11.2405426697
 11
10.7531944547
 21
13.04054252
  0
LINE
  5
2D7
100
AcDbEntity
  8
0
100
AcDbLine
 62
7
  6
BYLAYER
 10
12.2195450527
 20
12.5405414425
 11
12.1681173081
 21
11.2405425381
  0
LINE
  5
2D8
100
AcDbEntity
  8
0
100
AcDbLine
 62
7
  6
BYLAYER
 10
12.2393687319
 20
13.040542522
 11
12.2195227251
 21
12.5405423689
  0
SPLINE
  5
2D9
100
AcDbEntity
  8
0
100
AcDbSpline
 62
7
  6
BYLAYER
 70
0
 71
3
 72
31
 73
27
 74
0
 42
0.0000001
 43
0.0000001
 44
0.0000000001
 40
0.0
 40
0.0
 40
0.0
 40
0.0
 40
0.0194605909
 40
0.0406359778
 40
0.0645147627
 40
0.0918793585
 40
0.1231884787
 40
0.1588998818
 40
0.1995150985
 40
0.2455825982
 40
0.2977383707
 40
0.3568054512
 40
0.4237012321
 40
0.4998207791
 40
0.5760712966
 40
0.6431107265
 40
0.7021696305
 40
0.7543481733
 40
0.8004253374
 40
0.8410491131
 40
0.876769272
 40
0.9080813302
 40
0.9354497087
 40
0.9593201253
 40
0.9804847153
 40
1.0
 40
1.0
 40
1.0
 40
1.0
 10
13.3652961682
 20
29.5316025714
 30
0.0
 10
13.3652882425
 20
29.5473245277
 30
0.0
 10
13.3619910233
 20
29.5802301284
 30
0.0
 10
13.346852396
 20
29.630411636
 30
0.0
 10
13.3198554731
 20
29.6826679838
 30
0.0
 10
13.2794725462
 20
29.7361077288
 30
0.0
 10
13.2246392999
 20
29.7894661511
 30
0.0
 10
13.1546189811
 20
29.841409653
 30
0.0
 10
13.0686648757
 20
29.8906971711
 30
0.0
 10
12.9658688793
 20
29.9360427318
 30
0.0
 10
12.8450384617
 20
29.9759684361
 30
0.0
 10
12.7046824906
 20
30.0085657396
 30
0.0
 10
12.5427836008
 20
30.0312245309
 30
0.0
 10
12.3655700723
 20
30.0396061285
 30
0.0
 10
12.1882377035
 20
30.0312596792
 30
0.0
 10
12.0261221983
 20
30.008587294
 30
0.0
 10
11.8856411404
 20
29.975963494
 30
0.0
 10
11.7647913304
 20
29.9360333594
 30
0.0
 10
11.6619658028
 20
29.8906722855
 30
0.0
 10
11.5759954156
 20
29.841368973
 30
0.0
 10
11.505967435
 20
29.7894077719
 30
0.0
 10
11.4511348276
 20
29.7360305154
 30
0.0
 10
11.4107660832
 20
29.6825809456
 30
0.0
 10
11.38379303
 20
29.6303269527
 30
0.0
 10
11.3686576636
 20
29.5801132467
 30
0.0
 10
11.3653832356
 20
29.5471696699
 30
0.0
 10
11.3653765013
 20
29.5314035266
 30
0.0
  0
SPLINE
  5
2DA
100
AcDbEntity
  8
0
100
AcDbSpline
 62
7
  6
BYLAYER
 70
0
 71
3
 72
25
 73
21
 74
0
 42
0.0000001
 43
0.0000001
 44
0.0000000001
 40
0.0
 40
0.0
 40
0.0
 40
0.0
 40
0.064515652
 40
0.1312881477
 40
0.2004284293
 40
0.2721096284
 40
0.3469236627
 40
0.425049145
 40
0.503024686
 40
0.5747668279
 40
0.6379658995
 40
0.6940999529
 40
0.7446946204
 40
0.790767203
 40
0.8330631754
 40
0.8720692859
 40
0.9077916104
 40
0.9405473338
 40
0.9710185765
 40
1.0
 40
1.0
 40
1.0
 40
1.0
 10
10.700321313
 20
18.2030217689
 30
0.0
 10
10.5882977671
 20
18.2462559475
 30
0.0
 10
10.3636446964
 20
18.3431175699
 30
0.0
 10
10.0335648026
 20
18.517745028
 30
0.0
 10
9.7076013699
 20
18.7260333326
 30
0.0
 10
9.3885884479
 20
18.9703853025
 30
0.0
 10
9.08002469
 20
19.2533035067
 30
0.0
 10
8.7909383239
 20
19.5721933051
 30
0.0
 10
8.5365567726
 20
19.912274737
 30
0.0
 10
8.3285161985
 20
20.2501380957
 30
0.0
 10
8.1671102553
 20
20.5674155612
 30
0.0
 10
8.0442177412
 20
20.8590943084
 30
0.0
 10
7.950771914
 20
21.1278837778
 30
0.0
 10
7.8801156495
 20
21.3768214356
 30
0.0
 10
7.8275189738
 20
21.6080874174
 30
0.0
 10
7.7895728292
 20
21.822642977
 30
0.0
 10
7.7635275313
 20
22.0210510088
 30
0.0
 10
7.7470011284
 20
22.2045200074
 30
0.0
 10
7.7380192639
 20
22.3759392649
 30
0.0
 10
7.7361212714
 20
22.4866021179
 30
0.0
 10
7.7361212714
 20
22.540542522
 30
0.0
  0
SPLINE
  5
2DB
100
AcDbEntity
  8
0
100
AcDbSpline
 62
7
  6
BYLAYER
 70
0
 71
3
 72
25
 73
21
 74
0
 42
0.0000001
 43
0.0000001
 44
0.0000000001
 40
0.0
 40
0.0
 40
0.0
 40
0.0
 40
0.0289667615
 40
0.0594216862
 40
0.0921750913
 40
0.1279080702
 40
0.1669236712
 40
0.2092268762
 40
0.2553055668
 40
0.3059060385
 40
0.3620462263
 40
0.4252526287
 40
0.4969957453
 40
0.5749619805
 40
0.6530825528
 40
0.727897492
 40
0.7995763994
 40
0.8687151739
 40
0.9354853008
 40
1.0
 40
1.0
 40
1.0
 40
1.0
 10
16.9945579549
 20
22.540542522
 30
0.0
 10
16.9945579549
 20
22.4866294065
 30
0.0
 10
16.9926619113
 20
22.3760242267
 30
0.0
 10
16.9836879249
 20
22.2046666696
 30
0.0
 10
16.967169855
 20
22.0212118468
 30
0.0
 10
16.9411268397
 20
21.8227700016
 30
0.0
 10
16.9031763963
 20
21.6081633986
 30
0.0
 10
16.8505729254
 20
21.3768553288
 30
0.0
 10
16.7799077727
 20
21.1278830982
 30
0.0
 10
16.6864498962
 20
20.8590621916
 30
0.0
 10
16.563540244
 20
20.5673516609
 30
0.0
 10
16.4021160242
 20
20.2500532144
 30
0.0
 10
16.1940682834
 20
19.9121964327
 30
0.0
 10
15.9396951354
 20
19.5721397431
 30
0.0
 10
15.6506221504
 20
19.253271409
 30
0.0
 10
15.3420647451
 20
18.9703636033
 30
0.0
 10
15.0230543703
 20
18.7260172379
 30
0.0
 10
14.6970996087
 20
18.5177367336
 30
0.0
 10
14.3670272427
 20
18.3431143488
 30
0.0
 10
14.1423798051
 20
18.2462553091
 30
0.0
 10
14.0303579133
 20
18.2030217689
 30
0.0
  0
SPLINE
  5
2DC
100
AcDbEntity
  8
0
100
AcDbSpline
 62
7
  6
BYLAYER
 70
0
 71
3
 72
18
 73
14
 74
0
 42
0.0000001
 43
0.0000001
 44
0.0000000001
 40
0.0
 40
0.0
 40
0.0
 40
0.0
 40
0.1422714456
 40
0.2663007827
 40
0.3758342345
 40
0.4769116291
 40
0.5685891108
 40
0.6511040393
 40
0.7306941823
 40
0.8046508312
 40
0.8726914051
 40
0.9371329416
 40
1.0
 40
1.0
 40
1.0
 40
1.0
 10
14.4754508326
 20
18.4531124405
 30
0.0
 10
14.6880823324
 20
18.562270242
 30
0.0
 10
15.0709063053
 20
18.7979677725
 30
0.0
 10
15.55625196
 20
19.2046312997
 30
0.0
 10
15.9386954207
 20
19.6185510718
 30
0.0
 10
16.2388332423
 20
20.0294767807
 30
0.0
 10
16.4713269926
 20
20.4301378296
 30
0.0
 10
16.6492735209
 20
20.8182101568
 30
0.0
 10
16.7822919923
 20
21.1923512707
 30
0.0
 10
16.8770813209
 20
21.5527709428
 30
0.0
 10
16.9388665095
 20
21.8943655737
 30
0.0
 10
16.973682466
 20
22.2209690512
 30
0.0
 10
16.9810155346
 20
22.4349268637
 30
0.0
 10
16.9810155346
 20
22.540542522
 30
0.0
  0
SPLINE
  5
2DD
100
AcDbEntity
  8
0
100
AcDbSpline
 62
7
  6
BYLAYER
 70
0
 71
3
 72
10
 73
6
 74
0
 42
0.0000001
 43
0.0000001
 44
0.0000000001
 40
0.0
 40
0.0
 40
0.0
 40
0.0
 40
0.3352561817
 40
0.6691218849
 40
1.0
 40
1.0
 40
1.0
 40
1.0
 10
13.9698299345
 20
18.3607024266
 30
0.0
 10
14.0265103017
 20
18.3700278656
 30
0.0
 10
14.1395068571
 20
18.3894309666
 30
0.0
 10
14.3080271923
 20
18.4203965003
 30
0.0
 10
14.4198410334
 20
18.442086927
 30
0.0
 10
14.4754508326
 20
18.4531124405
 30
0.0
  0
SPLINE
  5
2DE
100
AcDbEntity
  8
0
100
AcDbSpline
 62
7
  6
BYLAYER
 70
0
 71
3
 72
10
 73
6
 74
0
 42
0.0000001
 43
0.0000001
 44
0.0000000001
 40
0.0
 40
0.0
 40
0.0
 40
0.0
 40
0.3308510637
 40
0.6647245201
 40
1.0
 40
1.0
 40
1.0
 40
1.0
 10
10.2552403306
 20
18.4531101071
 30
0.0
 10
10.3108442439
 20
18.4420856365
 30
0.0
 10
10.4226522329
 20
18.4203965539
 30
0.0
 10
10.5911685545
 20
18.3894316178
 30
0.0
 10
10.7041670032
 20
18.3700281817
 30
0.0
 10
10.7608492918
 20
18.3607024266
 30
0.0
  0
SPLINE
  5
2DF
100
AcDbEntity
  8
0
100
AcDbSpline
 62
7
  6
BYLAYER
 70
0
 71
3
 72
24
 73
20
 74
0
 42
0.0000001
 43
0.0000001
 44
0.0000000001
 40
0.0
 40
0.0
 40
0.0
 40
0.0
 40
0.031228569
 40
0.0640196288
 40
0.0990848853
 40
0.1371546465
 40
0.1786532563
 40
0.2235954542
 40
0.2724222235
 40
0.3258463706
 40
0.3847965681
 40
0.4508510901
 40
0.5255332
 40
0.6079928262
 40
0.6921313396
 40
0.7738230061
 40
0.85197619
 40
0.9271551957
 40
1.0
 40
1.0
 40
1.0
 40
1.0
 10
7.7496636917
 20
22.540542522
 30
0.0
 10
7.7496636917
 20
22.4880640433
 30
0.0
 10
7.7515332413
 20
22.3804722212
 30
0.0
 10
7.7603526066
 20
22.2141621228
 30
0.0
 10
7.7764740389
 20
22.0368432135
 30
0.0
 10
7.8016845002
 20
21.8458049731
 30
0.0
 10
7.8381683685
 20
21.6397003445
 30
0.0
 10
7.8884314421
 20
21.4179196629
 30
0.0
 10
7.9555010045
 20
21.1797102689
 30
0.0
 10
8.0434819564
 20
20.9233391854
 30
0.0
 10
8.1581606079
 20
20.6460676088
 30
0.0
 10
8.3074436804
 20
20.3452100803
 30
0.0
 10
8.4997103574
 20
20.0226790055
 30
0.0
 10
8.736756199
 20
19.6930450041
 30
0.0
 10
9.0105222191
 20
19.3773932436
 30
0.0
 10
9.3064597834
 20
19.0928386092
 30
0.0
 10
9.6143103812
 20
18.8446557665
 30
0.0
 10
9.9294367537
 20
18.6314202459
 30
0.0
 10
10.1463391265
 20
18.5090161312
 30
0.0
 10
10.2552403306
 20
18.4531101071
 30
0.0
  0
LINE
  5
2E0
100
AcDbEntity
  8
0
100
AcDbLine
 62
7
  6
BYLAYER
 10
7.5375528463
 20
5.140542522
 11
7.3632775384
 21
4.640542522
  0
SPLINE
  5
2E1
100
AcDbEntity
  8
0
100
AcDbSpline
 62
7
  6
BYLAYER
 70
0
 71
3
 72
13
 73
9
 74
0
 42
0.0000001
 43
0.0000001
 44
0.0000000001
 40
0.0
 40
0.0
 40
0.0
 40
0.0
 40
0.1409602006
 40
0.2917482326
 40
0.4522574858
 40
0.6272698302
 40
0.8075490688
 40
1.0
 40
1.0
 40
1.0
 40
1.0
 10
9.3404722631
 20
6.290542522
 30
0.0
 10
9.3558990064
 20
6.3202783561
 30
0.0
 10
9.3970487094
 20
6.3771709931
 30
0.0
 10
9.4777916887
 20
6.4490341206
 30
0.0
 10
9.5772040738
 20
6.5091182593
 30
0.0
 10
9.6915913132
 20
6.5546357514
 30
0.0
 10
9.8189265436
 20
6.5837488672
 30
0.0
 10
9.9076540593
 20
6.590542522
 30
0.0
 10
9.9533901941
 20
6.590542522
 30
0.0
  0
LINE
  5
2E2
100
AcDbEntity
  8
0
100
AcDbLine
 62
7
  6
BYLAYER
 10
9.3146007986
 20
6.240542522
 11
9.3404722631
 21
6.290542522
  0
SPLINE
  5
2E3
100
AcDbEntity
  8
0
100
AcDbSpline
 62
7
  6
BYLAYER
 70
0
 71
3
 72
19
 73
15
 74
0
 42
0.0000001
 43
0.0000001
 44
0.0000000001
 40
0.0
 40
0.0
 40
0.0
 40
0.0
 40
0.1314738698
 40
0.2453551883
 40
0.3442518377
 40
0.4309339664
 40
0.5078102953
 40
0.5775756015
 40
0.6431133041
 40
0.707061069
 40
0.7723125161
 40
0.841440583
 40
0.9163916304
 40
1.0
 40
1.0
 40
1.0
 40
1.0
 10
9.5616094589
 20
5.940542522
 30
0.0
 10
9.5399999751
 20
5.940542522
 30
0.0
 10
9.4996198001
 20
5.9425087278
 30
0.0
 10
9.4437084297
 20
5.9521961858
 30
0.0
 10
9.39674786
 20
5.9676120229
 30
0.0
 10
9.3584554072
 20
5.9880082032
 30
0.0
 10
9.328610104
 20
6.0125330037
 30
0.0
 10
9.3068723619
 20
6.0401621791
 30
0.0
 10
9.2926030863
 20
6.0699199725
 30
0.0
 10
9.2849806591
 20
6.1012231964
 30
0.0
 10
9.2833701155
 20
6.1339554633
 30
0.0
 10
9.2875570211
 20
6.1682573755
 30
0.0
 10
9.297750327
 20
6.2043977588
 30
0.0
 10
9.3082985592
 20
6.2283307048
 30
0.0
 10
9.3146007986
 20
6.240542522
 30
0.0
  0
SPLINE
  5
2E4
100
AcDbEntity
  8
0
100
AcDbSpline
 62
7
  6
BYLAYER
 70
0
 71
3
 72
13
 73
9
 74
0
 42
0.0000001
 43
0.0000001
 44
0.0000000001
 40
0.0
 40
0.0
 40
0.0
 40
0.0
 40
0.1409602006
 40
0.2917482326
 40
0.4522574858
 40
0.6272698302
 40
0.8075490688
 40
1.0
 40
1.0
 40
1.0
 40
1.0
 10
15.3902069632
 20
6.290542522
 30
0.0
 10
15.3747802199
 20
6.3202783561
 30
0.0
 10
15.3336305168
 20
6.3771709931
 30
0.0
 10
15.2528875376
 20
6.4490341206
 30
0.0
 10
15.1534751524
 20
6.5091182593
 30
0.0
 10
15.0390879131
 20
6.5546357514
 30
0.0
 10
14.9117526827
 20
6.5837488672
 30
0.0
 10
14.823025167
 20
6.590542522
 30
0.0
 10
14.7772890322
 20
6.590542522
 30
0.0
  0
LINE
  5
2E5
100
AcDbEntity
  8
0
100
AcDbLine
 62
7
  6
BYLAYER
 10
15.4160784276
 20
6.240542522
 11
15.3902069632
 21
6.290542522
  0
SPLINE
  5
2E6
100
AcDbEntity
  8
0
100
AcDbSpline
 62
7
  6
BYLAYER
 70
0
 71
3
 72
19
 73
15
 74
0
 42
0.0000001
 43
0.0000001
 44
0.0000000001
 40
0.0
 40
0.0
 40
0.0
 40
0.0
 40
0.1314738698
 40
0.2453551883
 40
0.3442518377
 40
0.4309339664
 40
0.5078102953
 40
0.5775756015
 40
0.6431133041
 40
0.707061069
 40
0.7723125161
 40
0.841440583
 40
0.9163916304
 40
1.0
 40
1.0
 40
1.0
 40
1.0
 10
15.1690697674
 20
5.940542522
 30
0.0
 10
15.1906792511
 20
5.940542522
 30
0.0
 10
15.2310594262
 20
5.9425087278
 30
0.0
 10
15.2869707965
 20
5.9521961858
 30
0.0
 10
15.3339313663
 20
5.9676120229
 30
0.0
 10
15.3722238191
 20
5.9880082032
 30
0.0
 10
15.4020691223
 20
6.0125330037
 30
0.0
 10
15.4238068643
 20
6.0401621791
 30
0.0
 10
15.4380761399
 20
6.0699199725
 30
0.0
 10
15.4456985672
 20
6.1012231964
 30
0.0
 10
15.4473091107
 20
6.1339554633
 30
0.0
 10
15.4431222052
 20
6.1682573755
 30
0.0
 10
15.4329288993
 20
6.2043977588
 30
0.0
 10
15.4223806671
 20
6.2283307048
 30
0.0
 10
15.4160784276
 20
6.240542522
 30
0.0
  0
SPLINE
  5
2E7
100
AcDbEntity
  8
0
100
AcDbSpline
 62
7
  6
BYLAYER
 70
0
 71
3
 72
12
 73
8
 74
0
 42
0.0000001
 43
0.0000001
 44
0.0000000001
 40
0.0
 40
0.0
 40
0.0
 40
0.0
 40
0.2134274981
 40
0.4219224138
 40
0.622179076
 40
0.8138437093
 40
1.0
 40
1.0
 40
1.0
 40
1.0
 10
17.3016844147
 20
6.290542522
 30
0.0
 10
17.3016844147
 20
6.3217335626
 30
0.0
 10
17.3100635474
 20
6.3837348204
 30
0.0
 10
17.3468477833
 20
6.4681787143
 30
0.0
 10
17.4047499927
 20
6.5360133378
 30
0.0
 10
17.4785897542
 20
6.580215095
 30
0.0
 10
17.5342865048
 20
6.590542522
 30
0.0
 10
17.5614920358
 20
6.590542522
 30
0.0
  0
SPLINE
  5
2E8
100
AcDbEntity
  8
0
100
AcDbSpline
 62
7
  6
BYLAYER
 70
0
 71
3
 72
12
 73
8
 74
0
 42
0.0000001
 43
0.0000001
 44
0.0000000001
 40
0.0
 40
0.0
 40
0.0
 40
0.0
 40
0.2134274981
 40
0.4219224138
 40
0.622179076
 40
0.8138437093
 40
1.0
 40
1.0
 40
1.0
 40
1.0
 10
17.3016844147
 20
6.240542522
 30
0.0
 10
17.3016844147
 20
6.2093514814
 30
0.0
 10
17.3100635474
 20
6.1473502236
 30
0.0
 10
17.3468477833
 20
6.0629063297
 30
0.0
 10
17.4047499927
 20
5.9950717062
 30
0.0
 10
17.4785897542
 20
5.9508699489
 30
0.0
 10
17.5342865048
 20
5.940542522
 30
0.0
 10
17.5614920358
 20
5.940542522
 30
0.0
  0
SPLINE
  5
2E9
100
AcDbEntity
  8
0
100
AcDbSpline
 62
7
  6
BYLAYER
 70
0
 71
3
 72
12
 73
8
 74
0
 42
0.0000001
 43
0.0000001
 44
0.0000000001
 40
0.0
 40
0.0
 40
0.0
 40
0.0
 40
0.2134274981
 40
0.4219224138
 40
0.622179076
 40
0.8138437093
 40
1.0
 40
1.0
 40
1.0
 40
1.0
 10
7.4289948116
 20
6.290542522
 30
0.0
 10
7.4289948116
 20
6.3217335626
 30
0.0
 10
7.4206156789
 20
6.3837348204
 30
0.0
 10
7.383831443
 20
6.4681787143
 30
0.0
 10
7.3259292335
 20
6.5360133378
 30
0.0
 10
7.2520894721
 20
6.580215095
 30
0.0
 10
7.1963927214
 20
6.590542522
 30
0.0
 10
7.1691871904
 20
6.590542522
 30
0.0
  0
SPLINE
  5
2EA
100
AcDbEntity
  8
0
100
AcDbSpline
 62
7
  6
BYLAYER
 70
0
 71
3
 72
33
 73
29
 74
0
 42
0.0000001
 43
0.0000001
 44
0.0000000001
 40
0.0
 40
0.0
 40
0.0
 40
0.0
 40
0.0729568676
 40
0.1480940348
 40
0.1851522414
 40
0.222210448
 40
0.25
 40
0.2824679267
 40
0.3149358534
 40
0.3595516021
 40
0.4041673509
 40
0.4479450503
 40
0.4698338999
 40
0.4917227496
 40
0.5139202422
 40
0.5361177348
 40
0.58051272
 40
0.625
 40
0.6681765497
 40
0.7163172547
 40
0.7403876072
 40
0.7644579596
 40
0.7868019967
 40
0.8091460337
 40
0.8538341078
 40
0.8923361768
 40
0.9308382457
 40
1.0
 40
1.0
 40
1.0
 40
1.0
 10
9.6892617989
 20
23.7213187632
 30
0.0
 10
9.6847630627
 20
23.7111248409
 30
0.0
 10
9.6767043764
 20
23.6899661882
 30
0.0
 10
9.6690897457
 20
23.6624315655
 30
0.0
 10
9.6642790241
 20
23.6395749889
 30
0.0
 10
9.6616977665
 20
23.6236953895
 30
0.0
 10
9.6597542236
 20
23.6082599809
 30
0.0
 10
9.658350341
 20
23.5933352843
 30
0.0
 10
9.6572939844
 20
23.5754949883
 30
0.0
 10
9.6567943528
 20
23.5554318446
 30
0.0
 10
9.6572387014
 20
23.5333187095
 30
0.0
 10
9.6584186416
 20
23.5148985999
 30
0.0
 10
9.6597101624
 20
23.5002348973
 30
0.0
 10
9.6608717878
 20
23.4891816194
 30
0.0
 10
9.6622297776
 20
23.478086699
 30
0.0
 10
9.6643182861
 20
23.4632476005
 30
0.0
 10
9.6673917604
 20
23.4447179063
 30
0.0
 10
9.6718521801
 20
23.4228003418
 30
0.0
 10
9.6770412918
 20
23.4003322941
 30
0.0
 10
9.6819700249
 20
23.3813341696
 30
0.0
 10
9.6864776272
 20
23.3655765333
 30
0.0
 10
9.689950851
 20
23.3540828604
 30
0.0
 10
9.6934821619
 20
23.3429054565
 30
0.0
 10
9.6982259716
 20
23.3284135837
 30
0.0
 10
9.7040975085
 20
23.3113736036
 30
0.0
 10
9.7112437276
 20
23.2918426137
 30
0.0
 10
9.7202300208
 20
23.2685216064
 30
0.0
 10
9.7272196222
 20
23.2514803278
 30
0.0
 10
9.7318007608
 20
23.2405724548
 30
0.0
  0
SPLINE
  5
2EB
100
AcDbEntity
  8
0
100
AcDbSpline
 62
7
  6
BYLAYER
 70
0
 71
3
 72
33
 73
29
 74
0
 42
0.0000001
 43
0.0000001
 44
0.0000000001
 40
0.0
 40
0.0
 40
0.0
 40
0.0
 40
0.0715351378
 40
0.110532961
 40
0.1495307841
 40
0.1925370878
 40
0.2140402396
 40
0.2355433914
 40
0.2583946841
 40
0.2812459767
 40
0.326948562
 40
0.3749999993
 40
0.4168026352
 40
0.4625450999
 40
0.4854163323
 40
0.5082875647
 40
0.5306342083
 40
0.5529808518
 40
0.597674139
 40
0.6423180511
 40
0.6869619632
 40
0.7184809809
 40
0.7499999987
 40
0.7777956505
 40
0.8154340959
 40
0.8530725413
 40
0.9283330973
 40
1.0
 40
1.0
 40
1.0
 40
1.0
 10
14.9988783208
 20
23.2405727768
 30
0.0
 10
15.003616492
 20
23.2518543998
 30
0.0
 10
15.0107868052
 20
23.2693512062
 30
0.0
 10
15.0199526526
 20
23.2932176859
 30
0.0
 10
15.0270301228
 20
23.3126463868
 30
0.0
 10
15.0327690184
 20
23.329364128
 30
0.0
 10
15.0373261199
 20
23.3433123031
 30
0.0
 10
15.04070576
 20
23.354018643
 30
0.0
 10
15.0440223581
 20
23.3649760836
 30
0.0
 10
15.0483221838
 20
23.3799301726
 30
0.0
 10
15.0533512514
 20
23.3991177268
 30
0.0
 10
15.0585552738
 20
23.4215443482
 30
0.0
 10
15.0631602524
 20
23.4440449193
 30
0.0
 10
15.0662444809
 20
23.4624614069
 30
0.0
 10
15.0684076273
 20
23.477750618
 30
0.0
 10
15.0698052083
 20
23.4891479266
 30
0.0
 10
15.0709937232
 20
23.5004674299
 30
0.0
 10
15.0723062811
 20
23.5154369333
 30
0.0
 10
15.0734790265
 20
23.534089061
 30
0.0
 10
15.0738830748
 20
23.5563578018
 30
0.0
 10
15.0733519599
 20
23.5762632169
 30
0.0
 10
15.0722892508
 20
23.5937889446
 30
0.0
 10
15.0709062304
 20
23.6084045597
 30
0.0
 10
15.0689709818
 20
23.6237799124
 30
0.0
 10
15.0663541774
 20
23.6398364154
 30
0.0
 10
15.0614820115
 20
23.662874341
 30
0.0
 10
15.0538557837
 20
23.6902974334
 30
0.0
 10
15.0458486659
 20
23.7112748531
 30
0.0
 10
15.0414319578
 20
23.7212859481
 30
0.0
  0
SPLINE
  5
2EC
100
AcDbEntity
  8
0
100
AcDbSpline
 62
7
  6
BYLAYER
 70
0
 71
3
 72
32
 73
28
 74
0
 42
0.0000001
 43
0.0000001
 44
0.0000000001
 40
0.0
 40
0.0
 40
0.0
 40
0.0
 40
0.0712483088
 40
0.1096039275
 40
0.1484433167
 40
0.1906442103
 40
0.211735293
 40
0.2327514518
 40
0.2537655269
 40
0.2747759773
 40
0.3167875498
 40
0.3449265456
 40
0.3731620687
 40
0.4062384563
 40
0.45434826
 40
0.5034018461
 40
0.5479196514
 40
0.5915981795
 40
0.6805063593
 40
0.7174439504
 40
0.7543475824
 40
0.770233838
 40
0.7901034064
 40
0.8100340379
 40
0.8498824479
 40
0.928084054
 40
1.0
 40
1.0
 40
1.0
 40
1.0
 10
14.8062959114
 20
23.5405849424
 30
0.0
 10
14.8158167397
 20
23.5398831299
 30
0.0
 10
14.8306290723
 20
23.5404959413
 30
0.0
 10
14.8501924264
 20
23.5441755225
 30
0.0
 10
14.8655959026
 20
23.5485856106
 30
0.0
 10
14.8783698248
 20
23.553551494
 30
0.0
 10
14.8886047188
 20
23.558339913
 30
0.0
 10
14.8960990306
 20
23.5622660128
 30
0.0
 10
14.903421763
 20
23.566480404
 30
0.0
 10
14.912977283
 20
23.572440513
 30
0.0
 10
14.9229733061
 20
23.5794844987
 30
0.0
 10
14.9332387486
 20
23.5877641101
 30
0.0
 10
14.9421524957
 20
23.595785961
 30
0.0
 10
14.9524451074
 20
23.6062412641
 30
0.0
 10
14.963642364
 20
23.6196657519
 30
0.0
 10
14.974269746
 20
23.6354372363
 30
0.0
 10
14.9830127514
 20
23.651647673
 30
0.0
 10
14.992327376
 20
23.6735017398
 30
0.0
 10
14.9983854511
 20
23.6955347273
 30
0.0
 10
15.0017242585
 20
23.7170927412
 30
0.0
 10
15.0028040904
 20
23.7290762786
 30
0.0
 10
15.0032696889
 20
23.7388014936
 30
0.0
 10
15.0033817575
 20
23.7462643071
 30
0.0
 10
15.0030993334
 20
23.7569356295
 30
0.0
 10
15.0014842931
 20
23.7753715966
 30
0.0
 10
14.9960825581
 20
23.8003798904
 30
0.0
 10
14.9882888506
 20
23.8190834207
 30
0.0
 10
14.9836504467
 20
23.8275297196
 30
0.0
  0
SPLINE
  5
2ED
100
AcDbEntity
  8
0
100
AcDbSpline
 62
7
  6
BYLAYER
 70
0
 71
3
 72
12
 73
8
 74
0
 42
0.0000001
 43
0.0000001
 44
0.0000000001
 40
0.0
 40
0.0
 40
0.0
 40
0.0
 40
0.312871292
 40
0.5981068526
 40
0.8227906384
 40
0.959652718
 40
1.0
 40
1.0
 40
1.0
 40
1.0
 10
14.9988917258
 20
23.240542522
 30
0.0
 10
14.9829955647
 20
23.2739190689
 30
0.0
 10
14.9509616755
 20
23.3381509697
 30
0.0
 10
14.9043612566
 20
23.4187837778
 30
0.0
 10
14.8491545066
 20
23.4870206034
 30
0.0
 10
14.8414784355
 20
23.5151454188
 30
0.0
 10
14.8071259042
 20
23.540542522
 30
0.0
 10
14.8118933117
 20
23.540542522
 30
0.0
  0
SPLINE
  5
2EE
100
AcDbEntity
  8
0
100
AcDbSpline
 62
7
  6
BYLAYER
 70
0
 71
3
 72
12
 73
8
 74
0
 42
0.0000001
 43
0.0000001
 44
0.0000000001
 40
0.0
 40
0.0
 40
0.0
 40
0.0
 40
0.0395263878
 40
0.1749707866
 40
0.3991997667
 40
0.6853452341
 40
1.0
 40
1.0
 40
1.0
 40
1.0
 10
9.9187859146
 20
23.540542522
 30
0.0
 10
9.9234562655
 20
23.540542522
 30
0.0
 10
9.8900463977
 20
23.5150787656
 30
0.0
 10
9.8818597272
 20
23.4876302226
 30
0.0
 10
9.8265980303
 20
23.4194913039
 30
0.0
 10
9.779918127
 20
23.3386592804
 30
0.0
 10
9.7477611832
 20
23.2741150265
 30
0.0
 10
9.7317874983
 20
23.240542522
 30
0.0
  0
SPLINE
  5
2EF
100
AcDbEntity
  8
0
100
AcDbSpline
 62
7
  6
BYLAYER
 70
0
 71
3
 72
12
 73
8
 74
0
 42
0.0000001
 43
0.0000001
 44
0.0000000001
 40
0.0
 40
0.0
 40
0.0
 40
0.0
 40
0.0841774977
 40
0.2381045943
 40
0.4520094573
 40
0.7122519549
 40
1.0
 40
1.0
 40
1.0
 40
1.0
 10
14.9836557462
 20
23.827532276
 30
0.0
 10
14.9692588045
 20
23.8254529887
 30
0.0
 10
14.9285930032
 20
23.8191796964
 30
0.0
 10
14.8514652435
 20
23.8068358296
 30
0.0
 10
14.7443398032
 20
23.7894003004
 30
0.0
 10
14.6145874323
 20
23.7670469452
 30
0.0
 10
14.5215102573
 20
23.7496049117
 30
0.0
 10
14.4726186644
 20
23.740542522
 30
0.0
  0
SPLINE
  5
2F0
100
AcDbEntity
  8
0
100
AcDbSpline
 62
7
  6
BYLAYER
 70
0
 71
3
 72
11
 73
7
 74
0
 42
0.0000001
 43
0.0000001
 44
0.0000000001
 40
0.0
 40
0.0
 40
0.0
 40
0.0
 40
0.0602750188
 40
0.2468037501
 40
0.5592816304
 40
1.0
 40
1.0
 40
1.0
 40
1.0
 10
14.9914568859
 20
23.8286159165
 30
0.0
 10
14.9915266295
 20
23.8284737229
 30
0.0
 10
14.9903578528
 20
23.8285164393
 30
0.0
 10
14.9894266808
 20
23.828144037
 30
0.0
 10
14.9866766998
 20
23.827869543
 30
0.0
 10
14.9848009447
 20
23.8277041029
 30
0.0
 10
14.9836557462
 20
23.827532276
 30
0.0
  0
SPLINE
  5
2F1
100
AcDbEntity
  8
0
100
AcDbSpline
 62
7
  6
BYLAYER
 70
0
 71
3
 72
12
 73
8
 74
0
 42
0.0000001
 43
0.0000001
 44
0.0000000001
 40
0.0
 40
0.0
 40
0.0
 40
0.0
 40
0.318534028
 40
0.5985596995
 40
0.8163828063
 40
0.9537310655
 40
1.0
 40
1.0
 40
1.0
 40
1.0
 10
10.2580605619
 20
23.740542522
 30
0.0
 10
10.2031095881
 20
23.7506938506
 30
0.0
 10
10.0993197386
 20
23.7711572288
 30
0.0
 10
9.9603013759
 20
23.7909738163
 30
0.0
 10
9.8448426602
 20
23.8190347408
 30
0.0
 10
9.7855028448
 20
23.8110545942
 30
0.0
 10
9.7427968024
 20
23.8359035108
 30
0.0
 10
9.7392223404
 20
23.8286159165
 30
0.0
  0
SPLINE
  5
2F2
100
AcDbEntity
  8
0
100
AcDbSpline
 62
7
  6
BYLAYER
 70
0
 71
3
 72
12
 73
8
 74
0
 42
0.0000001
 43
0.0000001
 44
0.0000000001
 40
0.0
 40
0.0
 40
0.0
 40
0.0
 40
0.0591829868
 40
0.2116764763
 40
0.4360083019
 40
0.7069351876
 40
1.0
 40
1.0
 40
1.0
 40
1.0
 10
15.4230590268
 20
11.240542522
 30
0.0
 10
15.4171214565
 20
11.240542522
 30
0.0
 10
15.4198916899
 20
11.273488943
 30
0.0
 10
15.4114578157
 20
11.3069704681
 30
0.0
 10
15.4111765283
 20
11.3768511178
 30
0.0
 10
15.4084910581
 20
11.4540983826
 30
0.0
 10
15.4083211399
 20
11.5111406111
 30
0.0
 10
15.4083211399
 20
11.540542522
 30
0.0
  0
SPLINE
  5
2F3
100
AcDbEntity
  8
0
100
AcDbSpline
 62
7
  6
BYLAYER
 70
0
 71
3
 72
12
 73
8
 74
0
 42
0.0000001
 43
0.0000001
 44
0.0000000001
 40
0.0
 40
0.0
 40
0.0
 40
0.0
 40
0.2064884349
 40
0.4099354199
 40
0.60842683
 40
0.8019354859
 40
1.0
 40
1.0
 40
1.0
 40
1.0
 10
14.983336555
 20
11.540542522
 30
0.0
 10
14.983336555
 20
11.510908292
 30
0.0
 10
14.9760732626
 20
11.4518172036
 30
0.0
 10
14.9438528301
 20
11.3696244767
 30
0.0
 10
14.8910619625
 20
11.3007561394
 30
0.0
 10
14.8194625467
 20
11.2525040264
 30
0.0
 10
14.7626544748
 20
11.240542522
 30
0.0
 10
14.7342292055
 20
11.240542522
 30
0.0
  0
SPLINE
  5
2F4
100
AcDbEntity
  8
0
100
AcDbSpline
 62
7
  6
BYLAYER
 70
0
 71
3
 72
12
 73
8
 74
0
 42
0.0000001
 43
0.0000001
 44
0.0000000001
 40
0.0
 40
0.0
 40
0.0
 40
0.0
 40
0.1140019714
 40
0.2753479975
 40
0.4875924283
 40
0.7352144448
 40
1.0
 40
1.0
 40
1.0
 40
1.0
 10
13.6603999759
 20
11.240542522
 30
0.0
 10
13.6477251887
 20
11.240542522
 30
0.0
 10
13.6189695405
 20
11.2594720036
 30
0.0
 10
13.5942147536
 20
11.307905513
 30
0.0
 10
13.5738036312
 20
11.3742733401
 30
0.0
 10
13.5616455398
 20
11.4540994987
 30
0.0
 10
13.558799098
 20
11.5111035525
 30
0.0
 10
13.558799098
 20
11.540542522
 30
0.0
  0
SPLINE
  5
2F5
100
AcDbEntity
  8
0
100
AcDbSpline
 62
7
  6
BYLAYER
 70
0
 71
3
 72
12
 73
8
 74
0
 42
0.0000001
 43
0.0000001
 44
0.0000000001
 40
0.0
 40
0.0
 40
0.0
 40
0.0
 40
0.231643144
 40
0.4532071891
 40
0.6558793752
 40
0.8345879933
 40
1.0
 40
1.0
 40
1.0
 40
1.0
 10
13.1027344618
 20
11.540542522
 30
0.0
 10
13.1027344618
 20
11.5110145084
 30
0.0
 10
13.09761098
 20
11.4531072144
 30
0.0
 10
13.0748730182
 20
11.3720815931
 30
0.0
 10
13.037669946
 20
11.3038917479
 30
0.0
 10
12.9865739001
 20
11.2542562293
 30
0.0
 10
12.9422799232
 20
11.240542522
 30
0.0
 10
12.9211945247
 20
11.240542522
 30
0.0
  0
LINE
  5
2F6
100
AcDbEntity
  8
0
100
AcDbLine
 62
7
  6
BYLAYER
 10
12.0466123465
 20
12.5475180943
 11
12.2195227251
 21
12.5405423689
  0
SPLINE
  5
2F7
100
AcDbEntity
  8
0
100
AcDbSpline
 62
7
  6
BYLAYER
 70
0
 71
3
 72
14
 73
10
 74
0
 42
0.0000001
 43
0.0000001
 44
0.0000000001
 40
0.0
 40
0.0
 40
0.0
 40
0.0
 40
0.170320599
 40
0.2501278133
 40
0.3360608601
 40
0.50000234
 40
0.6608499913
 40
0.8496901125
 40
1.0
 40
1.0
 40
1.0
 40
1.0
 10
10.8960811626
 20
13.0405425213
 30
0.0
 10
10.9002447955
 20
12.938354676
 30
0.0
 10
10.9056729857
 20
12.7882574651
 30
0.0
 10
10.9137502283
 20
12.5866241982
 30
0.0
 10
10.9218513165
 20
12.3888255896
 30
0.0
 10
10.931627582
 20
12.1423924915
 30
0.0
 10
10.9439200344
 20
11.8342179402
 30
0.0
 10
10.9558337687
 20
11.5342201516
 30
0.0
 10
10.9638688265
 20
11.3307288759
 30
0.0
 10
10.9674372794
 20
11.2405426706
 30
0.0
  0
LINE
  5
2F8
100
AcDbEntity
  8
0
100
AcDbLine
 62
7
  6
BYLAYER
 10
12.0466123465
 20
12.5475180943
 11
12.0667415311
 21
13.040542522
  0
SPLINE
  5
2F9
100
AcDbEntity
  8
0
100
AcDbSpline
 62
7
  6
BYLAYER
 70
0
 71
3
 72
12
 73
8
 74
0
 42
0.0000001
 43
0.0000001
 44
0.0000000001
 40
0.0
 40
0.0
 40
0.0
 40
0.0
 40
0.1652743928
 40
0.342272758
 40
0.5437803298
 40
0.7657515017
 40
1.0
 40
1.0
 40
1.0
 40
1.0
 10
11.8094847015
 20
11.240542522
 30
0.0
 10
11.7886536837
 20
11.240542522
 30
0.0
 10
11.7449793936
 20
11.2540041157
 30
0.0
 10
11.6955059611
 20
11.3038310409
 30
0.0
 10
11.66092946
 20
11.3721120018
 30
0.0
 10
11.6413207138
 20
11.4532430866
 30
0.0
 10
11.6384775715
 20
11.5110404585
 30
0.0
 10
11.6396269519
 20
11.540542522
 30
0.0
  0
SPLINE
  5
2FA
100
AcDbEntity
  8
0
100
AcDbSpline
 62
7
  6
BYLAYER
 70
0
 71
3
 72
12
 73
8
 74
0
 42
0.0000001
 43
0.0000001
 44
0.0000000001
 40
0.0
 40
0.0
 40
0.0
 40
0.0
 40
0.2675766595
 40
0.5150815033
 40
0.7261250828
 40
0.8861899971
 40
1.0
 40
1.0
 40
1.0
 40
1.0
 10
11.1602956241
 20
11.540542522
 30
0.0
 10
11.1614341599
 20
11.5110662305
 30
0.0
 10
11.1607863122
 20
11.4541850244
 30
0.0
 10
11.1517350361
 20
11.374447144
 30
0.0
 10
11.1339391839
 20
11.3082762472
 30
0.0
 10
11.1111848731
 20
11.2595761344
 30
0.0
 10
11.082825929
 20
11.240542522
 30
0.0
 10
11.0702792504
 20
11.240542522
 30
0.0
  0
SPLINE
  5
2FB
100
AcDbEntity
  8
0
100
AcDbSpline
 62
7
  6
BYLAYER
 70
0
 71
3
 72
12
 73
8
 74
0
 42
0.0000001
 43
0.0000001
 44
0.0000000001
 40
0.0
 40
0.0
 40
0.0
 40
0.0
 40
0.0591829868
 40
0.2116764763
 40
0.4360083019
 40
0.7069351876
 40
1.0
 40
1.0
 40
1.0
 40
1.0
 10
9.3076201995
 20
11.240542522
 30
0.0
 10
9.3135577697
 20
11.240542522
 30
0.0
 10
9.3107875364
 20
11.273488943
 30
0.0
 10
9.3192214106
 20
11.3069704681
 30
0.0
 10
9.319502698
 20
11.3768511178
 30
0.0
 10
9.3221881682
 20
11.4540983826
 30
0.0
 10
9.3223580864
 20
11.5111406111
 30
0.0
 10
9.3223580864
 20
11.540542522
 30
0.0
  0
SPLINE
  5
2FC
100
AcDbEntity
  8
0
100
AcDbSpline
 62
7
  6
BYLAYER
 70
0
 71
3
 72
12
 73
8
 74
0
 42
0.0000001
 43
0.0000001
 44
0.0000000001
 40
0.0
 40
0.0
 40
0.0
 40
0.0
 40
0.2064884349
 40
0.4099354199
 40
0.60842683
 40
0.8019354859
 40
1.0
 40
1.0
 40
1.0
 40
1.0
 10
9.7473426713
 20
11.540542522
 30
0.0
 10
9.7473426713
 20
11.510908292
 30
0.0
 10
9.7546059636
 20
11.4518172036
 30
0.0
 10
9.7868263962
 20
11.3696244767
 30
0.0
 10
9.8396172637
 20
11.3007561394
 30
0.0
 10
9.9112166796
 20
11.2525040264
 30
0.0
 10
9.9680247515
 20
11.240542522
 30
0.0
 10
9.9964500208
 20
11.240542522
 30
0.0
  0
SPLINE
  5
2FD
100
AcDbEntity
  8
0
100
AcDbSpline
 62
7
  6
BYLAYER
 70
0
 71
3
 72
12
 73
8
 74
0
 42
0.0000001
 43
0.0000001
 44
0.0000000001
 40
0.0
 40
0.0
 40
0.0
 40
0.0
 40
0.1140019714
 40
0.2753479975
 40
0.4875924283
 40
0.7352144448
 40
1.0
 40
1.0
 40
1.0
 40
1.0
 10
11.0702792504
 20
11.240542522
 30
0.0
 10
11.0829540376
 20
11.240542522
 30
0.0
 10
11.1117096857
 20
11.2594720036
 30
0.0
 10
11.1364644727
 20
11.307905513
 30
0.0
 10
11.1568755951
 20
11.3742733401
 30
0.0
 10
11.1690336865
 20
11.4540994987
 30
0.0
 10
11.1718801283
 20
11.5111035525
 30
0.0
 10
11.1718801283
 20
11.540542522
 30
0.0
  0
SPLINE
  5
2FE
100
AcDbEntity
  8
0
100
AcDbSpline
 62
7
  6
BYLAYER
 70
0
 71
3
 72
12
 73
8
 74
0
 42
0.0000001
 43
0.0000001
 44
0.0000000001
 40
0.0
 40
0.0
 40
0.0
 40
0.0
 40
0.231643144
 40
0.4532071891
 40
0.6558793752
 40
0.8345879933
 40
1.0
 40
1.0
 40
1.0
 40
1.0
 10
11.6279447645
 20
11.540542522
 30
0.0
 10
11.6279447645
 20
11.5110145084
 30
0.0
 10
11.6330682462
 20
11.4531072144
 30
0.0
 10
11.6558062081
 20
11.3720815931
 30
0.0
 10
11.6930092803
 20
11.3038917479
 30
0.0
 10
11.7441053262
 20
11.2542562293
 30
0.0
 10
11.7883993031
 20
11.240542522
 30
0.0
 10
11.8094847015
 20
11.240542522
 30
0.0
  0
SPLINE
  5
2FF
100
AcDbEntity
  8
0
100
AcDbSpline
 62
7
  6
BYLAYER
 70
0
 71
3
 72
12
 73
8
 74
0
 42
0.0000001
 43
0.0000001
 44
0.0000000001
 40
0.0
 40
0.0
 40
0.0
 40
0.0
 40
0.1652743928
 40
0.342272758
 40
0.5437803298
 40
0.7657515017
 40
1.0
 40
1.0
 40
1.0
 40
1.0
 10
12.9211945247
 20
11.240542522
 30
0.0
 10
12.9420255426
 20
11.240542522
 30
0.0
 10
12.9856998327
 20
11.2540041157
 30
0.0
 10
13.0351732652
 20
11.3038310409
 30
0.0
 10
13.0697497663
 20
11.3721120018
 30
0.0
 10
13.0893585125
 20
11.4532430866
 30
0.0
 10
13.0922016548
 20
11.5110404585
 30
0.0
 10
13.0910522744
 20
11.540542522
 30
0.0
  0
SPLINE
  5
300
100
AcDbEntity
  8
0
100
AcDbSpline
 62
7
  6
BYLAYER
 70
0
 71
3
 72
12
 73
8
 74
0
 42
0.0000001
 43
0.0000001
 44
0.0000000001
 40
0.0
 40
0.0
 40
0.0
 40
0.0
 40
0.2675766595
 40
0.5150815033
 40
0.7261250828
 40
0.8861899971
 40
1.0
 40
1.0
 40
1.0
 40
1.0
 10
13.5703836022
 20
11.540542522
 30
0.0
 10
13.5692450663
 20
11.5110662305
 30
0.0
 10
13.5698929141
 20
11.4541850244
 30
0.0
 10
13.5789441902
 20
11.374447144
 30
0.0
 10
13.5967400424
 20
11.3082762472
 30
0.0
 10
13.6194943532
 20
11.2595761344
 30
0.0
 10
13.6478532973
 20
11.240542522
 30
0.0
 10
13.6603999759
 20
11.240542522
 30
0.0
  0
SPLINE
  5
301
100
AcDbEntity
  8
0
100
AcDbSpline
 62
7
  6
BYLAYER
 70
0
 71
3
 72
14
 73
10
 74
0
 42
0.0000001
 43
0.0000001
 44
0.0000000001
 40
0.0
 40
0.0
 40
0.0
 40
0.0
 40
0.1703572013
 40
0.2001050084
 40
0.3393645663
 40
0.4999974538
 40
0.6626618069
 40
0.8371432339
 40
1.0
 40
1.0
 40
1.0
 40
1.0
 10
13.8347856019
 20
13.0405425218
 30
0.0
 10
13.8306217234
 20
12.938332688
 30
0.0
 10
13.8262647778
 20
12.8182538201
 30
0.0
 10
13.8182954349
 20
12.6146310091
 30
0.0
 10
13.8101270154
 20
12.4168599454
 30
0.0
 10
13.7991275368
 20
12.1393257184
 30
0.0
 10
13.7871629923
 20
11.8406634556
 30
0.0
 10
13.7753168931
 20
11.5406600461
 30
0.0
 10
13.7672950916
 20
11.3382570379
 30
0.0
 10
13.7634288798
 20
11.2405426766
 30
0.0
  0
SPLINE
  5
302
100
AcDbEntity
  8
0
100
AcDbSpline
 62
7
  6
BYLAYER
 70
0
 71
3
 72
10
 73
6
 74
0
 42
0.0000001
 43
0.0000001
 44
0.0000000001
 40
0.0
 40
0.0
 40
0.0
 40
0.0
 40
0.3334754867
 40
0.666808832
 40
1.0
 40
1.0
 40
1.0
 40
1.0
 10
6.8644305974
 20
2.840542522
 30
0.0
 10
6.8395765413
 20
3.094642623
 30
0.0
 10
6.7899954969
 20
3.6027459061
 30
0.0
 10
6.7157542298
 20
4.3647494781
 30
0.0
 10
6.666348868
 20
4.8726511679
 30
0.0
 10
6.6417044046
 20
5.1265529826
 30
0.0
  0
ELLIPSE
  5
303
100
AcDbEntity
  8
0
100
AcDbEllipse
 62
7
  6
BYLAYER
 10
12.3653396131
 20
-84.2417460044
 30
0.0
 11
-7.0582824481
 21
211.9082613603
 31
0.0
 40
0.010489242
 41
-1.1021408587
 42
-1.0941893444
  0
ELLIPSE
  5
304
100
AcDbEntity
  8
0
100
AcDbEllipse
 62
7
  6
BYLAYER
 10
12.3653396131
 20
-84.2417460044
 30
0.0
 11
6.2432917737
 21
211.9082419717
 31
0.0
 40
0.018746649
 41
1.0943922849
 42
1.1023437992
  0
ELLIPSE
  5
305
100
AcDbEntity
  8
0
100
AcDbEllipse
 62
7
  6
BYLAYER
 10
12.3653396131
 20
-84.2417460044
 30
0.0
 11
-6.2432917737
 21
211.9082419717
 31
0.0
 40
0.018746649
 41
-1.1023437992
 42
-1.0943922849
  0
ELLIPSE
  5
306
100
AcDbEntity
  8
0
100
AcDbEllipse
 62
7
  6
BYLAYER
 10
12.3653396131
 20
-84.2417460044
 30
0.0
 11
7.0582824481
 21
211.9082613603
 31
0.0
 40
0.010489242
 41
1.0941893444
 42
1.1021408587
  0
ENDSEC
  0
SECTION
  2
OBJECTS
  0
DICTIONARY
  5
C
100
AcDbDictionary
280
0
281
1
  3
ACAD_GROUP
350
D
  3
ACAD_MLINESTYLE
350
17
  3
ACAD_LAYOUT
350
1A
  3
ACAD_PLOTSETTINGS
350
19
  3
ACAD_PLOTSTYLENAME
350
E
  0
DICTIONARY
  5
D
102
{ACAD_REACTORS
330
C
102
}
100
AcDbDictionary
280
0
281
1
  0
ACDBDICTIONARYWDFLT
  5
E
102
{ACAD_REACTORS
330
C
102
}
100
AcDbDictionary
281
1
  3
Normal
350
F
100
AcDbDictionaryWithDefault
340
F
  0
DICTIONARY
  5
17
102
{ACAD_REACTORS
330
C
102
}
100
AcDbDictionary
280
0
281
1
  3
Standard
350
18
  0
DICTIONARY
  5
19
102
{ACAD_REACTORS
330
C
102
}
100
AcDbDictionary
281
1
  0
DICTIONARY
  5
1A
102
{ACAD_REACTORS
330
C
102
}
100
AcDbDictionary
281
1
  3
Model
350
307
  3
Layout1
350
308
  0
ACDBPLACEHOLDER
  5
F
102
{ACAD_REACTORS
330
E
102
}
  0
MLINESTYLE
  5
18
102
{ACAD_REACTORS
330
17
102
}
100
AcDbMlineStyle
  2
STANDARD
 70
0
  3

 62
256
 51
90.0
 52
90.0
 71
2
 49
0.5
 62
256
  6
BYLAYER
 49
-0.5
 62
256
  6
BYLAYER
  0
LAYOUT
  5
307
102
{ACAD_REACTORS
330
1A
102
}
100
AcDbPlotSettings
  1

  2
none_device
  4

  6

 40
0.0
 41
0.0
 42
0.0
 43
0.0
 44
210.0
 45
297.0
 46
0.0
 47
0.0
 48
0.0
 49
0.0
140
0.0
141
0.0
142
1.0
143
1.0
 70
1024
 72
1
 73
0
 74
0
  7

 75
0
147
1.0
148
0.0
149
0.0
100
AcDbLayout
  1
Model
 70
0
 71
0
 10
0.0
 20
0.0
 11
210.0
 21
297.0
 12
0.0
 22
0.0
 32
0.0
 14
0.0
 24
0.0
 34
0.0
 15
0.0
 25
0.0
 35
0.0
146
0.0
 13
0.0
 23
0.0
 33
0.0
 16
1.0
 26
0.0
 36
0.0
 17
0.0
 27
1.0
 37
0.0
 76
0
330
210
345
0
346
0
  0
LAYOUT
  5
308
102
{ACAD_REACTORS
330
1A
102
}
100
AcDbPlotSettings
  1

  2
none_device
  4

  6

 40
0.0
 41
0.0
 42
0.0
 43
0.0
 44
210.0
 45
297.0
 46
0.0
 47
0.0
 48
0.0
 49
0.0
140
0.0
141
0.0
142
1.0
143
1.0
 70
0
 72
1
 73
0
 74
0
  7

 75
0
147
1.0
148
0.0
149
0.0
100
AcDbLayout
  1
Layout1
 70
0
 71
1
 10
0.0
 20
0.0
 11
210.0
 21
297.0
 12
0.0
 22
0.0
 32
0.0
 14
0.0
 24
0.0
 34
0.0
 15
0.0
 25
0.0
 35
0.0
146
0.0
 13
0.0
 23
0.0
 33
0.0
 16
1.0
 26
0.0
 36
0.0
 17
0.0
 27
1.0
 37
0.0
 76
0
330
211
345
0
346
0
  0
ENDSEC
  0
EOF
