999
DXF file: C:\Users\sesa63760\Dev\_Creo\CAD\MCADPP0003354_3D-CAD\drw0001_2.dxf
999
Pro/ENGINEER 2019471 by Parametric Technology Corporation
  0
SECTION
  2
HEADER
  9
$ACADVER
  1
AC1024
  9
$DWGCODEPAGE
  3
ANSI_1252
  9
$EXTMAX
 10
56.6349772232
 20
80.0980392157
 30
0.0
  9
$EXTMIN
 10
0.0
 20
0.0
 30
0.0
  9
$LIMMIN
 10
0.0
 20
0.0
  9
$LIMMAX
 10
56.6349772232
 20
80.0980392157
  9
$VIEWCTR
 10
28.3174886116
 20
40.0490196078
  9
$VIEWSIZE
 40
80.0980392157
  9
$CLAYER
  8
0
  9
$LTSCALE
 40
5.2212055192
  9
$CELTYPE
  6
BYLAYER
  9
$DIMSCALE
 40
1.0
  9
$DIMASZ
 40
0.6742259193
  9
$DIMEXO
 40
1.0
  9
$DIMDLI
 40
3.6073783588
  9
$DIMEXE
 40
1.0
  9
$DIMCEN
 40
0.854379085
  9
$DIMLFAC
 40
1.0
  9
$DIMBLK
  1
_FILLED
  9
$DIMALT
 70
0
  9
$DIMALTF
 40
0.0393700787
  9
$DIMTXT
 40
0.9439162871
  9
$DIMTOL
 70
1
  9
$DIMLIM
 70
0
  9
$DIMTFAC
 40
1.0
  9
$DIMTP
 40
0.01
  9
$DIMTM
 40
0.01
  9
$DIMGAP
 40
0.625
  9
$DIMDSEP
 70
46
  9
$AUNITS
 70
0
  9
$PDMODE
 70
3
  9
$PDSIZE
 40
0.3125
  9
$HANDSEED
  5
28D
  9
$TILEMODE
 70
1
  9
$MEASUREMENT
 70
1
  9
$INSUNITS
 70
4
  0
ENDSEC
  0
SECTION
  2
CLASSES
  0
CLASS
  1
ACDBDICTIONARYWDFLT
  2
AcDbDictionaryWithDefault
  3
AutoCAD 2000
 90
0
 91
1
280
0
281
0
  0
CLASS
  1
ACDBPLACEHOLDER
  2
AcDbPlaceHolder
  3
AutoCAD 2000
 90
0
 91
1
280
0
281
0
  0
CLASS
  1
LAYOUT
  2
AcDbLayout
  3
AutoCAD 2000
 90
0
 91
0
280
0
281
0
  0
ENDSEC
  0
SECTION
  2
TABLES
  0
TABLE
  2
VPORT
  5
8
100
AcDbSymbolTable
 70
2
  0
VPORT
  5
1F4
100
AcDbSymbolTableRecord
100
AcDbViewportTableRecord
  2
*ACTIVE
 70
0
 10
0.0
 20
0.0
 11
1.0
 21
1.0
 12
28.3174886116
 22
40.0490196078
 13
0.0
 23
0.0
 14
1.0
 24
1.0
 15
0.0
 25
0.0
 16
0.0
 26
0.0
 36
1.0
 17
0.0
 27
0.0
 37
0.0
 40
80.0980392157
 41
0.7070707071
 42
50.0
 43
0.0
 44
0.0
 50
0.0
 51
0.0
 71
0
 72
100
 73
1
 74
1
 75
0
 76
0
 77
0
 78
0
  0
ENDTAB
  0
TABLE
  2
LTYPE
  5
5
100
AcDbSymbolTable
 70
6
  0
LTYPE
  5
14
100
AcDbSymbolTableRecord
100
AcDbLinetypeTableRecord
  2
BYBLOCK
 70
0
  3

 72
65
 73
0
 40
0.0
  0
LTYPE
  5
15
100
AcDbSymbolTableRecord
100
AcDbLinetypeTableRecord
  2
BYLAYER
 70
0
  3

 72
65
 73
0
 40
0.0
  0
LTYPE
  5
16
100
AcDbSymbolTableRecord
100
AcDbLinetypeTableRecord
  2
CONTINUOUS
 70
64
  3
Solid line
 72
65
 73
0
 40
0.0
  0
LTYPE
  5
1F5
100
AcDbSymbolTableRecord
100
AcDbLinetypeTableRecord
  2
CENTER
 70
64
  3
____ _ ____ _ ____ _ ____ _ ____ _ ____ _ ____
 72
65
 73
4
 40
0.6
 49
0.375
 74
0
 49
-0.075
 74
0
 49
0.075
 74
0
 49
-0.075
 74
0
  0
LTYPE
  5
1F6
100
AcDbSymbolTableRecord
100
AcDbLinetypeTableRecord
  2
HIDDEN
 70
64
  3
- - - - - - - - - - - - - - - - - - - -
 72
65
 73
2
 40
0.2
 49
0.1
 74
0
 49
-0.1
 74
0
  0
LTYPE
  5
1F7
100
AcDbSymbolTableRecord
100
AcDbLinetypeTableRecord
  2
PHANTOM
 70
64
  3
_____ _ _ _____ _ _ _____ _ _ _____
 72
65
 73
6
 40
0.8
 49
0.45
 74
0
 49
-0.05
 74
0
 49
0.1
 74
0
 49
-0.05
 74
0
 49
0.1
 74
0
 49
-0.05
 74
0
  0
LTYPE
  5
1F8
100
AcDbSymbolTableRecord
100
AcDbLinetypeTableRecord
  2
DOT
 70
64
  3
. . . . . . . . . . . . . . . . . . . .
 72
65
 73
2
 40
0.2
 49
0.1
 74
0
 49
-0.1
 74
0
  0
LTYPE
  5
1F9
100
AcDbSymbolTableRecord
100
AcDbLinetypeTableRecord
  2
DASHED
 70
64
  3
- - - - - - - - - - - - - - - - - - - -
 72
65
 73
2
 40
0.2
 49
0.1
 74
0
 49
-0.1
 74
0
  0
ENDTAB
  0
TABLE
  2
LAYER
  5
2
100
AcDbSymbolTable
 70
36
  0
LAYER
  5
10
100
AcDbSymbolTableRecord
100
AcDbLayerTableRecord
  2
0
 70
0
 62
7
  6
CONTINUOUS
370
-3
390
F
  0
LAYER
  5
1FA
100
AcDbSymbolTableRecord
100
AcDbLayerTableRecord
  2
DEFAULT_1
 70
0
 62
7
  6
CENTER
370
-3
390
F
  0
LAYER
  5
1FB
100
AcDbSymbolTableRecord
100
AcDbLayerTableRecord
  2
DEFAULT_2
 70
0
 62
8
  6
HIDDEN
370
-3
390
F
  0
LAYER
  5
1FC
100
AcDbSymbolTableRecord
100
AcDbLayerTableRecord
  2
DEFAULT_3
 70
0
 62
7
  6
PHANTOM
370
-3
390
F
  0
LAYER
  5
1FD
100
AcDbSymbolTableRecord
100
AcDbLayerTableRecord
  2
00_COMPONENTS
 70
0
 62
7
  6
CONTINUOUS
370
-3
390
F
  0
LAYER
  5
1FE
100
AcDbSymbolTableRecord
100
AcDbLayerTableRecord
  2
01_1_DEFAULT_DATUMS
 70
0
 62
7
  6
CONTINUOUS
370
-3
390
F
  0
LAYER
  5
1FF
100
AcDbSymbolTableRecord
100
AcDbLayerTableRecord
  2
01_PLANES
 70
0
 62
7
  6
CONTINUOUS
370
-3
390
F
  0
LAYER
  5
200
100
AcDbSymbolTableRecord
100
AcDbLayerTableRecord
  2
02_COORD_SYS
 70
0
 62
7
  6
CONTINUOUS
370
-3
390
F
  0
LAYER
  5
201
100
AcDbSymbolTableRecord
100
AcDbLayerTableRecord
  2
03_AXES
 70
0
 62
7
  6
CONTINUOUS
370
-3
390
F
  0
LAYER
  5
202
100
AcDbSymbolTableRecord
100
AcDbLayerTableRecord
  2
04_POINTS
 70
0
 62
7
  6
CONTINUOUS
370
-3
390
F
  0
LAYER
  5
203
100
AcDbSymbolTableRecord
100
AcDbLayerTableRecord
  2
05_CURVES
 70
0
 62
7
  6
CONTINUOUS
370
-3
390
F
  0
LAYER
  5
204
100
AcDbSymbolTableRecord
100
AcDbLayerTableRecord
  2
06_SURFS
 70
0
 62
7
  6
CONTINUOUS
370
-3
390
F
  0
LAYER
  5
205
100
AcDbSymbolTableRecord
100
AcDbLayerTableRecord
  2
07_COSMETICS
 70
0
 62
7
  6
CONTINUOUS
370
-3
390
F
  0
LAYER
  5
206
100
AcDbSymbolTableRecord
100
AcDbLayerTableRecord
  2
10_NOTES
 70
0
 62
7
  6
CONTINUOUS
370
-3
390
F
  0
LAYER
  5
207
100
AcDbSymbolTableRecord
100
AcDbLayerTableRecord
  2
11_NOTES_PUB
 70
0
 62
7
  6
CONTINUOUS
370
-3
390
F
  0
LAYER
  5
208
100
AcDbSymbolTableRecord
100
AcDbLayerTableRecord
  2
13_REF_GTOL
 70
0
 62
7
  6
CONTINUOUS
370
-3
390
F
  0
LAYER
  5
209
100
AcDbSymbolTableRecord
100
AcDbLayerTableRecord
  2
16_MISC
 70
0
 62
7
  6
CONTINUOUS
370
-3
390
F
  0
LAYER
  5
20A
100
AcDbSymbolTableRecord
100
AcDbLayerTableRecord
  2
17_NO_PRINT
 70
0
 62
7
  6
CONTINUOUS
370
-3
390
F
  0
LAYER
  5
20B
100
AcDbSymbolTableRecord
100
AcDbLayerTableRecord
  2
18_DATUM_CAMS_JOINTS
 70
0
 62
7
  6
CONTINUOUS
370
-3
390
F
  0
LAYER
  5
20C
100
AcDbSymbolTableRecord
100
AcDbLayerTableRecord
  2
19_DATUM_FUNCTIONAL
 70
0
 62
7
  6
CONTINUOUS
370
-3
390
F
  0
LAYER
  5
20D
100
AcDbSymbolTableRecord
100
AcDbLayerTableRecord
  2
20_DATUM_KINEMATIC_SCHEME
 70
0
 62
7
  6
CONTINUOUS
370
-3
390
F
  0
ENDTAB
  0
TABLE
  2
STYLE
  5
3
100
AcDbSymbolTable
 70
1
  0
STYLE
  5
11
100
AcDbSymbolTableRecord
100
AcDbTextStyleTableRecord
  2
STANDARD
 70
0
 40
0.0
 41
0.8
 50
0.0
 71
0
 42
0.2
  3
txt
  4

  0
STYLE
  5
20E
100
AcDbSymbolTableRecord
100
AcDbTextStyleTableRecord
  2
TEXTSTYLE_1
 70
0
 40
0.0
 41
0.8
 50
0.0
 71
0
 42
0.2
  3
gdt
  4

  0
ENDTAB
  0
TABLE
  2
VIEW
  5
6
100
AcDbSymbolTable
 70
0
  0
ENDTAB
  0
TABLE
  2
UCS
  5
7
100
AcDbSymbolTable
 70
0
  0
ENDTAB
  0
TABLE
  2
APPID
  5
9
100
AcDbSymbolTable
 70
1
  0
APPID
  5
20F
100
AcDbSymbolTableRecord
100
AcDbRegAppTableRecord
  2
ACAD
 70
0
  0
ENDTAB
  0
TABLE
  2
BLOCK_RECORD
  5
1
100
AcDbSymbolTable
 70
0
  0
BLOCK_RECORD
  5
210
100
AcDbSymbolTableRecord
100
AcDbBlockTableRecord
  2
*Model_Space
  0
BLOCK_RECORD
  5
211
100
AcDbSymbolTableRecord
100
AcDbBlockTableRecord
  2
*Paper_Space
  0
BLOCK_RECORD
  5
212
100
AcDbSymbolTableRecord
100
AcDbBlockTableRecord
  2
_FILLED
  0
ENDTAB
  0
TABLE
  2
DIMSTYLE
  5
A
100
AcDbSymbolTable
 70
1
100
AcDbDimStyleTable
 71
0
  0
DIMSTYLE
105
213
100
AcDbSymbolTableRecord
100
AcDbDimStyleTableRecord
  2
STANDARD
 70
0
  3

  4

 40
1.0
 41
0.6742259193
 42
1.0
 43
0.38
 44
1.0
 45
0.0
 46
0.0
 47
0.01
 48
0.01
140
0.9439162871
141
0.09
142
0.0
143
25.4
144
1.0
145
0.0
146
1.0
147
0.625
 71
1
 72
0
 73
0
 74
0
 75
0
 76
0
 77
1
 78
8
 79
2
170
0
171
1
172
0
173
0
174
0
175
0
176
0
177
0
178
0
270
2
179
2
271
2
272
2
273
2
274
2
275
0
280
0
281
0
282
0
283
1
284
8
285
0
286
0
287
3
288
0
340
11
278
46
341
212
342
212
343
212
344
212
  0
ENDTAB
  0
ENDSEC
  0
SECTION
  2
BLOCKS
  0
BLOCK
  5
20
100
AcDbEntity
  8
0
100
AcDbBlockBegin
  2
*Model_Space
 70
0
 10
0.0
 20
0.0
 30
0.0
  3
*Model_Space
  1

  0
ENDBLK
  5
21
100
AcDbEntity
  8
0
100
AcDbBlockEnd
  0
BLOCK
  5
1C
100
AcDbEntity
  8
0
100
AcDbBlockBegin
  2
*Paper_Space
 70
0
 10
0.0
 20
0.0
 30
0.0
  3
*Paper_Space
  1

  0
ENDBLK
  5
1D
100
AcDbEntity
  8
0
100
AcDbBlockEnd
  0
BLOCK
  5
214
100
AcDbEntity
  8
0
100
AcDbBlockBegin
  2
_FILLED
 70
64
 10
0.0
 20
0.0
  3
_FILLED
  1

  0
SOLID
  5
215
100
AcDbEntity
  8
0
  6
BYBLOCK
 62
0
100
AcDbTrace
 10
0.0
 20
0.0
 11
-1.0
 21
0.25
 12
-1.0
 22
-0.25
 13
-1.0
 23
-0.25
  0
ENDBLK
  5
216
100
AcDbEntity
  8
0
  6
BYBLOCK
 62
0
100
AcDbBlockEnd
  0
ENDSEC
  0
SECTION
  2
ENTITIES
  0
LINE
  5
217
100
AcDbEntity
  8
0
100
AcDbLine
 62
7
  6
CONTINUOUS
 10
51.2096454744
 20
10.8595106012
 11
6.2096454744
 21
10.8595106012
  0
LINE
  5
218
100
AcDbEntity
  8
0
100
AcDbLine
 62
7
  6
CONTINUOUS
 10
51.2096454744
 20
10.9444109674
 11
6.2096454744
 21
10.9444109674
  0
LINE
  5
219
100
AcDbEntity
  8
0
100
AcDbLine
 62
7
  6
CONTINUOUS
 10
7.4096454744
 20
12.1444109674
 11
14.2096454744
 21
12.1444109674
  0
LINE
  5
21A
100
AcDbEntity
  8
0
100
AcDbLine
 62
7
  6
CONTINUOUS
 10
15.4096454744
 20
12.1444109674
 11
41.8096454744
 21
12.1444109674
  0
LINE
  5
21B
100
AcDbEntity
  8
0
100
AcDbLine
 62
7
  6
CONTINUOUS
 10
43.2096454744
 20
12.1444109674
 11
50.0096454744
 21
12.1444109674
  0
LINE
  5
21C
100
AcDbEntity
  8
0
100
AcDbLine
 62
7
  6
CONTINUOUS
 10
47.2553274147
 20
13.1192042155
 11
44.9639634231
 21
13.1192042153
  0
LINE
  5
21D
100
AcDbEntity
  8
0
100
AcDbLine
 62
7
  6
CONTINUOUS
 10
47.2552893981
 20
13.3061638537
 11
44.9640014629
 21
13.3061637652
  0
LINE
  5
21E
100
AcDbEntity
  8
0
100
AcDbLine
 62
7
  6
CONTINUOUS
 10
47.6568631967
 20
13.7540647786
 11
44.5629306145
 21
13.7540647786
  0
LINE
  5
21F
100
AcDbEntity
  8
0
100
AcDbLine
 62
7
  6
CONTINUOUS
 10
38.0567513694
 20
13.7540647786
 11
36.4728431147
 21
13.7540647786
  0
LINE
  5
220
100
AcDbEntity
  8
0
100
AcDbLine
 62
7
  6
CONTINUOUS
 10
29.4067513694
 20
13.7540647786
 11
27.8228431147
 21
13.7540647786
  0
LINE
  5
221
100
AcDbEntity
  8
0
100
AcDbLine
 62
7
  6
CONTINUOUS
 10
20.7567513694
 20
13.7540647786
 11
19.1728431147
 21
13.7540647786
  0
LINE
  5
222
100
AcDbEntity
  8
0
100
AcDbLine
 62
7
  6
CONTINUOUS
 10
12.8096454744
 20
13.7540647786
 11
9.4096454744
 21
13.7540647786
  0
LINE
  5
223
100
AcDbEntity
  8
0
100
AcDbLine
 62
7
  6
CONTINUOUS
 10
47.8275225667
 20
13.944412082
 11
44.3924850201
 21
13.944412082
  0
LINE
  5
224
100
AcDbEntity
  8
0
100
AcDbLine
 62
7
  6
CONTINUOUS
 10
38.2420078108
 20
13.944412082
 11
36.278927214
 21
13.944412082
  0
LINE
  5
225
100
AcDbEntity
  8
0
100
AcDbLine
 62
7
  6
CONTINUOUS
 10
29.5920078108
 20
13.944412082
 11
27.628927214
 21
13.944412082
  0
LINE
  5
226
100
AcDbEntity
  8
0
100
AcDbLine
 62
7
  6
CONTINUOUS
 10
20.9420078108
 20
13.944412082
 11
18.978927214
 21
13.944412082
  0
LINE
  5
227
100
AcDbEntity
  8
0
100
AcDbLine
 62
7
  6
CONTINUOUS
 10
12.8096454744
 20
13.944412082
 11
9.4096454744
 21
13.944412082
  0
LINE
  5
228
100
AcDbEntity
  8
0
100
AcDbLine
 62
7
  6
CONTINUOUS
 10
6.2096454744
 20
68.9444109674
 11
6.2096454744
 21
10.8595106012
  0
LINE
  5
229
100
AcDbEntity
  8
0
100
AcDbLine
 62
7
  6
CONTINUOUS
 10
44.9639634231
 20
16.5285426857
 11
47.2553274147
 21
16.5285426856
  0
LINE
  5
22A
100
AcDbEntity
  8
0
100
AcDbLine
 62
7
  6
CONTINUOUS
 10
7.4096454744
 20
67.7444109674
 11
7.4096454744
 21
62.3944109674
  0
LINE
  5
22B
100
AcDbEntity
  8
0
100
AcDbLine
 62
7
  6
CONTINUOUS
 10
7.4096454744
 20
18.6944109674
 11
7.4096454744
 21
12.1444109674
  0
LINE
  5
22C
100
AcDbEntity
  8
0
100
AcDbLine
 62
7
  6
CONTINUOUS
 10
9.4096454744
 20
13.173747941
 11
9.4096454744
 21
16.4739989601
  0
LINE
  5
22D
100
AcDbEntity
  8
0
100
AcDbLine
 62
7
  6
CONTINUOUS
 10
9.4096454744
 20
63.1027880083
 11
9.4096454744
 21
66.4030773266
  0
LINE
  5
22E
100
AcDbEntity
  8
0
100
AcDbLine
 62
7
  6
CONTINUOUS
 10
50.0096454744
 20
18.6944109674
 11
43.2096454744
 21
18.6944109674
  0
LINE
  5
22F
100
AcDbEntity
  8
0
100
AcDbLine
 62
7
  6
CONTINUOUS
 10
14.2096454744
 20
18.6944109674
 11
7.4096454744
 21
18.6944109674
  0
LINE
  5
230
100
AcDbEntity
  8
0
100
AcDbLine
 62
7
  6
CONTINUOUS
 10
12.6096454744
 20
19.2444109674
 11
15.4096454744
 21
19.2444109674
  0
LINE
  5
231
100
AcDbEntity
  8
0
100
AcDbLine
 62
7
  6
CONTINUOUS
 10
41.8096454744
 20
19.2444109674
 11
44.8096454744
 21
19.2444109674
  0
LINE
  5
232
100
AcDbEntity
  8
0
100
AcDbLine
 62
7
  6
CONTINUOUS
 10
51.2096454744
 20
22.1444109674
 11
44.8096454744
 21
22.1444109674
  0
LINE
  5
233
100
AcDbEntity
  8
0
100
AcDbLine
 62
7
  6
CONTINUOUS
 10
12.6096454744
 20
22.1444109674
 11
6.2096454744
 21
22.1444109674
  0
LINE
  5
234
100
AcDbEntity
  8
0
100
AcDbLine
 62
7
  6
CONTINUOUS
 10
12.6096454744
 20
19.2444109674
 11
12.6096454744
 21
23.4444109674
  0
LINE
  5
235
100
AcDbEntity
  8
0
100
AcDbLine
 62
7
  6
CONTINUOUS
 10
12.6096454744
 20
56.2444109674
 11
12.6096454744
 21
60.5595008375
  0
LINE
  5
236
100
AcDbEntity
  8
0
100
AcDbLine
 62
7
  6
CONTINUOUS
 10
12.8096454744
 20
66.4030773266
 11
12.8096454744
 21
63.1027880083
  0
LINE
  5
237
100
AcDbEntity
  8
0
100
AcDbLine
 62
7
  6
CONTINUOUS
 10
12.8096454744
 20
16.4739989601
 11
12.8096454744
 21
13.1737479409
  0
LINE
  5
238
100
AcDbEntity
  8
0
100
AcDbLine
 62
7
  6
CONTINUOUS
 10
14.2096454744
 20
12.1444109674
 11
14.2096454744
 21
18.6944109674
  0
LINE
  5
239
100
AcDbEntity
  8
0
100
AcDbLine
 62
7
  6
CONTINUOUS
 10
14.2846454744
 20
62.3944109674
 11
14.2846454744
 21
67.7444109674
  0
LINE
  5
23A
100
AcDbEntity
  8
0
100
AcDbLine
 62
7
  6
CONTINUOUS
 10
51.2096454744
 20
23.4444109674
 11
44.8096454744
 21
23.4444109674
  0
LINE
  5
23B
100
AcDbEntity
  8
0
100
AcDbLine
 62
7
  6
CONTINUOUS
 10
12.6096454744
 20
23.4444109674
 11
6.2096454744
 21
23.4444109674
  0
LINE
  5
23C
100
AcDbEntity
  8
0
100
AcDbLine
 62
7
  6
CONTINUOUS
 10
15.4096454744
 20
67.6595008375
 11
15.4096454744
 21
60.5595008375
  0
LINE
  5
23D
100
AcDbEntity
  8
0
100
AcDbLine
 62
7
  6
CONTINUOUS
 10
15.4096454744
 20
19.2444109674
 11
15.4096454744
 21
12.1444109674
  0
LINE
  5
23E
100
AcDbEntity
  8
0
100
AcDbLine
 62
7
  6
CONTINUOUS
 10
41.8096454744
 20
12.1444109674
 11
41.8096454744
 21
19.2444109674
  0
LINE
  5
23F
100
AcDbEntity
  8
0
100
AcDbLine
 62
7
  6
CONTINUOUS
 10
41.8096454744
 20
60.5595008375
 11
41.8096454744
 21
67.6595008375
  0
LINE
  5
240
100
AcDbEntity
  8
0
100
AcDbLine
 62
7
  6
CONTINUOUS
 10
42.9346454744
 20
67.7444109674
 11
42.9346454744
 21
62.3944109674
  0
LINE
  5
241
100
AcDbEntity
  8
0
100
AcDbLine
 62
7
  6
CONTINUOUS
 10
43.2096454744
 20
18.6944109674
 11
43.2096454744
 21
12.1444109674
  0
LINE
  5
242
100
AcDbEntity
  8
0
100
AcDbLine
 62
7
  6
CONTINUOUS
 10
44.8096454744
 20
23.4444109674
 11
44.8096454744
 21
19.2444109674
  0
LINE
  5
243
100
AcDbEntity
  8
0
100
AcDbLine
 62
7
  6
CONTINUOUS
 10
44.8096454744
 20
56.2444109674
 11
44.8096454744
 21
60.5595008375
  0
LINE
  5
244
100
AcDbEntity
  8
0
100
AcDbLine
 62
7
  6
CONTINUOUS
 10
44.9639634231
 20
63.0482825818
 11
44.9639825373
 21
63.2444109674
  0
LINE
  5
245
100
AcDbEntity
  8
0
100
AcDbLine
 62
7
  6
CONTINUOUS
 10
44.9639634231
 20
13.1192042153
 11
44.9640014629
 21
13.3061637798
  0
LINE
  5
246
100
AcDbEntity
  8
0
100
AcDbLine
 62
7
  6
CONTINUOUS
 10
51.2096454744
 20
55.7444109674
 11
6.2096454744
 21
55.7444109674
  0
LINE
  5
247
100
AcDbEntity
  8
0
100
AcDbLine
 62
7
  6
CONTINUOUS
 10
51.2096454744
 20
56.2444109674
 11
44.8096454744
 21
56.2444109674
  0
LINE
  5
248
100
AcDbEntity
  8
0
100
AcDbLine
 62
7
  6
CONTINUOUS
 10
12.6096454744
 20
56.2444109674
 11
6.2096454744
 21
56.2444109674
  0
LINE
  5
249
100
AcDbEntity
  8
0
100
AcDbLine
 62
7
  6
CONTINUOUS
 10
47.2552893981
 20
13.3061638537
 11
47.2553274147
 21
13.1192042155
  0
LINE
  5
24A
100
AcDbEntity
  8
0
100
AcDbLine
 62
7
  6
CONTINUOUS
 10
47.255312895
 20
63.2444109674
 11
47.2553274147
 21
63.048282582
  0
LINE
  5
24B
100
AcDbEntity
  8
0
100
AcDbLine
 62
7
  6
CONTINUOUS
 10
12.6096454744
 20
58.3584929751
 11
44.8096454744
 21
58.3574898288
  0
LINE
  5
24C
100
AcDbEntity
  8
0
100
AcDbLine
 62
7
  6
CONTINUOUS
 10
12.6096454744
 20
59.4568720431
 11
44.8096454744
 21
59.4568720431
  0
LINE
  5
24D
100
AcDbEntity
  8
0
100
AcDbLine
 62
7
  6
CONTINUOUS
 10
50.0096454744
 20
12.1444109674
 11
50.0096454744
 21
18.6944109674
  0
LINE
  5
24E
100
AcDbEntity
  8
0
100
AcDbLine
 62
7
  6
CONTINUOUS
 10
50.0096454744
 20
62.3944109674
 11
50.0096454744
 21
67.7444109674
  0
LINE
  5
24F
100
AcDbEntity
  8
0
100
AcDbLine
 62
7
  6
CONTINUOUS
 10
44.8096454744
 20
60.5595008375
 11
41.8096454744
 21
60.5595008375
  0
LINE
  5
250
100
AcDbEntity
  8
0
100
AcDbLine
 62
7
  6
CONTINUOUS
 10
15.4096454744
 20
60.5595008375
 11
12.6096454744
 21
60.5595008375
  0
LINE
  5
251
100
AcDbEntity
  8
0
100
AcDbLine
 62
7
  6
CONTINUOUS
 10
51.2096454744
 20
10.8595106012
 11
51.2096454744
 21
68.9444109674
  0
LINE
  5
252
100
AcDbEntity
  8
0
100
AcDbLine
 62
7
  6
CONTINUOUS
 10
7.4096454744
 20
62.3944109674
 11
10.230841091
 21
62.3944109674
  0
LINE
  5
253
100
AcDbEntity
  8
0
100
AcDbLine
 62
7
  6
CONTINUOUS
 10
11.9884498577
 20
62.3944109674
 11
14.2846454744
 21
62.3944109674
  0
LINE
  5
254
100
AcDbEntity
  8
0
100
AcDbLine
 62
7
  6
CONTINUOUS
 10
42.9346454744
 20
62.3944109674
 11
50.0096454744
 21
62.3944109674
  0
LINE
  5
255
100
AcDbEntity
  8
0
100
AcDbLine
 62
7
  6
CONTINUOUS
 10
47.2553274147
 20
63.048282582
 11
44.9639634231
 21
63.0482825818
  0
LINE
  5
256
100
AcDbEntity
  8
0
100
AcDbLine
 62
7
  6
CONTINUOUS
 10
47.2553002782
 20
63.2444109674
 11
44.9639927451
 21
63.2444109706
  0
LINE
  5
257
100
AcDbEntity
  8
0
100
AcDbLine
 62
7
  6
CONTINUOUS
 10
47.7163046763
 20
65.9444116217
 11
44.5029864912
 21
65.9444116217
  0
LINE
  5
258
100
AcDbEntity
  8
0
100
AcDbLine
 62
7
  6
CONTINUOUS
 10
38.1272031568
 20
65.9444116217
 11
36.3967396912
 21
65.9444116217
  0
LINE
  5
259
100
AcDbEntity
  8
0
100
AcDbLine
 62
7
  6
CONTINUOUS
 10
29.4772031568
 20
65.9444116217
 11
27.7467396913
 21
65.9444116217
  0
LINE
  5
25A
100
AcDbEntity
  8
0
100
AcDbLine
 62
7
  6
CONTINUOUS
 10
20.8272031568
 20
65.9444116217
 11
19.0967396912
 21
65.9444116217
  0
LINE
  5
25B
100
AcDbEntity
  8
0
100
AcDbLine
 62
7
  6
CONTINUOUS
 10
12.8096454744
 20
65.9444116217
 11
9.4096454744
 21
65.9444116217
  0
LINE
  5
25C
100
AcDbEntity
  8
0
100
AcDbLine
 62
7
  6
CONTINUOUS
 10
47.6244602852
 20
66.046677738
 11
44.5948308659
 21
66.046677738
  0
LINE
  5
25D
100
AcDbEntity
  8
0
100
AcDbLine
 62
7
  6
CONTINUOUS
 10
37.9008608688
 20
66.046677738
 11
36.6186725795
 21
66.046677738
  0
LINE
  5
25E
100
AcDbEntity
  8
0
100
AcDbLine
 62
7
  6
CONTINUOUS
 10
29.2508608688
 20
66.046677738
 11
27.9686725795
 21
66.046677738
  0
LINE
  5
25F
100
AcDbEntity
  8
0
100
AcDbLine
 62
7
  6
CONTINUOUS
 10
20.6008608688
 20
66.046677738
 11
19.3186725795
 21
66.046677738
  0
LINE
  5
260
100
AcDbEntity
  8
0
100
AcDbLine
 62
7
  6
CONTINUOUS
 10
12.8096454744
 20
66.046677738
 11
9.4096454744
 21
66.046677738
  0
LINE
  5
261
100
AcDbEntity
  8
0
100
AcDbLine
 62
7
  6
CONTINUOUS
 10
44.9639634231
 20
66.4576210522
 11
47.2553274147
 21
66.4576210521
  0
LINE
  5
262
100
AcDbEntity
  8
0
100
AcDbLine
 62
7
  6
CONTINUOUS
 10
41.8096454744
 20
67.6595008375
 11
15.4096454744
 21
67.6595008375
  0
LINE
  5
263
100
AcDbEntity
  8
0
100
AcDbLine
 62
7
  6
CONTINUOUS
 10
50.0096454744
 20
67.7444109674
 11
42.9346454744
 21
67.7444109674
  0
LINE
  5
264
100
AcDbEntity
  8
0
100
AcDbLine
 62
7
  6
CONTINUOUS
 10
14.2846454744
 20
67.7444109674
 11
7.4096454744
 21
67.7444109674
  0
LINE
  5
265
100
AcDbEntity
  8
0
100
AcDbLine
 62
7
  6
CONTINUOUS
 10
51.2096454744
 20
68.9444109674
 11
6.2096454744
 21
68.9444109674
  0
ARC
  5
266
100
AcDbEntity
  8
0
100
AcDbCircle
 62
7
  6
CONTINUOUS
 10
46.1231347637
 20
15.0129062223
 40
2.0632068727
100
AcDbArc
 50
185.0380968248
 51
235.8176326943
  0
ARC
  5
267
100
AcDbEntity
  8
0
100
AcDbCircle
 62
7
  6
CONTINUOUS
 10
46.0962073705
 20
15.0128733612
 40
2.0631495799
100
AcDbArc
 50
304.181703452
 51
354.9639407145
  0
ARC
  5
268
100
AcDbEntity
  8
0
100
AcDbCircle
 62
7
  6
CONTINUOUS
 10
46.1172767378
 20
64.7523140413
 40
2.0576712244
100
AcDbArc
 50
124.0922764858
 51
235.9077242124
  0
ARC
  5
269
100
AcDbEntity
  8
0
100
AcDbCircle
 62
7
  6
CONTINUOUS
 10
46.1172767378
 20
14.8232356747
 40
2.0576712244
100
AcDbArc
 50
124.0922764864
 51
235.9077242115
  0
ARC
  5
26A
100
AcDbEntity
  8
0
100
AcDbCircle
 62
7
  6
CONTINUOUS
 10
46.1020149197
 20
64.7523137054
 40
2.0576706253
100
AcDbArc
 50
304.0922678302
 51
55.9077314549
  0
ARC
  5
26B
100
AcDbEntity
  8
0
100
AcDbCircle
 62
7
  6
CONTINUOUS
 10
46.1020149198
 20
14.8232353388
 40
2.0576706252
100
AcDbArc
 50
304.0922678299
 51
55.9077314555
  0
ARC
  5
26C
100
AcDbEntity
  8
0
100
AcDbCircle
 62
7
  6
CONTINUOUS
 10
11.1004854294
 20
14.5064438117
 40
2.057591673
100
AcDbArc
 50
322.5611975233
 51
326.1666430682
  0
ARC
  5
26D
100
AcDbEntity
  8
0
100
AcDbCircle
 62
7
  6
CONTINUOUS
 10
11.1177653903
 20
14.5057358929
 40
2.0563335245
100
AcDbArc
 50
213.8331084526
 51
217.4100369191
  0
ARC
  5
26E
100
AcDbEntity
  8
0
100
AcDbCircle
 62
7
  6
CONTINUOUS
 10
11.1096454748
 20
65.2630134861
 40
2.0467999324
100
AcDbArc
 50
33.8432677818
 51
146.1567322616
  0
ARC
  5
26F
100
AcDbEntity
  8
0
100
AcDbCircle
 62
7
  6
CONTINUOUS
 10
11.1096454748
 20
15.3339351196
 40
2.0467999324
100
AcDbArc
 50
33.8432677802
 51
146.1567322635
  0
ARC
  5
270
100
AcDbEntity
  8
0
100
AcDbCircle
 62
7
  6
CONTINUOUS
 10
11.1096454739
 20
14.3138117816
 40
2.0467999323
100
AcDbArc
 50
213.8432677816
 51
326.1567322622
  0
ARC
  5
271
100
AcDbEntity
  8
0
100
AcDbCircle
 62
7
  6
CONTINUOUS
 10
19.9596463471
 20
64.9467991466
 40
1.5025393895
100
AcDbArc
 50
183.7069856999
 51
356.2779219527
  0
ARC
  5
272
100
AcDbEntity
  8
0
100
AcDbCircle
 62
7
  6
CONTINUOUS
 10
28.6096463471
 20
64.9467991466
 40
1.5025393895
100
AcDbArc
 50
183.7069857032
 51
356.277921949
  0
ARC
  5
273
100
AcDbEntity
  8
0
100
AcDbCircle
 62
7
  6
CONTINUOUS
 10
37.2596463471
 20
64.9467991466
 40
1.5025393895
100
AcDbArc
 50
183.7069857033
 51
356.2779219497
  0
SPLINE
  5
274
100
AcDbEntity
  8
0
100
AcDbSpline
 62
7
  6
CONTINUOUS
 70
0
 71
3
 72
23
 73
19
 74
0
 42
0.0000001
 43
0.0000001
 44
0.0000000001
 40
0.0
 40
0.0
 40
0.0
 40
0.0
 40
0.0624683647
 40
0.125009471
 40
0.187497187
 40
0.2499957677
 40
0.3124936186
 40
0.3749912257
 40
0.437492304
 40
0.4999914721
 40
0.5624902006
 40
0.6249908829
 40
0.6874899601
 40
0.7499909168
 40
0.8124936041
 40
0.8749859945
 40
0.9375308989
 40
1.0
 40
1.0
 40
1.0
 40
1.0
 10
18.4577080592
 20
64.7529517656
 30
0.0
 10
18.4577080592
 20
64.8511193133
 30
0.0
 10
18.4770363258
 20
65.0481012153
 30
0.0
 10
18.562773547
 20
65.3318928623
 30
0.0
 10
18.7024349832
 20
65.5935759839
 30
0.0
 10
18.8903097367
 20
65.8229734834
 30
0.0
 10
19.1193460876
 20
66.0113378566
 30
0.0
 10
19.3807438784
 20
66.1513821259
 30
0.0
 10
19.6644798803
 20
66.2376393897
 30
0.0
 10
19.9596039508
 20
66.2667447706
 30
0.0
 10
20.2547277044
 20
66.2376513768
 30
0.0
 10
20.5384720011
 20
66.1514182989
 30
0.0
 10
20.7998824423
 20
66.0113813397
 30
0.0
 10
21.0289335578
 20
65.823014422
 30
0.0
 10
21.2168362031
 20
65.5936151431
 30
0.0
 10
21.3565085996
 20
65.331914274
 30
0.0
 10
21.4422520928
 20
65.0481096481
 30
0.0
 10
21.4615828894
 20
64.8511206454
 30
0.0
 10
21.4615828894
 20
64.7529519403
 30
0.0
  0
SPLINE
  5
275
100
AcDbEntity
  8
0
100
AcDbSpline
 62
7
  6
CONTINUOUS
 70
0
 71
3
 72
23
 73
19
 74
0
 42
0.0000001
 43
0.0000001
 44
0.0000000001
 40
0.0
 40
0.0
 40
0.0
 40
0.0
 40
0.0624683647
 40
0.125009471
 40
0.187497187
 40
0.2499957677
 40
0.3124936186
 40
0.3749912257
 40
0.437492304
 40
0.4999914721
 40
0.5624902006
 40
0.6249908829
 40
0.6874899601
 40
0.7499909168
 40
0.8124936041
 40
0.8749859945
 40
0.9375308989
 40
1.0
 40
1.0
 40
1.0
 40
1.0
 10
27.1077080592
 20
64.7529517652
 30
0.0
 10
27.1077080592
 20
64.8511193129
 30
0.0
 10
27.1270363257
 20
65.048101215
 30
0.0
 10
27.2127735469
 20
65.3318928621
 30
0.0
 10
27.3524349831
 20
65.5935759837
 30
0.0
 10
27.5403097365
 20
65.8229734832
 30
0.0
 10
27.7693460875
 20
66.0113378566
 30
0.0
 10
28.0307438783
 20
66.1513821259
 30
0.0
 10
28.3144798802
 20
66.2376393897
 30
0.0
 10
28.6096039508
 20
66.2667447706
 30
0.0
 10
28.9047277045
 20
66.2376513767
 30
0.0
 10
29.1884720011
 20
66.1514182989
 30
0.0
 10
29.4498824424
 20
66.0113813396
 30
0.0
 10
29.6789335579
 20
65.8230144218
 30
0.0
 10
29.8668362032
 20
65.5936151429
 30
0.0
 10
30.0065085997
 20
65.3319142738
 30
0.0
 10
30.0922520929
 20
65.0481096478
 30
0.0
 10
30.1115828895
 20
64.851120645
 30
0.0
 10
30.1115828895
 20
64.75295194
 30
0.0
  0
SPLINE
  5
276
100
AcDbEntity
  8
0
100
AcDbSpline
 62
7
  6
CONTINUOUS
 70
0
 71
3
 72
23
 73
19
 74
0
 42
0.0000001
 43
0.0000001
 44
0.0000000001
 40
0.0
 40
0.0
 40
0.0
 40
0.0
 40
0.0624683647
 40
0.125009471
 40
0.187497187
 40
0.2499957677
 40
0.3124936186
 40
0.3749912257
 40
0.437492304
 40
0.4999914721
 40
0.5624902006
 40
0.6249908829
 40
0.6874899601
 40
0.7499909168
 40
0.8124936041
 40
0.8749859945
 40
0.9375308989
 40
1.0
 40
1.0
 40
1.0
 40
1.0
 10
35.7577080593
 20
64.7529517656
 30
0.0
 10
35.7577080593
 20
64.8511193133
 30
0.0
 10
35.7770363258
 20
65.0481012154
 30
0.0
 10
35.862773547
 20
65.3318928624
 30
0.0
 10
36.0024349832
 20
65.5935759839
 30
0.0
 10
36.1903097367
 20
65.8229734834
 30
0.0
 10
36.4193460876
 20
66.0113378566
 30
0.0
 10
36.6807438784
 20
66.1513821259
 30
0.0
 10
36.9644798803
 20
66.2376393897
 30
0.0
 10
37.2596039508
 20
66.2667447706
 30
0.0
 10
37.5547277044
 20
66.2376513768
 30
0.0
 10
37.8384720011
 20
66.1514182989
 30
0.0
 10
38.0998824423
 20
66.0113813397
 30
0.0
 10
38.3289335578
 20
65.823014422
 30
0.0
 10
38.516836203
 20
65.5936151432
 30
0.0
 10
38.6565085996
 20
65.3319142741
 30
0.0
 10
38.7422520928
 20
65.0481096481
 30
0.0
 10
38.7615828894
 20
64.8511206454
 30
0.0
 10
38.7615828894
 20
64.7529519404
 30
0.0
  0
SPLINE
  5
277
100
AcDbEntity
  8
0
100
AcDbSpline
 62
7
  6
CONTINUOUS
 70
0
 71
3
 72
15
 73
11
 74
0
 42
0.0000001
 43
0.0000001
 44
0.0000000001
 40
0.0
 40
0.0
 40
0.0
 40
0.0
 40
0.1249846887
 40
0.2499235251
 40
0.374933571
 40
0.5000190051
 40
0.6251002612
 40
0.7501063498
 40
0.8750392318
 40
1.0
 40
1.0
 40
1.0
 40
1.0
 10
9.4844027895
 20
13.2564824445
 30
0.0
 10
9.5792775856
 20
13.1324272764
 30
0.0
 10
9.7980759346
 20
12.9051116939
 30
0.0
 10
10.1945188979
 20
12.6481458718
 30
0.0
 10
10.6393355696
 20
12.4878487116
 30
0.0
 10
11.1091565586
 20
12.4333788885
 30
0.0
 10
11.5789995559
 20
12.4876187104
 30
0.0
 10
12.0238748687
 20
12.6477027857
 30
0.0
 10
12.4204029373
 20
12.9044548764
 30
0.0
 10
12.6393002463
 20
13.1316222071
 30
0.0
 10
12.7342196059
 20
13.2556056393
 30
0.0
  0
SPLINE
  5
278
100
AcDbEntity
  8
0
100
AcDbSpline
 62
7
  6
CONTINUOUS
 70
0
 71
3
 72
23
 73
19
 74
0
 42
0.0000001
 43
0.0000001
 44
0.0000000001
 40
0.0
 40
0.0
 40
0.0
 40
0.0
 40
0.0624683647
 40
0.125009471
 40
0.187497187
 40
0.2499957677
 40
0.3124936186
 40
0.3749912257
 40
0.437492304
 40
0.4999914721
 40
0.5624902006
 40
0.6249908829
 40
0.6874899601
 40
0.7499909168
 40
0.8124936041
 40
0.8749859945
 40
0.9375308989
 40
1.0
 40
1.0
 40
1.0
 40
1.0
 10
35.7577080593
 20
14.8238733994
 30
0.0
 10
35.7577080593
 20
14.9220409471
 30
0.0
 10
35.7770363259
 20
15.1190228491
 30
0.0
 10
35.8627735471
 20
15.4028144961
 30
0.0
 10
36.0024349833
 20
15.6644976176
 30
0.0
 10
36.1903097368
 20
15.893895117
 30
0.0
 10
36.4193460877
 20
16.0822594902
 30
0.0
 10
36.6807438785
 20
16.2223037595
 30
0.0
 10
36.9644798803
 20
16.3085610232
 30
0.0
 10
37.2596039508
 20
16.3376664041
 30
0.0
 10
37.5547277044
 20
16.3085730103
 30
0.0
 10
37.838472001
 20
16.2223399324
 30
0.0
 10
38.0998824422
 20
16.0823029733
 30
0.0
 10
38.3289335577
 20
15.8939360556
 30
0.0
 10
38.5168362029
 20
15.6645367768
 30
0.0
 10
38.6565085995
 20
15.4028359078
 30
0.0
 10
38.7422520927
 20
15.1190312819
 30
0.0
 10
38.7615828894
 20
14.9220422792
 30
0.0
 10
38.7615828894
 20
14.8238735742
 30
0.0
  0
SPLINE
  5
279
100
AcDbEntity
  8
0
100
AcDbSpline
 62
7
  6
CONTINUOUS
 70
0
 71
3
 72
23
 73
19
 74
0
 42
0.0000001
 43
0.0000001
 44
0.0000000001
 40
0.0
 40
0.0
 40
0.0
 40
0.0
 40
0.0624683647
 40
0.125009471
 40
0.187497187
 40
0.2499957677
 40
0.3124936186
 40
0.3749912257
 40
0.437492304
 40
0.4999914721
 40
0.5624902006
 40
0.6249908829
 40
0.6874899601
 40
0.7499909168
 40
0.8124936041
 40
0.8749859945
 40
0.9375308989
 40
1.0
 40
1.0
 40
1.0
 40
1.0
 10
27.1077080593
 20
14.8238733992
 30
0.0
 10
27.1077080593
 20
14.9220409469
 30
0.0
 10
27.1270363258
 20
15.1190228489
 30
0.0
 10
27.212773547
 20
15.4028144959
 30
0.0
 10
27.3524349833
 20
15.6644976175
 30
0.0
 10
27.5403097367
 20
15.8938951169
 30
0.0
 10
27.7693460876
 20
16.0822594902
 30
0.0
 10
28.0307438784
 20
16.2223037595
 30
0.0
 10
28.3144798803
 20
16.3085610232
 30
0.0
 10
28.6096039508
 20
16.3376664041
 30
0.0
 10
28.9047277044
 20
16.3085730103
 30
0.0
 10
29.188472001
 20
16.2223399324
 30
0.0
 10
29.4498824423
 20
16.0823029732
 30
0.0
 10
29.6789335577
 20
15.8939360555
 30
0.0
 10
29.866836203
 20
15.6645367767
 30
0.0
 10
30.0065085996
 20
15.4028359076
 30
0.0
 10
30.0922520928
 20
15.1190312817
 30
0.0
 10
30.1115828894
 20
14.922042279
 30
0.0
 10
30.1115828894
 20
14.8238735739
 30
0.0
  0
SPLINE
  5
27A
100
AcDbEntity
  8
0
100
AcDbSpline
 62
7
  6
CONTINUOUS
 70
0
 71
3
 72
23
 73
19
 74
0
 42
0.0000001
 43
0.0000001
 44
0.0000000001
 40
0.0
 40
0.0
 40
0.0
 40
0.0
 40
0.0624683647
 40
0.125009471
 40
0.187497187
 40
0.2499957677
 40
0.3124936186
 40
0.3749912257
 40
0.437492304
 40
0.4999914721
 40
0.5624902006
 40
0.6249908829
 40
0.6874899601
 40
0.7499909168
 40
0.8124936041
 40
0.8749859945
 40
0.9375308989
 40
1.0
 40
1.0
 40
1.0
 40
1.0
 10
18.4577080593
 20
14.8238733993
 30
0.0
 10
18.4577080593
 20
14.922040947
 30
0.0
 10
18.4770363258
 20
15.1190228491
 30
0.0
 10
18.5627735471
 20
15.402814496
 30
0.0
 10
18.7024349833
 20
15.6644976176
 30
0.0
 10
18.8903097368
 20
15.893895117
 30
0.0
 10
19.1193460877
 20
16.0822594902
 30
0.0
 10
19.3807438785
 20
16.2223037595
 30
0.0
 10
19.6644798803
 20
16.3085610232
 30
0.0
 10
19.9596039508
 20
16.3376664041
 30
0.0
 10
20.2547277044
 20
16.3085730103
 30
0.0
 10
20.538472001
 20
16.2223399324
 30
0.0
 10
20.7998824422
 20
16.0823029733
 30
0.0
 10
21.0289335577
 20
15.8939360556
 30
0.0
 10
21.216836203
 20
15.6645367768
 30
0.0
 10
21.3565085995
 20
15.4028359077
 30
0.0
 10
21.4422520928
 20
15.1190312818
 30
0.0
 10
21.4615828894
 20
14.9220422791
 30
0.0
 10
21.4615828894
 20
14.8238735741
 30
0.0
  0
SPLINE
  5
27B
100
AcDbEntity
  8
0
100
AcDbSpline
 62
7
  6
CONTINUOUS
 70
0
 71
3
 72
23
 73
19
 74
0
 42
0.0000001
 43
0.0000001
 44
0.0000000001
 40
0.0
 40
0.0
 40
0.0
 40
0.0
 40
0.0624683648
 40
0.125009471
 40
0.187497187
 40
0.2499957678
 40
0.3124936186
 40
0.3749912257
 40
0.437492304
 40
0.4999914721
 40
0.5624902006
 40
0.6249908829
 40
0.68748996
 40
0.7499909167
 40
0.8124936041
 40
0.8749859946
 40
0.9375308988
 40
1.0
 40
1.0
 40
1.0
 40
1.0
 10
30.1115828895
 20
64.75295194
 30
0.0
 10
30.1115828894
 20
64.6547843892
 30
0.0
 10
30.0922546335
 20
64.457802481
 30
0.0
 10
30.0065174246
 20
64.1740108201
 30
0.0
 10
29.8668559903
 20
63.9123276873
 30
0.0
 10
29.6789812377
 20
63.6829301756
 30
0.0
 10
29.4499448837
 20
63.4945657918
 30
0.0
 10
29.188547087
 20
63.3545215145
 30
0.0
 10
28.9048110773
 20
63.2682642455
 30
0.0
 10
28.6096869979
 20
63.2391588629
 30
0.0
 10
28.3145632354
 20
63.2682522585
 30
0.0
 10
28.0308189309
 20
63.3544853415
 30
0.0
 10
27.7694084838
 20
63.4945223087
 30
0.0
 10
27.5403573653
 20
63.682889237
 30
0.0
 10
27.3524547208
 20
63.9122885281
 30
0.0
 10
27.2127823262
 20
64.1739894084
 30
0.0
 10
27.1270388454
 20
64.4577940482
 30
0.0
 10
27.1077080592
 20
64.6547830571
 30
0.0
 10
27.1077080592
 20
64.7529517652
 30
0.0
  0
SPLINE
  5
27C
100
AcDbEntity
  8
0
100
AcDbSpline
 62
7
  6
CONTINUOUS
 70
0
 71
3
 72
23
 73
19
 74
0
 42
0.0000001
 43
0.0000001
 44
0.0000000001
 40
0.0
 40
0.0
 40
0.0
 40
0.0
 40
0.0624683648
 40
0.125009471
 40
0.187497187
 40
0.2499957678
 40
0.3124936186
 40
0.3749912257
 40
0.437492304
 40
0.4999914721
 40
0.5624902006
 40
0.6249908829
 40
0.68748996
 40
0.7499909167
 40
0.8124936041
 40
0.8749859946
 40
0.9375308988
 40
1.0
 40
1.0
 40
1.0
 40
1.0
 10
38.7615828894
 20
14.8238735742
 30
0.0
 10
38.7615828894
 20
14.7257060233
 30
0.0
 10
38.7422546335
 20
14.5287241151
 30
0.0
 10
38.6565174248
 20
14.2449324541
 30
0.0
 10
38.5168559905
 20
13.9832493212
 30
0.0
 10
38.3289812379
 20
13.7538518094
 30
0.0
 10
38.0999448839
 20
13.5654874254
 30
0.0
 10
37.8385470872
 20
13.425443148
 30
0.0
 10
37.5548110774
 20
13.339185879
 30
0.0
 10
37.2596869979
 20
13.3100804964
 30
0.0
 10
36.9645632353
 20
13.339173892
 30
0.0
 10
36.6808189308
 20
13.4254069751
 30
0.0
 10
36.4194084836
 20
13.5654439424
 30
0.0
 10
36.190357365
 20
13.7538108708
 30
0.0
 10
36.0024547206
 20
13.983210162
 30
0.0
 10
35.862782326
 20
14.2449110424
 30
0.0
 10
35.7770388453
 20
14.5287156824
 30
0.0
 10
35.7577080593
 20
14.7257046912
 30
0.0
 10
35.7577080593
 20
14.8238733994
 30
0.0
  0
SPLINE
  5
27D
100
AcDbEntity
  8
0
100
AcDbSpline
 62
7
  6
CONTINUOUS
 70
0
 71
3
 72
11
 73
7
 74
0
 42
0.0000001
 43
0.0000001
 44
0.0000000001
 40
0.0
 40
0.0
 40
0.0
 40
0.0
 40
0.2499770594
 40
0.4999997368
 40
0.7500227473
 40
1.0
 40
1.0
 40
1.0
 40
1.0
 10
11.9884498577
 20
62.3944109674
 30
0.0
 10
12.0709995095
 20
62.4336880069
 30
0.0
 10
12.2314096046
 20
62.5227168488
 30
0.0
 10
12.4517355108
 20
62.6875173703
 30
0.0
 10
12.647038382
 20
62.8813175679
 30
0.0
 10
12.7586535038
 20
63.026913357
 30
0.0
 10
12.8096454744
 20
63.1027880083
 30
0.0
  0
SPLINE
  5
27E
100
AcDbEntity
  8
0
100
AcDbSpline
 62
7
  6
CONTINUOUS
 70
0
 71
3
 72
23
 73
19
 74
0
 42
0.0000001
 43
0.0000001
 44
0.0000000001
 40
0.0
 40
0.0
 40
0.0
 40
0.0
 40
0.0624683648
 40
0.125009471
 40
0.187497187
 40
0.2499957678
 40
0.3124936186
 40
0.3749912257
 40
0.437492304
 40
0.4999914721
 40
0.5624902006
 40
0.6249908829
 40
0.68748996
 40
0.7499909167
 40
0.8124936041
 40
0.8749859946
 40
0.9375308988
 40
1.0
 40
1.0
 40
1.0
 40
1.0
 10
38.7615828894
 20
64.7529519404
 30
0.0
 10
38.7615828894
 20
64.6547843895
 30
0.0
 10
38.7422546335
 20
64.4578024814
 30
0.0
 10
38.6565174247
 20
64.1740108204
 30
0.0
 10
38.5168559904
 20
63.9123276875
 30
0.0
 10
38.3289812378
 20
63.6829301758
 30
0.0
 10
38.0999448838
 20
63.4945657919
 30
0.0
 10
37.8385470871
 20
63.3545215145
 30
0.0
 10
37.5548110773
 20
63.2682642455
 30
0.0
 10
37.2596869979
 20
63.2391588629
 30
0.0
 10
36.9645632354
 20
63.2682522585
 30
0.0
 10
36.6808189308
 20
63.3544853416
 30
0.0
 10
36.4194084836
 20
63.4945223088
 30
0.0
 10
36.1903573652
 20
63.6828892372
 30
0.0
 10
36.0024547207
 20
63.9122885283
 30
0.0
 10
35.8627823261
 20
64.1739894087
 30
0.0
 10
35.7770388453
 20
64.4577940486
 30
0.0
 10
35.7577080593
 20
64.6547830575
 30
0.0
 10
35.7577080593
 20
64.7529517656
 30
0.0
  0
SPLINE
  5
27F
100
AcDbEntity
  8
0
100
AcDbSpline
 62
7
  6
CONTINUOUS
 70
0
 71
3
 72
23
 73
19
 74
0
 42
0.0000001
 43
0.0000001
 44
0.0000000001
 40
0.0
 40
0.0
 40
0.0
 40
0.0
 40
0.0624683648
 40
0.125009471
 40
0.187497187
 40
0.2499957678
 40
0.3124936186
 40
0.3749912257
 40
0.437492304
 40
0.4999914721
 40
0.5624902006
 40
0.6249908829
 40
0.68748996
 40
0.7499909167
 40
0.8124936041
 40
0.8749859946
 40
0.9375308988
 40
1.0
 40
1.0
 40
1.0
 40
1.0
 10
30.1115828894
 20
14.8238735739
 30
0.0
 10
30.1115828894
 20
14.7257060231
 30
0.0
 10
30.0922546335
 20
14.5287241149
 30
0.0
 10
30.0065174248
 20
14.2449324539
 30
0.0
 10
29.8668559904
 20
13.9832493211
 30
0.0
 10
29.6789812378
 20
13.7538518093
 30
0.0
 10
29.4499448838
 20
13.5654874254
 30
0.0
 10
29.1885470871
 20
13.425443148
 30
0.0
 10
28.9048110773
 20
13.339185879
 30
0.0
 10
28.6096869979
 20
13.3100804964
 30
0.0
 10
28.3145632354
 20
13.339173892
 30
0.0
 10
28.0308189308
 20
13.4254069751
 30
0.0
 10
27.7694084836
 20
13.5654439423
 30
0.0
 10
27.5403573651
 20
13.7538108707
 30
0.0
 10
27.3524547207
 20
13.9832101618
 30
0.0
 10
27.2127823261
 20
14.2449110422
 30
0.0
 10
27.1270388453
 20
14.5287156822
 30
0.0
 10
27.1077080593
 20
14.725704691
 30
0.0
 10
27.1077080593
 20
14.8238733992
 30
0.0
  0
SPLINE
  5
280
100
AcDbEntity
  8
0
100
AcDbSpline
 62
7
  6
CONTINUOUS
 70
0
 71
3
 72
23
 73
19
 74
0
 42
0.0000001
 43
0.0000001
 44
0.0000000001
 40
0.0
 40
0.0
 40
0.0
 40
0.0
 40
0.0624683648
 40
0.125009471
 40
0.187497187
 40
0.2499957678
 40
0.3124936186
 40
0.3749912257
 40
0.437492304
 40
0.4999914721
 40
0.5624902006
 40
0.6249908829
 40
0.68748996
 40
0.7499909167
 40
0.8124936041
 40
0.8749859946
 40
0.9375308988
 40
1.0
 40
1.0
 40
1.0
 40
1.0
 10
21.4615828894
 20
14.8238735741
 30
0.0
 10
21.4615828894
 20
14.7257060233
 30
0.0
 10
21.4422546335
 20
14.5287241151
 30
0.0
 10
21.3565174248
 20
14.244932454
 30
0.0
 10
21.2168559905
 20
13.9832493211
 30
0.0
 10
21.0289812379
 20
13.7538518093
 30
0.0
 10
20.7999448839
 20
13.5654874254
 30
0.0
 10
20.5385470872
 20
13.425443148
 30
0.0
 10
20.2548110774
 20
13.339185879
 30
0.0
 10
19.9596869979
 20
13.3100804964
 30
0.0
 10
19.6645632354
 20
13.339173892
 30
0.0
 10
19.3808189308
 20
13.4254069751
 30
0.0
 10
19.1194084836
 20
13.5654439423
 30
0.0
 10
18.8903573651
 20
13.7538108707
 30
0.0
 10
18.7024547206
 20
13.9832101619
 30
0.0
 10
18.562782326
 20
14.2449110423
 30
0.0
 10
18.4770388453
 20
14.5287156823
 30
0.0
 10
18.4577080593
 20
14.7257046912
 30
0.0
 10
18.4577080593
 20
14.8238733993
 30
0.0
  0
SPLINE
  5
281
100
AcDbEntity
  8
0
100
AcDbSpline
 62
7
  6
CONTINUOUS
 70
0
 71
3
 72
23
 73
19
 74
0
 42
0.0000001
 43
0.0000001
 44
0.0000000001
 40
0.0
 40
0.0
 40
0.0
 40
0.0
 40
0.0624683648
 40
0.125009471
 40
0.187497187
 40
0.2499957678
 40
0.3124936186
 40
0.3749912257
 40
0.437492304
 40
0.4999914721
 40
0.5624902006
 40
0.6249908829
 40
0.68748996
 40
0.7499909167
 40
0.8124936041
 40
0.8749859946
 40
0.9375308988
 40
1.0
 40
1.0
 40
1.0
 40
1.0
 10
21.4615828894
 20
64.7529519403
 30
0.0
 10
21.4615828894
 20
64.6547843895
 30
0.0
 10
21.4422546335
 20
64.4578024813
 30
0.0
 10
21.3565174247
 20
64.1740108204
 30
0.0
 10
21.2168559904
 20
63.9123276875
 30
0.0
 10
21.0289812378
 20
63.6829301757
 30
0.0
 10
20.7999448838
 20
63.4945657919
 30
0.0
 10
20.5385470871
 20
63.3545215145
 30
0.0
 10
20.2548110773
 20
63.2682642455
 30
0.0
 10
19.9596869979
 20
63.2391588629
 30
0.0
 10
19.6645632354
 20
63.2682522585
 30
0.0
 10
19.3808189308
 20
63.3544853415
 30
0.0
 10
19.1194084837
 20
63.4945223088
 30
0.0
 10
18.8903573652
 20
63.6828892371
 30
0.0
 10
18.7024547207
 20
63.9122885283
 30
0.0
 10
18.5627823261
 20
64.1739894087
 30
0.0
 10
18.4770388453
 20
64.4577940486
 30
0.0
 10
18.4577080592
 20
64.6547830574
 30
0.0
 10
18.4577080592
 20
64.7529517656
 30
0.0
  0
ELLIPSE
  5
282
100
AcDbEntity
  8
0
100
AcDbEllipse
 62
7
  6
CONTINUOUS
 10
46.1096454744
 20
64.9444109674
 30
0.0
 11
0.0
 21
2.05
 31
0.0
 40
1.0
 41
-4.6227411028
 42
-3.7345954379
  0
ELLIPSE
  5
283
100
AcDbEntity
  8
0
100
AcDbEllipse
 62
7
  6
CONTINUOUS
 10
46.1096454744
 20
64.9444109674
 30
0.0
 11
0.0
 21
2.05
 31
0.0
 40
1.0
 41
-2.5485890316
 42
-1.6604443626
  0
ELLIPSE
  5
284
100
AcDbEntity
  8
0
100
AcDbEllipse
 62
7
  6
CONTINUOUS
 10
11.1096454744
 20
64.4444109674
 30
0.0
 11
-0.0
 21
2.05
 31
0.0
 40
1.0
 41
-4.1194227308
 42
-2.1637625795
  0
ELLIPSE
  5
285
100
AcDbEntity
  8
0
100
AcDbEllipse
 62
7
  6
CONTINUOUS
 10
37.2596454744
 20
15.015527929
 30
0.0
 11
-0.0
 21
1.5082624193
 31
0.0
 40
0.9958867235
 41
-4.5906444733
 42
-1.6931250503
  0
ELLIPSE
  5
286
100
AcDbEntity
  8
0
100
AcDbEllipse
 62
7
  6
CONTINUOUS
 10
28.6096454744
 20
15.015527929
 30
0.0
 11
-0.0
 21
1.5082624193
 31
0.0
 40
0.9958867235
 41
-4.5906444732
 42
-1.6931250504
  0
ELLIPSE
  5
287
100
AcDbEntity
  8
0
100
AcDbEllipse
 62
7
  6
CONTINUOUS
 10
19.9596454744
 20
15.015527929
 30
0.0
 11
0.0
 21
1.5082624193
 31
0.0
 40
0.9958867235
 41
-4.5906444733
 42
-1.6931250503
  0
ELLIPSE
  5
288
100
AcDbEntity
  8
0
100
AcDbEllipse
 62
7
  6
CONTINUOUS
 10
11.1096454744
 20
64.0681513019
 30
0.0
 11
0.0
 21
2.0556304794
 31
0.0
 40
0.9972609477
 41
-3.7610004989
 42
-2.5221848083
  0
ELLIPSE
  5
289
100
AcDbEntity
  8
0
100
AcDbEllipse
 62
7
  6
CONTINUOUS
 10
11.1096454744
 20
64.2515785294
 30
0.0
 11
0.0
 21
-2.0556304794
 31
0.0
 40
0.9972609477
 41
-0.9777971023
 42
-0.4430368203
  0
ELLIPSE
  5
28A
100
AcDbEntity
  8
0
100
AcDbEllipse
 62
7
  6
CONTINUOUS
 10
11.1096454744
 20
14.1390729354
 30
0.0
 11
-0.0
 21
2.0556304794
 31
0.0
 40
0.9972609477
 41
-3.3857526778
 42
-2.8974326294
  0
ENDSEC
  0
SECTION
  2
OBJECTS
  0
DICTIONARY
  5
C
100
AcDbDictionary
280
0
281
1
  3
ACAD_GROUP
350
D
  3
ACAD_MLINESTYLE
350
17
  3
ACAD_LAYOUT
350
1A
  3
ACAD_PLOTSETTINGS
350
19
  3
ACAD_PLOTSTYLENAME
350
E
  0
DICTIONARY
  5
D
102
{ACAD_REACTORS
330
C
102
}
100
AcDbDictionary
280
0
281
1
  0
ACDBDICTIONARYWDFLT
  5
E
102
{ACAD_REACTORS
330
C
102
}
100
AcDbDictionary
281
1
  3
Normal
350
F
100
AcDbDictionaryWithDefault
340
F
  0
DICTIONARY
  5
17
102
{ACAD_REACTORS
330
C
102
}
100
AcDbDictionary
280
0
281
1
  3
Standard
350
18
  0
DICTIONARY
  5
19
102
{ACAD_REACTORS
330
C
102
}
100
AcDbDictionary
281
1
  0
DICTIONARY
  5
1A
102
{ACAD_REACTORS
330
C
102
}
100
AcDbDictionary
281
1
  3
Model
350
28B
  3
Layout1
350
28C
  0
ACDBPLACEHOLDER
  5
F
102
{ACAD_REACTORS
330
E
102
}
  0
MLINESTYLE
  5
18
102
{ACAD_REACTORS
330
17
102
}
100
AcDbMlineStyle
  2
STANDARD
 70
0
  3

 62
256
 51
90.0
 52
90.0
 71
2
 49
0.5
 62
256
  6
BYLAYER
 49
-0.5
 62
256
  6
BYLAYER
  0
LAYOUT
  5
28B
102
{ACAD_REACTORS
330
1A
102
}
100
AcDbPlotSettings
  1

  2
none_device
  4

  6

 40
0.0
 41
0.0
 42
0.0
 43
0.0
 44
210.0
 45
297.0
 46
0.0
 47
0.0
 48
0.0
 49
0.0
140
0.0
141
0.0
142
1.0
143
1.0
 70
1024
 72
1
 73
0
 74
0
  7

 75
0
147
1.0
148
0.0
149
0.0
100
AcDbLayout
  1
Model
 70
0
 71
0
 10
0.0
 20
0.0
 11
210.0
 21
297.0
 12
0.0
 22
0.0
 32
0.0
 14
0.0
 24
0.0
 34
0.0
 15
0.0
 25
0.0
 35
0.0
146
0.0
 13
0.0
 23
0.0
 33
0.0
 16
1.0
 26
0.0
 36
0.0
 17
0.0
 27
1.0
 37
0.0
 76
0
330
210
345
0
346
0
  0
LAYOUT
  5
28C
102
{ACAD_REACTORS
330
1A
102
}
100
AcDbPlotSettings
  1

  2
none_device
  4

  6

 40
0.0
 41
0.0
 42
0.0
 43
0.0
 44
210.0
 45
297.0
 46
0.0
 47
0.0
 48
0.0
 49
0.0
140
0.0
141
0.0
142
1.0
143
1.0
 70
0
 72
1
 73
0
 74
0
  7

 75
0
147
1.0
148
0.0
149
0.0
100
AcDbLayout
  1
Layout1
 70
0
 71
1
 10
0.0
 20
0.0
 11
210.0
 21
297.0
 12
0.0
 22
0.0
 32
0.0
 14
0.0
 24
0.0
 34
0.0
 15
0.0
 25
0.0
 35
0.0
146
0.0
 13
0.0
 23
0.0
 33
0.0
 16
1.0
 26
0.0
 36
0.0
 17
0.0
 27
1.0
 37
0.0
 76
0
330
211
345
0
346
0
  0
ENDSEC
  0
EOF
