999
DXF file: C:\Users\sesa63760\Dev\_Creo\CAD\MCADID0003840_3D-CAD\drw0001_4.dxf
999
Pro/ENGINEER 2019471 by Parametric Technology Corporation
  0
SECTION
  2
HEADER
  9
$ACADVER
  1
AC1024
  9
$DWGCODEPAGE
  3
ANSI_1252
  9
$EXTMAX
 10
62.2496516893
 20
88.0387931034
 30
0.0
  9
$EXTMIN
 10
0.0
 20
0.0
 30
0.0
  9
$LIMMIN
 10
0.0
 20
0.0
  9
$LIMMAX
 10
62.2496516893
 20
88.0387931034
  9
$VIEWCTR
 10
31.1248258447
 20
44.0193965517
  9
$VIEWSIZE
 40
88.0387931034
  9
$CLAYER
  8
0
  9
$LTSCALE
 40
5.7388250319
  9
$CELTYPE
  6
BYLAYER
  9
$DIMSCALE
 40
1.0
  9
$DIMASZ
 40
0.741067282
  9
$DIMEXO
 40
1.0
  9
$DIMDLI
 40
3.9650063857
  9
$DIMEXE
 40
1.0
  9
$DIMCEN
 40
0.9390804598
  9
$DIMLFAC
 40
1.0
  9
$DIMBLK
  1
_FILLED
  9
$DIMALT
 70
0
  9
$DIMALTF
 40
0.0393700787
  9
$DIMTXT
 40
1.0374941948
  9
$DIMTOL
 70
1
  9
$DIMLIM
 70
0
  9
$DIMTFAC
 40
1.0
  9
$DIMTP
 40
0.01
  9
$DIMTM
 40
0.01
  9
$DIMGAP
 40
0.625
  9
$DIMDSEP
 70
46
  9
$AUNITS
 70
0
  9
$PDMODE
 70
3
  9
$PDSIZE
 40
0.3125
  9
$HANDSEED
  5
26E
  9
$TILEMODE
 70
1
  9
$MEASUREMENT
 70
1
  9
$INSUNITS
 70
4
  0
ENDSEC
  0
SECTION
  2
CLASSES
  0
CLASS
  1
ACDBDICTIONARYWDFLT
  2
AcDbDictionaryWithDefault
  3
AutoCAD 2000
 90
0
 91
1
280
0
281
0
  0
CLASS
  1
ACDBPLACEHOLDER
  2
AcDbPlaceHolder
  3
AutoCAD 2000
 90
0
 91
1
280
0
281
0
  0
CLASS
  1
LAYOUT
  2
AcDbLayout
  3
AutoCAD 2000
 90
0
 91
0
280
0
281
0
  0
ENDSEC
  0
SECTION
  2
TABLES
  0
TABLE
  2
VPORT
  5
8
100
AcDbSymbolTable
 70
2
  0
VPORT
  5
1F4
100
AcDbSymbolTableRecord
100
AcDbViewportTableRecord
  2
*ACTIVE
 70
0
 10
0.0
 20
0.0
 11
1.0
 21
1.0
 12
31.1248258447
 22
44.0193965517
 13
0.0
 23
0.0
 14
1.0
 24
1.0
 15
0.0
 25
0.0
 16
0.0
 26
0.0
 36
1.0
 17
0.0
 27
0.0
 37
0.0
 40
88.0387931034
 41
0.7070707071
 42
50.0
 43
0.0
 44
0.0
 50
0.0
 51
0.0
 71
0
 72
100
 73
1
 74
1
 75
0
 76
0
 77
0
 78
0
  0
ENDTAB
  0
TABLE
  2
LTYPE
  5
5
100
AcDbSymbolTable
 70
6
  0
LTYPE
  5
14
100
AcDbSymbolTableRecord
100
AcDbLinetypeTableRecord
  2
BYBLOCK
 70
0
  3

 72
65
 73
0
 40
0.0
  0
LTYPE
  5
15
100
AcDbSymbolTableRecord
100
AcDbLinetypeTableRecord
  2
BYLAYER
 70
0
  3

 72
65
 73
0
 40
0.0
  0
LTYPE
  5
16
100
AcDbSymbolTableRecord
100
AcDbLinetypeTableRecord
  2
CONTINUOUS
 70
64
  3
Solid line
 72
65
 73
0
 40
0.0
  0
LTYPE
  5
1F5
100
AcDbSymbolTableRecord
100
AcDbLinetypeTableRecord
  2
CENTER
 70
64
  3
____ _ ____ _ ____ _ ____ _ ____ _ ____ _ ____
 72
65
 73
4
 40
0.6
 49
0.375
 74
0
 49
-0.075
 74
0
 49
0.075
 74
0
 49
-0.075
 74
0
  0
LTYPE
  5
1F6
100
AcDbSymbolTableRecord
100
AcDbLinetypeTableRecord
  2
HIDDEN
 70
64
  3
- - - - - - - - - - - - - - - - - - - -
 72
65
 73
2
 40
0.2
 49
0.1
 74
0
 49
-0.1
 74
0
  0
LTYPE
  5
1F7
100
AcDbSymbolTableRecord
100
AcDbLinetypeTableRecord
  2
PHANTOM
 70
64
  3
_____ _ _ _____ _ _ _____ _ _ _____
 72
65
 73
6
 40
0.8
 49
0.45
 74
0
 49
-0.05
 74
0
 49
0.1
 74
0
 49
-0.05
 74
0
 49
0.1
 74
0
 49
-0.05
 74
0
  0
LTYPE
  5
1F8
100
AcDbSymbolTableRecord
100
AcDbLinetypeTableRecord
  2
DOT
 70
64
  3
. . . . . . . . . . . . . . . . . . . .
 72
65
 73
2
 40
0.2
 49
0.1
 74
0
 49
-0.1
 74
0
  0
LTYPE
  5
1F9
100
AcDbSymbolTableRecord
100
AcDbLinetypeTableRecord
  2
DASHED
 70
64
  3
- - - - - - - - - - - - - - - - - - - -
 72
65
 73
2
 40
0.2
 49
0.1
 74
0
 49
-0.1
 74
0
  0
ENDTAB
  0
TABLE
  2
LAYER
  5
2
100
AcDbSymbolTable
 70
36
  0
LAYER
  5
10
100
AcDbSymbolTableRecord
100
AcDbLayerTableRecord
  2
0
 70
0
 62
7
  6
CONTINUOUS
370
-3
390
F
  0
LAYER
  5
1FA
100
AcDbSymbolTableRecord
100
AcDbLayerTableRecord
  2
DEFAULT_1
 70
0
 62
7
  6
CENTER
370
-3
390
F
  0
LAYER
  5
1FB
100
AcDbSymbolTableRecord
100
AcDbLayerTableRecord
  2
DEFAULT_2
 70
0
 62
7
  6
HIDDEN
370
-3
390
F
  0
LAYER
  5
1FC
100
AcDbSymbolTableRecord
100
AcDbLayerTableRecord
  2
DEFAULT_3
 70
0
 62
7
  6
PHANTOM
370
-3
390
F
  0
LAYER
  5
1FD
100
AcDbSymbolTableRecord
100
AcDbLayerTableRecord
  2
00_COMPONENTS
 70
0
 62
7
  6
CONTINUOUS
370
-3
390
F
  0
LAYER
  5
1FE
100
AcDbSymbolTableRecord
100
AcDbLayerTableRecord
  2
01_1_DEFAULT_DATUMS
 70
0
 62
7
  6
CONTINUOUS
370
-3
390
F
  0
LAYER
  5
1FF
100
AcDbSymbolTableRecord
100
AcDbLayerTableRecord
  2
01_PLANES
 70
0
 62
7
  6
CONTINUOUS
370
-3
390
F
  0
LAYER
  5
200
100
AcDbSymbolTableRecord
100
AcDbLayerTableRecord
  2
02_COORD_SYS
 70
0
 62
7
  6
CONTINUOUS
370
-3
390
F
  0
LAYER
  5
201
100
AcDbSymbolTableRecord
100
AcDbLayerTableRecord
  2
03_AXES
 70
0
 62
7
  6
CONTINUOUS
370
-3
390
F
  0
LAYER
  5
202
100
AcDbSymbolTableRecord
100
AcDbLayerTableRecord
  2
04_POINTS
 70
0
 62
7
  6
CONTINUOUS
370
-3
390
F
  0
LAYER
  5
203
100
AcDbSymbolTableRecord
100
AcDbLayerTableRecord
  2
05_CURVES
 70
0
 62
7
  6
CONTINUOUS
370
-3
390
F
  0
LAYER
  5
204
100
AcDbSymbolTableRecord
100
AcDbLayerTableRecord
  2
06_SURFS
 70
0
 62
7
  6
CONTINUOUS
370
-3
390
F
  0
LAYER
  5
205
100
AcDbSymbolTableRecord
100
AcDbLayerTableRecord
  2
07_COSMETICS
 70
0
 62
7
  6
CONTINUOUS
370
-3
390
F
  0
LAYER
  5
206
100
AcDbSymbolTableRecord
100
AcDbLayerTableRecord
  2
10_NOTES
 70
0
 62
7
  6
CONTINUOUS
370
-3
390
F
  0
LAYER
  5
207
100
AcDbSymbolTableRecord
100
AcDbLayerTableRecord
  2
11_NOTES_PUB
 70
0
 62
7
  6
CONTINUOUS
370
-3
390
F
  0
LAYER
  5
208
100
AcDbSymbolTableRecord
100
AcDbLayerTableRecord
  2
13_REF_GTOL
 70
0
 62
7
  6
CONTINUOUS
370
-3
390
F
  0
LAYER
  5
209
100
AcDbSymbolTableRecord
100
AcDbLayerTableRecord
  2
16_MISC
 70
0
 62
7
  6
CONTINUOUS
370
-3
390
F
  0
LAYER
  5
20A
100
AcDbSymbolTableRecord
100
AcDbLayerTableRecord
  2
17_NO_PRINT
 70
0
 62
7
  6
CONTINUOUS
370
-3
390
F
  0
LAYER
  5
20B
100
AcDbSymbolTableRecord
100
AcDbLayerTableRecord
  2
18_DATUM_CAMS_JOINTS
 70
0
 62
7
  6
CONTINUOUS
370
-3
390
F
  0
LAYER
  5
20C
100
AcDbSymbolTableRecord
100
AcDbLayerTableRecord
  2
19_DATUM_FUNCTIONAL
 70
0
 62
7
  6
CONTINUOUS
370
-3
390
F
  0
LAYER
  5
20D
100
AcDbSymbolTableRecord
100
AcDbLayerTableRecord
  2
20_DATUM_KINEMATIC_SCHEME
 70
0
 62
7
  6
CONTINUOUS
370
-3
390
F
  0
ENDTAB
  0
TABLE
  2
STYLE
  5
3
100
AcDbSymbolTable
 70
1
  0
STYLE
  5
11
100
AcDbSymbolTableRecord
100
AcDbTextStyleTableRecord
  2
STANDARD
 70
0
 40
0.0
 41
1.0
 50
0.0
 71
0
 42
0.2
  3
ARIAL.TTF
  4

  0
STYLE
  5
20E
100
AcDbSymbolTableRecord
100
AcDbTextStyleTableRecord
  2
TEXTSTYLE_1
 70
0
 40
0.0
 41
0.8
 50
0.0
 71
0
 42
0.2
  3
gdt
  4

  0
ENDTAB
  0
TABLE
  2
VIEW
  5
6
100
AcDbSymbolTable
 70
0
  0
ENDTAB
  0
TABLE
  2
UCS
  5
7
100
AcDbSymbolTable
 70
0
  0
ENDTAB
  0
TABLE
  2
APPID
  5
9
100
AcDbSymbolTable
 70
1
  0
APPID
  5
20F
100
AcDbSymbolTableRecord
100
AcDbRegAppTableRecord
  2
ACAD
 70
0
  0
ENDTAB
  0
TABLE
  2
BLOCK_RECORD
  5
1
100
AcDbSymbolTable
 70
0
  0
BLOCK_RECORD
  5
210
100
AcDbSymbolTableRecord
100
AcDbBlockTableRecord
  2
*Model_Space
  0
BLOCK_RECORD
  5
211
100
AcDbSymbolTableRecord
100
AcDbBlockTableRecord
  2
*Paper_Space
  0
BLOCK_RECORD
  5
212
100
AcDbSymbolTableRecord
100
AcDbBlockTableRecord
  2
_FILLED
  0
ENDTAB
  0
TABLE
  2
DIMSTYLE
  5
A
100
AcDbSymbolTable
 70
1
100
AcDbDimStyleTable
 71
0
  0
DIMSTYLE
105
213
100
AcDbSymbolTableRecord
100
AcDbDimStyleTableRecord
  2
STANDARD
 70
0
  3

  4

 40
1.0
 41
0.741067282
 42
1.0
 43
0.38
 44
1.0
 45
0.0
 46
0.0
 47
0.01
 48
0.01
140
1.0374941948
141
0.09
142
0.0
143
25.4
144
1.0
145
0.0
146
1.0
147
0.625
 71
1
 72
0
 73
0
 74
0
 75
0
 76
0
 77
1
 78
8
 79
2
170
0
171
1
172
0
173
0
174
0
175
0
176
0
177
0
178
0
270
2
179
2
271
2
272
2
273
2
274
2
275
0
280
0
281
0
282
0
283
1
284
8
285
0
286
0
287
3
288
0
340
11
278
46
341
212
342
212
343
212
344
212
  0
ENDTAB
  0
ENDSEC
  0
SECTION
  2
BLOCKS
  0
BLOCK
  5
20
100
AcDbEntity
  8
0
100
AcDbBlockBegin
  2
*Model_Space
 70
0
 10
0.0
 20
0.0
 30
0.0
  3
*Model_Space
  1

  0
ENDBLK
  5
21
100
AcDbEntity
  8
0
100
AcDbBlockEnd
  0
BLOCK
  5
1C
100
AcDbEntity
  8
0
100
AcDbBlockBegin
  2
*Paper_Space
 70
0
 10
0.0
 20
0.0
 30
0.0
  3
*Paper_Space
  1

  0
ENDBLK
  5
1D
100
AcDbEntity
  8
0
100
AcDbBlockEnd
  0
BLOCK
  5
214
100
AcDbEntity
  8
0
100
AcDbBlockBegin
  2
_FILLED
 70
64
 10
0.0
 20
0.0
  3
_FILLED
  1

  0
SOLID
  5
215
100
AcDbEntity
  8
0
  6
BYBLOCK
 62
0
100
AcDbTrace
 10
0.0
 20
0.0
 11
-1.0
 21
0.25
 12
-1.0
 22
-0.25
 13
-1.0
 23
-0.25
  0
ENDBLK
  5
216
100
AcDbEntity
  8
0
  6
BYBLOCK
 62
0
100
AcDbBlockEnd
  0
ENDSEC
  0
SECTION
  2
ENTITIES
  0
LINE
  5
217
100
AcDbEntity
  8
0
100
AcDbLine
 62
7
  6
BYLAYER
 10
6.9330154998
 20
36.25
 11
6.9330154998
 21
51.25
  0
LINE
  5
218
100
AcDbEntity
  8
0
100
AcDbLine
 62
7
  6
BYLAYER
 10
45.2265755772
 20
29.9
 11
43.9394554225
 21
29.9
  0
LINE
  5
219
100
AcDbEntity
  8
0
100
AcDbLine
 62
7
  6
BYLAYER
 10
39.1265755772
 20
29.9
 11
37.8394554225
 21
29.9
  0
LINE
  5
21A
100
AcDbEntity
  8
0
100
AcDbLine
 62
7
  6
BYLAYER
 10
45.2265755772
 20
29.9127051141
 11
43.9394554225
 21
29.9127051141
  0
LINE
  5
21B
100
AcDbEntity
  8
0
100
AcDbLine
 62
7
  6
BYLAYER
 10
39.1265755772
 20
29.9127051141
 11
37.8394554225
 21
29.9127051141
  0
LINE
  5
21C
100
AcDbEntity
  8
0
100
AcDbLine
 62
7
  6
BYLAYER
 10
30.2830154998
 20
52.75
 11
28.9330154998
 21
51.4
  0
LINE
  5
21D
100
AcDbEntity
  8
0
100
AcDbLine
 62
7
  6
BYLAYER
 10
30.2830154998
 20
34.75
 11
36.9330154998
 21
34.75
  0
LINE
  5
21E
100
AcDbEntity
  8
0
100
AcDbLine
 62
7
  6
BYLAYER
 10
40.0330154998
 20
34.75
 11
43.0330154998
 21
34.75
  0
LINE
  5
21F
100
AcDbEntity
  8
0
100
AcDbLine
 62
7
  6
BYLAYER
 10
46.1330154998
 20
34.75
 11
55.5830154998
 21
34.75
  0
LINE
  5
220
100
AcDbEntity
  8
0
100
AcDbLine
 62
7
  6
BYLAYER
 10
6.9330154998
 20
36.25
 11
28.9330154998
 21
36.25
  0
LINE
  5
221
100
AcDbEntity
  8
0
100
AcDbLine
 62
7
  6
BYLAYER
 10
37.8394554225
 20
36.3177109689
 11
39.1265755772
 21
36.3177109689
  0
LINE
  5
222
100
AcDbEntity
  8
0
100
AcDbLine
 62
7
  6
BYLAYER
 10
43.9394554225
 20
36.3177109689
 11
45.2265755772
 21
36.3177109689
  0
LINE
  5
223
100
AcDbEntity
  8
0
100
AcDbLine
 62
7
  6
BYLAYER
 10
28.9330154998
 20
36.1
 11
30.2830154998
 21
34.75
  0
LINE
  5
224
100
AcDbEntity
  8
0
100
AcDbLine
 62
7
  6
BYLAYER
 10
45.2265755772
 20
37.3449941452
 11
43.9394554225
 21
37.3449941452
  0
LINE
  5
225
100
AcDbEntity
  8
0
100
AcDbLine
 62
7
  6
BYLAYER
 10
39.1265755772
 20
37.3449941452
 11
37.8394554225
 21
37.3449941452
  0
LINE
  5
226
100
AcDbEntity
  8
0
100
AcDbLine
 62
7
  6
BYLAYER
 10
28.9330154998
 20
36.1
 11
28.9330154998
 21
51.4
  0
LINE
  5
227
100
AcDbEntity
  8
0
100
AcDbLine
 62
7
  6
BYLAYER
 10
30.2830154998
 20
34.75
 11
30.2830154998
 21
52.75
  0
LINE
  5
228
100
AcDbEntity
  8
0
100
AcDbLine
 62
7
  6
BYLAYER
 10
36.9330154998
 20
56.03
 11
37.8394554225
 21
57.6
  0
LINE
  5
229
100
AcDbEntity
  8
0
100
AcDbLine
 62
7
  6
BYLAYER
 10
37.8394554225
 20
29.9
 11
36.9330154998
 21
31.47
  0
LINE
  5
22A
100
AcDbEntity
  8
0
100
AcDbLine
 62
7
  6
BYLAYER
 10
43.0330154998
 20
56.03
 11
43.9394554225
 21
57.6
  0
LINE
  5
22B
100
AcDbEntity
  8
0
100
AcDbLine
 62
7
  6
BYLAYER
 10
43.9394554225
 20
29.9
 11
43.0330154998
 21
31.47
  0
LINE
  5
22C
100
AcDbEntity
  8
0
100
AcDbLine
 62
7
  6
BYLAYER
 10
36.9330154998
 20
31.47
 11
36.9330154998
 21
56.03
  0
LINE
  5
22D
100
AcDbEntity
  8
0
100
AcDbLine
 62
7
  6
BYLAYER
 10
37.8394554225
 20
29.9
 11
37.8394554225
 21
29.9127051141
  0
LINE
  5
22E
100
AcDbEntity
  8
0
100
AcDbLine
 62
7
  6
BYLAYER
 10
37.8394554225
 20
36.3177109689
 11
37.8394554225
 21
37.3449941452
  0
LINE
  5
22F
100
AcDbEntity
  8
0
100
AcDbLine
 62
7
  6
BYLAYER
 10
37.8394554225
 20
50.1550058548
 11
37.8394554225
 21
51.1822890311
  0
LINE
  5
230
100
AcDbEntity
  8
0
100
AcDbLine
 62
7
  6
BYLAYER
 10
37.8394554225
 20
57.5872948859
 11
37.8394554225
 21
57.6
  0
LINE
  5
231
100
AcDbEntity
  8
0
100
AcDbLine
 62
7
  6
BYLAYER
 10
39.1265755772
 20
57.6
 11
39.1265755772
 21
57.5872948859
  0
LINE
  5
232
100
AcDbEntity
  8
0
100
AcDbLine
 62
7
  6
BYLAYER
 10
39.1265755772
 20
51.1822890311
 11
39.1265755772
 21
50.1550058548
  0
LINE
  5
233
100
AcDbEntity
  8
0
100
AcDbLine
 62
7
  6
BYLAYER
 10
39.1265755772
 20
37.3449941452
 11
39.1265755772
 21
36.3177109689
  0
LINE
  5
234
100
AcDbEntity
  8
0
100
AcDbLine
 62
7
  6
BYLAYER
 10
39.1265755772
 20
29.9127051141
 11
39.1265755772
 21
29.9
  0
LINE
  5
235
100
AcDbEntity
  8
0
100
AcDbLine
 62
7
  6
BYLAYER
 10
37.8394554225
 20
50.1550058548
 11
39.1265755772
 21
50.1550058548
  0
LINE
  5
236
100
AcDbEntity
  8
0
100
AcDbLine
 62
7
  6
BYLAYER
 10
43.9394554225
 20
50.1550058548
 11
45.2265755772
 21
50.1550058548
  0
LINE
  5
237
100
AcDbEntity
  8
0
100
AcDbLine
 62
7
  6
BYLAYER
 10
45.2265755772
 20
51.1822890311
 11
43.9394554225
 21
51.1822890311
  0
LINE
  5
238
100
AcDbEntity
  8
0
100
AcDbLine
 62
7
  6
BYLAYER
 10
39.1265755772
 20
51.1822890311
 11
37.8394554225
 21
51.1822890311
  0
LINE
  5
239
100
AcDbEntity
  8
0
100
AcDbLine
 62
7
  6
BYLAYER
 10
28.9330154998
 20
51.25
 11
6.9330154998
 21
51.25
  0
LINE
  5
23A
100
AcDbEntity
  8
0
100
AcDbLine
 62
7
  6
BYLAYER
 10
40.0330154998
 20
56.03
 11
40.0330154998
 21
31.47
  0
LINE
  5
23B
100
AcDbEntity
  8
0
100
AcDbLine
 62
7
  6
BYLAYER
 10
55.5830154998
 20
52.75
 11
46.1330154998
 21
52.75
  0
LINE
  5
23C
100
AcDbEntity
  8
0
100
AcDbLine
 62
7
  6
BYLAYER
 10
43.0330154998
 20
52.75
 11
40.0330154998
 21
52.75
  0
LINE
  5
23D
100
AcDbEntity
  8
0
100
AcDbLine
 62
7
  6
BYLAYER
 10
36.9330154998
 20
52.75
 11
30.2830154998
 21
52.75
  0
LINE
  5
23E
100
AcDbEntity
  8
0
100
AcDbLine
 62
7
  6
BYLAYER
 10
43.0330154998
 20
31.47
 11
43.0330154998
 21
56.03
  0
LINE
  5
23F
100
AcDbEntity
  8
0
100
AcDbLine
 62
7
  6
BYLAYER
 10
43.9394554225
 20
29.9
 11
43.9394554225
 21
29.9127051141
  0
LINE
  5
240
100
AcDbEntity
  8
0
100
AcDbLine
 62
7
  6
BYLAYER
 10
43.9394554225
 20
36.3177109689
 11
43.9394554225
 21
37.3449941452
  0
LINE
  5
241
100
AcDbEntity
  8
0
100
AcDbLine
 62
7
  6
BYLAYER
 10
43.9394554225
 20
50.1550058548
 11
43.9394554225
 21
51.1822890311
  0
LINE
  5
242
100
AcDbEntity
  8
0
100
AcDbLine
 62
7
  6
BYLAYER
 10
43.9394554225
 20
57.5872948859
 11
43.9394554225
 21
57.6
  0
LINE
  5
243
100
AcDbEntity
  8
0
100
AcDbLine
 62
7
  6
BYLAYER
 10
45.2265755772
 20
57.6
 11
45.2265755772
 21
57.5872948859
  0
LINE
  5
244
100
AcDbEntity
  8
0
100
AcDbLine
 62
7
  6
BYLAYER
 10
45.2265755772
 20
51.1822890311
 11
45.2265755772
 21
50.1550058548
  0
LINE
  5
245
100
AcDbEntity
  8
0
100
AcDbLine
 62
7
  6
BYLAYER
 10
45.2265755772
 20
37.3449941452
 11
45.2265755772
 21
36.3177109689
  0
LINE
  5
246
100
AcDbEntity
  8
0
100
AcDbLine
 62
7
  6
BYLAYER
 10
45.2265755772
 20
29.9127051141
 11
45.2265755772
 21
29.9
  0
LINE
  5
247
100
AcDbEntity
  8
0
100
AcDbLine
 62
7
  6
BYLAYER
 10
39.1265755772
 20
29.9
 11
40.0330154998
 21
31.47
  0
LINE
  5
248
100
AcDbEntity
  8
0
100
AcDbLine
 62
7
  6
BYLAYER
 10
40.0330154998
 20
56.03
 11
39.1265755772
 21
57.6
  0
LINE
  5
249
100
AcDbEntity
  8
0
100
AcDbLine
 62
7
  6
BYLAYER
 10
46.1330154998
 20
56.03
 11
46.1330154998
 21
31.47
  0
LINE
  5
24A
100
AcDbEntity
  8
0
100
AcDbLine
 62
7
  6
BYLAYER
 10
37.8394554225
 20
57.5872948859
 11
39.1265755772
 21
57.5872948859
  0
LINE
  5
24B
100
AcDbEntity
  8
0
100
AcDbLine
 62
7
  6
BYLAYER
 10
43.9394554225
 20
57.5872948859
 11
45.2265755772
 21
57.5872948859
  0
LINE
  5
24C
100
AcDbEntity
  8
0
100
AcDbLine
 62
7
  6
BYLAYER
 10
37.8394554225
 20
57.6
 11
39.1265755772
 21
57.6
  0
LINE
  5
24D
100
AcDbEntity
  8
0
100
AcDbLine
 62
7
  6
BYLAYER
 10
43.9394554225
 20
57.6
 11
45.2265755772
 21
57.6
  0
LINE
  5
24E
100
AcDbEntity
  8
0
100
AcDbLine
 62
7
  6
BYLAYER
 10
45.2265755772
 20
29.9
 11
46.1330154998
 21
31.47
  0
LINE
  5
24F
100
AcDbEntity
  8
0
100
AcDbLine
 62
7
  6
BYLAYER
 10
46.1330154998
 20
56.03
 11
45.2265755772
 21
57.6
  0
LINE
  5
250
100
AcDbEntity
  8
0
100
AcDbLine
 62
7
  6
BYLAYER
 10
56.9330154998
 20
36.1
 11
55.5830154998
 21
34.75
  0
LINE
  5
251
100
AcDbEntity
  8
0
100
AcDbLine
 62
7
  6
BYLAYER
 10
55.5830154998
 20
52.75
 11
56.9330154998
 21
51.4
  0
LINE
  5
252
100
AcDbEntity
  8
0
100
AcDbLine
 62
7
  6
BYLAYER
 10
55.5830154998
 20
52.75
 11
55.5830154998
 21
34.75
  0
LINE
  5
253
100
AcDbEntity
  8
0
100
AcDbLine
 62
7
  6
BYLAYER
 10
56.9330154998
 20
51.4
 11
56.9330154998
 21
36.1
  0
SPLINE
  5
254
100
AcDbEntity
  8
0
100
AcDbSpline
 62
7
  6
BYLAYER
 70
0
 71
3
 72
11
 73
7
 74
0
 42
0.0000001
 43
0.0000001
 44
0.0000000001
 40
0.0
 40
0.0
 40
0.0
 40
0.0
 40
0.2499938274
 40
0.499989319
 40
0.7499909169
 40
1.0
 40
1.0
 40
1.0
 40
1.0
 10
40.0330154998
 20
43.75
 30
0.0
 10
40.0330154998
 20
43.2094737387
 30
0.0
 10
39.9916411387
 20
42.1279761777
 30
0.0
 10
39.8094189763
 20
40.5153408565
 30
0.0
 10
39.5200763096
 20
38.9186746845
 30
0.0
 10
39.2660193903
 20
37.8672581801
 30
0.0
 10
39.1265755772
 20
37.3449941452
 30
0.0
  0
SPLINE
  5
255
100
AcDbEntity
  8
0
100
AcDbSpline
 62
7
  6
BYLAYER
 70
0
 71
3
 72
11
 73
7
 74
0
 42
0.0000001
 43
0.0000001
 44
0.0000000001
 40
0.0
 40
0.0
 40
0.0
 40
0.0
 40
0.2499881589
 40
0.4999825657
 40
0.7499864883
 40
1.0
 40
1.0
 40
1.0
 40
1.0
 10
40.0330154998
 20
43.75
 30
0.0
 10
40.0330154998
 20
44.2905133858
 30
0.0
 10
39.991524048
 20
45.3719874712
 30
0.0
 10
39.8094876456
 20
46.9846326209
 30
0.0
 10
39.5199662319
 20
48.5812786304
 30
0.0
 10
39.2660217005
 20
49.6327331672
 30
0.0
 10
39.1265755772
 20
50.1550058548
 30
0.0
  0
SPLINE
  5
256
100
AcDbEntity
  8
0
100
AcDbSpline
 62
7
  6
BYLAYER
 70
0
 71
3
 72
11
 73
7
 74
0
 42
0.0000001
 43
0.0000001
 44
0.0000000001
 40
0.0
 40
0.0
 40
0.0
 40
0.0
 40
0.2499881589
 40
0.4999825657
 40
0.7499864883
 40
1.0
 40
1.0
 40
1.0
 40
1.0
 10
36.9330154998
 20
43.75
 30
0.0
 10
36.9330154998
 20
43.2094866142
 30
0.0
 10
36.9745069517
 20
42.1280125288
 30
0.0
 10
37.1565433541
 20
40.5153673791
 30
0.0
 10
37.4460647677
 20
38.9187213696
 30
0.0
 10
37.7000092991
 20
37.8672668328
 30
0.0
 10
37.8394554225
 20
37.3449941452
 30
0.0
  0
SPLINE
  5
257
100
AcDbEntity
  8
0
100
AcDbSpline
 62
7
  6
BYLAYER
 70
0
 71
3
 72
13
 73
9
 74
0
 42
0.0000001
 43
0.0000001
 44
0.0000000001
 40
0.0
 40
0.0
 40
0.0
 40
0.0
 40
0.1206742617
 40
0.241870949
 40
0.3640525554
 40
0.4876165123
 40
0.7398671508
 40
1.0
 40
1.0
 40
1.0
 40
1.0
 10
40.0330154998
 20
54.3847919585
 30
0.0
 10
40.0330154998
 20
54.249567176
 30
0.0
 10
40.0226680582
 20
53.9784199983
 30
0.0
 10
39.9763615723
 20
53.5727490487
 30
0.0
 10
39.9000665627
 20
53.1683416338
 30
0.0
 10
39.759344577
 20
52.6279540969
 30
0.0
 10
39.5148345486
 20
51.9567711094
 30
0.0
 10
39.2638844221
 20
51.4394229612
 30
0.0
 10
39.1265755772
 20
51.1822890311
 30
0.0
  0
SPLINE
  5
258
100
AcDbEntity
  8
0
100
AcDbSpline
 62
7
  6
BYLAYER
 70
0
 71
3
 72
13
 73
9
 74
0
 42
0.0000001
 43
0.0000001
 44
0.0000000001
 40
0.0
 40
0.0
 40
0.0
 40
0.0
 40
0.1206758646
 40
0.2418671738
 40
0.3640468733
 40
0.4876091545
 40
0.7398672821
 40
1.0
 40
1.0
 40
1.0
 40
1.0
 10
40.0330154998
 20
54.3847919585
 30
0.0
 10
40.0330154998
 20
54.5200179755
 30
0.0
 10
40.0226398576
 20
54.7911597237
 30
0.0
 10
39.9762921079
 20
55.1968165179
 30
0.0
 10
39.9000341092
 20
55.6012169189
 30
0.0
 10
39.7593857221
 20
56.1416288362
 30
0.0
 10
39.5147322642
 20
56.8127632707
 30
0.0
 10
39.2638837826
 20
57.3301621534
 30
0.0
 10
39.1265755772
 20
57.5872948859
 30
0.0
  0
SPLINE
  5
259
100
AcDbEntity
  8
0
100
AcDbSpline
 62
7
  6
BYLAYER
 70
0
 71
3
 72
13
 73
9
 74
0
 42
0.0000001
 43
0.0000001
 44
0.0000000001
 40
0.0
 40
0.0
 40
0.0
 40
0.0
 40
0.1206758646
 40
0.2418671738
 40
0.3640468733
 40
0.4876091545
 40
0.7398672821
 40
1.0
 40
1.0
 40
1.0
 40
1.0
 10
36.9330154998
 20
54.3847919585
 30
0.0
 10
36.9330154998
 20
54.2495659414
 30
0.0
 10
36.9433911421
 20
53.9784241932
 30
0.0
 10
36.9897388918
 20
53.572767399
 30
0.0
 10
37.0659968904
 20
53.1683669981
 30
0.0
 10
37.2066452776
 20
52.6279550807
 30
0.0
 10
37.4512987354
 20
51.9568206463
 30
0.0
 10
37.7021472171
 20
51.4394217635
 30
0.0
 10
37.8394554225
 20
51.1822890311
 30
0.0
  0
SPLINE
  5
25A
100
AcDbEntity
  8
0
100
AcDbSpline
 62
7
  6
BYLAYER
 70
0
 71
3
 72
11
 73
7
 74
0
 42
0.0000001
 43
0.0000001
 44
0.0000000001
 40
0.0
 40
0.0
 40
0.0
 40
0.0
 40
0.2499938274
 40
0.499989319
 40
0.7499909169
 40
1.0
 40
1.0
 40
1.0
 40
1.0
 10
36.9330154998
 20
43.75
 30
0.0
 10
36.9330154998
 20
44.2905262613
 30
0.0
 10
36.9743898609
 20
45.3720238223
 30
0.0
 10
37.1566120233
 20
46.9846591435
 30
0.0
 10
37.4459546901
 20
48.5813253155
 30
0.0
 10
37.7000116094
 20
49.6327418199
 30
0.0
 10
37.8394554225
 20
50.1550058548
 30
0.0
  0
SPLINE
  5
25B
100
AcDbEntity
  8
0
100
AcDbSpline
 62
7
  6
BYLAYER
 70
0
 71
3
 72
13
 73
9
 74
0
 42
0.0000001
 43
0.0000001
 44
0.0000000001
 40
0.0
 40
0.0
 40
0.0
 40
0.0
 40
0.1206742617
 40
0.241870949
 40
0.3640525554
 40
0.4876165123
 40
0.7398671508
 40
1.0
 40
1.0
 40
1.0
 40
1.0
 10
36.9330154998
 20
54.3847919585
 30
0.0
 10
36.9330154998
 20
54.520016741
 30
0.0
 10
36.9433629415
 20
54.7911639187
 30
0.0
 10
36.9896694273
 20
55.1968348682
 30
0.0
 10
37.0659644369
 20
55.6012422832
 30
0.0
 10
37.2066864227
 20
56.1416298201
 30
0.0
 10
37.451196451
 20
56.8128128075
 30
0.0
 10
37.7021465775
 20
57.3301609557
 30
0.0
 10
37.8394554225
 20
57.5872948859
 30
0.0
  0
SPLINE
  5
25C
100
AcDbEntity
  8
0
100
AcDbSpline
 62
7
  6
BYLAYER
 70
0
 71
3
 72
13
 73
9
 74
0
 42
0.0000001
 43
0.0000001
 44
0.0000000001
 40
0.0
 40
0.0
 40
0.0
 40
0.0
 40
0.1206742617
 40
0.241870949
 40
0.3640525554
 40
0.4876165123
 40
0.7398671508
 40
1.0
 40
1.0
 40
1.0
 40
1.0
 10
40.0330154998
 20
33.1152080415
 30
0.0
 10
40.0330154998
 20
32.979983259
 30
0.0
 10
40.0226680582
 20
32.7088360813
 30
0.0
 10
39.9763615723
 20
32.3031651318
 30
0.0
 10
39.9000665627
 20
31.8987577168
 30
0.0
 10
39.759344577
 20
31.3583701799
 30
0.0
 10
39.5148345486
 20
30.6871871925
 30
0.0
 10
39.2638844221
 20
30.1698390443
 30
0.0
 10
39.1265755772
 20
29.9127051141
 30
0.0
  0
SPLINE
  5
25D
100
AcDbEntity
  8
0
100
AcDbSpline
 62
7
  6
BYLAYER
 70
0
 71
3
 72
13
 73
9
 74
0
 42
0.0000001
 43
0.0000001
 44
0.0000000001
 40
0.0
 40
0.0
 40
0.0
 40
0.0
 40
0.1206742617
 40
0.241870949
 40
0.3640525554
 40
0.4876165123
 40
0.7398671508
 40
1.0
 40
1.0
 40
1.0
 40
1.0
 10
36.9330154998
 20
33.1152080415
 30
0.0
 10
36.9330154998
 20
33.250432824
 30
0.0
 10
36.9433629415
 20
33.5215800017
 30
0.0
 10
36.9896694273
 20
33.9272509513
 30
0.0
 10
37.0659644369
 20
34.3316583662
 30
0.0
 10
37.2066864227
 20
34.8720459031
 30
0.0
 10
37.451196451
 20
35.5432288906
 30
0.0
 10
37.7021465775
 20
36.0605770388
 30
0.0
 10
37.8394554225
 20
36.3177109689
 30
0.0
  0
SPLINE
  5
25E
100
AcDbEntity
  8
0
100
AcDbSpline
 62
7
  6
BYLAYER
 70
0
 71
3
 72
13
 73
9
 74
0
 42
0.0000001
 43
0.0000001
 44
0.0000000001
 40
0.0
 40
0.0
 40
0.0
 40
0.0
 40
0.1206758646
 40
0.2418671738
 40
0.3640468733
 40
0.4876091545
 40
0.7398672821
 40
1.0
 40
1.0
 40
1.0
 40
1.0
 10
40.0330154998
 20
33.1152080415
 30
0.0
 10
40.0330154998
 20
33.2504340586
 30
0.0
 10
40.0226398576
 20
33.5215758068
 30
0.0
 10
39.9762921079
 20
33.927232601
 30
0.0
 10
39.9000341092
 20
34.3316330019
 30
0.0
 10
39.7593857221
 20
34.8720449193
 30
0.0
 10
39.5147322642
 20
35.5431793537
 30
0.0
 10
39.2638837826
 20
36.0605782365
 30
0.0
 10
39.1265755772
 20
36.3177109689
 30
0.0
  0
SPLINE
  5
25F
100
AcDbEntity
  8
0
100
AcDbSpline
 62
7
  6
BYLAYER
 70
0
 71
3
 72
13
 73
9
 74
0
 42
0.0000001
 43
0.0000001
 44
0.0000000001
 40
0.0
 40
0.0
 40
0.0
 40
0.0
 40
0.1206758646
 40
0.2418671738
 40
0.3640468733
 40
0.4876091545
 40
0.7398672821
 40
1.0
 40
1.0
 40
1.0
 40
1.0
 10
36.9330154998
 20
33.1152080415
 30
0.0
 10
36.9330154998
 20
32.9799820245
 30
0.0
 10
36.9433911421
 20
32.7088402763
 30
0.0
 10
36.9897388918
 20
32.3031834821
 30
0.0
 10
37.0659968904
 20
31.8987830811
 30
0.0
 10
37.2066452776
 20
31.3583711638
 30
0.0
 10
37.4512987354
 20
30.6872367293
 30
0.0
 10
37.7021472171
 20
30.1698378466
 30
0.0
 10
37.8394554225
 20
29.9127051141
 30
0.0
  0
SPLINE
  5
260
100
AcDbEntity
  8
0
100
AcDbSpline
 62
7
  6
BYLAYER
 70
0
 71
3
 72
11
 73
7
 74
0
 42
0.0000001
 43
0.0000001
 44
0.0000000001
 40
0.0
 40
0.0
 40
0.0
 40
0.0
 40
0.2499938274
 40
0.499989319
 40
0.7499909169
 40
1.0
 40
1.0
 40
1.0
 40
1.0
 10
46.1330154998
 20
43.75
 30
0.0
 10
46.1330154998
 20
43.2094737387
 30
0.0
 10
46.0916411387
 20
42.1279761777
 30
0.0
 10
45.9094189763
 20
40.5153408565
 30
0.0
 10
45.6200763096
 20
38.9186746845
 30
0.0
 10
45.3660193903
 20
37.8672581801
 30
0.0
 10
45.2265755772
 20
37.3449941452
 30
0.0
  0
SPLINE
  5
261
100
AcDbEntity
  8
0
100
AcDbSpline
 62
7
  6
BYLAYER
 70
0
 71
3
 72
11
 73
7
 74
0
 42
0.0000001
 43
0.0000001
 44
0.0000000001
 40
0.0
 40
0.0
 40
0.0
 40
0.0
 40
0.2499881589
 40
0.4999825657
 40
0.7499864883
 40
1.0
 40
1.0
 40
1.0
 40
1.0
 10
46.1330154998
 20
43.75
 30
0.0
 10
46.1330154998
 20
44.2905133858
 30
0.0
 10
46.091524048
 20
45.3719874712
 30
0.0
 10
45.9094876456
 20
46.9846326209
 30
0.0
 10
45.6199662319
 20
48.5812786304
 30
0.0
 10
45.3660217005
 20
49.6327331672
 30
0.0
 10
45.2265755772
 20
50.1550058548
 30
0.0
  0
SPLINE
  5
262
100
AcDbEntity
  8
0
100
AcDbSpline
 62
7
  6
BYLAYER
 70
0
 71
3
 72
11
 73
7
 74
0
 42
0.0000001
 43
0.0000001
 44
0.0000000001
 40
0.0
 40
0.0
 40
0.0
 40
0.0
 40
0.2499881589
 40
0.4999825657
 40
0.7499864883
 40
1.0
 40
1.0
 40
1.0
 40
1.0
 10
43.0330154998
 20
43.75
 30
0.0
 10
43.0330154998
 20
43.2094866142
 30
0.0
 10
43.0745069517
 20
42.1280125288
 30
0.0
 10
43.2565433541
 20
40.5153673791
 30
0.0
 10
43.5460647677
 20
38.9187213696
 30
0.0
 10
43.8000092991
 20
37.8672668328
 30
0.0
 10
43.9394554225
 20
37.3449941452
 30
0.0
  0
SPLINE
  5
263
100
AcDbEntity
  8
0
100
AcDbSpline
 62
7
  6
BYLAYER
 70
0
 71
3
 72
13
 73
9
 74
0
 42
0.0000001
 43
0.0000001
 44
0.0000000001
 40
0.0
 40
0.0
 40
0.0
 40
0.0
 40
0.1206742617
 40
0.241870949
 40
0.3640525554
 40
0.4876165123
 40
0.7398671508
 40
1.0
 40
1.0
 40
1.0
 40
1.0
 10
46.1330154998
 20
54.3847919585
 30
0.0
 10
46.1330154998
 20
54.249567176
 30
0.0
 10
46.1226680582
 20
53.9784199983
 30
0.0
 10
46.0763615723
 20
53.5727490487
 30
0.0
 10
46.0000665627
 20
53.1683416338
 30
0.0
 10
45.859344577
 20
52.6279540969
 30
0.0
 10
45.6148345486
 20
51.9567711094
 30
0.0
 10
45.3638844221
 20
51.4394229612
 30
0.0
 10
45.2265755772
 20
51.1822890311
 30
0.0
  0
SPLINE
  5
264
100
AcDbEntity
  8
0
100
AcDbSpline
 62
7
  6
BYLAYER
 70
0
 71
3
 72
13
 73
9
 74
0
 42
0.0000001
 43
0.0000001
 44
0.0000000001
 40
0.0
 40
0.0
 40
0.0
 40
0.0
 40
0.1206758646
 40
0.2418671738
 40
0.3640468733
 40
0.4876091545
 40
0.7398672821
 40
1.0
 40
1.0
 40
1.0
 40
1.0
 10
46.1330154998
 20
54.3847919585
 30
0.0
 10
46.1330154998
 20
54.5200179755
 30
0.0
 10
46.1226398576
 20
54.7911597237
 30
0.0
 10
46.0762921079
 20
55.1968165179
 30
0.0
 10
46.0000341092
 20
55.6012169189
 30
0.0
 10
45.8593857221
 20
56.1416288362
 30
0.0
 10
45.6147322642
 20
56.8127632707
 30
0.0
 10
45.3638837826
 20
57.3301621534
 30
0.0
 10
45.2265755772
 20
57.5872948859
 30
0.0
  0
SPLINE
  5
265
100
AcDbEntity
  8
0
100
AcDbSpline
 62
7
  6
BYLAYER
 70
0
 71
3
 72
13
 73
9
 74
0
 42
0.0000001
 43
0.0000001
 44
0.0000000001
 40
0.0
 40
0.0
 40
0.0
 40
0.0
 40
0.1206758646
 40
0.2418671738
 40
0.3640468733
 40
0.4876091545
 40
0.7398672821
 40
1.0
 40
1.0
 40
1.0
 40
1.0
 10
43.0330154998
 20
54.3847919585
 30
0.0
 10
43.0330154998
 20
54.2495659414
 30
0.0
 10
43.0433911421
 20
53.9784241932
 30
0.0
 10
43.0897388918
 20
53.572767399
 30
0.0
 10
43.1659968904
 20
53.1683669981
 30
0.0
 10
43.3066452776
 20
52.6279550807
 30
0.0
 10
43.5512987354
 20
51.9568206463
 30
0.0
 10
43.8021472171
 20
51.4394217635
 30
0.0
 10
43.9394554225
 20
51.1822890311
 30
0.0
  0
SPLINE
  5
266
100
AcDbEntity
  8
0
100
AcDbSpline
 62
7
  6
BYLAYER
 70
0
 71
3
 72
11
 73
7
 74
0
 42
0.0000001
 43
0.0000001
 44
0.0000000001
 40
0.0
 40
0.0
 40
0.0
 40
0.0
 40
0.2499938274
 40
0.499989319
 40
0.7499909169
 40
1.0
 40
1.0
 40
1.0
 40
1.0
 10
43.0330154998
 20
43.75
 30
0.0
 10
43.0330154998
 20
44.2905262613
 30
0.0
 10
43.0743898609
 20
45.3720238223
 30
0.0
 10
43.2566120233
 20
46.9846591435
 30
0.0
 10
43.5459546901
 20
48.5813253155
 30
0.0
 10
43.8000116094
 20
49.6327418199
 30
0.0
 10
43.9394554225
 20
50.1550058548
 30
0.0
  0
SPLINE
  5
267
100
AcDbEntity
  8
0
100
AcDbSpline
 62
7
  6
BYLAYER
 70
0
 71
3
 72
13
 73
9
 74
0
 42
0.0000001
 43
0.0000001
 44
0.0000000001
 40
0.0
 40
0.0
 40
0.0
 40
0.0
 40
0.1206742617
 40
0.241870949
 40
0.3640525554
 40
0.4876165123
 40
0.7398671508
 40
1.0
 40
1.0
 40
1.0
 40
1.0
 10
43.0330154998
 20
54.3847919585
 30
0.0
 10
43.0330154998
 20
54.520016741
 30
0.0
 10
43.0433629415
 20
54.7911639187
 30
0.0
 10
43.0896694273
 20
55.1968348682
 30
0.0
 10
43.1659644369
 20
55.6012422832
 30
0.0
 10
43.3066864227
 20
56.1416298201
 30
0.0
 10
43.551196451
 20
56.8128128075
 30
0.0
 10
43.8021465775
 20
57.3301609557
 30
0.0
 10
43.9394554225
 20
57.5872948859
 30
0.0
  0
SPLINE
  5
268
100
AcDbEntity
  8
0
100
AcDbSpline
 62
7
  6
BYLAYER
 70
0
 71
3
 72
13
 73
9
 74
0
 42
0.0000001
 43
0.0000001
 44
0.0000000001
 40
0.0
 40
0.0
 40
0.0
 40
0.0
 40
0.1206742617
 40
0.241870949
 40
0.3640525554
 40
0.4876165123
 40
0.7398671508
 40
1.0
 40
1.0
 40
1.0
 40
1.0
 10
46.1330154998
 20
33.1152080415
 30
0.0
 10
46.1330154998
 20
32.979983259
 30
0.0
 10
46.1226680582
 20
32.7088360813
 30
0.0
 10
46.0763615723
 20
32.3031651318
 30
0.0
 10
46.0000665627
 20
31.8987577168
 30
0.0
 10
45.859344577
 20
31.3583701799
 30
0.0
 10
45.6148345486
 20
30.6871871925
 30
0.0
 10
45.3638844221
 20
30.1698390443
 30
0.0
 10
45.2265755772
 20
29.9127051141
 30
0.0
  0
SPLINE
  5
269
100
AcDbEntity
  8
0
100
AcDbSpline
 62
7
  6
BYLAYER
 70
0
 71
3
 72
13
 73
9
 74
0
 42
0.0000001
 43
0.0000001
 44
0.0000000001
 40
0.0
 40
0.0
 40
0.0
 40
0.0
 40
0.1206742617
 40
0.241870949
 40
0.3640525554
 40
0.4876165123
 40
0.7398671508
 40
1.0
 40
1.0
 40
1.0
 40
1.0
 10
43.0330154998
 20
33.1152080415
 30
0.0
 10
43.0330154998
 20
33.250432824
 30
0.0
 10
43.0433629415
 20
33.5215800017
 30
0.0
 10
43.0896694273
 20
33.9272509513
 30
0.0
 10
43.1659644369
 20
34.3316583662
 30
0.0
 10
43.3066864227
 20
34.8720459031
 30
0.0
 10
43.551196451
 20
35.5432288906
 30
0.0
 10
43.8021465775
 20
36.0605770388
 30
0.0
 10
43.9394554225
 20
36.3177109689
 30
0.0
  0
SPLINE
  5
26A
100
AcDbEntity
  8
0
100
AcDbSpline
 62
7
  6
BYLAYER
 70
0
 71
3
 72
13
 73
9
 74
0
 42
0.0000001
 43
0.0000001
 44
0.0000000001
 40
0.0
 40
0.0
 40
0.0
 40
0.0
 40
0.1206758646
 40
0.2418671738
 40
0.3640468733
 40
0.4876091545
 40
0.7398672821
 40
1.0
 40
1.0
 40
1.0
 40
1.0
 10
46.1330154998
 20
33.1152080415
 30
0.0
 10
46.1330154998
 20
33.2504340586
 30
0.0
 10
46.1226398576
 20
33.5215758068
 30
0.0
 10
46.0762921079
 20
33.927232601
 30
0.0
 10
46.0000341092
 20
34.3316330019
 30
0.0
 10
45.8593857221
 20
34.8720449193
 30
0.0
 10
45.6147322642
 20
35.5431793537
 30
0.0
 10
45.3638837826
 20
36.0605782365
 30
0.0
 10
45.2265755772
 20
36.3177109689
 30
0.0
  0
SPLINE
  5
26B
100
AcDbEntity
  8
0
100
AcDbSpline
 62
7
  6
BYLAYER
 70
0
 71
3
 72
13
 73
9
 74
0
 42
0.0000001
 43
0.0000001
 44
0.0000000001
 40
0.0
 40
0.0
 40
0.0
 40
0.0
 40
0.1206758646
 40
0.2418671738
 40
0.3640468733
 40
0.4876091545
 40
0.7398672821
 40
1.0
 40
1.0
 40
1.0
 40
1.0
 10
43.0330154998
 20
33.1152080415
 30
0.0
 10
43.0330154998
 20
32.9799820245
 30
0.0
 10
43.0433911421
 20
32.7088402763
 30
0.0
 10
43.0897388918
 20
32.3031834821
 30
0.0
 10
43.1659968904
 20
31.8987830811
 30
0.0
 10
43.3066452776
 20
31.3583711638
 30
0.0
 10
43.5512987354
 20
30.6872367293
 30
0.0
 10
43.8021472171
 20
30.1698378466
 30
0.0
 10
43.9394554225
 20
29.9127051141
 30
0.0
  0
ENDSEC
  0
SECTION
  2
OBJECTS
  0
DICTIONARY
  5
C
100
AcDbDictionary
280
0
281
1
  3
ACAD_GROUP
350
D
  3
ACAD_MLINESTYLE
350
17
  3
ACAD_LAYOUT
350
1A
  3
ACAD_PLOTSETTINGS
350
19
  3
ACAD_PLOTSTYLENAME
350
E
  0
DICTIONARY
  5
D
102
{ACAD_REACTORS
330
C
102
}
100
AcDbDictionary
280
0
281
1
  0
ACDBDICTIONARYWDFLT
  5
E
102
{ACAD_REACTORS
330
C
102
}
100
AcDbDictionary
281
1
  3
Normal
350
F
100
AcDbDictionaryWithDefault
340
F
  0
DICTIONARY
  5
17
102
{ACAD_REACTORS
330
C
102
}
100
AcDbDictionary
280
0
281
1
  3
Standard
350
18
  0
DICTIONARY
  5
19
102
{ACAD_REACTORS
330
C
102
}
100
AcDbDictionary
281
1
  0
DICTIONARY
  5
1A
102
{ACAD_REACTORS
330
C
102
}
100
AcDbDictionary
281
1
  3
Model
350
26C
  3
Layout1
350
26D
  0
ACDBPLACEHOLDER
  5
F
102
{ACAD_REACTORS
330
E
102
}
  0
MLINESTYLE
  5
18
102
{ACAD_REACTORS
330
17
102
}
100
AcDbMlineStyle
  2
STANDARD
 70
0
  3

 62
256
 51
90.0
 52
90.0
 71
2
 49
0.5
 62
256
  6
BYLAYER
 49
-0.5
 62
256
  6
BYLAYER
  0
LAYOUT
  5
26C
102
{ACAD_REACTORS
330
1A
102
}
100
AcDbPlotSettings
  1

  2
none_device
  4

  6

 40
0.0
 41
0.0
 42
0.0
 43
0.0
 44
210.0
 45
297.0
 46
0.0
 47
0.0
 48
0.0
 49
0.0
140
0.0
141
0.0
142
1.0
143
1.0
 70
1024
 72
1
 73
0
 74
0
  7

 75
0
147
1.0
148
0.0
149
0.0
100
AcDbLayout
  1
Model
 70
0
 71
0
 10
0.0
 20
0.0
 11
210.0
 21
297.0
 12
0.0
 22
0.0
 32
0.0
 14
0.0
 24
0.0
 34
0.0
 15
0.0
 25
0.0
 35
0.0
146
0.0
 13
0.0
 23
0.0
 33
0.0
 16
1.0
 26
0.0
 36
0.0
 17
0.0
 27
1.0
 37
0.0
 76
0
330
210
345
0
346
0
  0
LAYOUT
  5
26D
102
{ACAD_REACTORS
330
1A
102
}
100
AcDbPlotSettings
  1

  2
none_device
  4

  6

 40
0.0
 41
0.0
 42
0.0
 43
0.0
 44
210.0
 45
297.0
 46
0.0
 47
0.0
 48
0.0
 49
0.0
140
0.0
141
0.0
142
1.0
143
1.0
 70
0
 72
1
 73
0
 74
0
  7

 75
0
147
1.0
148
0.0
149
0.0
100
AcDbLayout
  1
Layout1
 70
0
 71
1
 10
0.0
 20
0.0
 11
210.0
 21
297.0
 12
0.0
 22
0.0
 32
0.0
 14
0.0
 24
0.0
 34
0.0
 15
0.0
 25
0.0
 35
0.0
146
0.0
 13
0.0
 23
0.0
 33
0.0
 16
1.0
 26
0.0
 36
0.0
 17
0.0
 27
1.0
 37
0.0
 76
0
330
211
345
0
346
0
  0
ENDSEC
  0
EOF
