999
DXF file: C:\Users\sesa63760\Dev\_Creo\CAD\MCADPD0005208_3D-CAD\drw0001_4.dxf
999
Pro/ENGINEER 2019471 by Parametric Technology Corporation
  0
SECTION
  2
HEADER
  9
$ACADVER
  1
AC1024
  9
$DWGCODEPAGE
  3
ANSI_1252
  9
$EXTMAX
 10
27.6383473528
 20
39.0885198276
 30
0.0
  9
$EXTMIN
 10
0.0
 20
0.0
 30
0.0
  9
$LIMMIN
 10
0.0
 20
0.0
  9
$LIMMAX
 10
27.6383473528
 20
39.0885198276
  9
$VIEWCTR
 10
13.8191736764
 20
19.5442599138
  9
$VIEWSIZE
 40
39.0885198276
  9
$CLAYER
  8
0
  9
$LTSCALE
 40
2.5479924036
  9
$CELTYPE
  6
BYLAYER
  9
$DIMSCALE
 40
1.0
  9
$DIMASZ
 40
0.3290279447
  9
$DIMEXO
 40
1.0
  9
$DIMDLI
 40
1.7604311152
  9
$DIMEXE
 40
1.0
  9
$DIMCEN
 40
0.4169442115
  9
$DIMLFAC
 40
1.0
  9
$DIMBLK
  1
_FILLED
  9
$DIMALT
 70
0
  9
$DIMALTF
 40
0.0393700787
  9
$DIMTXT
 40
0.4606391225
  9
$DIMTOL
 70
1
  9
$DIMLIM
 70
0
  9
$DIMTFAC
 40
1.0
  9
$DIMTP
 40
0.01
  9
$DIMTM
 40
0.01
  9
$DIMGAP
 40
0.625
  9
$DIMDSEP
 70
46
  9
$AUNITS
 70
0
  9
$PDMODE
 70
3
  9
$PDSIZE
 40
0.3125
  9
$HANDSEED
  5
379
  9
$TILEMODE
 70
1
  9
$MEASUREMENT
 70
1
  9
$INSUNITS
 70
4
  0
ENDSEC
  0
SECTION
  2
CLASSES
  0
CLASS
  1
ACDBDICTIONARYWDFLT
  2
AcDbDictionaryWithDefault
  3
AutoCAD 2000
 90
0
 91
1
280
0
281
0
  0
CLASS
  1
ACDBPLACEHOLDER
  2
AcDbPlaceHolder
  3
AutoCAD 2000
 90
0
 91
1
280
0
281
0
  0
CLASS
  1
LAYOUT
  2
AcDbLayout
  3
AutoCAD 2000
 90
0
 91
0
280
0
281
0
  0
ENDSEC
  0
SECTION
  2
TABLES
  0
TABLE
  2
VPORT
  5
8
100
AcDbSymbolTable
 70
2
  0
VPORT
  5
1F4
100
AcDbSymbolTableRecord
100
AcDbViewportTableRecord
  2
*ACTIVE
 70
0
 10
0.0
 20
0.0
 11
1.0
 21
1.0
 12
13.8191736764
 22
19.5442599138
 13
0.0
 23
0.0
 14
1.0
 24
1.0
 15
0.0
 25
0.0
 16
0.0
 26
0.0
 36
1.0
 17
0.0
 27
0.0
 37
0.0
 40
39.0885198276
 41
0.7070707071
 42
50.0
 43
0.0
 44
0.0
 50
0.0
 51
0.0
 71
0
 72
100
 73
1
 74
1
 75
0
 76
0
 77
0
 78
0
  0
ENDTAB
  0
TABLE
  2
LTYPE
  5
5
100
AcDbSymbolTable
 70
6
  0
LTYPE
  5
14
100
AcDbSymbolTableRecord
100
AcDbLinetypeTableRecord
  2
BYBLOCK
 70
0
  3

 72
65
 73
0
 40
0.0
  0
LTYPE
  5
15
100
AcDbSymbolTableRecord
100
AcDbLinetypeTableRecord
  2
BYLAYER
 70
0
  3

 72
65
 73
0
 40
0.0
  0
LTYPE
  5
16
100
AcDbSymbolTableRecord
100
AcDbLinetypeTableRecord
  2
CONTINUOUS
 70
64
  3
Solid line
 72
65
 73
0
 40
0.0
  0
LTYPE
  5
1F5
100
AcDbSymbolTableRecord
100
AcDbLinetypeTableRecord
  2
CENTER
 70
64
  3
____ _ ____ _ ____ _ ____ _ ____ _ ____ _ ____
 72
65
 73
4
 40
0.6
 49
0.375
 74
0
 49
-0.075
 74
0
 49
0.075
 74
0
 49
-0.075
 74
0
  0
LTYPE
  5
1F6
100
AcDbSymbolTableRecord
100
AcDbLinetypeTableRecord
  2
HIDDEN
 70
64
  3
- - - - - - - - - - - - - - - - - - - -
 72
65
 73
2
 40
0.2
 49
0.1
 74
0
 49
-0.1
 74
0
  0
LTYPE
  5
1F7
100
AcDbSymbolTableRecord
100
AcDbLinetypeTableRecord
  2
PHANTOM
 70
64
  3
_____ _ _ _____ _ _ _____ _ _ _____
 72
65
 73
6
 40
0.8
 49
0.45
 74
0
 49
-0.05
 74
0
 49
0.1
 74
0
 49
-0.05
 74
0
 49
0.1
 74
0
 49
-0.05
 74
0
  0
LTYPE
  5
1F8
100
AcDbSymbolTableRecord
100
AcDbLinetypeTableRecord
  2
DOT
 70
64
  3
. . . . . . . . . . . . . . . . . . . .
 72
65
 73
2
 40
0.2
 49
0.1
 74
0
 49
-0.1
 74
0
  0
LTYPE
  5
1F9
100
AcDbSymbolTableRecord
100
AcDbLinetypeTableRecord
  2
DASHED
 70
64
  3
- - - - - - - - - - - - - - - - - - - -
 72
65
 73
2
 40
0.2
 49
0.1
 74
0
 49
-0.1
 74
0
  0
ENDTAB
  0
TABLE
  2
LAYER
  5
2
100
AcDbSymbolTable
 70
36
  0
LAYER
  5
10
100
AcDbSymbolTableRecord
100
AcDbLayerTableRecord
  2
0
 70
0
 62
7
  6
CONTINUOUS
370
-3
390
F
  0
LAYER
  5
1FA
100
AcDbSymbolTableRecord
100
AcDbLayerTableRecord
  2
DEFAULT_1
 70
0
 62
7
  6
CENTER
370
-3
390
F
  0
LAYER
  5
1FB
100
AcDbSymbolTableRecord
100
AcDbLayerTableRecord
  2
DEFAULT_2
 70
0
 62
7
  6
HIDDEN
370
-3
390
F
  0
LAYER
  5
1FC
100
AcDbSymbolTableRecord
100
AcDbLayerTableRecord
  2
DEFAULT_3
 70
0
 62
7
  6
PHANTOM
370
-3
390
F
  0
LAYER
  5
1FD
100
AcDbSymbolTableRecord
100
AcDbLayerTableRecord
  2
00_COMPONENTS
 70
0
 62
7
  6
CONTINUOUS
370
-3
390
F
  0
LAYER
  5
1FE
100
AcDbSymbolTableRecord
100
AcDbLayerTableRecord
  2
00_COMPONENTS_2
 70
0
 62
7
  6
CONTINUOUS
370
-3
390
F
  0
LAYER
  5
1FF
100
AcDbSymbolTableRecord
100
AcDbLayerTableRecord
  2
01_1_DEFAULT_DATUMS
 70
0
 62
7
  6
CONTINUOUS
370
-3
390
F
  0
LAYER
  5
200
100
AcDbSymbolTableRecord
100
AcDbLayerTableRecord
  2
01_PLANES
 70
0
 62
7
  6
CONTINUOUS
370
-3
390
F
  0
LAYER
  5
201
100
AcDbSymbolTableRecord
100
AcDbLayerTableRecord
  2
02_COORD_SYS
 70
0
 62
7
  6
CONTINUOUS
370
-3
390
F
  0
LAYER
  5
202
100
AcDbSymbolTableRecord
100
AcDbLayerTableRecord
  2
03_AXES
 70
0
 62
7
  6
CONTINUOUS
370
-3
390
F
  0
LAYER
  5
203
100
AcDbSymbolTableRecord
100
AcDbLayerTableRecord
  2
04_POINTS
 70
0
 62
7
  6
CONTINUOUS
370
-3
390
F
  0
LAYER
  5
204
100
AcDbSymbolTableRecord
100
AcDbLayerTableRecord
  2
05_CURVES
 70
0
 62
7
  6
CONTINUOUS
370
-3
390
F
  0
LAYER
  5
205
100
AcDbSymbolTableRecord
100
AcDbLayerTableRecord
  2
06_SURFS
 70
0
 62
7
  6
CONTINUOUS
370
-3
390
F
  0
LAYER
  5
206
100
AcDbSymbolTableRecord
100
AcDbLayerTableRecord
  2
07_COSMETICS
 70
0
 62
7
  6
CONTINUOUS
370
-3
390
F
  0
LAYER
  5
207
100
AcDbSymbolTableRecord
100
AcDbLayerTableRecord
  2
10_NOTES
 70
0
 62
7
  6
CONTINUOUS
370
-3
390
F
  0
LAYER
  5
208
100
AcDbSymbolTableRecord
100
AcDbLayerTableRecord
  2
11_NOTES_PUB
 70
0
 62
7
  6
CONTINUOUS
370
-3
390
F
  0
LAYER
  5
209
100
AcDbSymbolTableRecord
100
AcDbLayerTableRecord
  2
13_REF_GTOL
 70
0
 62
7
  6
CONTINUOUS
370
-3
390
F
  0
LAYER
  5
20A
100
AcDbSymbolTableRecord
100
AcDbLayerTableRecord
  2
16_MISC
 70
0
 62
7
  6
CONTINUOUS
370
-3
390
F
  0
LAYER
  5
20B
100
AcDbSymbolTableRecord
100
AcDbLayerTableRecord
  2
17_NO_PRINT
 70
0
 62
7
  6
CONTINUOUS
370
-3
390
F
  0
LAYER
  5
20C
100
AcDbSymbolTableRecord
100
AcDbLayerTableRecord
  2
18_DATUM_CAMS_JOINTS
 70
0
 62
7
  6
CONTINUOUS
370
-3
390
F
  0
LAYER
  5
20D
100
AcDbSymbolTableRecord
100
AcDbLayerTableRecord
  2
19_DATUM_FUNCTIONAL
 70
0
 62
7
  6
CONTINUOUS
370
-3
390
F
  0
LAYER
  5
20E
100
AcDbSymbolTableRecord
100
AcDbLayerTableRecord
  2
20_DATUM_KINEMATIC_SCHEME
 70
0
 62
7
  6
CONTINUOUS
370
-3
390
F
  0
ENDTAB
  0
TABLE
  2
STYLE
  5
3
100
AcDbSymbolTable
 70
1
  0
STYLE
  5
11
100
AcDbSymbolTableRecord
100
AcDbTextStyleTableRecord
  2
STANDARD
 70
0
 40
0.0
 41
1.0
 50
0.0
 71
0
 42
0.2
  3
ARIAL.TTF
  4

  0
STYLE
  5
20F
100
AcDbSymbolTableRecord
100
AcDbTextStyleTableRecord
  2
TEXTSTYLE_1
 70
0
 40
0.0
 41
0.8
 50
0.0
 71
0
 42
0.2
  3
gdt
  4

  0
ENDTAB
  0
TABLE
  2
VIEW
  5
6
100
AcDbSymbolTable
 70
0
  0
ENDTAB
  0
TABLE
  2
UCS
  5
7
100
AcDbSymbolTable
 70
0
  0
ENDTAB
  0
TABLE
  2
APPID
  5
9
100
AcDbSymbolTable
 70
1
  0
APPID
  5
210
100
AcDbSymbolTableRecord
100
AcDbRegAppTableRecord
  2
ACAD
 70
0
  0
ENDTAB
  0
TABLE
  2
BLOCK_RECORD
  5
1
100
AcDbSymbolTable
 70
0
  0
BLOCK_RECORD
  5
211
100
AcDbSymbolTableRecord
100
AcDbBlockTableRecord
  2
*Model_Space
  0
BLOCK_RECORD
  5
212
100
AcDbSymbolTableRecord
100
AcDbBlockTableRecord
  2
*Paper_Space
  0
BLOCK_RECORD
  5
213
100
AcDbSymbolTableRecord
100
AcDbBlockTableRecord
  2
_FILLED
  0
ENDTAB
  0
TABLE
  2
DIMSTYLE
  5
A
100
AcDbSymbolTable
 70
1
100
AcDbDimStyleTable
 71
0
  0
DIMSTYLE
105
214
100
AcDbSymbolTableRecord
100
AcDbDimStyleTableRecord
  2
STANDARD
 70
0
  3

  4

 40
1.0
 41
0.3290279447
 42
1.0
 43
0.38
 44
1.0
 45
0.0
 46
0.0
 47
0.01
 48
0.01
140
0.4606391225
141
0.09
142
0.0
143
25.4
144
1.0
145
0.0
146
1.0
147
0.625
 71
1
 72
0
 73
0
 74
0
 75
0
 76
0
 77
1
 78
8
 79
2
170
0
171
1
172
0
173
0
174
0
175
0
176
0
177
0
178
0
270
2
179
2
271
2
272
2
273
2
274
2
275
0
280
0
281
0
282
0
283
1
284
8
285
0
286
0
287
3
288
0
340
11
278
46
341
213
342
213
343
213
344
213
  0
ENDTAB
  0
ENDSEC
  0
SECTION
  2
BLOCKS
  0
BLOCK
  5
20
100
AcDbEntity
  8
0
100
AcDbBlockBegin
  2
*Model_Space
 70
0
 10
0.0
 20
0.0
 30
0.0
  3
*Model_Space
  1

  0
ENDBLK
  5
21
100
AcDbEntity
  8
0
100
AcDbBlockEnd
  0
BLOCK
  5
1C
100
AcDbEntity
  8
0
100
AcDbBlockBegin
  2
*Paper_Space
 70
0
 10
0.0
 20
0.0
 30
0.0
  3
*Paper_Space
  1

  0
ENDBLK
  5
1D
100
AcDbEntity
  8
0
100
AcDbBlockEnd
  0
BLOCK
  5
215
100
AcDbEntity
  8
0
100
AcDbBlockBegin
  2
_FILLED
 70
64
 10
0.0
 20
0.0
  3
_FILLED
  1

  0
SOLID
  5
216
100
AcDbEntity
  8
0
  6
BYBLOCK
 62
0
100
AcDbTrace
 10
0.0
 20
0.0
 11
-1.0
 21
0.25
 12
-1.0
 22
-0.25
 13
-1.0
 23
-0.25
  0
ENDBLK
  5
217
100
AcDbEntity
  8
0
  6
BYBLOCK
 62
0
100
AcDbBlockEnd
  0
ENDSEC
  0
SECTION
  2
ENTITIES
  0
LINE
  5
218
100
AcDbEntity
  8
00_COMPONENTS
100
AcDbLine
 62
7
  6
BYLAYER
 10
3.0782034178
 20
11.18235
 11
3.0782034178
 21
13.3666961117
  0
LINE
  5
219
100
AcDbEntity
  8
00_COMPONENTS
100
AcDbLine
 62
7
  6
BYLAYER
 10
6.2474607037
 20
27.0545674784
 11
6.1770034178
 21
27.0220747106
  0
LINE
  5
21A
100
AcDbEntity
  8
00_COMPONENTS
100
AcDbLine
 62
7
  6
BYLAYER
 10
7.447299629
 20
26.1966880992
 11
7.5162401477
 21
26.3158317051
  0
LINE
  5
21B
100
AcDbEntity
  8
00_COMPONENTS
100
AcDbLine
 62
7
  6
BYLAYER
 10
6.2605991736
 20
23.4222434679
 11
6.1770034178
 21
23.3488862748
  0
LINE
  5
21C
100
AcDbEntity
  8
00_COMPONENTS
100
AcDbLine
 62
7
  6
BYLAYER
 10
25.2778034178
 20
11.18235
 11
3.0782034178
 21
11.18235
  0
LINE
  5
21D
100
AcDbEntity
  8
00_COMPONENTS
100
AcDbLine
 62
7
  6
BYLAYER
 10
7.007866912
 20
13.0021189396
 11
7.1001997192
 21
12.955956052
  0
LINE
  5
21E
100
AcDbEntity
  8
00_COMPONENTS
100
AcDbLine
 62
7
  6
BYLAYER
 10
7.4811997214
 20
13.3369125317
 11
7.3708034178
 21
13.3921209862
  0
LINE
  5
21F
100
AcDbEntity
  8
00_COMPONENTS
100
AcDbLine
 62
7
  6
BYLAYER
 10
6.6415846663
 20
26.6629020185
 11
6.6432353957
 21
23.044154442
  0
LINE
  5
220
100
AcDbEntity
  8
00_COMPONENTS
100
AcDbLine
 62
7
  6
BYLAYER
 10
6.1770034178
 20
23.3488862748
 11
6.1770034178
 21
27.0220747106
  0
LINE
  5
221
100
AcDbEntity
  8
00_COMPONENTS
100
AcDbLine
 62
7
  6
BYLAYER
 10
6.2605991736
 20
23.4222434679
 11
6.2605991736
 21
26.8867802168
  0
LINE
  5
222
100
AcDbEntity
  8
00_COMPONENTS
100
AcDbLine
 62
7
  6
BYLAYER
 10
6.247492051
 20
27.058171198
 11
6.2474607037
 21
27.0545674784
  0
LINE
  5
223
100
AcDbEntity
  8
00_COMPONENTS
100
AcDbLine
 62
7
  6
BYLAYER
 10
7.6728938444
 20
24.2171010124
 11
7.6048946216
 21
24.0974176817
  0
LINE
  5
224
100
AcDbEntity
  8
00_COMPONENTS
100
AcDbLine
 62
7
  6
BYLAYER
 10
6.5579906872
 20
22.9679006733
 11
6.6432353957
 21
23.0441508706
  0
LINE
  5
225
100
AcDbEntity
  8
00_COMPONENTS
100
AcDbLine
 62
7
  6
BYLAYER
 10
18.9278034178
 20
11.2758915505
 11
9.4282034178
 21
11.2758915505
  0
LINE
  5
226
100
AcDbEntity
  8
00_COMPONENTS
100
AcDbLine
 62
7
  6
BYLAYER
 10
7.3708034178
 20
13.3921209862
 11
7.3708034178
 21
22.5869278015
  0
LINE
  5
227
100
AcDbEntity
  8
00_COMPONENTS
100
AcDbLine
 62
7
  6
BYLAYER
 10
7.4343034178
 20
25.33015
 11
7.4343034178
 21
24.26335
  0
LINE
  5
228
100
AcDbEntity
  8
00_COMPONENTS
100
AcDbLine
 62
7
  6
BYLAYER
 10
7.4811997214
 20
13.3369048651
 11
7.4811997214
 21
22.6353821637
  0
LINE
  5
229
100
AcDbEntity
  8
00_COMPONENTS
100
AcDbLine
 62
7
  6
BYLAYER
 10
18.9278034179
 20
12.9176083935
 11
9.4282034177
 21
12.9176083935
  0
LINE
  5
22A
100
AcDbEntity
  8
00_COMPONENTS
100
AcDbLine
 62
7
  6
BYLAYER
 10
7.1001997192
 20
12.955956052
 11
9.1953647449
 21
12.955956052
  0
LINE
  5
22B
100
AcDbEntity
  8
00_COMPONENTS
100
AcDbLine
 62
7
  6
BYLAYER
 10
19.1606420907
 20
12.955956052
 11
21.2558071164
 21
12.955956052
  0
LINE
  5
22C
100
AcDbEntity
  8
00_COMPONENTS
100
AcDbLine
 62
7
  6
BYLAYER
 10
25.2778034178
 20
13.0021189396
 11
21.3481399236
 21
13.0021189396
  0
LINE
  5
22D
100
AcDbEntity
  8
00_COMPONENTS
100
AcDbLine
 62
7
  6
BYLAYER
 10
7.007866912
 20
13.0021189396
 11
3.0782034178
 21
13.0021189396
  0
LINE
  5
22E
100
AcDbEntity
  8
00_COMPONENTS
100
AcDbLine
 62
7
  6
BYLAYER
 10
19.0437969687
 20
13.072801174
 11
9.3122098669
 21
13.072801174
  0
LINE
  5
22F
100
AcDbEntity
  8
00_COMPONENTS
100
AcDbLine
 62
7
  6
BYLAYER
 10
8.1963034178
 20
26.09215
 11
8.1963034178
 21
27.66695
  0
LINE
  5
230
100
AcDbEntity
  8
00_COMPONENTS
100
AcDbLine
 62
7
  6
BYLAYER
 10
7.1001926117
 20
23.0163345568
 11
6.9898071166
 21
22.9679006733
  0
LINE
  5
231
100
AcDbEntity
  8
00_COMPONENTS
100
AcDbLine
 62
7
  6
BYLAYER
 10
7.3708034178
 20
22.5869278015
 11
7.4811997214
 21
22.635374306
  0
LINE
  5
232
100
AcDbEntity
  8
00_COMPONENTS
100
AcDbLine
 62
7
  6
BYLAYER
 10
3.0782034178
 20
13.3667006733
 11
7.3708034178
 21
13.3667006733
  0
LINE
  5
233
100
AcDbEntity
  8
00_COMPONENTS
100
AcDbLine
 62
7
  6
BYLAYER
 10
20.9852034178
 20
13.3667006733
 11
25.2778034178
 21
13.3667006733
  0
LINE
  5
234
100
AcDbEntity
  8
00_COMPONENTS
100
AcDbLine
 62
7
  6
BYLAYER
 10
8.9312243743
 20
13.4537866667
 11
19.4247824613
 21
13.4537866667
  0
LINE
  5
235
100
AcDbEntity
  8
00_COMPONENTS
100
AcDbLine
 62
7
  6
BYLAYER
 10
18.6484034178
 20
13.49375
 11
9.7076034178
 21
13.49375
  0
LINE
  5
236
100
AcDbEntity
  8
00_COMPONENTS
100
AcDbLine
 62
7
  6
BYLAYER
 10
9.3266034178
 20
13.87475
 11
19.0294034178
 21
13.87475
  0
LINE
  5
237
100
AcDbEntity
  8
00_COMPONENTS
100
AcDbLine
 62
7
  6
BYLAYER
 10
8.8143792522
 20
19.3860926515
 11
8.8143792522
 21
13.3369415447
  0
LINE
  5
238
100
AcDbEntity
  8
00_COMPONENTS
100
AcDbLine
 62
7
  6
BYLAYER
 10
8.822299844
 20
23.8580674679
 11
8.822299844
 21
24.26335
  0
LINE
  5
239
100
AcDbEntity
  8
00_COMPONENTS
100
AcDbLine
 62
7
  6
BYLAYER
 10
8.9312243743
 20
13.4537866667
 11
8.9312243743
 21
18.6845070842
  0
LINE
  5
23A
100
AcDbEntity
  8
00_COMPONENTS
100
AcDbLine
 62
7
  6
BYLAYER
 10
9.3122098669
 20
19.064984937
 11
9.3122098669
 21
13.072801174
  0
LINE
  5
23B
100
AcDbEntity
  8
00_COMPONENTS
100
AcDbLine
 62
7
  6
BYLAYER
 10
9.3266034178
 20
18.57375
 11
9.3266034178
 21
13.87475
  0
LINE
  5
23C
100
AcDbEntity
  8
00_COMPONENTS
100
AcDbLine
 62
7
  6
BYLAYER
 10
9.4282034178
 20
12.9176084495
 11
9.4282034178
 21
11.2758915505
  0
LINE
  5
23D
100
AcDbEntity
  8
00_COMPONENTS
100
AcDbLine
 62
7
  6
BYLAYER
 10
17.9880034178
 20
14.38275
 11
10.3097883791
 21
14.38275
  0
LINE
  5
23E
100
AcDbEntity
  8
00_COMPONENTS
100
AcDbLine
 62
7
  6
BYLAYER
 10
8.8143792522
 20
19.3862013821
 11
8.9312243743
 21
18.6845070842
  0
LINE
  5
23F
100
AcDbEntity
  8
00_COMPONENTS
100
AcDbLine
 62
7
  6
BYLAYER
 10
9.3122098669
 20
19.064984937
 11
9.1952197463
 21
19.76755
  0
LINE
  5
240
100
AcDbEntity
  8
00_COMPONENTS
100
AcDbLine
 62
7
  6
BYLAYER
 10
9.7076034178
 20
18.5071921203
 11
9.7076034178
 21
13.49375
  0
LINE
  5
241
100
AcDbEntity
  8
00_COMPONENTS
100
AcDbLine
 62
7
  6
BYLAYER
 10
10.2396811647
 20
23.5933823544
 11
10.2396811647
 21
26.04135
  0
LINE
  5
242
100
AcDbEntity
  8
00_COMPONENTS
100
AcDbLine
 62
7
  6
BYLAYER
 10
10.3097883791
 20
14.38275
 11
10.3097883791
 21
17.9436613223
  0
LINE
  5
243
100
AcDbEntity
  8
00_COMPONENTS
100
AcDbLine
 62
7
  6
BYLAYER
 10
10.3707121261
 20
24.69515
 11
10.3707121261
 21
27.05735
  0
LINE
  5
244
100
AcDbEntity
  8
00_COMPONENTS
100
AcDbLine
 62
7
  6
BYLAYER
 10
10.4696034178
 20
23.55215
 11
10.4696034178
 21
24.31415
  0
LINE
  5
245
100
AcDbEntity
  8
00_COMPONENTS
100
AcDbLine
 62
7
  6
BYLAYER
 10
10.2396811647
 20
26.04135
 11
10.2891268105
 21
27.05735
  0
LINE
  5
246
100
AcDbEntity
  8
00_COMPONENTS
100
AcDbLine
 62
7
  6
BYLAYER
 10
11.1935034178
 20
16.3590861696
 11
11.0929617463
 21
16.4206946783
  0
LINE
  5
247
100
AcDbEntity
  8
00_COMPONENTS
100
AcDbLine
 62
7
  6
BYLAYER
 10
11.1532867463
 20
16.5028393565
 11
11.2136117607
 21
16.461767021
  0
LINE
  5
248
100
AcDbEntity
  8
00_COMPONENTS
100
AcDbLine
 62
7
  6
BYLAYER
 10
11.0929617463
 20
16.4206946783
 11
11.0326367535
 21
16.4823031887
  0
LINE
  5
249
100
AcDbEntity
  8
00_COMPONENTS
100
AcDbLine
 62
7
  6
BYLAYER
 10
11.0728534178
 20
16.6260563775
 11
11.1532867463
 21
16.5028393565
  0
LINE
  5
24A
100
AcDbEntity
  8
00_COMPONENTS
100
AcDbLine
 62
7
  6
BYLAYER
 10
11.0326367535
 20
16.4823031887
 11
10.9924200857
 21
16.5644478742
  0
LINE
  5
24B
100
AcDbEntity
  8
00_COMPONENTS
100
AcDbLine
 62
7
  6
BYLAYER
 10
10.9924200857
 20
16.5644478742
 11
10.9723117517
 21
16.6260563775
  0
LINE
  5
24C
100
AcDbEntity
  8
00_COMPONENTS
100
AcDbLine
 62
7
  6
BYLAYER
 10
10.9723117517
 20
16.6260563775
 11
10.9522034178
 21
16.7287372451
  0
LINE
  5
24D
100
AcDbEntity
  8
00_COMPONENTS
100
AcDbLine
 62
7
  6
BYLAYER
 10
10.8252034178
 20
19.4360917591
 11
10.8252034178
 21
21.39315
  0
LINE
  5
24E
100
AcDbEntity
  8
00_COMPONENTS
100
AcDbLine
 62
7
  6
BYLAYER
 10
10.9522034178
 20
16.7287372451
 11
10.9522034178
 21
16.9135627549
  0
LINE
  5
24F
100
AcDbEntity
  8
00_COMPONENTS
100
AcDbLine
 62
7
  6
BYLAYER
 10
11.0527450821
 20
16.8930265872
 11
11.0527450821
 21
16.7492734128
  0
LINE
  5
250
100
AcDbEntity
  8
00_COMPONENTS
100
AcDbLine
 62
7
  6
BYLAYER
 10
11.0728534178
 20
17.0162435938
 11
11.0527450821
 21
16.8930265872
  0
LINE
  5
251
100
AcDbEntity
  8
00_COMPONENTS
100
AcDbLine
 62
7
  6
BYLAYER
 10
10.9522034178
 20
16.9135627549
 11
10.9723117517
 21
17.0162435938
  0
LINE
  5
252
100
AcDbEntity
  8
00_COMPONENTS
100
AcDbLine
 62
7
  6
BYLAYER
 10
14.4108366744
 20
16.4412308532
 11
14.5113784178
 21
16.461767021
  0
LINE
  5
253
100
AcDbEntity
  8
00_COMPONENTS
100
AcDbLine
 62
7
  6
BYLAYER
 10
14.5314866744
 20
16.3590861696
 11
14.4108366744
 21
16.33855
  0
LINE
  5
254
100
AcDbEntity
  8
00_COMPONENTS
100
AcDbLine
 62
7
  6
BYLAYER
 10
17.2058949311
 20
16.33855
 11
17.0852449311
 21
16.33855
  0
LINE
  5
255
100
AcDbEntity
  8
00_COMPONENTS
100
AcDbLine
 62
7
  6
BYLAYER
 10
16.8037284178
 20
16.33855
 11
16.7031869045
 21
16.33855
  0
LINE
  5
256
100
AcDbEntity
  8
00_COMPONENTS
100
AcDbLine
 62
7
  6
BYLAYER
 10
16.5423199311
 20
16.33855
 11
16.4216699311
 21
16.33855
  0
LINE
  5
257
100
AcDbEntity
  8
00_COMPONENTS
100
AcDbLine
 62
7
  6
BYLAYER
 10
15.1749534178
 20
16.33855
 11
15.0543034178
 21
16.33855
  0
LINE
  5
258
100
AcDbEntity
  8
00_COMPONENTS
100
AcDbLine
 62
7
  6
BYLAYER
 10
13.4456366744
 20
16.33855
 11
12.7217367895
 21
16.33855
  0
LINE
  5
259
100
AcDbEntity
  8
00_COMPONENTS
100
AcDbLine
 62
7
  6
BYLAYER
 10
12.5608700461
 20
16.33855
 11
11.8369701036
 21
16.33855
  0
LINE
  5
25A
100
AcDbEntity
  8
00_COMPONENTS
100
AcDbLine
 62
7
  6
BYLAYER
 10
11.9978367895
 20
16.4412308532
 11
12.5608700461
 21
16.4412308532
  0
LINE
  5
25B
100
AcDbEntity
  8
00_COMPONENTS
100
AcDbLine
 62
7
  6
BYLAYER
 10
12.8826034178
 20
16.4412308532
 11
13.4456366744
 21
16.4412308532
  0
LINE
  5
25C
100
AcDbEntity
  8
00_COMPONENTS
100
AcDbLine
 62
7
  6
BYLAYER
 10
16.7031869045
 20
16.4412308532
 11
16.8037284178
 21
16.4412308532
  0
LINE
  5
25D
100
AcDbEntity
  8
00_COMPONENTS
100
AcDbLine
 62
7
  6
BYLAYER
 10
13.8880201612
 20
16.6876648808
 11
13.6065034178
 21
16.6876648808
  0
LINE
  5
25E
100
AcDbEntity
  8
00_COMPONENTS
100
AcDbLine
 62
7
  6
BYLAYER
 10
11.3141534178
 20
16.33855
 11
11.1935034178
 21
16.3590861696
  0
LINE
  5
25F
100
AcDbEntity
  8
00_COMPONENTS
100
AcDbLine
 62
7
  6
BYLAYER
 10
14.4108366744
 20
16.33855
 11
14.2901866744
 21
16.3590861696
  0
LINE
  5
260
100
AcDbEntity
  8
00_COMPONENTS
100
AcDbLine
 62
7
  6
BYLAYER
 10
11.2136117607
 20
16.461767021
 11
11.3141534178
 21
16.4412308532
  0
LINE
  5
261
100
AcDbEntity
  8
00_COMPONENTS
100
AcDbLine
 62
7
  6
BYLAYER
 10
14.3102951612
 20
16.461767021
 11
14.4108366744
 21
16.4412308532
  0
LINE
  5
262
100
AcDbEntity
  8
00_COMPONENTS
100
AcDbLine
 62
7
  6
BYLAYER
 10
11.4146950749
 20
17.1805329934
 11
11.3141534178
 21
17.2010691612
  0
LINE
  5
263
100
AcDbEntity
  8
00_COMPONENTS
100
AcDbLine
 62
7
  6
BYLAYER
 10
12.3798950461
 20
17.2832138322
 11
12.4603284178
 21
17.2421414967
  0
LINE
  5
264
100
AcDbEntity
  8
00_COMPONENTS
100
AcDbLine
 62
7
  6
BYLAYER
 10
11.4348034178
 20
17.2832138322
 11
11.5353451036
 21
17.2216053289
  0
LINE
  5
265
100
AcDbEntity
  8
00_COMPONENTS
100
AcDbLine
 62
7
  6
BYLAYER
 10
11.4750201036
 20
17.1394606579
 11
11.4146950749
 21
17.1805329934
  0
LINE
  5
266
100
AcDbEntity
  8
00_COMPONENTS
100
AcDbLine
 62
7
  6
BYLAYER
 10
12.4000034178
 20
17.1394606579
 11
12.3396784178
 21
17.1805329934
  0
LINE
  5
267
100
AcDbEntity
  8
00_COMPONENTS
100
AcDbLine
 62
7
  6
BYLAYER
 10
11.5353451036
 20
17.2216053289
 11
11.5956701036
 21
17.1599968256
  0
LINE
  5
268
100
AcDbEntity
  8
00_COMPONENTS
100
AcDbLine
 62
7
  6
BYLAYER
 10
12.4603284178
 20
17.2421414967
 11
12.5407617895
 21
17.1599968256
  0
LINE
  5
269
100
AcDbEntity
  8
00_COMPONENTS
100
AcDbLine
 62
7
  6
BYLAYER
 10
11.5554534178
 20
17.0162435938
 11
11.4750201036
 21
17.1394606579
  0
LINE
  5
26A
100
AcDbEntity
  8
00_COMPONENTS
100
AcDbLine
 62
7
  6
BYLAYER
 10
12.4402200461
 20
17.0778521546
 11
12.4000034178
 21
17.1394606579
  0
LINE
  5
26B
100
AcDbEntity
  8
00_COMPONENTS
100
AcDbLine
 62
7
  6
BYLAYER
 10
6.2605991736
 20
26.8867802168
 11
6.1770034178
 21
27.0220747106
  0
LINE
  5
26C
100
AcDbEntity
  8
00_COMPONENTS
100
AcDbLine
 62
7
  6
BYLAYER
 10
11.5956701036
 20
17.1599968256
 11
11.635886732
 21
17.0778521546
  0
LINE
  5
26D
100
AcDbEntity
  8
00_COMPONENTS
100
AcDbLine
 62
7
  6
BYLAYER
 10
11.635886732
 20
17.0778521546
 11
11.6559951036
 21
17.0162435938
  0
LINE
  5
26E
100
AcDbEntity
  8
00_COMPONENTS
100
AcDbLine
 62
7
  6
BYLAYER
 10
11.6559951036
 20
17.0162435938
 11
11.6761034178
 21
16.9135627549
  0
LINE
  5
26F
100
AcDbEntity
  8
00_COMPONENTS
100
AcDbLine
 62
7
  6
BYLAYER
 10
11.0527450821
 20
16.7492734128
 11
11.0728534178
 21
16.6260563775
  0
LINE
  5
270
100
AcDbEntity
  8
00_COMPONENTS
100
AcDbLine
 62
7
  6
BYLAYER
 10
11.575561732
 20
16.8930265872
 11
11.5554534178
 21
17.0162435938
  0
LINE
  5
271
100
AcDbEntity
  8
00_COMPONENTS
100
AcDbLine
 62
7
  6
BYLAYER
 10
11.575561732
 20
16.7492734128
 11
11.575561732
 21
16.8930265872
  0
LINE
  5
272
100
AcDbEntity
  8
00_COMPONENTS
100
AcDbLine
 62
7
  6
BYLAYER
 10
11.6761034178
 20
16.9135627549
 11
11.6761034178
 21
16.7287372451
  0
LINE
  5
273
100
AcDbEntity
  8
00_COMPONENTS
100
AcDbLine
 62
7
  6
BYLAYER
 10
11.8369701036
 20
16.33855
 11
11.8369701036
 21
16.4412308532
  0
LINE
  5
274
100
AcDbEntity
  8
00_COMPONENTS
100
AcDbLine
 62
7
  6
BYLAYER
 10
12.4402200461
 20
17.0367797615
 11
12.4402200461
 21
17.0778521546
  0
LINE
  5
275
100
AcDbEntity
  8
00_COMPONENTS
100
AcDbLine
 62
7
  6
BYLAYER
 10
11.5554534178
 20
16.6260563775
 11
11.575561732
 21
16.7492734128
  0
LINE
  5
276
100
AcDbEntity
  8
00_COMPONENTS
100
AcDbLine
 62
7
  6
BYLAYER
 10
11.6761034178
 20
16.7287372451
 11
11.6559951036
 21
16.6260563775
  0
LINE
  5
277
100
AcDbEntity
  8
00_COMPONENTS
100
AcDbLine
 62
7
  6
BYLAYER
 10
10.9723117517
 20
17.0162435938
 11
10.9924200857
 21
17.0778521546
  0
LINE
  5
278
100
AcDbEntity
  8
00_COMPONENTS
100
AcDbLine
 62
7
  6
BYLAYER
 10
10.9924200857
 20
17.0778521546
 11
11.0326367535
 21
17.1599968256
  0
LINE
  5
279
100
AcDbEntity
  8
00_COMPONENTS
100
AcDbLine
 62
7
  6
BYLAYER
 10
21.2419042139
 20
26.5485220742
 11
22.1085461319
 21
27.0545674784
  0
LINE
  5
27A
100
AcDbEntity
  8
00_COMPONENTS
100
AcDbLine
 62
7
  6
BYLAYER
 10
21.2419042139
 20
26.5485220742
 11
20.8397666879
 21
26.3158317051
  0
LINE
  5
27B
100
AcDbEntity
  8
00_COMPONENTS
100
AcDbLine
 62
7
  6
BYLAYER
 10
20.9087072066
 20
26.1966880992
 11
21.7144221693
 21
26.6629020185
  0
LINE
  5
27C
100
AcDbEntity
  8
00_COMPONENTS
100
AcDbLine
 62
7
  6
BYLAYER
 10
11.3141534178
 20
16.4412308532
 11
11.4146950749
 21
16.461767021
  0
LINE
  5
27D
100
AcDbEntity
  8
00_COMPONENTS
100
AcDbLine
 62
7
  6
BYLAYER
 10
14.4108366744
 20
17.2010691612
 11
14.3102951612
 21
17.1805329934
  0
LINE
  5
27E
100
AcDbEntity
  8
00_COMPONENTS
100
AcDbLine
 62
7
  6
BYLAYER
 10
13.0434701612
 20
17.2010691612
 11
12.9429284178
 21
17.1805329934
  0
LINE
  5
27F
100
AcDbEntity
  8
00_COMPONENTS
100
AcDbLine
 62
7
  6
BYLAYER
 10
12.1587034178
 20
17.2010691612
 11
12.0581617895
 21
17.1805329934
  0
LINE
  5
280
100
AcDbEntity
  8
00_COMPONENTS
100
AcDbLine
 62
7
  6
BYLAYER
 10
11.4348034178
 20
16.3590861696
 11
11.3141534178
 21
16.33855
  0
LINE
  5
281
100
AcDbEntity
  8
00_COMPONENTS
100
AcDbLine
 62
7
  6
BYLAYER
 10
14.2901866744
 20
17.2832138322
 11
14.4108366744
 21
17.30375
  0
LINE
  5
282
100
AcDbEntity
  8
00_COMPONENTS
100
AcDbLine
 62
7
  6
BYLAYER
 10
12.9228201612
 20
17.2832138322
 11
13.0635784178
 21
17.30375
  0
LINE
  5
283
100
AcDbEntity
  8
00_COMPONENTS
100
AcDbLine
 62
7
  6
BYLAYER
 10
12.0380534178
 20
17.2832138322
 11
12.1788117895
 21
17.30375
  0
LINE
  5
284
100
AcDbEntity
  8
00_COMPONENTS
100
AcDbLine
 62
7
  6
BYLAYER
 10
13.6065034178
 20
16.7903457484
 11
13.8880201612
 21
16.7903457484
  0
LINE
  5
285
100
AcDbEntity
  8
00_COMPONENTS
100
AcDbLine
 62
7
  6
BYLAYER
 10
12.8423867895
 20
17.0778521546
 11
12.7418450461
 21
17.0778521546
  0
LINE
  5
286
100
AcDbEntity
  8
00_COMPONENTS
100
AcDbLine
 62
7
  6
BYLAYER
 10
11.9576200461
 20
17.0778521546
 11
11.8570784178
 21
17.0778521546
  0
LINE
  5
287
100
AcDbEntity
  8
00_COMPONENTS
100
AcDbLine
 62
7
  6
BYLAYER
 10
13.1239034178
 20
17.2010691612
 11
13.0434701612
 21
17.2010691612
  0
LINE
  5
288
100
AcDbEntity
  8
00_COMPONENTS
100
AcDbLine
 62
7
  6
BYLAYER
 10
12.2391367895
 20
17.2010691612
 11
12.1587034178
 21
17.2010691612
  0
LINE
  5
289
100
AcDbEntity
  8
00_COMPONENTS
100
AcDbLine
 62
7
  6
BYLAYER
 10
12.1788117895
 20
17.30375
 11
12.2592450461
 21
17.30375
  0
LINE
  5
28A
100
AcDbEntity
  8
00_COMPONENTS
100
AcDbLine
 62
7
  6
BYLAYER
 10
13.0635784178
 20
17.30375
 11
13.1440116744
 21
17.30375
  0
LINE
  5
28B
100
AcDbEntity
  8
00_COMPONENTS
100
AcDbLine
 62
7
  6
BYLAYER
 10
15.0543034178
 20
17.30375
 11
15.1749534178
 21
17.30375
  0
LINE
  5
28C
100
AcDbEntity
  8
00_COMPONENTS
100
AcDbLine
 62
7
  6
BYLAYER
 10
16.4216699311
 20
17.30375
 11
16.5423199311
 21
17.30375
  0
LINE
  5
28D
100
AcDbEntity
  8
00_COMPONENTS
100
AcDbLine
 62
7
  6
BYLAYER
 10
17.0852449311
 20
17.30375
 11
17.2058949311
 21
17.30375
  0
LINE
  5
28E
100
AcDbEntity
  8
00_COMPONENTS
100
AcDbLine
 62
7
  6
BYLAYER
 10
11.3141534178
 20
17.30375
 11
11.4348034178
 21
17.2832138322
  0
LINE
  5
28F
100
AcDbEntity
  8
00_COMPONENTS
100
AcDbLine
 62
7
  6
BYLAYER
 10
12.2592450461
 20
17.30375
 11
12.3798950461
 21
17.2832138322
  0
LINE
  5
290
100
AcDbEntity
  8
00_COMPONENTS
100
AcDbLine
 62
7
  6
BYLAYER
 10
13.1440116744
 20
17.30375
 11
13.2646616744
 21
17.2832138322
  0
LINE
  5
291
100
AcDbEntity
  8
00_COMPONENTS
100
AcDbLine
 62
7
  6
BYLAYER
 10
14.4108366744
 20
17.30375
 11
14.5314866744
 21
17.2832138322
  0
LINE
  5
292
100
AcDbEntity
  8
00_COMPONENTS
100
AcDbLine
 62
7
  6
BYLAYER
 10
12.3396784178
 20
17.1805329934
 11
12.2391367895
 21
17.2010691612
  0
LINE
  5
293
100
AcDbEntity
  8
00_COMPONENTS
100
AcDbLine
 62
7
  6
BYLAYER
 10
13.2244451612
 20
17.1805329934
 11
13.1239034178
 21
17.2010691612
  0
LINE
  5
294
100
AcDbEntity
  8
00_COMPONENTS
100
AcDbLine
 62
7
  6
BYLAYER
 10
14.5113784178
 20
17.1805329934
 11
14.4108366744
 21
17.2010691612
  0
LINE
  5
295
100
AcDbEntity
  8
00_COMPONENTS
100
AcDbLine
 62
7
  6
BYLAYER
 10
13.2646616744
 20
17.2832138322
 11
13.3450951612
 21
17.2421414967
  0
LINE
  5
296
100
AcDbEntity
  8
00_COMPONENTS
100
AcDbLine
 62
7
  6
BYLAYER
 10
14.2901866744
 20
16.3590861696
 11
14.1896451612
 21
16.4206946782
  0
LINE
  5
297
100
AcDbEntity
  8
00_COMPONENTS
100
AcDbLine
 62
7
  6
BYLAYER
 10
13.2847701612
 20
17.1394606579
 11
13.2244451612
 21
17.1805329934
  0
LINE
  5
298
100
AcDbEntity
  8
00_COMPONENTS
100
AcDbLine
 62
7
  6
BYLAYER
 10
14.2499701612
 20
16.5028393565
 11
14.3102951612
 21
16.461767021
  0
LINE
  5
299
100
AcDbEntity
  8
00_COMPONENTS
100
AcDbLine
 62
7
  6
BYLAYER
 10
13.3450951612
 20
17.2421414967
 11
13.4255284178
 21
17.1599968256
  0
LINE
  5
29A
100
AcDbEntity
  8
00_COMPONENTS
100
AcDbLine
 62
7
  6
BYLAYER
 10
14.1896451612
 20
16.4206946782
 11
14.1293201612
 21
16.4823031887
  0
LINE
  5
29B
100
AcDbEntity
  8
00_COMPONENTS
100
AcDbLine
 62
7
  6
BYLAYER
 10
13.3249866744
 20
17.0778521546
 11
13.2847701612
 21
17.1394606579
  0
LINE
  5
29C
100
AcDbEntity
  8
00_COMPONENTS
100
AcDbLine
 62
7
  6
BYLAYER
 10
12.5407617895
 20
17.1599968256
 11
12.5608700461
 21
17.0778521546
  0
LINE
  5
29D
100
AcDbEntity
  8
00_COMPONENTS
100
AcDbLine
 62
7
  6
BYLAYER
 10
12.5608700461
 20
17.0778521546
 11
12.5608700461
 21
17.0367797615
  0
LINE
  5
29E
100
AcDbEntity
  8
00_COMPONENTS
100
AcDbLine
 62
7
  6
BYLAYER
 10
12.5608700461
 20
16.4412308532
 11
12.5608700461
 21
16.33855
  0
LINE
  5
29F
100
AcDbEntity
  8
00_COMPONENTS
100
AcDbLine
 62
7
  6
BYLAYER
 10
12.7217367895
 20
16.33855
 11
12.7217367895
 21
16.4412308532
  0
LINE
  5
2A0
100
AcDbEntity
  8
00_COMPONENTS
100
AcDbLine
 62
7
  6
BYLAYER
 10
13.3249866744
 20
17.0367797615
 11
13.3249866744
 21
17.0778521546
  0
LINE
  5
2A1
100
AcDbEntity
  8
00_COMPONENTS
100
AcDbLine
 62
7
  6
BYLAYER
 10
11.8570784178
 20
17.0778521546
 11
11.877186732
 21
17.1599968256
  0
LINE
  5
2A2
100
AcDbEntity
  8
00_COMPONENTS
100
AcDbLine
 62
7
  6
BYLAYER
 10
12.5608700461
 20
17.0367797615
 11
12.5407617895
 21
16.9546350905
  0
LINE
  5
2A3
100
AcDbEntity
  8
00_COMPONENTS
100
AcDbLine
 62
7
  6
BYLAYER
 10
12.7418450461
 20
17.0778521546
 11
12.7619534178
 21
17.1599968256
  0
LINE
  5
2A4
100
AcDbEntity
  8
00_COMPONENTS
100
AcDbLine
 62
7
  6
BYLAYER
 10
11.6559951036
 20
16.6260563775
 11
11.635886732
 21
16.5644478742
  0
LINE
  5
2A5
100
AcDbEntity
  8
00_COMPONENTS
100
AcDbLine
 62
7
  6
BYLAYER
 10
11.635886732
 20
16.5644478742
 11
11.5956701036
 21
16.4823031887
  0
LINE
  5
2A6
100
AcDbEntity
  8
00_COMPONENTS
100
AcDbLine
 62
7
  6
BYLAYER
 10
11.1532867463
 20
17.1394606579
 11
11.0728534178
 21
17.0162435938
  0
LINE
  5
2A7
100
AcDbEntity
  8
00_COMPONENTS
100
AcDbLine
 62
7
  6
BYLAYER
 10
20.6831129912
 20
24.2171010124
 11
20.0511891448
 21
23.8580674679
  0
LINE
  5
2A8
100
AcDbEntity
  8
00_COMPONENTS
100
AcDbLine
 62
7
  6
BYLAYER
 10
19.7914034178
 20
23.55215
 11
20.751112214
 21
24.0974176817
  0
LINE
  5
2A9
100
AcDbEntity
  8
00_COMPONENTS
100
AcDbLine
 62
7
  6
BYLAYER
 10
11.3141534178
 20
17.2010691612
 11
11.2136117607
 21
17.1805329934
  0
LINE
  5
2AA
100
AcDbEntity
  8
00_COMPONENTS
100
AcDbLine
 62
7
  6
BYLAYER
 10
11.1935034178
 20
17.2832138322
 11
11.3141534178
 21
17.30375
  0
LINE
  5
2AB
100
AcDbEntity
  8
00_COMPONENTS
100
AcDbLine
 62
7
  6
BYLAYER
 10
10.3097883791
 20
17.9436613223
 11
17.9880034178
 21
17.9436613223
  0
LINE
  5
2AC
100
AcDbEntity
  8
00_COMPONENTS
100
AcDbLine
 62
7
  6
BYLAYER
 10
18.6485091741
 20
18.5071921203
 11
9.7074976746
 21
18.5071921203
  0
LINE
  5
2AD
100
AcDbEntity
  8
00_COMPONENTS
100
AcDbLine
 62
7
  6
BYLAYER
 10
19.0294034178
 20
18.57375
 11
9.3266034178
 21
18.57375
  0
LINE
  5
2AE
100
AcDbEntity
  8
00_COMPONENTS
100
AcDbLine
 62
7
  6
BYLAYER
 10
14.5314866744
 20
17.2832138322
 11
14.6320284178
 21
17.2216053289
  0
LINE
  5
2AF
100
AcDbEntity
  8
00_COMPONENTS
100
AcDbLine
 62
7
  6
BYLAYER
 10
14.5717034178
 20
17.1394606579
 11
14.5113784178
 21
17.1805329934
  0
LINE
  5
2B0
100
AcDbEntity
  8
00_COMPONENTS
100
AcDbLine
 62
7
  6
BYLAYER
 10
19.0437969687
 20
13.072801174
 11
19.1606420907
 21
12.955956052
  0
LINE
  5
2B1
100
AcDbEntity
  8
00_COMPONENTS
100
AcDbLine
 62
7
  6
BYLAYER
 10
14.6320284178
 20
17.2216053289
 11
14.6923534178
 21
17.1599968256
  0
LINE
  5
2B2
100
AcDbEntity
  8
00_COMPONENTS
100
AcDbLine
 62
7
  6
BYLAYER
 10
8.3048176908
 20
23.8580674679
 11
8.5646034178
 21
23.55215
  0
LINE
  5
2B3
100
AcDbEntity
  8
00_COMPONENTS
100
AcDbLine
 62
7
  6
BYLAYER
 10
7.5750194795
 20
25.5018944869
 11
7.4896754178
 21
25.6098962697
  0
LINE
  5
2B4
100
AcDbEntity
  8
00_COMPONENTS
100
AcDbLine
 62
7
  6
BYLAYER
 10
14.1695366744
 20
16.6260563775
 11
14.2499701612
 21
16.5028393565
  0
LINE
  5
2B5
100
AcDbEntity
  8
00_COMPONENTS
100
AcDbLine
 62
7
  6
BYLAYER
 10
14.6521366744
 20
17.0162435938
 11
14.5717034178
 21
17.1394606579
  0
LINE
  5
2B6
100
AcDbEntity
  8
00_COMPONENTS
100
AcDbLine
 62
7
  6
BYLAYER
 10
14.1293201612
 20
16.4823031887
 11
14.0891034178
 21
16.5644478742
  0
LINE
  5
2B7
100
AcDbEntity
  8
00_COMPONENTS
100
AcDbLine
 62
7
  6
BYLAYER
 10
14.0891034178
 20
16.5644478742
 11
14.0689951612
 21
16.6260563775
  0
LINE
  5
2B8
100
AcDbEntity
  8
00_COMPONENTS
100
AcDbLine
 62
7
  6
BYLAYER
 10
13.4255284178
 20
17.1599968256
 11
13.4456366744
 21
17.0778521546
  0
LINE
  5
2B9
100
AcDbEntity
  8
00_COMPONENTS
100
AcDbLine
 62
7
  6
BYLAYER
 10
13.4456366744
 20
17.0778521546
 11
13.4456366744
 21
17.0367797615
  0
LINE
  5
2BA
100
AcDbEntity
  8
00_COMPONENTS
100
AcDbLine
 62
7
  6
BYLAYER
 10
13.4456366744
 20
16.4412308532
 11
13.4456366744
 21
16.33855
  0
LINE
  5
2BB
100
AcDbEntity
  8
00_COMPONENTS
100
AcDbLine
 62
7
  6
BYLAYER
 10
13.6065034178
 20
16.6876648808
 11
13.6065034178
 21
16.7903457484
  0
LINE
  5
2BC
100
AcDbEntity
  8
00_COMPONENTS
100
AcDbLine
 62
7
  6
BYLAYER
 10
13.8880201612
 20
16.7903457484
 11
13.8880201612
 21
16.6876648808
  0
LINE
  5
2BD
100
AcDbEntity
  8
00_COMPONENTS
100
AcDbLine
 62
7
  6
BYLAYER
 10
14.0488866744
 20
16.7287372451
 11
14.0488866744
 21
16.9135627549
  0
LINE
  5
2BE
100
AcDbEntity
  8
00_COMPONENTS
100
AcDbLine
 62
7
  6
BYLAYER
 10
14.1494284178
 20
16.8930265872
 11
14.1494284178
 21
16.7492734128
  0
LINE
  5
2BF
100
AcDbEntity
  8
00_COMPONENTS
100
AcDbLine
 62
7
  6
BYLAYER
 10
13.4456366744
 20
17.0367797615
 11
13.4255284178
 21
16.9546350905
  0
LINE
  5
2C0
100
AcDbEntity
  8
00_COMPONENTS
100
AcDbLine
 62
7
  6
BYLAYER
 10
12.4000034178
 20
16.9546350905
 11
12.4402200461
 21
17.0367797615
  0
LINE
  5
2C1
100
AcDbEntity
  8
00_COMPONENTS
100
AcDbLine
 62
7
  6
BYLAYER
 10
11.4750201036
 20
16.5028393565
 11
11.5554534178
 21
16.6260563775
  0
LINE
  5
2C2
100
AcDbEntity
  8
00_COMPONENTS
100
AcDbLine
 62
7
  6
BYLAYER
 10
11.9978367895
 20
17.1394606579
 11
11.9576200461
 21
17.0778521546
  0
LINE
  5
2C3
100
AcDbEntity
  8
00_COMPONENTS
100
AcDbLine
 62
7
  6
BYLAYER
 10
12.5407617895
 20
16.9546350905
 11
12.5005450461
 21
16.8930265872
  0
LINE
  5
2C4
100
AcDbEntity
  8
00_COMPONENTS
100
AcDbLine
 62
7
  6
BYLAYER
 10
11.0326367535
 20
17.1599968256
 11
11.0929617463
 21
17.2216053289
  0
LINE
  5
2C5
100
AcDbEntity
  8
00_COMPONENTS
100
AcDbLine
 62
7
  6
BYLAYER
 10
11.877186732
 20
17.1599968256
 11
11.9576200461
 21
17.2421414967
  0
LINE
  5
2C6
100
AcDbEntity
  8
00_COMPONENTS
100
AcDbLine
 62
7
  6
BYLAYER
 10
19.4247824613
 20
18.6845070842
 11
8.9312243743
 21
18.6845070842
  0
LINE
  5
2C7
100
AcDbEntity
  8
00_COMPONENTS
100
AcDbLine
 62
7
  6
BYLAYER
 10
9.3122098669
 20
19.064984937
 11
19.0437969687
 21
19.064984937
  0
LINE
  5
2C8
100
AcDbEntity
  8
00_COMPONENTS
100
AcDbLine
 62
7
  6
BYLAYER
 10
19.5416275834
 20
13.3369415447
 11
19.4247824613
 21
13.4537866667
  0
LINE
  5
2C9
100
AcDbEntity
  8
00_COMPONENTS
100
AcDbLine
 62
7
  6
BYLAYER
 10
14.6923534178
 20
17.1599968256
 11
14.7325701612
 21
17.0778521546
  0
LINE
  5
2CA
100
AcDbEntity
  8
00_COMPONENTS
100
AcDbLine
 62
7
  6
BYLAYER
 10
14.7325701612
 20
17.0778521546
 11
14.7526784178
 21
17.0162435938
  0
LINE
  5
2CB
100
AcDbEntity
  8
00_COMPONENTS
100
AcDbLine
 62
7
  6
BYLAYER
 10
14.0689951612
 20
16.6260563775
 11
14.0488866744
 21
16.7287372451
  0
LINE
  5
2CC
100
AcDbEntity
  8
00_COMPONENTS
100
AcDbLine
 62
7
  6
BYLAYER
 10
14.7526784178
 20
17.0162435938
 11
14.7727866744
 21
16.9135627549
  0
LINE
  5
2CD
100
AcDbEntity
  8
00_COMPONENTS
100
AcDbLine
 62
7
  6
BYLAYER
 10
14.1494284178
 20
16.7492734128
 11
14.1695366744
 21
16.6260563775
  0
LINE
  5
2CE
100
AcDbEntity
  8
00_COMPONENTS
100
AcDbLine
 62
7
  6
BYLAYER
 10
14.6722451612
 20
16.8930265872
 11
14.6521366744
 21
17.0162435938
  0
LINE
  5
2CF
100
AcDbEntity
  8
00_COMPONENTS
100
AcDbLine
 62
7
  6
BYLAYER
 10
14.6722451612
 20
16.7492734128
 11
14.6722451612
 21
16.8930265872
  0
LINE
  5
2D0
100
AcDbEntity
  8
00_COMPONENTS
100
AcDbLine
 62
7
  6
BYLAYER
 10
14.7727866744
 20
16.9135627549
 11
14.7727866744
 21
16.7287372451
  0
LINE
  5
2D1
100
AcDbEntity
  8
00_COMPONENTS
100
AcDbLine
 62
7
  6
BYLAYER
 10
14.9336534178
 20
16.995707426
 11
14.9336534178
 21
17.1599968256
  0
LINE
  5
2D2
100
AcDbEntity
  8
00_COMPONENTS
100
AcDbLine
 62
7
  6
BYLAYER
 10
15.0543034178
 20
16.33855
 11
15.0543034178
 21
17.1394606579
  0
LINE
  5
2D3
100
AcDbEntity
  8
00_COMPONENTS
100
AcDbLine
 62
7
  6
BYLAYER
 10
15.1749534178
 20
17.30375
 11
15.1749534178
 21
16.33855
  0
LINE
  5
2D4
100
AcDbEntity
  8
00_COMPONENTS
100
AcDbLine
 62
7
  6
BYLAYER
 10
14.1695366744
 20
17.0162435938
 11
14.1494284178
 21
16.8930265872
  0
LINE
  5
2D5
100
AcDbEntity
  8
00_COMPONENTS
100
AcDbLine
 62
7
  6
BYLAYER
 10
14.6521366744
 20
16.6260563775
 11
14.6722451612
 21
16.7492734128
  0
LINE
  5
2D6
100
AcDbEntity
  8
00_COMPONENTS
100
AcDbLine
 62
7
  6
BYLAYER
 10
14.0488866744
 20
16.9135627549
 11
14.0689951612
 21
17.0162435938
  0
LINE
  5
2D7
100
AcDbEntity
  8
00_COMPONENTS
100
AcDbLine
 62
7
  6
BYLAYER
 10
14.0689951612
 20
17.0162435938
 11
14.0891034178
 21
17.0778521546
  0
LINE
  5
2D8
100
AcDbEntity
  8
00_COMPONENTS
100
AcDbLine
 62
7
  6
BYLAYER
 10
13.2847701612
 20
16.9546350905
 11
13.3249866744
 21
17.0367797615
  0
LINE
  5
2D9
100
AcDbEntity
  8
00_COMPONENTS
100
AcDbLine
 62
7
  6
BYLAYER
 10
14.0891034178
 20
17.0778521546
 11
14.1293201612
 21
17.1599968256
  0
LINE
  5
2DA
100
AcDbEntity
  8
00_COMPONENTS
100
AcDbLine
 62
7
  6
BYLAYER
 10
12.8826034178
 20
17.1394606579
 11
12.8423867895
 21
17.0778521546
  0
LINE
  5
2DB
100
AcDbEntity
  8
00_COMPONENTS
100
AcDbLine
 62
7
  6
BYLAYER
 10
13.4255284178
 20
16.9546350905
 11
13.3853116744
 21
16.8930265872
  0
LINE
  5
2DC
100
AcDbEntity
  8
00_COMPONENTS
100
AcDbLine
 62
7
  6
BYLAYER
 10
11.5956701036
 20
16.4823031887
 11
11.5353451036
 21
16.4206946782
  0
LINE
  5
2DD
100
AcDbEntity
  8
00_COMPONENTS
100
AcDbLine
 62
7
  6
BYLAYER
 10
12.7619534178
 20
17.1599968256
 11
12.8423867895
 21
17.2421414967
  0
LINE
  5
2DE
100
AcDbEntity
  8
00_COMPONENTS
100
AcDbLine
 62
7
  6
BYLAYER
 10
8.9312243743
 20
13.4537866667
 11
8.8143792522
 21
13.3369415447
  0
LINE
  5
2DF
100
AcDbEntity
  8
00_COMPONENTS
100
AcDbLine
 62
7
  6
BYLAYER
 10
11.8369701036
 20
16.4412308532
 11
12.4000034178
 21
16.9546350905
  0
LINE
  5
2E0
100
AcDbEntity
  8
00_COMPONENTS
100
AcDbLine
 62
7
  6
BYLAYER
 10
12.5005450461
 20
16.8930265872
 11
11.9978367895
 21
16.4412308532
  0
LINE
  5
2E1
100
AcDbEntity
  8
00_COMPONENTS
100
AcDbLine
 62
7
  6
BYLAYER
 10
11.2136117607
 20
17.1805329934
 11
11.1532867463
 21
17.1394606579
  0
LINE
  5
2E2
100
AcDbEntity
  8
00_COMPONENTS
100
AcDbLine
 62
7
  6
BYLAYER
 10
12.0581617895
 20
17.1805329934
 11
11.9978367895
 21
17.1394606579
  0
LINE
  5
2E3
100
AcDbEntity
  8
00_COMPONENTS
100
AcDbLine
 62
7
  6
BYLAYER
 10
11.4146950749
 20
16.461767021
 11
11.4750201036
 21
16.5028393565
  0
LINE
  5
2E4
100
AcDbEntity
  8
00_COMPONENTS
100
AcDbLine
 62
7
  6
BYLAYER
 10
11.0929617463
 20
17.2216053289
 11
11.1935034178
 21
17.2832138322
  0
LINE
  5
2E5
100
AcDbEntity
  8
00_COMPONENTS
100
AcDbLine
 62
7
  6
BYLAYER
 10
11.9576200461
 20
17.2421414967
 11
12.0380534178
 21
17.2832138322
  0
LINE
  5
2E6
100
AcDbEntity
  8
00_COMPONENTS
100
AcDbLine
 62
7
  6
BYLAYER
 10
19.1608844945
 20
19.76755
 11
17.5308034178
 21
19.76755
  0
LINE
  5
2E7
100
AcDbEntity
  8
00_COMPONENTS
100
AcDbLine
 62
7
  6
BYLAYER
 10
10.8252034178
 20
19.76755
 11
9.1951218759
 21
19.76755
  0
LINE
  5
2E8
100
AcDbEntity
  8
00_COMPONENTS
100
AcDbLine
 62
7
  6
BYLAYER
 10
7.6048946216
 20
24.0974176817
 11
8.5646034178
 21
23.55215
  0
LINE
  5
2E9
100
AcDbEntity
  8
00_COMPONENTS
100
AcDbLine
 62
7
  6
BYLAYER
 10
8.3048176908
 20
23.8580674679
 11
7.6728938444
 21
24.2171010124
  0
LINE
  5
2EA
100
AcDbEntity
  8
00_COMPONENTS
100
AcDbLine
 62
7
  6
BYLAYER
 10
14.7727866744
 20
16.7287372451
 11
14.7526784178
 21
16.6260563775
  0
LINE
  5
2EB
100
AcDbEntity
  8
00_COMPONENTS
100
AcDbLine
 62
7
  6
BYLAYER
 10
14.7526784178
 20
16.6260563775
 11
14.7325701612
 21
16.5644478742
  0
LINE
  5
2EC
100
AcDbEntity
  8
00_COMPONENTS
100
AcDbLine
 62
7
  6
BYLAYER
 10
14.7325701612
 20
16.5644478742
 11
14.6923534178
 21
16.4823031887
  0
LINE
  5
2ED
100
AcDbEntity
  8
00_COMPONENTS
100
AcDbLine
 62
7
  6
BYLAYER
 10
14.2499701612
 20
17.1394606579
 11
14.1695366744
 21
17.0162435938
  0
LINE
  5
2EE
100
AcDbEntity
  8
00_COMPONENTS
100
AcDbLine
 62
7
  6
BYLAYER
 10
14.5717034178
 20
16.5028393565
 11
14.6521366744
 21
16.6260563775
  0
LINE
  5
2EF
100
AcDbEntity
  8
00_COMPONENTS
100
AcDbLine
 62
7
  6
BYLAYER
 10
20.8663314178
 20
25.6098962697
 11
20.7809873561
 21
25.5018944869
  0
LINE
  5
2F0
100
AcDbEntity
  8
00_COMPONENTS
100
AcDbLine
 62
7
  6
BYLAYER
 10
19.7914034178
 20
23.55215
 11
20.0511891448
 21
23.8580674679
  0
LINE
  5
2F1
100
AcDbEntity
  8
00_COMPONENTS
100
AcDbLine
 62
7
  6
BYLAYER
 10
14.1293201612
 20
17.1599968256
 11
14.1896451612
 21
17.2216053289
  0
LINE
  5
2F2
100
AcDbEntity
  8
00_COMPONENTS
100
AcDbLine
 62
7
  6
BYLAYER
 10
9.1953647449
 20
12.955956052
 11
9.3122098669
 21
13.072801174
  0
LINE
  5
2F3
100
AcDbEntity
  8
00_COMPONENTS
100
AcDbLine
 62
7
  6
BYLAYER
 10
12.7217367895
 20
16.4412308532
 11
13.2847701612
 21
16.9546350905
  0
LINE
  5
2F4
100
AcDbEntity
  8
00_COMPONENTS
100
AcDbLine
 62
7
  6
BYLAYER
 10
13.3853116744
 20
16.8930265872
 11
12.8826034178
 21
16.4412308532
  0
LINE
  5
2F5
100
AcDbEntity
  8
00_COMPONENTS
100
AcDbLine
 62
7
  6
BYLAYER
 10
12.9429284178
 20
17.1805329934
 11
12.8826034178
 21
17.1394606579
  0
LINE
  5
2F6
100
AcDbEntity
  8
00_COMPONENTS
100
AcDbLine
 62
7
  6
BYLAYER
 10
14.3102951612
 20
17.1805329934
 11
14.2499701612
 21
17.1394606579
  0
LINE
  5
2F7
100
AcDbEntity
  8
00_COMPONENTS
100
AcDbLine
 62
7
  6
BYLAYER
 10
11.5353451036
 20
16.4206946782
 11
11.4348034178
 21
16.3590861696
  0
LINE
  5
2F8
100
AcDbEntity
  8
00_COMPONENTS
100
AcDbLine
 62
7
  6
BYLAYER
 10
14.1896451612
 20
17.2216053289
 11
14.2901866744
 21
17.2832138322
  0
LINE
  5
2F9
100
AcDbEntity
  8
00_COMPONENTS
100
AcDbLine
 62
7
  6
BYLAYER
 10
12.8423867895
 20
17.2421414967
 11
12.9228201612
 21
17.2832138322
  0
LINE
  5
2FA
100
AcDbEntity
  8
00_COMPONENTS
100
AcDbLine
 62
7
  6
BYLAYER
 10
16.3010199311
 20
16.995707426
 11
16.3010199311
 21
17.1599968256
  0
LINE
  5
2FB
100
AcDbEntity
  8
00_COMPONENTS
100
AcDbLine
 62
7
  6
BYLAYER
 10
16.4216699311
 20
16.33855
 11
16.4216699311
 21
17.1394606579
  0
LINE
  5
2FC
100
AcDbEntity
  8
00_COMPONENTS
100
AcDbLine
 62
7
  6
BYLAYER
 10
16.5423199311
 20
17.30375
 11
16.5423199311
 21
16.33855
  0
LINE
  5
2FD
100
AcDbEntity
  8
00_COMPONENTS
100
AcDbLine
 62
7
  6
BYLAYER
 10
16.7031869045
 20
16.33855
 11
16.7031869045
 21
16.4412308532
  0
LINE
  5
2FE
100
AcDbEntity
  8
00_COMPONENTS
100
AcDbLine
 62
7
  6
BYLAYER
 10
16.8037284178
 20
16.4412308532
 11
16.8037284178
 21
16.33855
  0
LINE
  5
2FF
100
AcDbEntity
  8
00_COMPONENTS
100
AcDbLine
 62
7
  6
BYLAYER
 10
16.9645949311
 20
16.995707426
 11
16.9645949311
 21
17.1599968256
  0
LINE
  5
300
100
AcDbEntity
  8
00_COMPONENTS
100
AcDbLine
 62
7
  6
BYLAYER
 10
22.1790034178
 20
27.0220747106
 11
22.095407662
 21
26.8867802168
  0
LINE
  5
301
100
AcDbEntity
  8
00_COMPONENTS
100
AcDbLine
 62
7
  6
BYLAYER
 10
14.9336534178
 20
17.1599968256
 11
15.0543034178
 21
17.30375
  0
LINE
  5
302
100
AcDbEntity
  8
00_COMPONENTS
100
AcDbLine
 62
7
  6
BYLAYER
 10
15.0543034178
 20
17.1394606579
 11
14.9336534178
 21
16.995707426
  0
LINE
  5
303
100
AcDbEntity
  8
00_COMPONENTS
100
AcDbLine
 62
7
  6
BYLAYER
 10
14.6923534178
 20
16.4823031887
 11
14.6320284178
 21
16.4206946782
  0
LINE
  5
304
100
AcDbEntity
  8
00_COMPONENTS
100
AcDbLine
 62
7
  6
BYLAYER
 10
14.5113784178
 20
16.461767021
 11
14.5717034178
 21
16.5028393565
  0
LINE
  5
305
100
AcDbEntity
  8
00_COMPONENTS
100
AcDbLine
 62
7
  6
BYLAYER
 10
14.6320284178
 20
16.4206946782
 11
14.5314866744
 21
16.3590861696
  0
LINE
  5
306
100
AcDbEntity
  8
00_COMPONENTS
100
AcDbLine
 62
7
  6
BYLAYER
 10
10.8252034178
 20
21.39315
 11
17.5308034178
 21
21.39315
  0
LINE
  5
307
100
AcDbEntity
  8
00_COMPONENTS
100
AcDbLine
 62
7
  6
BYLAYER
 10
6.6415846663
 20
26.6629020185
 11
7.447299629
 21
26.1966880992
  0
LINE
  5
308
100
AcDbEntity
  8
00_COMPONENTS
100
AcDbLine
 62
7
  6
BYLAYER
 10
7.5162401477
 20
26.3158317051
 11
7.1141026217
 21
26.5485220742
  0
LINE
  5
309
100
AcDbEntity
  8
00_COMPONENTS
100
AcDbLine
 62
7
  6
BYLAYER
 10
7.1141026217
 20
26.5485220742
 11
6.2474607037
 21
27.0545674784
  0
LINE
  5
30A
100
AcDbEntity
  8
00_COMPONENTS
100
AcDbLine
 62
7
  6
BYLAYER
 10
17.0852449311
 20
16.33855
 11
17.0852449311
 21
17.1394606579
  0
LINE
  5
30B
100
AcDbEntity
  8
00_COMPONENTS
100
AcDbLine
 62
7
  6
BYLAYER
 10
17.2058949311
 20
17.30375
 11
17.2058949311
 21
16.33855
  0
LINE
  5
30C
100
AcDbEntity
  8
00_COMPONENTS
100
AcDbLine
 62
7
  6
BYLAYER
 10
17.5308034178
 20
21.39315
 11
17.5308034178
 21
19.4360917591
  0
LINE
  5
30D
100
AcDbEntity
  8
00_COMPONENTS
100
AcDbLine
 62
7
  6
BYLAYER
 10
17.8864034178
 20
23.55215
 11
17.8864034178
 21
24.31415
  0
LINE
  5
30E
100
AcDbEntity
  8
00_COMPONENTS
100
AcDbLine
 62
7
  6
BYLAYER
 10
17.9852947095
 20
24.69515
 11
17.9852947095
 21
27.05735
  0
LINE
  5
30F
100
AcDbEntity
  8
00_COMPONENTS
100
AcDbLine
 62
7
  6
BYLAYER
 10
17.9880034178
 20
17.9436613223
 11
17.9880034178
 21
14.38275
  0
LINE
  5
310
100
AcDbEntity
  8
00_COMPONENTS
100
AcDbLine
 62
7
  6
BYLAYER
 10
16.3010199311
 20
17.1599968256
 11
16.4216699311
 21
17.30375
  0
LINE
  5
311
100
AcDbEntity
  8
00_COMPONENTS
100
AcDbLine
 62
7
  6
BYLAYER
 10
16.4216699311
 20
17.1394606579
 11
16.3010199311
 21
16.995707426
  0
LINE
  5
312
100
AcDbEntity
  8
00_COMPONENTS
100
AcDbLine
 62
7
  6
BYLAYER
 10
16.9645949311
 20
17.1599968256
 11
17.0852449311
 21
17.30375
  0
LINE
  5
313
100
AcDbEntity
  8
00_COMPONENTS
100
AcDbLine
 62
7
  6
BYLAYER
 10
17.0852449311
 20
17.1394606579
 11
16.9645949311
 21
16.995707426
  0
LINE
  5
314
100
AcDbEntity
  8
00_COMPONENTS
100
AcDbLine
 62
7
  6
BYLAYER
 10
19.5337069916
 20
23.8580674679
 11
18.1184496277
 21
23.5937789871
  0
LINE
  5
315
100
AcDbEntity
  8
00_COMPONENTS
100
AcDbLine
 62
7
  6
BYLAYER
 10
17.8864034178
 20
23.55215
 11
18.1163256709
 21
23.5933823544
  0
LINE
  5
316
100
AcDbEntity
  8
00_COMPONENTS
100
AcDbLine
 62
7
  6
BYLAYER
 10
21.7980161484
 20
22.9679006733
 11
21.366199719
 21
22.9679006733
  0
LINE
  5
317
100
AcDbEntity
  8
00_COMPONENTS
100
AcDbLine
 62
7
  6
BYLAYER
 10
6.9898071166
 20
22.9679006733
 11
6.5579906872
 21
22.9679006733
  0
LINE
  5
318
100
AcDbEntity
  8
00_COMPONENTS
100
AcDbLine
 62
7
  6
BYLAYER
 10
21.2558142239
 20
23.0163345568
 11
7.1001926117
 21
23.0163345568
  0
LINE
  5
319
100
AcDbEntity
  8
00_COMPONENTS
100
AcDbLine
 62
7
  6
BYLAYER
 10
21.7127714399
 20
23.044154442
 11
6.6432353957
 21
23.044154442
  0
LINE
  5
31A
100
AcDbEntity
  8
00_COMPONENTS
100
AcDbLine
 62
7
  6
BYLAYER
 10
10.2396811647
 20
23.5933823544
 11
10.4696034178
 21
23.55215
  0
LINE
  5
31B
100
AcDbEntity
  8
00_COMPONENTS
100
AcDbLine
 62
7
  6
BYLAYER
 10
8.822299844
 20
23.8580674679
 11
10.2375572079
 21
23.5937789871
  0
LINE
  5
31C
100
AcDbEntity
  8
00_COMPONENTS
100
AcDbLine
 62
7
  6
BYLAYER
 10
18.1163256709
 20
26.04135
 11
18.0668800251
 21
27.05735
  0
LINE
  5
31D
100
AcDbEntity
  8
00_COMPONENTS
100
AcDbLine
 62
7
  6
BYLAYER
 10
18.1163256709
 20
23.5933823544
 11
18.1163256709
 21
26.04135
  0
LINE
  5
31E
100
AcDbEntity
  8
00_COMPONENTS
100
AcDbLine
 62
7
  6
BYLAYER
 10
18.6484034178
 20
13.49375
 11
18.6484034178
 21
18.5071921203
  0
LINE
  5
31F
100
AcDbEntity
  8
00_COMPONENTS
100
AcDbLine
 62
7
  6
BYLAYER
 10
8.5646034178
 20
23.55215
 11
10.4696034178
 21
23.55215
  0
LINE
  5
320
100
AcDbEntity
  8
00_COMPONENTS
100
AcDbLine
 62
7
  6
BYLAYER
 10
17.8864034178
 20
23.55215
 11
19.7914034178
 21
23.55215
  0
LINE
  5
321
100
AcDbEntity
  8
00_COMPONENTS
100
AcDbLine
 62
7
  6
BYLAYER
 10
8.3048176908
 20
23.8580674679
 11
8.822299844
 21
23.8580674679
  0
LINE
  5
322
100
AcDbEntity
  8
00_COMPONENTS
100
AcDbLine
 62
7
  6
BYLAYER
 10
19.5337069916
 20
23.8580674679
 11
20.0511891448
 21
23.8580674679
  0
LINE
  5
323
100
AcDbEntity
  8
00_COMPONENTS
100
AcDbLine
 62
7
  6
BYLAYER
 10
18.9278034178
 20
11.2758915505
 11
18.9278034178
 21
12.9176084495
  0
LINE
  5
324
100
AcDbEntity
  8
00_COMPONENTS
100
AcDbLine
 62
7
  6
BYLAYER
 10
19.0294034178
 20
18.57375
 11
19.0294034178
 21
13.87475
  0
LINE
  5
325
100
AcDbEntity
  8
00_COMPONENTS
100
AcDbLine
 62
7
  6
BYLAYER
 10
19.0437969687
 20
13.072801174
 11
19.0437969687
 21
19.064984937
  0
LINE
  5
326
100
AcDbEntity
  8
00_COMPONENTS
100
AcDbLine
 62
7
  6
BYLAYER
 10
19.4247824613
 20
18.6845070842
 11
19.4247824613
 21
13.4537866667
  0
LINE
  5
327
100
AcDbEntity
  8
00_COMPONENTS
100
AcDbLine
 62
7
  6
BYLAYER
 10
19.5337069916
 20
24.26335
 11
19.5337069916
 21
23.8580674679
  0
LINE
  5
328
100
AcDbEntity
  8
00_COMPONENTS
100
AcDbLine
 62
7
  6
BYLAYER
 10
19.5416275834
 20
19.3862013821
 11
19.5416275834
 21
13.3369415447
  0
LINE
  5
329
100
AcDbEntity
  8
00_COMPONENTS
100
AcDbLine
 62
7
  6
BYLAYER
 10
19.1607870893
 20
19.76755
 11
19.0437969687
 21
19.064984937
  0
LINE
  5
32A
100
AcDbEntity
  8
00_COMPONENTS
100
AcDbLine
 62
7
  6
BYLAYER
 10
19.4247824613
 20
18.6845070842
 11
19.5416275834
 21
19.3862013821
  0
LINE
  5
32B
100
AcDbEntity
  8
00_COMPONENTS
100
AcDbLine
 62
7
  6
BYLAYER
 10
20.9217034178
 20
24.26335
 11
18.1163256709
 21
24.26335
  0
LINE
  5
32C
100
AcDbEntity
  8
00_COMPONENTS
100
AcDbLine
 62
7
  6
BYLAYER
 10
10.2396811647
 20
24.26335
 11
7.4343034178
 21
24.26335
  0
LINE
  5
32D
100
AcDbEntity
  8
00_COMPONENTS
100
AcDbLine
 62
7
  6
BYLAYER
 10
17.9482104751
 20
24.31415
 11
10.4077963605
 21
24.31415
  0
LINE
  5
32E
100
AcDbEntity
  8
00_COMPONENTS
100
AcDbLine
 62
7
  6
BYLAYER
 10
10.3707121261
 20
24.69515
 11
17.9852947095
 21
24.69515
  0
LINE
  5
32F
100
AcDbEntity
  8
00_COMPONENTS
100
AcDbLine
 62
7
  6
BYLAYER
 10
20.8748071142
 20
22.635374306
 11
20.9852034178
 21
22.5869278015
  0
LINE
  5
330
100
AcDbEntity
  8
00_COMPONENTS
100
AcDbLine
 62
7
  6
BYLAYER
 10
20.1597034178
 20
26.09215
 11
20.1597034178
 21
27.66695
  0
LINE
  5
331
100
AcDbEntity
  8
00_COMPONENTS
100
AcDbLine
 62
7
  6
BYLAYER
 10
21.366199719
 20
22.9679006733
 11
21.2558142239
 21
23.0163345568
  0
LINE
  5
332
100
AcDbEntity
  8
00_COMPONENTS
100
AcDbLine
 62
7
  6
BYLAYER
 10
20.8748071142
 20
13.3369125317
 11
20.8748071142
 21
22.635374306
  0
LINE
  5
333
100
AcDbEntity
  8
00_COMPONENTS
100
AcDbLine
 62
7
  6
BYLAYER
 10
20.9217034178
 20
25.33015
 11
20.9217034178
 21
24.26335
  0
LINE
  5
334
100
AcDbEntity
  8
00_COMPONENTS
100
AcDbLine
 62
7
  6
BYLAYER
 10
20.9852034178
 20
13.3921209862
 11
20.9852034178
 21
22.5869278015
  0
LINE
  5
335
100
AcDbEntity
  8
00_COMPONENTS
100
AcDbLine
 62
7
  6
BYLAYER
 10
21.2419042139
 20
26.5485220742
 11
20.1597034178
 21
26.5485220742
  0
LINE
  5
336
100
AcDbEntity
  8
00_COMPONENTS
100
AcDbLine
 62
7
  6
BYLAYER
 10
8.1963034178
 20
26.5485220742
 11
7.1141026217
 21
26.5485220742
  0
LINE
  5
337
100
AcDbEntity
  8
00_COMPONENTS
100
AcDbLine
 62
7
  6
BYLAYER
 10
22.1085461319
 20
27.0545674784
 11
22.1085147846
 21
27.058171198
  0
LINE
  5
338
100
AcDbEntity
  8
00_COMPONENTS
100
AcDbLine
 62
7
  6
BYLAYER
 10
22.095407662
 20
26.8867802168
 11
22.095407662
 21
23.4222434679
  0
LINE
  5
339
100
AcDbEntity
  8
00_COMPONENTS
100
AcDbLine
 62
7
  6
BYLAYER
 10
22.1790034178
 20
23.3488862748
 11
22.1790034178
 21
27.0220747106
  0
LINE
  5
33A
100
AcDbEntity
  8
00_COMPONENTS
100
AcDbLine
 62
7
  6
BYLAYER
 10
21.7127714399
 20
23.044154442
 11
21.7144221693
 21
26.6629020185
  0
LINE
  5
33B
100
AcDbEntity
  8
00_COMPONENTS
100
AcDbLine
 62
7
  6
BYLAYER
 10
18.0668800251
 20
27.05735
 11
10.2891268105
 21
27.05735
  0
LINE
  5
33C
100
AcDbEntity
  8
00_COMPONENTS
100
AcDbLine
 62
7
  6
BYLAYER
 10
22.1085147846
 20
27.058171198
 11
20.1597034178
 21
27.058171198
  0
LINE
  5
33D
100
AcDbEntity
  8
00_COMPONENTS
100
AcDbLine
 62
7
  6
BYLAYER
 10
8.1963034178
 20
27.058171198
 11
6.247492051
 21
27.058171198
  0
LINE
  5
33E
100
AcDbEntity
  8
00_COMPONENTS
100
AcDbLine
 62
7
  6
BYLAYER
 10
20.1597034178
 20
27.66695
 11
8.1963034178
 21
27.66695
  0
LINE
  5
33F
100
AcDbEntity
  8
00_COMPONENTS
100
AcDbLine
 62
7
  6
BYLAYER
 10
22.1790034178
 20
23.3488862748
 11
22.095407662
 21
23.4222434679
  0
LINE
  5
340
100
AcDbEntity
  8
00_COMPONENTS
100
AcDbLine
 62
7
  6
BYLAYER
 10
21.7127714399
 20
23.0441508706
 11
21.7980161484
 21
22.9679006733
  0
LINE
  5
341
100
AcDbEntity
  8
00_COMPONENTS
100
AcDbLine
 62
7
  6
BYLAYER
 10
20.751112214
 20
24.0974176817
 11
20.6831129912
 21
24.2171010124
  0
LINE
  5
342
100
AcDbEntity
  8
00_COMPONENTS
100
AcDbLine
 62
7
  6
BYLAYER
 10
20.9852034178
 20
13.3921209862
 11
20.8748071142
 21
13.3369125317
  0
LINE
  5
343
100
AcDbEntity
  8
00_COMPONENTS
100
AcDbLine
 62
7
  6
BYLAYER
 10
21.2558071164
 20
12.955956052
 11
21.3481399236
 21
13.0021189396
  0
LINE
  5
344
100
AcDbEntity
  8
00_COMPONENTS
100
AcDbLine
 62
7
  6
BYLAYER
 10
20.8397666879
 20
26.3158317051
 11
20.9087072066
 21
26.1966880992
  0
LINE
  5
345
100
AcDbEntity
  8
00_COMPONENTS
100
AcDbLine
 62
7
  6
BYLAYER
 10
22.1085461319
 20
27.0545674784
 11
22.1790034178
 21
27.0220747106
  0
LINE
  5
346
100
AcDbEntity
  8
00_COMPONENTS
100
AcDbLine
 62
7
  6
BYLAYER
 10
25.2778034178
 20
11.18235
 11
25.2778034178
 21
13.3666961117
  0
ARC
  5
347
100
AcDbEntity
  8
00_COMPONENTS
100
AcDbCircle
 62
7
  6
BYLAYER
 10
8.0566034178
 20
24.8924563748
 40
0.9144
100
AcDbArc
 50
128.3161344716
 51
240.396515393
  0
ARC
  5
348
100
AcDbEntity
  8
00_COMPONENTS
100
AcDbCircle
 62
7
  6
BYLAYER
 10
20.2994034178
 20
24.8924563748
 40
0.9144
100
AcDbArc
 50
299.6034846066
 51
51.6838655282
  0
ARC
  5
349
100
AcDbEntity
  8
00_COMPONENTS
100
AcDbCircle
 62
7
  6
BYLAYER
 10
8.0566034178
 20
24.8924563748
 40
0.7767482875
100
AcDbArc
 50
235.3966010573
 51
240.3965153929
  0
ARC
  5
34A
100
AcDbEntity
  8
00_COMPONENTS
100
AcDbCircle
 62
7
  6
BYLAYER
 10
8.0566034178
 20
24.8924563748
 40
0.7767482875
100
AcDbArc
 50
128.3161344714
 51
215.3108375047
  0
ARC
  5
34B
100
AcDbEntity
  8
00_COMPONENTS
100
AcDbCircle
 62
7
  6
BYLAYER
 10
20.2994034178
 20
24.8924563748
 40
0.7767482875
100
AcDbArc
 50
299.6034846071
 51
304.6033989427
  0
ARC
  5
34C
100
AcDbEntity
  8
00_COMPONENTS
100
AcDbCircle
 62
7
  6
BYLAYER
 10
20.2994034178
 20
24.8924563748
 40
0.7767482875
100
AcDbArc
 50
324.6891624953
 51
51.6838655287
  0
ARC
  5
34D
100
AcDbEntity
  8
00_COMPONENTS
100
AcDbCircle
 62
7
  6
BYLAYER
 10
20.9217034178
 20
26.09215
 40
0.762
100
AcDbArc
 50
180.0
 51
270.0
  0
ARC
  5
34E
100
AcDbEntity
  8
00_COMPONENTS
100
AcDbCircle
 62
7
  6
BYLAYER
 10
7.4343034178
 20
26.09215
 40
0.762
100
AcDbArc
 50
270.0
 51
360.0
  0
ARC
  5
34F
100
AcDbEntity
  8
00_COMPONENTS
100
AcDbCircle
 62
7
  6
BYLAYER
 10
7.2692034178
 20
25.8889006733
 40
0.4932517125
100
AcDbArc
 50
308.3161344773
 51
59.9448745185
  0
ARC
  5
350
100
AcDbEntity
  8
00_COMPONENTS
100
AcDbCircle
 62
7
  6
BYLAYER
 10
21.0868034178
 20
25.8889006733
 40
0.4932517125
100
AcDbArc
 50
120.0551254818
 51
231.6838655224
  0
ARC
  5
351
100
AcDbEntity
  8
00_COMPONENTS
100
AcDbCircle
 62
7
  6
BYLAYER
 10
19.1605501725
 20
19.3864933647
 40
0.3810605333
100
AcDbArc
 50
359.9396814654
 51
89.9497312627
  0
ARC
  5
352
100
AcDbEntity
  8
00_COMPONENTS
100
AcDbCircle
 62
7
  6
BYLAYER
 10
9.1954561997
 20
19.3864938609
 40
0.3810600542
100
AcDbArc
 50
90.0502690696
 51
180.0603227148
  0
ARC
  5
353
100
AcDbEntity
  8
00_COMPONENTS
100
AcDbCircle
 62
7
  6
BYLAYER
 10
9.3122426216
 20
13.4538196565
 40
0.3810125195
100
AcDbArc
 50
180.0049608606
 51
269.9950745044
  0
ARC
  5
354
100
AcDbEntity
  8
00_COMPONENTS
100
AcDbCircle
 62
7
  6
BYLAYER
 10
19.0437643167
 20
13.4538193186
 40
0.3810122046
100
AcDbArc
 50
270.0049100503
 51
359.9950899503
  0
ARC
  5
355
100
AcDbEntity
  8
00_COMPONENTS
100
AcDbCircle
 62
7
  6
BYLAYER
 10
18.6484034178
 20
13.87475
 40
0.381
100
AcDbArc
 50
270.0
 51
360.0
  0
ARC
  5
356
100
AcDbEntity
  8
00_COMPONENTS
100
AcDbCircle
 62
7
  6
BYLAYER
 10
9.7076034178
 20
13.87475
 40
0.381
100
AcDbArc
 50
180.0
 51
270.0
  0
ARC
  5
357
100
AcDbEntity
  8
00_COMPONENTS
100
AcDbCircle
 62
7
  6
BYLAYER
 10
21.2557857049
 20
22.635353872
 40
0.3809733863
100
AcDbArc
 50
89.9940287523
 51
179.9957468706
  0
ARC
  5
358
100
AcDbEntity
  8
00_COMPONENTS
100
AcDbCircle
 62
7
  6
BYLAYER
 10
7.1002210803
 20
22.6353539334
 40
0.3809733766
100
AcDbArc
 50
0.0042455809
 51
90.0059657015
  0
ARC
  5
359
100
AcDbEntity
  8
00_COMPONENTS
100
AcDbCircle
 62
7
  6
BYLAYER
 10
21.7980245827
 20
23.3488795693
 40
0.3809724392
100
AcDbArc
 50
269.9988559821
 51
0.0009920755
  0
ARC
  5
35A
100
AcDbEntity
  8
00_COMPONENTS
100
AcDbCircle
 62
7
  6
BYLAYER
 10
6.5579819642
 20
23.3488795526
 40
0.3809723407
100
AcDbArc
 50
179.9989726856
 51
270.0013028663
  0
ARC
  5
35B
100
AcDbEntity
  8
00_COMPONENTS
100
AcDbCircle
 62
7
  6
BYLAYER
 10
6.9898281513
 20
22.5869244913
 40
0.3809688814
100
AcDbArc
 50
359.9985997576
 51
90.0024530185
  0
ARC
  5
35C
100
AcDbEntity
  8
00_COMPONENTS
100
AcDbCircle
 62
7
  6
BYLAYER
 10
21.3661743283
 20
22.5869253388
 40
0.380966905
100
AcDbArc
 50
89.9955733428
 51
179.9977316154
  0
ARC
  5
35D
100
AcDbEntity
  8
00_COMPONENTS
100
AcDbCircle
 62
7
  6
BYLAYER
 10
7.1002278235
 20
13.3369298977
 40
0.3809666826
100
AcDbArc
 50
269.9941215448
 51
359.9962352582
  0
ARC
  5
35E
100
AcDbEntity
  8
00_COMPONENTS
100
AcDbCircle
 62
7
  6
BYLAYER
 10
21.2557790601
 20
13.3369298401
 40
0.3809666731
100
AcDbArc
 50
180.0037560191
 51
270.0058715212
  0
ARC
  5
35F
100
AcDbEntity
  8
00_COMPONENTS
100
AcDbCircle
 62
7
  6
BYLAYER
 10
9.3121339206
 20
18.6840170159
 40
0.3809341692
100
AcDbArc
 50
89.9885780333
 51
179.9262847814
  0
ARC
  5
360
100
AcDbEntity
  8
00_COMPONENTS
100
AcDbCircle
 62
7
  6
BYLAYER
 10
19.0438730178
 20
18.6840170677
 40
0.3809340688
100
AcDbArc
 50
0.0737074564
 51
90.0114374304
  0
ARC
  5
361
100
AcDbEntity
  8
00_COMPONENTS
100
AcDbCircle
 62
7
  6
BYLAYER
 10
7.2692034178
 20
25.8889006733
 40
0.3556
100
AcDbArc
 50
308.3161344793
 51
59.9448745208
  0
ARC
  5
362
100
AcDbEntity
  8
00_COMPONENTS
100
AcDbCircle
 62
7
  6
BYLAYER
 10
21.0868034178
 20
25.8889006733
 40
0.3556
100
AcDbArc
 50
120.0551254792
 51
231.6838655213
  0
LINE
  5
363
100
AcDbEntity
  8
00_COMPONENTS
100
AcDbLine
 62
7
  6
BYLAYER
 10
7.3708034178
 20
13.3921064797
 11
7.3705199369
 21
13.3663810813
  0
LINE
  5
364
100
AcDbEntity
  8
00_COMPONENTS
100
AcDbLine
 62
7
  6
BYLAYER
 10
20.9852034178
 20
13.3921064797
 11
20.9854868987
 21
13.3663810813
  0
SPLINE
  5
365
100
AcDbEntity
  8
00_COMPONENTS
100
AcDbSpline
 62
7
  6
BYLAYER
 70
0
 71
3
 72
22
 73
18
 74
0
 42
0.0000001
 43
0.0000001
 44
0.0000000001
 40
0.0
 40
0.0
 40
0.0
 40
0.0
 40
0.0028163583
 40
0.0072108677
 40
0.0136795779
 40
0.022358363
 40
0.0332916408
 40
0.0464933495
 40
0.0796735563
 40
0.1216326468
 40
0.1719702376
 40
0.2302621463
 40
0.2959465605
 40
0.4468109035
 40
0.6189115422
 40
0.8059004192
 40
1.0
 40
1.0
 40
1.0
 40
1.0
 10
19.0294034178
 20
18.5271650688
 30
0.0
 10
19.0294034178
 20
18.5268056438
 30
0.0
 10
19.0288672288
 20
18.5259382549
 30
0.0
 10
19.0273607294
 20
18.5250500342
 30
0.0
 10
19.0250465937
 20
18.5240972372
 30
0.0
 10
19.021847499
 20
18.5231682571
 30
0.0
 10
19.0177654585
 20
18.5222270626
 30
0.0
 10
19.0105739867
 20
18.520882322
 30
0.0
 10
18.9994054139
 20
18.5193113861
 30
0.0
 10
18.9834839957
 20
18.5175871072
 30
0.0
 10
18.964335076
 20
18.515941057
 30
0.0
 10
18.942142314
 20
18.5143932045
 30
0.0
 10
18.9071234941
 20
18.5123907436
 30
0.0
 10
18.8575641664
 20
18.5103242083
 30
0.0
 10
18.7925064436
 20
18.508542031
 30
0.0
 10
18.7219153118
 20
18.5074424755
 30
0.0
 10
18.6732802589
 20
18.5071921203
 30
0.0
 10
18.6485091741
 20
18.5071921203
 30
0.0
  0
SPLINE
  5
366
100
AcDbEntity
  8
00_COMPONENTS
100
AcDbSpline
 62
7
  6
BYLAYER
 70
0
 71
3
 72
22
 73
18
 74
0
 42
0.0000001
 43
0.0000001
 44
0.0000000001
 40
0.0
 40
0.0
 40
0.0
 40
0.0
 40
0.1940996932
 40
0.3810888116
 40
0.5531895105
 40
0.7040537928
 40
0.7697381567
 40
0.8280300423
 40
0.8783675741
 40
0.920326593
 40
0.953506761
 40
0.966708451
 40
0.9776417042
 40
0.9863204634
 40
0.9927891506
 40
0.997183645
 40
1.0
 40
1.0
 40
1.0
 40
1.0
 10
9.7074976746
 20
18.5071921203
 30
0.0
 10
9.6827265745
 20
18.5071921203
 30
0.0
 10
9.6340914743
 20
18.5074424771
 30
0.0
 10
9.5635002866
 20
18.5085420324
 30
0.0
 10
9.4984425305
 20
18.5103242136
 30
0.0
 10
9.4488832071
 20
18.5123907493
 30
0.0
 10
9.413864403
 20
18.5143932131
 30
0.0
 10
9.391671657
 20
18.5159410648
 30
0.0
 10
9.3725227561
 20
18.5175871149
 30
0.0
 10
9.356601359
 20
18.5193113946
 30
0.0
 10
9.3454328021
 20
18.5208823277
 30
0.0
 10
9.3382413401
 20
18.5222270662
 30
0.0
 10
9.3341593083
 20
18.5231682595
 30
0.0
 10
9.3309602229
 20
18.524097239
 30
0.0
 10
9.3286460959
 20
18.5250500352
 30
0.0
 10
9.3271396023
 20
18.525938257
 30
0.0
 10
9.3266034178
 20
18.5268056449
 30
0.0
 10
9.3266034178
 20
18.5271650695
 30
0.0
  0
SPLINE
  5
367
100
AcDbEntity
  8
00_COMPONENTS
100
AcDbSpline
 62
7
  6
BYLAYER
 70
0
 71
3
 72
25
 73
21
 74
0
 42
0.0000001
 43
0.0000001
 44
0.0000000001
 40
0.0
 40
0.0
 40
0.0
 40
0.0
 40
0.1346486658
 40
0.2613278176
 40
0.3755757019
 40
0.4765316485
 40
0.6425893606
 40
0.710833618
 40
0.770604834
 40
0.8226858817
 40
0.8676206761
 40
0.9057704783
 40
0.9373585489
 40
0.9625048185
 40
0.972685342
 40
0.9812756459
 40
0.9882803063
 40
0.9937110244
 40
0.9975930019
 40
1.0
 40
1.0
 40
1.0
 40
1.0
 10
7.007866912
 20
13.0021189396
 30
0.0
 10
7.0336429264
 20
13.0021189396
 30
0.0
 10
7.0838305059
 20
13.0072899461
 30
0.0
 10
7.1528328165
 20
13.0290000849
 30
0.0
 10
7.2108142713
 20
13.0601458744
 30
0.0
 10
7.2685888021
 20
13.1051503316
 30
0.0
 10
7.3103757241
 20
13.1550346081
 30
0.0
 10
7.337883699
 20
13.2042405292
 30
0.0
 10
7.3515634215
 20
13.2359501185
 30
0.0
 10
7.3609089171
 20
13.264509796
 30
0.0
 10
7.3669523793
 20
13.2896942797
 30
0.0
 10
7.3705547227
 20
13.3113661576
 30
0.0
 10
7.3723573991
 20
13.3294508859
 30
0.0
 10
7.3728832653
 20
13.3422590254
 30
0.0
 10
7.3727950015
 20
13.3506666515
 30
0.0
 10
7.3725744697
 20
13.3555981373
 30
0.0
 10
7.3722336143
 20
13.3596070108
 30
0.0
 10
7.371795795
 20
13.36270998
 30
0.0
 10
7.3712805843
 20
13.3648810063
 30
0.0
 10
7.3708183045
 20
13.3660299533
 30
0.0
 10
7.3705199369
 20
13.3663810813
 30
0.0
  0
SPLINE
  5
368
100
AcDbEntity
  8
00_COMPONENTS
100
AcDbSpline
 62
7
  6
BYLAYER
 70
0
 71
3
 72
25
 73
21
 74
0
 42
0.0000001
 43
0.0000001
 44
0.0000000001
 40
0.0
 40
0.0
 40
0.0
 40
0.0
 40
0.1346485642
 40
0.2613278779
 40
0.375575822
 40
0.476531749
 40
0.642589397
 40
0.7108336413
 40
0.7706048503
 40
0.822685891
 40
0.8676206808
 40
0.9057704813
 40
0.9373585499
 40
0.9625048174
 40
0.9726853398
 40
0.9812756425
 40
0.9882803028
 40
0.9937110218
 40
0.9975930009
 40
1.0
 40
1.0
 40
1.0
 40
1.0
 10
21.3481399236
 20
13.0021189396
 30
0.0
 10
21.3223639286
 20
13.0021189396
 30
0.0
 10
21.2721763376
 20
13.0072899402
 30
0.0
 10
21.2031740033
 20
13.0290000863
 30
0.0
 10
21.1451925187
 20
13.0601459032
 30
0.0
 10
21.0874180021
 20
13.1051503712
 30
0.0
 10
21.0456310986
 20
13.1550346364
 30
0.0
 10
21.0181231277
 20
13.2042405414
 30
0.0
 10
21.0044434106
 20
13.2359501275
 30
0.0
 10
20.9950979194
 20
13.2645098026
 30
0.0
 10
20.9890544552
 20
13.2896942832
 30
0.0
 10
20.9854521119
 20
13.3113661595
 30
0.0
 10
20.9836494364
 20
13.3294508869
 30
0.0
 10
20.9831235746
 20
13.3422590256
 30
0.0
 10
20.983211837
 20
13.3506666507
 30
0.0
 10
20.9834323636
 20
13.3555981363
 30
0.0
 10
20.9837732176
 20
13.35960701
 30
0.0
 10
20.9842110378
 20
13.3627099795
 30
0.0
 10
20.9847262502
 20
13.3648810061
 30
0.0
 10
20.985188531
 20
13.3660299531
 30
0.0
 10
20.9854868987
 20
13.3663810813
 30
0.0
  0
SPLINE
  5
369
100
AcDbEntity
  8
00_COMPONENTS
100
AcDbSpline
 62
7
  6
BYLAYER
 70
0
 71
3
 72
38
 73
34
 74
0
 42
0.0000001
 43
0.0000001
 44
0.0000000001
 40
0.0
 40
0.0
 40
0.0
 40
0.0
 40
0.0979784831
 40
0.19506084
 40
0.2902324826
 40
0.3826093155
 40
0.4713081294
 40
0.5554652484
 40
0.6342726342
 40
0.7069740695
 40
0.7728656099
 40
0.8030589647
 40
0.8313162452
 40
0.8575714039
 40
0.8817625707
 40
0.9038285395
 40
0.9237171369
 40
0.9413829611
 40
0.956781038
 40
0.9636174324
 40
0.9698739723
 40
0.9755472587
 40
0.9806339164
 40
0.9851306061
 40
0.9890340759
 40
0.992342167
 40
0.995054133
 40
0.9971697022
 40
0.9986896286
 40
0.9992274419
 40
0.9996189949
 40
0.9998691265
 40
1.0
 40
1.0
 40
1.0
 40
1.0
 10
18.9278034179
 20
11.2758916065
 30
0.0
 10
19.1352340777
 20
11.2758916065
 30
0.0
 10
19.548198227
 20
11.2757150353
 30
0.0
 10
20.1626502051
 20
11.2749239227
 30
0.0
 10
20.7652419995
 20
11.2736132142
 30
0.0
 10
21.3500835692
 20
11.2717965285
 30
0.0
 10
21.9116043521
 20
11.2694926417
 30
0.0
 10
22.4443947476
 20
11.2667236843
 30
0.0
 10
22.9433139541
 20
11.2635182846
 30
0.0
 10
23.4035591932
 20
11.2599093081
 30
0.0
 10
23.7608814761
 20
11.2565054357
 30
0.0
 10
24.0241105276
 20
11.2535719821
 30
0.0
 10
24.2034279019
 20
11.251357833
 30
0.0
 10
24.3700360079
 20
11.2490712258
 30
0.0
 10
24.5235341393
 20
11.2467184091
 30
0.0
 10
24.663550851
 20
11.2443050141
 30
0.0
 10
24.7897494673
 20
11.2418381407
 30
0.0
 10
24.9018274298
 20
11.2393254147
 30
0.0
 10
24.9862720893
 20
11.2371224362
 30
0.0
 10
25.0465635249
 20
11.2353153629
 30
0.0
 10
25.0862720784
 20
11.2340065037
 30
0.0
 10
25.1222738018
 20
11.2326909312
 30
0.0
 10
25.1545468152
 20
11.2313697702
 30
0.0
 10
25.1830691274
 20
11.230044651
 30
0.0
 10
25.2078217309
 20
11.2287172156
 30
0.0
 10
25.2287884813
 20
11.2273906978
 30
0.0
 10
25.2459649299
 20
11.2260688461
 30
0.0
 10
25.2593346008
 20
11.2247644396
 30
0.0
 10
25.2681093438
 20
11.2235983359
 30
0.0
 10
25.273189187
 20
11.2226294888
 30
0.0
 10
25.2756252505
 20
11.2219455135
 30
0.0
 10
25.2771069115
 20
11.2214048189
 30
0.0
 10
25.2777969937
 20
11.2207530129
 30
0.0
 10
25.2777969937
 20
11.22047594
 30
0.0
  0
SPLINE
  5
36A
100
AcDbEntity
  8
00_COMPONENTS
100
AcDbSpline
 62
7
  6
BYLAYER
 70
0
 71
3
 72
38
 73
34
 74
0
 42
0.0000001
 43
0.0000001
 44
0.0000000001
 40
0.0
 40
0.0
 40
0.0
 40
0.0
 40
0.0001308735
 40
0.0003810051
 40
0.0007725581
 40
0.0013103714
 40
0.0028302978
 40
0.004945867
 40
0.007657833
 40
0.0109659241
 40
0.0148693939
 40
0.0193660836
 40
0.0244527413
 40
0.0301260277
 40
0.0363825676
 40
0.043218962
 40
0.0586170389
 40
0.0762828631
 40
0.0961714605
 40
0.1182374293
 40
0.1424285961
 40
0.1686837548
 40
0.1969410353
 40
0.2271343901
 40
0.2930259305
 40
0.3657273658
 40
0.4445347516
 40
0.5286918706
 40
0.6173906845
 40
0.7097675174
 40
0.80493916
 40
0.9020215169
 40
1.0
 40
1.0
 40
1.0
 40
1.0
 10
3.0782098418
 20
11.22047594
 30
0.0
 10
3.0782098418
 20
11.2207530129
 30
0.0
 10
3.0788999241
 20
11.2214048189
 30
0.0
 10
3.0803815851
 20
11.2219455135
 30
0.0
 10
3.0828176486
 20
11.2226294888
 30
0.0
 10
3.0878974918
 20
11.2235983359
 30
0.0
 10
3.0966722348
 20
11.2247644396
 30
0.0
 10
3.1100419057
 20
11.2260688461
 30
0.0
 10
3.1272183543
 20
11.2273906978
 30
0.0
 10
3.1481851047
 20
11.2287172156
 30
0.0
 10
3.1729377081
 20
11.230044651
 30
0.0
 10
3.2014600204
 20
11.2313697702
 30
0.0
 10
3.2337330338
 20
11.2326909312
 30
0.0
 10
3.2697347572
 20
11.2340065037
 30
0.0
 10
3.3094433107
 20
11.2353153629
 30
0.0
 10
3.3697347463
 20
11.2371224362
 30
0.0
 10
3.4541794058
 20
11.2393254147
 30
0.0
 10
3.5662573683
 20
11.2418381407
 30
0.0
 10
3.6924559846
 20
11.2443050141
 30
0.0
 10
3.8324726963
 20
11.2467184091
 30
0.0
 10
3.9859708277
 20
11.2490712258
 30
0.0
 10
4.1525789337
 20
11.251357833
 30
0.0
 10
4.331896308
 20
11.2535719821
 30
0.0
 10
4.5951253595
 20
11.2565054357
 30
0.0
 10
4.9524476424
 20
11.2599093081
 30
0.0
 10
5.4126928815
 20
11.2635182846
 30
0.0
 10
5.911612088
 20
11.2667236843
 30
0.0
 10
6.4444024835
 20
11.2694926417
 30
0.0
 10
7.0059232664
 20
11.2717965285
 30
0.0
 10
7.5907648361
 20
11.2736132142
 30
0.0
 10
8.1933566305
 20
11.2749239227
 30
0.0
 10
8.8078086086
 20
11.2757150353
 30
0.0
 10
9.2207727578
 20
11.2758916065
 30
0.0
 10
9.4282034177
 20
11.2758916065
 30
0.0
  0
SPLINE
  5
36B
100
AcDbEntity
  8
00_COMPONENTS
100
AcDbSpline
 62
7
  6
BYLAYER
 70
0
 71
3
 72
16
 73
12
 74
0
 42
0.0000001
 43
0.0000001
 44
0.0000000001
 40
0.0
 40
0.0
 40
0.0
 40
0.0
 40
0.0758524349
 40
0.1509669365
 40
0.2948317275
 40
0.4288604866
 40
0.5537606385
 40
0.6714067929
 40
0.7837967691
 40
0.8928219847
 40
1.0
 40
1.0
 40
1.0
 40
1.0
 10
21.7127714399
 20
23.044154442
 30
0.0
 10
21.7278243574
 20
23.0442201208
 30
0.0
 10
21.7578051954
 20
23.046168066
 30
0.0
 10
21.815483168
 20
23.0565809067
 30
0.0
 10
21.8819081453
 20
23.0807934026
 30
0.0
 10
21.9499381213
 20
23.123805766
 30
0.0
 10
22.0042474435
 20
23.1758279314
 30
0.0
 10
22.0453002641
 20
23.2335486501
 30
0.0
 10
22.0740318742
 20
23.2947818482
 30
0.0
 10
22.0911821327
 20
23.358014329
 30
0.0
 10
22.0952206318
 20
23.4009746082
 30
0.0
 10
22.095407662
 20
23.4222434679
 30
0.0
  0
SPLINE
  5
36C
100
AcDbEntity
  8
00_COMPONENTS
100
AcDbSpline
 62
7
  6
BYLAYER
 70
0
 71
3
 72
16
 73
12
 74
0
 42
0.0000001
 43
0.0000001
 44
0.0000000001
 40
0.0
 40
0.0
 40
0.0
 40
0.0
 40
0.1071782263
 40
0.2162038028
 40
0.3285941376
 40
0.4462408767
 40
0.5711411411
 40
0.705169739
 40
0.8490344406
 40
0.9241478906
 40
1.0
 40
1.0
 40
1.0
 40
1.0
 10
6.2605991736
 20
23.4222434679
 30
0.0
 10
6.2607862041
 20
23.400974565
 30
0.0
 10
6.2648247066
 20
23.3580141648
 30
0.0
 10
6.2819750976
 20
23.2947815278
 30
0.0
 10
6.310706787
 20
23.2335480667
 30
0.0
 10
6.3517599686
 20
23.1758273327
 30
0.0
 10
6.4060694375
 20
23.1238051681
 30
0.0
 10
6.4740995381
 20
23.0807930331
 30
0.0
 10
6.5405242742
 20
23.0565806941
 30
0.0
 10
6.598201961
 20
23.0461678197
 30
0.0
 10
6.6281825419
 20
23.0442201205
 30
0.0
 10
6.6432353957
 20
23.044154442
 30
0.0
  0
SPLINE
  5
36D
100
AcDbEntity
  8
00_COMPONENTS
100
AcDbSpline
 62
7
  6
BYLAYER
 70
0
 71
3
 72
38
 73
34
 74
0
 42
0.0000001
 43
0.0000001
 44
0.0000000001
 40
0.0
 40
0.0
 40
0.0
 40
0.0
 40
0.0001308735
 40
0.0003810051
 40
0.0007725581
 40
0.0013103714
 40
0.0028302978
 40
0.004945867
 40
0.007657833
 40
0.0109659241
 40
0.0148693939
 40
0.0193660836
 40
0.0244527413
 40
0.0301260277
 40
0.0363825676
 40
0.043218962
 40
0.0586170389
 40
0.0762828631
 40
0.0961714605
 40
0.1182374293
 40
0.1424285961
 40
0.1686837548
 40
0.1969410353
 40
0.2271343901
 40
0.2930259305
 40
0.3657273658
 40
0.4445347516
 40
0.5286918706
 40
0.6173906845
 40
0.7097675174
 40
0.80493916
 40
0.9020215169
 40
1.0
 40
1.0
 40
1.0
 40
1.0
 10
25.2777969937
 20
12.97302406
 30
0.0
 10
25.2777969937
 20
12.9727469871
 30
0.0
 10
25.2771069115
 20
12.9720951811
 30
0.0
 10
25.2756252505
 20
12.9715544865
 30
0.0
 10
25.273189187
 20
12.9708705112
 30
0.0
 10
25.2681093438
 20
12.9699016641
 30
0.0
 10
25.2593346008
 20
12.9687355604
 30
0.0
 10
25.2459649299
 20
12.9674311539
 30
0.0
 10
25.2287884813
 20
12.9661093022
 30
0.0
 10
25.2078217309
 20
12.9647827844
 30
0.0
 10
25.1830691274
 20
12.963455349
 30
0.0
 10
25.1545468152
 20
12.9621302298
 30
0.0
 10
25.1222738018
 20
12.9608090688
 30
0.0
 10
25.0862720784
 20
12.9594934963
 30
0.0
 10
25.0465635249
 20
12.9581846371
 30
0.0
 10
24.9862720893
 20
12.9563775638
 30
0.0
 10
24.9018274298
 20
12.9541745853
 30
0.0
 10
24.7897494673
 20
12.9516618593
 30
0.0
 10
24.663550851
 20
12.9491949859
 30
0.0
 10
24.5235341393
 20
12.9467815909
 30
0.0
 10
24.3700360079
 20
12.9444287742
 30
0.0
 10
24.2034279019
 20
12.942142167
 30
0.0
 10
24.0241105276
 20
12.9399280179
 30
0.0
 10
23.7608814761
 20
12.9369945643
 30
0.0
 10
23.4035591932
 20
12.9335906919
 30
0.0
 10
22.9433139541
 20
12.9299817154
 30
0.0
 10
22.4443947476
 20
12.9267763157
 30
0.0
 10
21.9116043521
 20
12.9240073583
 30
0.0
 10
21.3500835692
 20
12.9217034715
 30
0.0
 10
20.7652419995
 20
12.9198867858
 30
0.0
 10
20.1626502051
 20
12.9185760773
 30
0.0
 10
19.548198227
 20
12.9177849647
 30
0.0
 10
19.1352340777
 20
12.9176083935
 30
0.0
 10
18.9278034179
 20
12.9176083935
 30
0.0
  0
SPLINE
  5
36E
100
AcDbEntity
  8
00_COMPONENTS
100
AcDbSpline
 62
7
  6
BYLAYER
 70
0
 71
3
 72
38
 73
34
 74
0
 42
0.0000001
 43
0.0000001
 44
0.0000000001
 40
0.0
 40
0.0
 40
0.0
 40
0.0
 40
0.0979784831
 40
0.19506084
 40
0.2902324826
 40
0.3826093155
 40
0.4713081294
 40
0.5554652484
 40
0.6342726342
 40
0.7069740695
 40
0.7728656099
 40
0.8030589647
 40
0.8313162452
 40
0.8575714039
 40
0.8817625707
 40
0.9038285395
 40
0.9237171369
 40
0.9413829611
 40
0.956781038
 40
0.9636174324
 40
0.9698739723
 40
0.9755472587
 40
0.9806339164
 40
0.9851306061
 40
0.9890340759
 40
0.992342167
 40
0.995054133
 40
0.9971697022
 40
0.9986896286
 40
0.9992274419
 40
0.9996189949
 40
0.9998691265
 40
1.0
 40
1.0
 40
1.0
 40
1.0
 10
9.4282034177
 20
12.9176083935
 30
0.0
 10
9.2207727578
 20
12.9176083935
 30
0.0
 10
8.8078086086
 20
12.9177849647
 30
0.0
 10
8.1933566305
 20
12.9185760773
 30
0.0
 10
7.5907648361
 20
12.9198867858
 30
0.0
 10
7.0059232664
 20
12.9217034715
 30
0.0
 10
6.4444024835
 20
12.9240073583
 30
0.0
 10
5.911612088
 20
12.9267763157
 30
0.0
 10
5.4126928815
 20
12.9299817154
 30
0.0
 10
4.9524476424
 20
12.9335906919
 30
0.0
 10
4.5951253595
 20
12.9369945643
 30
0.0
 10
4.331896308
 20
12.9399280179
 30
0.0
 10
4.1525789337
 20
12.942142167
 30
0.0
 10
3.9859708277
 20
12.9444287742
 30
0.0
 10
3.8324726963
 20
12.9467815909
 30
0.0
 10
3.6924559846
 20
12.9491949859
 30
0.0
 10
3.5662573683
 20
12.9516618593
 30
0.0
 10
3.4541794058
 20
12.9541745853
 30
0.0
 10
3.3697347463
 20
12.9563775638
 30
0.0
 10
3.3094433107
 20
12.9581846371
 30
0.0
 10
3.2697347572
 20
12.9594934963
 30
0.0
 10
3.2337330338
 20
12.9608090688
 30
0.0
 10
3.2014600204
 20
12.9621302298
 30
0.0
 10
3.1729377081
 20
12.963455349
 30
0.0
 10
3.1481851047
 20
12.9647827844
 30
0.0
 10
3.1272183543
 20
12.9661093022
 30
0.0
 10
3.1100419057
 20
12.9674311539
 30
0.0
 10
3.0966722348
 20
12.9687355604
 30
0.0
 10
3.0878974918
 20
12.9699016641
 30
0.0
 10
3.0828176486
 20
12.9708705112
 30
0.0
 10
3.0803815851
 20
12.9715544865
 30
0.0
 10
3.0788999241
 20
12.9720951811
 30
0.0
 10
3.0782098418
 20
12.9727469871
 30
0.0
 10
3.0782098418
 20
12.97302406
 30
0.0
  0
ELLIPSE
  5
36F
100
AcDbEntity
  8
00_COMPONENTS
100
AcDbEllipse
 62
7
  6
BYLAYER
 10
14.1780034178
 20
20.6813370547
 30
0.0
 11
3.3528
 21
0.0
 31
0.0
 40
0.0524077793
 41
3.1415926536
 42
6.2831853072
  0
ELLIPSE
  5
370
100
AcDbEntity
  8
00_COMPONENTS
100
AcDbEllipse
 62
7
  6
BYLAYER
 10
17.9482104751
 20
24.69515
 30
0.0
 11
0.0
 21
0.381
 31
0.0
 40
0.0973339485
 41
-3.1415926536
 42
-1.5707963268
  0
ELLIPSE
  5
371
100
AcDbEntity
  8
00_COMPONENTS
100
AcDbEllipse
 62
7
  6
BYLAYER
 10
19.1606130755
 20
13.3369705598
 30
0.0
 11
-0.2694282005
 21
0.2694282005
 31
0.0
 40
0.9999238505
 41
2.3562325664
 42
3.9269527408
  0
ELLIPSE
  5
372
100
AcDbEntity
  8
00_COMPONENTS
100
AcDbEllipse
 62
7
  6
BYLAYER
 10
21.7144221693
 20
26.6663592994
 30
0.0
 11
0.3809970521
 21
0.2204713763
 31
0.0
 40
0.0067980008
 41
-1.5747301023
 42
-0.0126604218
  0
ELLIPSE
  5
373
100
AcDbEntity
  8
00_COMPONENTS
100
AcDbEllipse
 62
7
  6
BYLAYER
 10
6.6415846663
 20
26.6663592994
 30
0.0
 11
0.3809970521
 21
-0.2204713763
 31
0.0
 40
0.0067980008
 41
-3.1289322318
 42
-1.5668625513
  0
ELLIPSE
  5
374
100
AcDbEntity
  8
00_COMPONENTS
100
AcDbEllipse
 62
7
  6
BYLAYER
 10
9.1953937601
 20
13.3369705598
 30
0.0
 11
-0.2694282005
 21
-0.2694282005
 31
0.0
 40
0.9999238505
 41
-0.7853600872
 42
0.7853600872
  0
ELLIPSE
  5
375
100
AcDbEntity
  8
00_COMPONENTS
100
AcDbEllipse
 62
7
  6
BYLAYER
 10
10.4077963605
 20
24.69515
 30
0.0
 11
-0.0
 21
0.381
 31
0.0
 40
0.0973339485
 41
-4.7123889804
 42
-3.1415926536
  0
ELLIPSE
  5
376
100
AcDbEntity
  8
00_COMPONENTS
100
AcDbEllipse
 62
7
  6
BYLAYER
 10
14.1780034178
 20
19.4360917591
 30
0.0
 11
3.3528
 21
0.0
 31
0.0
 40
0.0524077793
 41
-3.1415926536
 42
-0.0
  0
ENDSEC
  0
SECTION
  2
OBJECTS
  0
DICTIONARY
  5
C
100
AcDbDictionary
280
0
281
1
  3
ACAD_GROUP
350
D
  3
ACAD_MLINESTYLE
350
17
  3
ACAD_LAYOUT
350
1A
  3
ACAD_PLOTSETTINGS
350
19
  3
ACAD_PLOTSTYLENAME
350
E
  0
DICTIONARY
  5
D
102
{ACAD_REACTORS
330
C
102
}
100
AcDbDictionary
280
0
281
1
  0
ACDBDICTIONARYWDFLT
  5
E
102
{ACAD_REACTORS
330
C
102
}
100
AcDbDictionary
281
1
  3
Normal
350
F
100
AcDbDictionaryWithDefault
340
F
  0
DICTIONARY
  5
17
102
{ACAD_REACTORS
330
C
102
}
100
AcDbDictionary
280
0
281
1
  3
Standard
350
18
  0
DICTIONARY
  5
19
102
{ACAD_REACTORS
330
C
102
}
100
AcDbDictionary
281
1
  0
DICTIONARY
  5
1A
102
{ACAD_REACTORS
330
C
102
}
100
AcDbDictionary
281
1
  3
Model
350
377
  3
Layout1
350
378
  0
ACDBPLACEHOLDER
  5
F
102
{ACAD_REACTORS
330
E
102
}
  0
MLINESTYLE
  5
18
102
{ACAD_REACTORS
330
17
102
}
100
AcDbMlineStyle
  2
STANDARD
 70
0
  3

 62
256
 51
90.0
 52
90.0
 71
2
 49
0.5
 62
256
  6
BYLAYER
 49
-0.5
 62
256
  6
BYLAYER
  0
LAYOUT
  5
377
102
{ACAD_REACTORS
330
1A
102
}
100
AcDbPlotSettings
  1

  2
none_device
  4

  6

 40
0.0
 41
0.0
 42
0.0
 43
0.0
 44
210.0
 45
297.0
 46
0.0
 47
0.0
 48
0.0
 49
0.0
140
0.0
141
0.0
142
1.0
143
1.0
 70
1024
 72
1
 73
0
 74
0
  7

 75
0
147
1.0
148
0.0
149
0.0
100
AcDbLayout
  1
Model
 70
0
 71
0
 10
0.0
 20
0.0
 11
210.0
 21
297.0
 12
0.0
 22
0.0
 32
0.0
 14
0.0
 24
0.0
 34
0.0
 15
0.0
 25
0.0
 35
0.0
146
0.0
 13
0.0
 23
0.0
 33
0.0
 16
1.0
 26
0.0
 36
0.0
 17
0.0
 27
1.0
 37
0.0
 76
0
330
211
345
0
346
0
  0
LAYOUT
  5
378
102
{ACAD_REACTORS
330
1A
102
}
100
AcDbPlotSettings
  1

  2
none_device
  4

  6

 40
0.0
 41
0.0
 42
0.0
 43
0.0
 44
210.0
 45
297.0
 46
0.0
 47
0.0
 48
0.0
 49
0.0
140
0.0
141
0.0
142
1.0
143
1.0
 70
0
 72
1
 73
0
 74
0
  7

 75
0
147
1.0
148
0.0
149
0.0
100
AcDbLayout
  1
Layout1
 70
0
 71
1
 10
0.0
 20
0.0
 11
210.0
 21
297.0
 12
0.0
 22
0.0
 32
0.0
 14
0.0
 24
0.0
 34
0.0
 15
0.0
 25
0.0
 35
0.0
146
0.0
 13
0.0
 23
0.0
 33
0.0
 16
1.0
 26
0.0
 36
0.0
 17
0.0
 27
1.0
 37
0.0
 76
0
330
212
345
0
346
0
  0
ENDSEC
  0
EOF
