999
DXF file: C:\Users\sesa63760\Dev\_Creo\CAD\MCADID0000578_3D-CAD\drw0001_2.dxf
999
Pro/ENGINEER 2019471 by Parametric Technology Corporation
  0
SECTION
  2
HEADER
  9
$ACADVER
  1
AC1024
  9
$DWGCODEPAGE
  3
ANSI_1252
  9
$EXTMAX
 10
285.9511854654
 20
404.4166765868
 30
0.0
  9
$EXTMIN
 10
0.0
 20
0.0
 30
0.0
  9
$LIMMIN
 10
0.0
 20
0.0
  9
$LIMMAX
 10
285.9511854654
 20
404.4166765868
  9
$VIEWCTR
 10
142.9755927327
 20
202.2083382934
  9
$VIEWSIZE
 40
404.4166765868
  9
$CLAYER
  8
0
  9
$LTSCALE
 40
26.3619759553
  9
$CELTYPE
  6
BYLAYER
  9
$DIMSCALE
 40
1.0
  9
$DIMASZ
 40
3.4041807793
  9
$DIMEXO
 40
1.0
  9
$DIMDLI
 40
18.2137288418
  9
$DIMEXE
 40
1.0
  9
$DIMCEN
 40
4.3137778836
  9
$DIMLFAC
 40
1.0
  9
$DIMBLK
  1
_FILLED
  9
$DIMALT
 70
0
  9
$DIMALTF
 40
0.0393700787
  9
$DIMTXT
 40
4.7658530911
  9
$DIMTOL
 70
1
  9
$DIMLIM
 70
0
  9
$DIMTFAC
 40
1.0
  9
$DIMTP
 40
0.01
  9
$DIMTM
 40
0.01
  9
$DIMGAP
 40
0.625
  9
$DIMDSEP
 70
46
  9
$AUNITS
 70
0
  9
$PDMODE
 70
3
  9
$PDSIZE
 40
0.3125
  9
$HANDSEED
  5
38A
  9
$TILEMODE
 70
1
  9
$MEASUREMENT
 70
1
  9
$INSUNITS
 70
4
  0
ENDSEC
  0
SECTION
  2
CLASSES
  0
CLASS
  1
ACDBDICTIONARYWDFLT
  2
AcDbDictionaryWithDefault
  3
AutoCAD 2000
 90
0
 91
1
280
0
281
0
  0
CLASS
  1
ACDBPLACEHOLDER
  2
AcDbPlaceHolder
  3
AutoCAD 2000
 90
0
 91
1
280
0
281
0
  0
CLASS
  1
LAYOUT
  2
AcDbLayout
  3
AutoCAD 2000
 90
0
 91
0
280
0
281
0
  0
ENDSEC
  0
SECTION
  2
TABLES
  0
TABLE
  2
VPORT
  5
8
100
AcDbSymbolTable
 70
2
  0
VPORT
  5
1F4
100
AcDbSymbolTableRecord
100
AcDbViewportTableRecord
  2
*ACTIVE
 70
0
 10
0.0
 20
0.0
 11
1.0
 21
1.0
 12
142.9755927327
 22
202.2083382934
 13
0.0
 23
0.0
 14
1.0
 24
1.0
 15
0.0
 25
0.0
 16
0.0
 26
0.0
 36
1.0
 17
0.0
 27
0.0
 37
0.0
 40
404.4166765868
 41
0.7070707071
 42
50.0
 43
0.0
 44
0.0
 50
0.0
 51
0.0
 71
0
 72
100
 73
1
 74
1
 75
0
 76
0
 77
0
 78
0
  0
ENDTAB
  0
TABLE
  2
LTYPE
  5
5
100
AcDbSymbolTable
 70
6
  0
LTYPE
  5
14
100
AcDbSymbolTableRecord
100
AcDbLinetypeTableRecord
  2
BYBLOCK
 70
0
  3

 72
65
 73
0
 40
0.0
  0
LTYPE
  5
15
100
AcDbSymbolTableRecord
100
AcDbLinetypeTableRecord
  2
BYLAYER
 70
0
  3

 72
65
 73
0
 40
0.0
  0
LTYPE
  5
16
100
AcDbSymbolTableRecord
100
AcDbLinetypeTableRecord
  2
CONTINUOUS
 70
64
  3
Solid line
 72
65
 73
0
 40
0.0
  0
LTYPE
  5
1F5
100
AcDbSymbolTableRecord
100
AcDbLinetypeTableRecord
  2
CENTER
 70
64
  3
____ _ ____ _ ____ _ ____ _ ____ _ ____ _ ____
 72
65
 73
4
 40
0.6
 49
0.375
 74
0
 49
-0.075
 74
0
 49
0.075
 74
0
 49
-0.075
 74
0
  0
LTYPE
  5
1F6
100
AcDbSymbolTableRecord
100
AcDbLinetypeTableRecord
  2
HIDDEN
 70
64
  3
- - - - - - - - - - - - - - - - - - - -
 72
65
 73
2
 40
0.2
 49
0.1
 74
0
 49
-0.1
 74
0
  0
LTYPE
  5
1F7
100
AcDbSymbolTableRecord
100
AcDbLinetypeTableRecord
  2
PHANTOM
 70
64
  3
_____ _ _ _____ _ _ _____ _ _ _____
 72
65
 73
6
 40
0.8
 49
0.45
 74
0
 49
-0.05
 74
0
 49
0.1
 74
0
 49
-0.05
 74
0
 49
0.1
 74
0
 49
-0.05
 74
0
  0
LTYPE
  5
1F8
100
AcDbSymbolTableRecord
100
AcDbLinetypeTableRecord
  2
DOT
 70
64
  3
. . . . . . . . . . . . . . . . . . . .
 72
65
 73
2
 40
0.2
 49
0.1
 74
0
 49
-0.1
 74
0
  0
LTYPE
  5
1F9
100
AcDbSymbolTableRecord
100
AcDbLinetypeTableRecord
  2
DASHED
 70
64
  3
- - - - - - - - - - - - - - - - - - - -
 72
65
 73
2
 40
0.2
 49
0.1
 74
0
 49
-0.1
 74
0
  0
ENDTAB
  0
TABLE
  2
LAYER
  5
2
100
AcDbSymbolTable
 70
36
  0
LAYER
  5
10
100
AcDbSymbolTableRecord
100
AcDbLayerTableRecord
  2
0
 70
0
 62
7
  6
CONTINUOUS
370
-3
390
F
  0
LAYER
  5
1FA
100
AcDbSymbolTableRecord
100
AcDbLayerTableRecord
  2
DEFAULT_1
 70
0
 62
7
  6
CENTER
370
-3
390
F
  0
LAYER
  5
1FB
100
AcDbSymbolTableRecord
100
AcDbLayerTableRecord
  2
DEFAULT_2
 70
0
 62
8
  6
HIDDEN
370
-3
390
F
  0
LAYER
  5
1FC
100
AcDbSymbolTableRecord
100
AcDbLayerTableRecord
  2
DEFAULT_3
 70
0
 62
7
  6
PHANTOM
370
-3
390
F
  0
LAYER
  5
1FD
100
AcDbSymbolTableRecord
100
AcDbLayerTableRecord
  2
00_COMPONENTS
 70
0
 62
7
  6
CONTINUOUS
370
-3
390
F
  0
LAYER
  5
1FE
100
AcDbSymbolTableRecord
100
AcDbLayerTableRecord
  2
01_1_DEFAULT_DATUMS
 70
0
 62
7
  6
CONTINUOUS
370
-3
390
F
  0
LAYER
  5
1FF
100
AcDbSymbolTableRecord
100
AcDbLayerTableRecord
  2
01_PLANES
 70
0
 62
7
  6
CONTINUOUS
370
-3
390
F
  0
LAYER
  5
200
100
AcDbSymbolTableRecord
100
AcDbLayerTableRecord
  2
02_COORD_SYS
 70
0
 62
7
  6
CONTINUOUS
370
-3
390
F
  0
LAYER
  5
201
100
AcDbSymbolTableRecord
100
AcDbLayerTableRecord
  2
03_AXES
 70
0
 62
7
  6
CONTINUOUS
370
-3
390
F
  0
LAYER
  5
202
100
AcDbSymbolTableRecord
100
AcDbLayerTableRecord
  2
04_POINTS
 70
0
 62
7
  6
CONTINUOUS
370
-3
390
F
  0
LAYER
  5
203
100
AcDbSymbolTableRecord
100
AcDbLayerTableRecord
  2
05_CURVES
 70
0
 62
7
  6
CONTINUOUS
370
-3
390
F
  0
LAYER
  5
204
100
AcDbSymbolTableRecord
100
AcDbLayerTableRecord
  2
06_SURFS
 70
0
 62
7
  6
CONTINUOUS
370
-3
390
F
  0
LAYER
  5
205
100
AcDbSymbolTableRecord
100
AcDbLayerTableRecord
  2
07_COSMETICS
 70
0
 62
7
  6
CONTINUOUS
370
-3
390
F
  0
LAYER
  5
206
100
AcDbSymbolTableRecord
100
AcDbLayerTableRecord
  2
10_NOTES
 70
0
 62
7
  6
CONTINUOUS
370
-3
390
F
  0
LAYER
  5
207
100
AcDbSymbolTableRecord
100
AcDbLayerTableRecord
  2
11_NOTES_PUB
 70
0
 62
7
  6
CONTINUOUS
370
-3
390
F
  0
LAYER
  5
208
100
AcDbSymbolTableRecord
100
AcDbLayerTableRecord
  2
13_REF_GTOL
 70
0
 62
7
  6
CONTINUOUS
370
-3
390
F
  0
LAYER
  5
209
100
AcDbSymbolTableRecord
100
AcDbLayerTableRecord
  2
16_MISC
 70
0
 62
7
  6
CONTINUOUS
370
-3
390
F
  0
LAYER
  5
20A
100
AcDbSymbolTableRecord
100
AcDbLayerTableRecord
  2
17_NO_PRINT
 70
0
 62
7
  6
CONTINUOUS
370
-3
390
F
  0
LAYER
  5
20B
100
AcDbSymbolTableRecord
100
AcDbLayerTableRecord
  2
18_DATUM_CAMS_JOINTS
 70
0
 62
7
  6
CONTINUOUS
370
-3
390
F
  0
LAYER
  5
20C
100
AcDbSymbolTableRecord
100
AcDbLayerTableRecord
  2
19_DATUM_FUNCTIONAL
 70
0
 62
7
  6
CONTINUOUS
370
-3
390
F
  0
LAYER
  5
20D
100
AcDbSymbolTableRecord
100
AcDbLayerTableRecord
  2
20_DATUM_KINEMATIC_SCHEME
 70
0
 62
7
  6
CONTINUOUS
370
-3
390
F
  0
ENDTAB
  0
TABLE
  2
STYLE
  5
3
100
AcDbSymbolTable
 70
1
  0
STYLE
  5
11
100
AcDbSymbolTableRecord
100
AcDbTextStyleTableRecord
  2
STANDARD
 70
0
 40
0.0
 41
0.8
 50
0.0
 71
0
 42
0.2
  3
txt
  4

  0
STYLE
  5
20E
100
AcDbSymbolTableRecord
100
AcDbTextStyleTableRecord
  2
TEXTSTYLE_1
 70
0
 40
0.0
 41
0.8
 50
0.0
 71
0
 42
0.2
  3
gdt
  4

  0
ENDTAB
  0
TABLE
  2
VIEW
  5
6
100
AcDbSymbolTable
 70
0
  0
ENDTAB
  0
TABLE
  2
UCS
  5
7
100
AcDbSymbolTable
 70
0
  0
ENDTAB
  0
TABLE
  2
APPID
  5
9
100
AcDbSymbolTable
 70
1
  0
APPID
  5
20F
100
AcDbSymbolTableRecord
100
AcDbRegAppTableRecord
  2
ACAD
 70
0
  0
ENDTAB
  0
TABLE
  2
BLOCK_RECORD
  5
1
100
AcDbSymbolTable
 70
0
  0
BLOCK_RECORD
  5
210
100
AcDbSymbolTableRecord
100
AcDbBlockTableRecord
  2
*Model_Space
  0
BLOCK_RECORD
  5
211
100
AcDbSymbolTableRecord
100
AcDbBlockTableRecord
  2
*Paper_Space
  0
BLOCK_RECORD
  5
212
100
AcDbSymbolTableRecord
100
AcDbBlockTableRecord
  2
_FILLED
  0
ENDTAB
  0
TABLE
  2
DIMSTYLE
  5
A
100
AcDbSymbolTable
 70
1
100
AcDbDimStyleTable
 71
0
  0
DIMSTYLE
105
213
100
AcDbSymbolTableRecord
100
AcDbDimStyleTableRecord
  2
STANDARD
 70
0
  3

  4

 40
1.0
 41
3.4041807793
 42
1.0
 43
0.38
 44
1.0
 45
0.0
 46
0.0
 47
0.01
 48
0.01
140
4.7658530911
141
0.09
142
0.0
143
25.4
144
1.0
145
0.0
146
1.0
147
0.625
 71
1
 72
0
 73
0
 74
0
 75
0
 76
0
 77
1
 78
8
 79
2
170
0
171
1
172
0
173
0
174
0
175
0
176
0
177
0
178
0
270
2
179
2
271
2
272
2
273
2
274
2
275
0
280
0
281
0
282
0
283
1
284
8
285
0
286
0
287
3
288
0
340
11
278
46
341
212
342
212
343
212
344
212
  0
ENDTAB
  0
ENDSEC
  0
SECTION
  2
BLOCKS
  0
BLOCK
  5
20
100
AcDbEntity
  8
0
100
AcDbBlockBegin
  2
*Model_Space
 70
0
 10
0.0
 20
0.0
 30
0.0
  3
*Model_Space
  1

  0
ENDBLK
  5
21
100
AcDbEntity
  8
0
100
AcDbBlockEnd
  0
BLOCK
  5
1C
100
AcDbEntity
  8
0
100
AcDbBlockBegin
  2
*Paper_Space
 70
0
 10
0.0
 20
0.0
 30
0.0
  3
*Paper_Space
  1

  0
ENDBLK
  5
1D
100
AcDbEntity
  8
0
100
AcDbBlockEnd
  0
BLOCK
  5
214
100
AcDbEntity
  8
0
100
AcDbBlockBegin
  2
_FILLED
 70
64
 10
0.0
 20
0.0
  3
_FILLED
  1

  0
SOLID
  5
215
100
AcDbEntity
  8
0
  6
BYBLOCK
 62
0
100
AcDbTrace
 10
0.0
 20
0.0
 11
-1.0
 21
0.25
 12
-1.0
 22
-0.25
 13
-1.0
 23
-0.25
  0
ENDBLK
  5
216
100
AcDbEntity
  8
0
  6
BYBLOCK
 62
0
100
AcDbBlockEnd
  0
ENDSEC
  0
SECTION
  2
ENTITIES
  0
LINE
  5
217
100
AcDbEntity
  8
0
100
AcDbLine
 62
7
  6
CONTINUOUS
 10
31.3551965762
 20
155.748063841
 11
31.382186575
 21
155.6749078548
  0
LINE
  5
218
100
AcDbEntity
  8
0
100
AcDbLine
 62
7
  6
CONTINUOUS
 10
31.4238496626
 20
155.3283226178
 11
31.3821865732
 21
155.5350404168
  0
LINE
  5
219
100
AcDbEntity
  8
0
100
AcDbLine
 62
7
  6
CONTINUOUS
 10
32.2623954507
 20
153.1127856357
 11
32.2623954507
 21
161.112785633
  0
LINE
  5
21A
100
AcDbEntity
  8
0
100
AcDbLine
 62
7
  6
CONTINUOUS
 10
32.2623954507
 20
173.6188822901
 11
32.2623954507
 21
181.6188822874
  0
LINE
  5
21B
100
AcDbEntity
  8
0
100
AcDbLine
 62
7
  6
CONTINUOUS
 10
33.7623954507
 20
152.6658339629
 11
33.7623954507
 21
182.0658339629
  0
LINE
  5
21C
100
AcDbEntity
  8
0
100
AcDbLine
 62
7
  6
CONTINUOUS
 10
34.0623954507
 20
180.3658339629
 11
34.0623954507
 21
154.3658339629
  0
LINE
  5
21D
100
AcDbEntity
  8
0
100
AcDbLine
 62
7
  6
CONTINUOUS
 10
33.7623954507
 20
152.6658339629
 11
34.0623954507
 21
152.3658339629
  0
LINE
  5
21E
100
AcDbEntity
  8
0
100
AcDbLine
 62
7
  6
CONTINUOUS
 10
38.2623954507
 20
152.6658339629
 11
38.5623954507
 21
152.3658339629
  0
LINE
  5
21F
100
AcDbEntity
  8
0
100
AcDbLine
 62
7
  6
CONTINUOUS
 10
37.7623954507
 20
154.0658339629
 11
37.4623954507
 21
154.3658339629
  0
LINE
  5
220
100
AcDbEntity
  8
0
100
AcDbLine
 62
7
  6
CONTINUOUS
 10
31.3551965762
 20
176.2541604954
 11
31.382186575
 21
176.1810045092
  0
LINE
  5
221
100
AcDbEntity
  8
0
100
AcDbLine
 62
7
  6
CONTINUOUS
 10
31.4238496626
 20
175.8344192723
 11
31.3821865732
 21
176.0411370712
  0
LINE
  5
222
100
AcDbEntity
  8
0
100
AcDbLine
 62
7
  6
CONTINUOUS
 10
37.4623954507
 20
180.3658339629
 11
37.4623954507
 21
154.3658339629
  0
LINE
  5
223
100
AcDbEntity
  8
0
100
AcDbLine
 62
7
  6
CONTINUOUS
 10
37.7623954507
 20
152.6658339629
 11
37.7623954507
 21
182.0658339629
  0
LINE
  5
224
100
AcDbEntity
  8
0
100
AcDbLine
 62
7
  6
CONTINUOUS
 10
38.2623954507
 20
152.6658339629
 11
38.2623954507
 21
182.0658339629
  0
LINE
  5
225
100
AcDbEntity
  8
0
100
AcDbLine
 62
7
  6
CONTINUOUS
 10
38.5623954507
 20
178.3658339629
 11
38.5623954507
 21
156.3658339629
  0
LINE
  5
226
100
AcDbEntity
  8
0
100
AcDbLine
 62
7
  6
CONTINUOUS
 10
39.2623954507
 20
178.3658339629
 11
39.2623954507
 21
182.6341714839
  0
LINE
  5
227
100
AcDbEntity
  8
0
100
AcDbLine
 62
7
  6
CONTINUOUS
 10
39.4123954507
 20
152.3658339629
 11
39.4123954507
 21
152.1158339629
  0
LINE
  5
228
100
AcDbEntity
  8
0
100
AcDbLine
 62
7
  6
CONTINUOUS
 10
40.7123954507
 20
152.1158339629
 11
40.7123954507
 21
152.3658339629
  0
LINE
  5
229
100
AcDbEntity
  8
0
100
AcDbLine
 62
7
  6
CONTINUOUS
 10
31.4238472606
 20
179.4033343186
 11
31.3821865732
 21
179.1966275091
  0
LINE
  5
22A
100
AcDbEntity
  8
0
100
AcDbLine
 62
7
  6
CONTINUOUS
 10
31.4238472606
 20
158.8972376642
 11
31.3821865732
 21
158.6905308547
  0
LINE
  5
22B
100
AcDbEntity
  8
0
100
AcDbLine
 62
7
  6
CONTINUOUS
 10
48.7123954507
 20
152.3658339629
 11
48.7123954507
 21
152.1158339629
  0
LINE
  5
22C
100
AcDbEntity
  8
0
100
AcDbLine
 62
7
  6
CONTINUOUS
 10
49.7623954507
 20
198.3658339629
 11
49.7623954507
 21
191.5374290985
  0
LINE
  5
22D
100
AcDbEntity
  8
0
100
AcDbLine
 62
7
  6
CONTINUOUS
 10
50.0123954507
 20
152.1158339629
 11
50.0123954507
 21
152.3658339629
  0
LINE
  5
22E
100
AcDbEntity
  8
0
100
AcDbLine
 62
7
  6
CONTINUOUS
 10
50.0623954507
 20
167.3658339629
 11
50.0623954507
 21
152.3658339629
  0
LINE
  5
22F
100
AcDbEntity
  8
0
100
AcDbLine
 62
7
  6
CONTINUOUS
 10
33.7623954507
 20
180.6658339629
 11
34.0623954507
 21
180.3658339629
  0
LINE
  5
230
100
AcDbEntity
  8
0
100
AcDbLine
 62
7
  6
CONTINUOUS
 10
37.7623954507
 20
182.0658339629
 11
37.4623954507
 21
182.3658339629
  0
LINE
  5
231
100
AcDbEntity
  8
0
100
AcDbLine
 62
7
  6
CONTINUOUS
 10
76.7623954507
 20
205.7658339629
 11
76.7623954507
 21
203.6226882124
  0
LINE
  5
232
100
AcDbEntity
  8
0
100
AcDbLine
 62
7
  6
CONTINUOUS
 10
80.7623954507
 20
203.6226882124
 11
80.7623954507
 21
205.7658339629
  0
LINE
  5
233
100
AcDbEntity
  8
0
100
AcDbLine
 62
7
  6
CONTINUOUS
 10
34.0623954507
 20
182.3658339629
 11
33.7623954507
 21
182.0658339629
  0
LINE
  5
234
100
AcDbEntity
  8
0
100
AcDbLine
 62
7
  6
CONTINUOUS
 10
38.5623954507
 20
182.3658339629
 11
38.2623954507
 21
182.0658339629
  0
LINE
  5
235
100
AcDbEntity
  8
0
100
AcDbLine
 62
7
  6
CONTINUOUS
 10
37.4623954507
 20
180.3658339629
 11
37.7623954507
 21
180.6658339629
  0
LINE
  5
236
100
AcDbEntity
  8
0
100
AcDbLine
 62
7
  6
CONTINUOUS
 10
154.6626809842
 20
147.7294927618
 11
139.4623954507
 21
147.0658339629
  0
LINE
  5
237
100
AcDbEntity
  8
0
100
AcDbLine
 62
7
  6
CONTINUOUS
 10
120.5623954507
 20
147.1158339629
 11
109.9623954507
 21
147.1158339629
  0
LINE
  5
238
100
AcDbEntity
  8
0
100
AcDbLine
 62
7
  6
CONTINUOUS
 10
198.5623954507
 20
147.2658339629
 11
227.3784849989
 21
147.2658339629
  0
LINE
  5
239
100
AcDbEntity
  8
0
100
AcDbLine
 62
7
  6
CONTINUOUS
 10
108.0623954507
 20
147.3658339629
 11
122.7623954507
 21
147.3658339629
  0
LINE
  5
23A
100
AcDbEntity
  8
0
100
AcDbLine
 62
7
  6
CONTINUOUS
 10
122.7623954507
 20
147.6658339629
 11
123.0623954507
 21
147.6658339629
  0
LINE
  5
23B
100
AcDbEntity
  8
0
100
AcDbLine
 62
7
  6
CONTINUOUS
 10
154.9623954507
 20
147.7658339629
 11
198.5623954507
 21
147.7658339629
  0
LINE
  5
23C
100
AcDbEntity
  8
0
100
AcDbLine
 62
7
  6
CONTINUOUS
 10
139.4623954507
 20
148.9658339629
 11
141.4623954507
 21
148.9658339629
  0
LINE
  5
23D
100
AcDbEntity
  8
0
100
AcDbLine
 62
7
  6
CONTINUOUS
 10
154.9623954507
 20
150.5000232895
 11
142.1428639011
 21
150.5000232895
  0
LINE
  5
23E
100
AcDbEntity
  8
0
100
AcDbLine
 62
7
  6
CONTINUOUS
 10
228.4625434296
 20
150.9439098072
 11
198.5623954507
 21
150.9439098072
  0
LINE
  5
23F
100
AcDbEntity
  8
0
100
AcDbLine
 62
7
  6
CONTINUOUS
 10
198.5623954507
 20
151.09692152
 11
154.9623954507
 21
151.09692152
  0
LINE
  5
240
100
AcDbEntity
  8
0
100
AcDbLine
 62
7
  6
CONTINUOUS
 10
142.3208933702
 20
151.4048325934
 11
142.4002696804
 21
151.4048325934
  0
LINE
  5
241
100
AcDbEntity
  8
0
100
AcDbLine
 62
7
  6
CONTINUOUS
 10
142.4315191585
 20
151.5411171994
 11
142.3373636949
 21
151.5411171994
  0
LINE
  5
242
100
AcDbEntity
  8
0
100
AcDbLine
 62
7
  6
CONTINUOUS
 10
122.7623954507
 20
151.8683355274
 11
108.0623954507
 21
151.8683355274
  0
LINE
  5
243
100
AcDbEntity
  8
0
100
AcDbLine
 62
7
  6
CONTINUOUS
 10
50.0123954507
 20
152.1158339629
 11
39.4123954507
 21
152.1158339629
  0
LINE
  5
244
100
AcDbEntity
  8
0
100
AcDbLine
 62
7
  6
CONTINUOUS
 10
123.0623954507
 20
147.3520970277
 11
139.4623954507
 21
147.0658339629
  0
LINE
  5
245
100
AcDbEntity
  8
0
100
AcDbLine
 62
7
  6
CONTINUOUS
 10
34.0623954507
 20
154.3658339629
 11
33.7623954507
 21
154.0658339629
  0
LINE
  5
246
100
AcDbEntity
  8
0
100
AcDbLine
 62
7
  6
CONTINUOUS
 10
37.4623954507
 20
152.3658339629
 11
37.7623954507
 21
152.6658339629
  0
LINE
  5
247
100
AcDbEntity
  8
0
100
AcDbLine
 62
7
  6
CONTINUOUS
 10
34.0623954507
 20
152.3658339629
 11
37.4623954507
 21
152.3658339629
  0
LINE
  5
248
100
AcDbEntity
  8
0
100
AcDbLine
 62
7
  6
CONTINUOUS
 10
38.5623954507
 20
152.3658339629
 11
107.4623954507
 21
152.3658339629
  0
LINE
  5
249
100
AcDbEntity
  8
0
100
AcDbLine
 62
7
  6
CONTINUOUS
 10
32.2623954507
 20
153.1127856357
 11
33.7623954507
 21
153.1127856357
  0
LINE
  5
24A
100
AcDbEntity
  8
0
100
AcDbLine
 62
7
  6
CONTINUOUS
 10
123.0623954507
 20
154.1658339629
 11
122.7623954507
 21
154.1658339629
  0
LINE
  5
24B
100
AcDbEntity
  8
0
100
AcDbLine
 62
7
  6
CONTINUOUS
 10
37.4623954507
 20
154.3658339629
 11
34.0623954507
 21
154.3658339629
  0
LINE
  5
24C
100
AcDbEntity
  8
0
100
AcDbLine
 62
7
  6
CONTINUOUS
 10
142.4315191585
 20
154.3905507264
 11
142.3374872737
 21
154.3905507264
  0
LINE
  5
24D
100
AcDbEntity
  8
0
100
AcDbLine
 62
7
  6
CONTINUOUS
 10
142.3212540835
 20
154.5268353363
 11
142.4002696795
 21
154.5268353363
  0
LINE
  5
24E
100
AcDbEntity
  8
0
100
AcDbLine
 62
7
  6
CONTINUOUS
 10
135.1623954507
 20
155.1158339629
 11
137.7623954507
 21
155.1158339629
  0
LINE
  5
24F
100
AcDbEntity
  8
0
100
AcDbLine
 62
7
  6
CONTINUOUS
 10
198.5623954507
 20
155.3981206377
 11
229.2040823671
 21
155.3981206377
  0
LINE
  5
250
100
AcDbEntity
  8
0
100
AcDbLine
 62
7
  6
CONTINUOUS
 10
154.9623954507
 20
155.5511323505
 11
198.5623954507
 21
155.5511323505
  0
LINE
  5
251
100
AcDbEntity
  8
0
100
AcDbLine
 62
7
  6
CONTINUOUS
 10
142.0623786012
 20
155.5804407551
 11
154.9623954507
 21
155.5804407551
  0
LINE
  5
252
100
AcDbEntity
  8
0
100
AcDbLine
 62
7
  6
CONTINUOUS
 10
31.4665446961
 20
155.6749078548
 11
31.382186575
 21
155.6749078548
  0
LINE
  5
253
100
AcDbEntity
  8
0
100
AcDbLine
 62
7
  6
CONTINUOUS
 10
31.3551067397
 20
155.7480638411
 11
31.4663002682
 21
155.7480638411
  0
LINE
  5
254
100
AcDbEntity
  8
0
100
AcDbLine
 62
7
  6
CONTINUOUS
 10
31.4653434499
 20
155.8179284957
 11
31.3821865791
 21
155.8179284957
  0
LINE
  5
255
100
AcDbEntity
  8
0
100
AcDbLine
 62
7
  6
CONTINUOUS
 10
31.3739615824
 20
156.2037708725
 11
31.4245053982
 21
156.2037708725
  0
LINE
  5
256
100
AcDbEntity
  8
0
100
AcDbLine
 62
7
  6
CONTINUOUS
 10
50.0623954507
 20
156.3658339629
 11
38.5623954507
 21
156.3658339629
  0
LINE
  5
257
100
AcDbEntity
  8
0
100
AcDbLine
 62
7
  6
CONTINUOUS
 10
37.7623954507
 20
156.3658339629
 11
38.2623954507
 21
156.3658339629
  0
LINE
  5
258
100
AcDbEntity
  8
0
100
AcDbLine
 62
7
  6
CONTINUOUS
 10
141.4623954507
 20
156.9658339629
 11
139.4623954507
 21
156.9658339629
  0
LINE
  5
259
100
AcDbEntity
  8
0
100
AcDbLine
 62
7
  6
CONTINUOUS
 10
31.423912124
 20
157.2558062999
 11
31.382186575
 21
157.2558062999
  0
LINE
  5
25A
100
AcDbEntity
  8
0
100
AcDbLine
 62
7
  6
CONTINUOUS
 10
154.9623954507
 20
157.5095677655
 11
139.4623954507
 21
157.5095677655
  0
LINE
  5
25B
100
AcDbEntity
  8
0
100
AcDbLine
 62
7
  6
CONTINUOUS
 10
31.4553481746
 20
157.7777987551
 11
31.3821865825
 21
157.7777987551
  0
LINE
  5
25C
100
AcDbEntity
  8
0
100
AcDbLine
 62
7
  6
CONTINUOUS
 10
229.5709867979
 20
157.7883226976
 11
198.5623954507
 21
157.7883226976
  0
LINE
  5
25D
100
AcDbEntity
  8
0
100
AcDbLine
 62
7
  6
CONTINUOUS
 10
172.9623954507
 20
158.260798601
 11
154.9623954507
 21
158.260798601
  0
LINE
  5
25E
100
AcDbEntity
  8
0
100
AcDbLine
 62
7
  6
CONTINUOUS
 10
198.5623954507
 20
158.2643346888
 11
172.9623954507
 21
158.2643346888
  0
LINE
  5
25F
100
AcDbEntity
  8
0
100
AcDbLine
 62
7
  6
CONTINUOUS
 10
31.3551067397
 20
158.4775074304
 11
31.382186583
 21
158.4775074304
  0
LINE
  5
260
100
AcDbEntity
  8
0
100
AcDbLine
 62
7
  6
CONTINUOUS
 10
31.4277819294
 20
158.6905308547
 11
31.3821865732
 21
158.6905308547
  0
LINE
  5
261
100
AcDbEntity
  8
0
100
AcDbLine
 62
7
  6
CONTINUOUS
 10
229.7581533637
 20
159.0658339629
 11
255.4502362256
 21
159.0658339629
  0
LINE
  5
262
100
AcDbEntity
  8
0
100
AcDbLine
 62
7
  6
CONTINUOUS
 10
198.5623954507
 20
159.2201068564
 11
229.7804448872
 21
159.2201068564
  0
LINE
  5
263
100
AcDbEntity
  8
0
100
AcDbLine
 62
7
  6
CONTINUOUS
 10
139.4623954507
 20
159.5685379875
 11
154.9623954507
 21
159.5685379875
  0
LINE
  5
264
100
AcDbEntity
  8
0
100
AcDbLine
 62
7
  6
CONTINUOUS
 10
172.9623954507
 20
159.6961188476
 11
198.5623954507
 21
159.6961188476
  0
LINE
  5
265
100
AcDbEntity
  8
0
100
AcDbLine
 62
7
  6
CONTINUOUS
 10
154.9623954507
 20
159.7201600909
 11
172.9623954507
 21
159.7201600909
  0
LINE
  5
266
100
AcDbEntity
  8
0
100
AcDbLine
 62
7
  6
CONTINUOUS
 10
107.4623954507
 20
173.9873598515
 11
108.0623954507
 21
170.5009020849
  0
LINE
  5
267
100
AcDbEntity
  8
0
100
AcDbLine
 62
7
  6
CONTINUOUS
 10
107.4623954507
 20
147.9658339629
 11
107.4623954507
 21
173.9873598515
  0
LINE
  5
268
100
AcDbEntity
  8
0
100
AcDbLine
 62
7
  6
CONTINUOUS
 10
108.0623954507
 20
151.8683355274
 11
108.0623954507
 21
170.5009020849
  0
LINE
  5
269
100
AcDbEntity
  8
0
100
AcDbLine
 62
7
  6
CONTINUOUS
 10
109.9623954507
 20
147.3658339629
 11
109.9623954507
 21
147.1158339629
  0
LINE
  5
26A
100
AcDbEntity
  8
0
100
AcDbLine
 62
7
  6
CONTINUOUS
 10
111.2623954507
 20
147.1158339629
 11
111.2623954507
 21
147.3658339629
  0
LINE
  5
26B
100
AcDbEntity
  8
0
100
AcDbLine
 62
7
  6
CONTINUOUS
 10
32.2623954507
 20
161.1127856357
 11
33.7623954507
 21
161.1127856357
  0
LINE
  5
26C
100
AcDbEntity
  8
0
100
AcDbLine
 62
7
  6
CONTINUOUS
 10
255.8702998192
 20
162.0658339629
 11
230.1410676815
 21
162.0658339629
  0
LINE
  5
26D
100
AcDbEntity
  8
0
100
AcDbLine
 62
7
  6
CONTINUOUS
 10
204.5623954507
 20
164.2658339629
 11
172.9623954507
 21
164.2658339629
  0
LINE
  5
26E
100
AcDbEntity
  8
0
100
AcDbLine
 62
7
  6
CONTINUOUS
 10
172.9623954507
 20
164.7235553355
 11
154.9623954507
 21
164.7235553355
  0
LINE
  5
26F
100
AcDbEntity
  8
0
100
AcDbLine
 62
7
  6
CONTINUOUS
 10
137.7623954507
 20
165.2658339629
 11
135.1623954507
 21
165.2658339629
  0
LINE
  5
270
100
AcDbEntity
  8
0
100
AcDbLine
 62
7
  6
CONTINUOUS
 10
107.4623954507
 20
167.3658339629
 11
50.0623954507
 21
167.3658339629
  0
LINE
  5
271
100
AcDbEntity
  8
0
100
AcDbLine
 62
7
  6
CONTINUOUS
 10
138.9623954507
 20
167.7658339629
 11
139.9623954507
 21
167.7658339629
  0
LINE
  5
272
100
AcDbEntity
  8
0
100
AcDbLine
 62
7
  6
CONTINUOUS
 10
119.2623954507
 20
147.3658339629
 11
119.2623954507
 21
147.1158339629
  0
LINE
  5
273
100
AcDbEntity
  8
0
100
AcDbLine
 62
7
  6
CONTINUOUS
 10
120.5623954507
 20
147.1158339629
 11
120.5623954507
 21
147.3658339629
  0
LINE
  5
274
100
AcDbEntity
  8
0
100
AcDbLine
 62
7
  6
CONTINUOUS
 10
31.382186575
 20
178.531614433
 11
31.3737812532
 21
178.5278970545
  0
LINE
  5
275
100
AcDbEntity
  8
0
100
AcDbLine
 62
7
  6
CONTINUOUS
 10
32.2623954507
 20
173.6188822901
 11
33.7623954507
 21
173.6188822901
  0
LINE
  5
276
100
AcDbEntity
  8
0
100
AcDbLine
 62
7
  6
CONTINUOUS
 10
31.4665446961
 20
176.1810045092
 11
31.382186575
 21
176.1810045092
  0
LINE
  5
277
100
AcDbEntity
  8
0
100
AcDbLine
 62
7
  6
CONTINUOUS
 10
31.3551067397
 20
176.2541604955
 11
31.4663002682
 21
176.2541604955
  0
LINE
  5
278
100
AcDbEntity
  8
0
100
AcDbLine
 62
7
  6
CONTINUOUS
 10
31.4653434499
 20
176.3240251501
 11
31.3821865791
 21
176.3240251501
  0
LINE
  5
279
100
AcDbEntity
  8
0
100
AcDbLine
 62
7
  6
CONTINUOUS
 10
31.3739615824
 20
176.7098675269
 11
31.4245053982
 21
176.7098675269
  0
LINE
  5
27A
100
AcDbEntity
  8
0
100
AcDbLine
 62
7
  6
CONTINUOUS
 10
122.7623954507
 20
147.3658339629
 11
122.7623954507
 21
213.1658339629
  0
LINE
  5
27B
100
AcDbEntity
  8
0
100
AcDbLine
 62
7
  6
CONTINUOUS
 10
123.0623954507
 20
147.3520970277
 11
123.0623954507
 21
213.1795708981
  0
LINE
  5
27C
100
AcDbEntity
  8
0
100
AcDbLine
 62
7
  6
CONTINUOUS
 10
31.396693979
 20
178.537699426
 11
31.382186575
 21
178.531614433
  0
LINE
  5
27D
100
AcDbEntity
  8
0
100
AcDbLine
 62
7
  6
CONTINUOUS
 10
31.423912124
 20
177.7619029543
 11
31.382186575
 21
177.7619029543
  0
LINE
  5
27E
100
AcDbEntity
  8
0
100
AcDbLine
 62
7
  6
CONTINUOUS
 10
31.4553481746
 20
178.2838954095
 11
31.3821865825
 21
178.2838954095
  0
LINE
  5
27F
100
AcDbEntity
  8
0
100
AcDbLine
 62
7
  6
CONTINUOUS
 10
38.2623954507
 20
178.3658339629
 11
37.7623954507
 21
178.3658339629
  0
LINE
  5
280
100
AcDbEntity
  8
0
100
AcDbLine
 62
7
  6
CONTINUOUS
 10
38.5623954507
 20
178.3658339629
 11
39.2623954507
 21
178.3658339629
  0
LINE
  5
281
100
AcDbEntity
  8
0
100
AcDbLine
 62
7
  6
CONTINUOUS
 10
31.3551067397
 20
178.9836040848
 11
31.382186583
 21
178.9836040848
  0
LINE
  5
282
100
AcDbEntity
  8
0
100
AcDbLine
 62
7
  6
CONTINUOUS
 10
31.4277819294
 20
179.1966275091
 11
31.3821865732
 21
179.1966275091
  0
LINE
  5
283
100
AcDbEntity
  8
0
100
AcDbLine
 62
7
  6
CONTINUOUS
 10
34.0623954507
 20
180.3658339629
 11
37.4623954507
 21
180.3658339629
  0
LINE
  5
284
100
AcDbEntity
  8
0
100
AcDbLine
 62
7
  6
CONTINUOUS
 10
32.2623954507
 20
181.6188822901
 11
33.7623954507
 21
181.6188822901
  0
LINE
  5
285
100
AcDbEntity
  8
0
100
AcDbLine
 62
7
  6
CONTINUOUS
 10
39.2623954507
 20
182.3658339629
 11
38.5623954507
 21
182.3658339629
  0
LINE
  5
286
100
AcDbEntity
  8
0
100
AcDbLine
 62
7
  6
CONTINUOUS
 10
37.4623954507
 20
182.3658339629
 11
34.0623954507
 21
182.3658339629
  0
LINE
  5
287
100
AcDbEntity
  8
0
100
AcDbLine
 62
7
  6
CONTINUOUS
 10
133.9623954507
 20
204.2158339629
 11
133.9623954507
 21
196.4658339629
  0
LINE
  5
288
100
AcDbEntity
  8
0
100
AcDbLine
 62
7
  6
CONTINUOUS
 10
133.9623954507
 20
164.0658339629
 11
133.9623954507
 21
156.3158339629
  0
LINE
  5
289
100
AcDbEntity
  8
0
100
AcDbLine
 62
7
  6
CONTINUOUS
 10
104.6852209468
 20
190.8155281214
 11
104.3852209468
 21
190.8155281214
  0
LINE
  5
28A
100
AcDbEntity
  8
0
100
AcDbLine
 62
7
  6
CONTINUOUS
 10
106.4493698002
 20
190.8155281214
 11
106.7622683379
 21
190.8155281214
  0
LINE
  5
28B
100
AcDbEntity
  8
0
100
AcDbLine
 62
7
  6
CONTINUOUS
 10
107.8271893991
 20
191.3658339629
 11
114.4623954507
 21
191.3658339629
  0
LINE
  5
28C
100
AcDbEntity
  8
0
100
AcDbLine
 62
7
  6
CONTINUOUS
 10
139.9623954507
 20
192.7658339629
 11
138.9623954507
 21
192.7658339629
  0
LINE
  5
28D
100
AcDbEntity
  8
0
100
AcDbLine
 62
7
  6
CONTINUOUS
 10
142.4315185729
 20
154.3905508709
 11
142.4002696795
 21
154.5268353363
  0
LINE
  5
28E
100
AcDbEntity
  8
0
100
AcDbLine
 62
7
  6
CONTINUOUS
 10
138.4623954507
 20
192.2658339629
 11
138.4623954507
 21
168.2658339629
  0
LINE
  5
28F
100
AcDbEntity
  8
0
100
AcDbLine
 62
7
  6
CONTINUOUS
 10
138.9623954507
 20
156.3158339629
 11
138.9623954507
 21
164.0658339629
  0
LINE
  5
290
100
AcDbEntity
  8
0
100
AcDbLine
 62
7
  6
CONTINUOUS
 10
138.9623954507
 20
196.4658339629
 11
138.9623954507
 21
204.2158339629
  0
LINE
  5
291
100
AcDbEntity
  8
0
100
AcDbLine
 62
7
  6
CONTINUOUS
 10
139.4623954507
 20
147.0658339629
 11
139.4623954507
 21
167.7658339629
  0
LINE
  5
292
100
AcDbEntity
  8
0
100
AcDbLine
 62
7
  6
CONTINUOUS
 10
139.4623954507
 20
192.7658339629
 11
139.4623954507
 21
213.4658339629
  0
LINE
  5
293
100
AcDbEntity
  8
0
100
AcDbLine
 62
7
  6
CONTINUOUS
 10
140.4623954507
 20
168.2658339629
 11
140.4623954507
 21
192.2658339629
  0
LINE
  5
294
100
AcDbEntity
  8
0
100
AcDbLine
 62
7
  6
CONTINUOUS
 10
141.4623954507
 20
211.5658339629
 11
141.4623954507
 21
203.5658339629
  0
LINE
  5
295
100
AcDbEntity
  8
0
100
AcDbLine
 62
7
  6
CONTINUOUS
 10
141.4623954507
 20
156.9658339629
 11
141.4623954507
 21
148.9658339629
  0
LINE
  5
296
100
AcDbEntity
  8
0
100
AcDbLine
 62
7
  6
CONTINUOUS
 10
142.4002696974
 20
206.0048326673
 11
142.4315186689
 21
206.1411171994
  0
LINE
  5
297
100
AcDbEntity
  8
0
100
AcDbLine
 62
7
  6
CONTINUOUS
 10
31.382186575
 20
158.0255177786
 11
31.3737812532
 21
158.0218004001
  0
LINE
  5
298
100
AcDbEntity
  8
0
100
AcDbLine
 62
7
  6
CONTINUOUS
 10
31.396693979
 20
158.0316027715
 11
31.382186575
 21
158.0255177786
  0
LINE
  5
299
100
AcDbEntity
  8
0
100
AcDbLine
 62
7
  6
CONTINUOUS
 10
106.7623954507
 20
194.3658339629
 11
114.7623954507
 21
194.3658339629
  0
LINE
  5
29A
100
AcDbEntity
  8
0
100
AcDbLine
 62
7
  6
CONTINUOUS
 10
135.1623954507
 20
195.2658339629
 11
137.7623954507
 21
195.2658339629
  0
LINE
  5
29B
100
AcDbEntity
  8
0
100
AcDbLine
 62
7
  6
CONTINUOUS
 10
172.9623954507
 20
196.2658339629
 11
204.5623954507
 21
196.2658339629
  0
LINE
  5
29C
100
AcDbEntity
  8
0
100
AcDbLine
 62
7
  6
CONTINUOUS
 10
154.9623954507
 20
196.6835553355
 11
172.9623954507
 21
196.6835553355
  0
LINE
  5
29D
100
AcDbEntity
  8
0
100
AcDbLine
 62
7
  6
CONTINUOUS
 10
172.9623954507
 20
200.811507835
 11
154.9623954507
 21
200.811507835
  0
LINE
  5
29E
100
AcDbEntity
  8
0
100
AcDbLine
 62
7
  6
CONTINUOUS
 10
198.5623954507
 20
200.8355490782
 11
172.9623954507
 21
200.8355490782
  0
LINE
  5
29F
100
AcDbEntity
  8
0
100
AcDbLine
 62
7
  6
CONTINUOUS
 10
154.9623954507
 20
200.9631299384
 11
139.4623954507
 21
200.9631299384
  0
LINE
  5
2A0
100
AcDbEntity
  8
0
100
AcDbLine
 62
7
  6
CONTINUOUS
 10
232.4824719541
 20
201.3115610694
 11
198.5623954507
 21
201.3115610694
  0
LINE
  5
2A1
100
AcDbEntity
  8
0
100
AcDbLine
 62
7
  6
CONTINUOUS
 10
204.5623954507
 20
201.5436200377
 11
232.1943988979
 21
201.5436200377
  0
LINE
  5
2A2
100
AcDbEntity
  8
0
100
AcDbLine
 62
7
  6
CONTINUOUS
 10
198.5623954507
 20
201.5757645458
 11
204.5623954507
 21
201.5757645458
  0
LINE
  5
2A3
100
AcDbEntity
  8
0
100
AcDbLine
 62
7
  6
CONTINUOUS
 10
198.5623954507
 20
201.8757645458
 11
185.5623954507
 21
201.8757645458
  0
LINE
  5
2A4
100
AcDbEntity
  8
0
100
AcDbLine
 62
7
  6
CONTINUOUS
 10
172.9623954507
 20
202.267333237
 11
185.5623954507
 21
202.267333237
  0
LINE
  5
2A5
100
AcDbEntity
  8
0
100
AcDbLine
 62
7
  6
CONTINUOUS
 10
154.9623954507
 20
202.2708693249
 11
172.9623954507
 21
202.2708693249
  0
LINE
  5
2A6
100
AcDbEntity
  8
0
100
AcDbLine
 62
7
  6
CONTINUOUS
 10
114.7623954507
 20
202.3658339629
 11
106.7623954507
 21
202.3658339629
  0
LINE
  5
2A7
100
AcDbEntity
  8
0
100
AcDbLine
 62
7
  6
CONTINUOUS
 10
142.4315185729
 20
208.9905508709
 11
142.4002696918
 21
209.1268352826
  0
LINE
  5
2A8
100
AcDbEntity
  8
0
100
AcDbLine
 62
7
  6
CONTINUOUS
 10
142.4002696804
 20
151.4048325934
 11
142.4315186689
 21
151.5411171994
  0
LINE
  5
2A9
100
AcDbEntity
  8
0
100
AcDbLine
 62
7
  6
CONTINUOUS
 10
139.4623954507
 20
203.0221001603
 11
154.9623954507
 21
203.0221001603
  0
LINE
  5
2AA
100
AcDbEntity
  8
0
100
AcDbLine
 62
7
  6
CONTINUOUS
 10
139.4623954507
 20
203.5658339629
 11
141.4623954507
 21
203.5658339629
  0
LINE
  5
2AB
100
AcDbEntity
  8
0
100
AcDbLine
 62
7
  6
CONTINUOUS
 10
154.9623954507
 20
204.9512271707
 11
142.1016071284
 21
204.9512271707
  0
LINE
  5
2AC
100
AcDbEntity
  8
0
100
AcDbLine
 62
7
  6
CONTINUOUS
 10
185.5623954507
 20
204.9805355754
 11
154.9623954507
 21
204.9805355754
  0
LINE
  5
2AD
100
AcDbEntity
  8
0
100
AcDbLine
 62
7
  6
CONTINUOUS
 10
114.4623954507
 20
205.3658339629
 11
107.8271893991
 21
205.3658339629
  0
LINE
  5
2AE
100
AcDbEntity
  8
0
100
AcDbLine
 62
7
  6
CONTINUOUS
 10
137.7623954507
 20
205.4158339629
 11
135.1623954507
 21
205.4158339629
  0
LINE
  5
2AF
100
AcDbEntity
  8
0
100
AcDbLine
 62
7
  6
CONTINUOUS
 10
80.7623954507
 20
205.7658339629
 11
76.7623954507
 21
205.7658339629
  0
LINE
  5
2B0
100
AcDbEntity
  8
0
100
AcDbLine
 62
7
  6
CONTINUOUS
 10
106.7622683379
 20
205.9161398045
 11
106.4493698002
 21
205.9161398045
  0
LINE
  5
2B1
100
AcDbEntity
  8
0
100
AcDbLine
 62
7
  6
CONTINUOUS
 10
104.3852209468
 20
205.9161398045
 11
104.6852209468
 21
205.9161398045
  0
LINE
  5
2B2
100
AcDbEntity
  8
0
100
AcDbLine
 62
7
  6
CONTINUOUS
 10
142.3208933809
 20
206.0048326673
 11
142.4002696974
 21
206.0048326673
  0
LINE
  5
2B3
100
AcDbEntity
  8
0
100
AcDbLine
 62
7
  6
CONTINUOUS
 10
142.4315191585
 20
206.1411171994
 11
142.337363695
 21
206.1411171994
  0
LINE
  5
2B4
100
AcDbEntity
  8
0
100
AcDbLine
 62
7
  6
CONTINUOUS
 10
122.7623954507
 20
206.3658339629
 11
123.0623954507
 21
206.3658339629
  0
LINE
  5
2B5
100
AcDbEntity
  8
0
100
AcDbLine
 62
7
  6
CONTINUOUS
 10
105.8725692969
 20
208.6633323985
 11
109.3299793478
 21
208.6633323985
  0
LINE
  5
2B6
100
AcDbEntity
  8
0
100
AcDbLine
 62
7
  6
CONTINUOUS
 10
116.1948115536
 20
208.6633323985
 11
122.7623954507
 21
208.6633323985
  0
LINE
  5
2B7
100
AcDbEntity
  8
0
100
AcDbLine
 62
7
  6
CONTINUOUS
 10
142.4315191585
 20
208.9905507264
 11
142.3374872741
 21
208.9905507264
  0
LINE
  5
2B8
100
AcDbEntity
  8
0
100
AcDbLine
 62
7
  6
CONTINUOUS
 10
142.3212540906
 20
209.1268352826
 11
142.4002696918
 21
209.1268352826
  0
LINE
  5
2B9
100
AcDbEntity
  8
0
100
AcDbLine
 62
7
  6
CONTINUOUS
 10
154.9623954507
 20
209.4347464059
 11
185.5623954507
 21
209.4347464059
  0
LINE
  5
2BA
100
AcDbEntity
  8
0
100
AcDbLine
 62
7
  6
CONTINUOUS
 10
142.1268189101
 20
210.0316446364
 11
154.9623954507
 21
210.0316446364
  0
LINE
  5
2BB
100
AcDbEntity
  8
0
100
AcDbLine
 62
7
  6
CONTINUOUS
 10
154.6626809842
 20
198.484956676
 11
154.6626809842
 21
162.0467112498
  0
LINE
  5
2BC
100
AcDbEntity
  8
0
100
AcDbLine
 62
7
  6
CONTINUOUS
 10
154.9623954507
 20
147.7663000543
 11
154.9623954507
 21
212.7653667494
  0
LINE
  5
2BD
100
AcDbEntity
  8
0
100
AcDbLine
 62
7
  6
CONTINUOUS
 10
123.0623954507
 20
213.1795708981
 11
139.4623954507
 21
213.4658339629
  0
LINE
  5
2BE
100
AcDbEntity
  8
0
100
AcDbLine
 62
7
  6
CONTINUOUS
 10
141.4623954507
 20
211.5658339629
 11
139.4623954507
 21
211.5658339629
  0
LINE
  5
2BF
100
AcDbEntity
  8
0
100
AcDbLine
 62
7
  6
CONTINUOUS
 10
154.9623954507
 20
212.7658339629
 11
185.5623954507
 21
212.7658339629
  0
LINE
  5
2C0
100
AcDbEntity
  8
0
100
AcDbLine
 62
7
  6
CONTINUOUS
 10
123.0623954507
 20
212.8658339629
 11
122.7623954507
 21
212.8658339629
  0
LINE
  5
2C1
100
AcDbEntity
  8
0
100
AcDbLine
 62
7
  6
CONTINUOUS
 10
122.7623954507
 20
213.1658339629
 11
118.2585736683
 21
213.1658339629
  0
LINE
  5
2C2
100
AcDbEntity
  8
0
100
AcDbLine
 62
7
  6
CONTINUOUS
 10
107.2662172331
 20
213.1658339629
 11
103.7015213375
 21
213.1658339629
  0
LINE
  5
2C3
100
AcDbEntity
  8
0
100
AcDbLine
 62
7
  6
CONTINUOUS
 10
185.5623954507
 20
216.8658339629
 11
204.5623954507
 21
216.8658339629
  0
LINE
  5
2C4
100
AcDbEntity
  8
0
100
AcDbLine
 62
7
  6
CONTINUOUS
 10
204.5623954507
 20
216.9658339629
 11
185.5623954507
 21
216.9658339629
  0
LINE
  5
2C5
100
AcDbEntity
  8
0
100
AcDbLine
 62
7
  6
CONTINUOUS
 10
154.6626809842
 20
212.802175164
 11
139.4623954507
 21
213.4658339629
  0
LINE
  5
2C6
100
AcDbEntity
  8
0
100
AcDbLine
 62
7
  6
CONTINUOUS
 10
154.9623954507
 20
212.4890893478
 11
154.6626809842
 21
212.802175164
  0
LINE
  5
2C7
100
AcDbEntity
  8
0
100
AcDbLine
 62
7
  6
CONTINUOUS
 10
182.8623954507
 20
220.9158339629
 11
185.5623954507
 21
220.9158339629
  0
LINE
  5
2C8
100
AcDbEntity
  8
0
100
AcDbLine
 62
7
  6
CONTINUOUS
 10
185.5623954507
 20
224.8460243372
 11
182.8623954507
 21
224.8460243372
  0
LINE
  5
2C9
100
AcDbEntity
  8
0
100
AcDbLine
 62
7
  6
CONTINUOUS
 10
172.9623954507
 20
147.7658547955
 11
172.9623954507
 21
158.257826295
  0
LINE
  5
2CA
100
AcDbEntity
  8
0
100
AcDbLine
 62
7
  6
CONTINUOUS
 10
172.9623954507
 20
158.260798601
 11
172.9623954507
 21
202.2708693249
  0
LINE
  5
2CB
100
AcDbEntity
  8
0
100
AcDbLine
 62
7
  6
CONTINUOUS
 10
172.9623954507
 20
202.2738416308
 11
172.9623954507
 21
212.7658131303
  0
LINE
  5
2CC
100
AcDbEntity
  8
0
100
AcDbLine
 62
7
  6
CONTINUOUS
 10
182.8623954507
 20
220.9158339629
 11
182.8623954507
 21
247.4158339629
  0
LINE
  5
2CD
100
AcDbEntity
  8
0
100
AcDbLine
 62
7
  6
CONTINUOUS
 10
185.5623954507
 20
251.2658339629
 11
185.5623954507
 21
216.9658339629
  0
LINE
  5
2CE
100
AcDbEntity
  8
0
100
AcDbLine
 62
7
  6
CONTINUOUS
 10
185.5623954507
 20
201.8757645458
 11
185.5623954507
 21
216.8658339629
  0
LINE
  5
2CF
100
AcDbEntity
  8
0
100
AcDbLine
 62
7
  6
CONTINUOUS
 10
186.0623954507
 20
249.8658339629
 11
186.0623954507
 21
248.2658339629
  0
LINE
  5
2D0
100
AcDbEntity
  8
0
100
AcDbLine
 62
7
  6
CONTINUOUS
 10
188.5623954507
 20
216.9658339629
 11
188.5623954507
 21
248.2658339629
  0
LINE
  5
2D1
100
AcDbEntity
  8
0
100
AcDbLine
 62
7
  6
CONTINUOUS
 10
189.0623954507
 20
251.2658339629
 11
189.0623954507
 21
250.6658339629
  0
LINE
  5
2D2
100
AcDbEntity
  8
0
100
AcDbLine
 62
7
  6
CONTINUOUS
 10
192.0623954507
 20
251.2658339629
 11
192.0623954507
 21
248.2658339629
  0
LINE
  5
2D3
100
AcDbEntity
  8
0
100
AcDbLine
 62
7
  6
CONTINUOUS
 10
192.5623954507
 20
254.7658339629
 11
192.5623954507
 21
251.2658339629
  0
LINE
  5
2D4
100
AcDbEntity
  8
0
100
AcDbLine
 62
7
  6
CONTINUOUS
 10
154.6626809842
 20
147.7294927618
 11
154.9623954507
 21
148.042578578
  0
LINE
  5
2D5
100
AcDbEntity
  8
0
100
AcDbLine
 62
7
  6
CONTINUOUS
 10
255.4502362256
 20
245.2658339629
 11
185.5623954507
 21
245.2658339629
  0
LINE
  5
2D6
100
AcDbEntity
  8
0
100
AcDbLine
 62
7
  6
CONTINUOUS
 10
182.8623954507
 20
247.4158339629
 11
185.5623954507
 21
247.4158339629
  0
LINE
  5
2D7
100
AcDbEntity
  8
0
100
AcDbLine
 62
7
  6
CONTINUOUS
 10
185.5623954507
 20
248.2658339629
 11
192.0623954507
 21
248.2658339629
  0
LINE
  5
2D8
100
AcDbEntity
  8
0
100
AcDbLine
 62
7
  6
CONTINUOUS
 10
245.0623954507
 20
248.2658339629
 11
251.0623954507
 21
248.2658339629
  0
LINE
  5
2D9
100
AcDbEntity
  8
0
100
AcDbLine
 62
7
  6
CONTINUOUS
 10
186.0623954507
 20
249.8658339629
 11
192.0623954507
 21
249.8658339629
  0
LINE
  5
2DA
100
AcDbEntity
  8
0
100
AcDbLine
 62
7
  6
CONTINUOUS
 10
245.0623954507
 20
249.8658339629
 11
251.0623954507
 21
249.8658339629
  0
LINE
  5
2DB
100
AcDbEntity
  8
0
100
AcDbLine
 62
7
  6
CONTINUOUS
 10
248.0687367671
 20
250.6658376677
 11
248.0560541343
 21
250.6658376677
  0
LINE
  5
2DC
100
AcDbEntity
  8
0
100
AcDbLine
 62
7
  6
CONTINUOUS
 10
189.0687367671
 20
250.6658376677
 11
189.0560541343
 21
250.6658376677
  0
LINE
  5
2DD
100
AcDbEntity
  8
0
100
AcDbLine
 62
7
  6
CONTINUOUS
 10
185.5623954507
 20
251.2658339629
 11
253.8120888087
 21
251.2658339629
  0
LINE
  5
2DE
100
AcDbEntity
  8
0
100
AcDbLine
 62
7
  6
CONTINUOUS
 10
198.5623954507
 20
147.2658339629
 11
198.5623954507
 21
201.8757645458
  0
LINE
  5
2DF
100
AcDbEntity
  8
0
100
AcDbLine
 62
7
  6
CONTINUOUS
 10
200.5623954507
 20
251.2658339629
 11
200.5623954507
 21
254.7658339629
  0
LINE
  5
2E0
100
AcDbEntity
  8
0
100
AcDbLine
 62
7
  6
CONTINUOUS
 10
204.5623954507
 20
196.2658339629
 11
204.5623954507
 21
164.2658339629
  0
LINE
  5
2E1
100
AcDbEntity
  8
0
100
AcDbLine
 62
7
  6
CONTINUOUS
 10
204.5623954507
 20
201.5436200377
 11
204.5623954507
 21
216.9658339629
  0
LINE
  5
2E2
100
AcDbEntity
  8
0
100
AcDbLine
 62
7
  6
CONTINUOUS
 10
192.5623954507
 20
254.7658339629
 11
200.5623954507
 21
254.7658339629
  0
LINE
  5
2E3
100
AcDbEntity
  8
0
100
AcDbLine
 62
7
  6
CONTINUOUS
 10
196.568340209
 20
255.8658364675
 11
196.5564506924
 21
255.8658364675
  0
LINE
  5
2E4
100
AcDbEntity
  8
0
100
AcDbLine
 62
7
  6
CONTINUOUS
 10
245.0623954507
 20
251.2658339629
 11
245.0623954507
 21
248.2658339629
  0
LINE
  5
2E5
100
AcDbEntity
  8
0
100
AcDbLine
 62
7
  6
CONTINUOUS
 10
251.0623954507
 20
251.2658339629
 11
251.0623954507
 21
248.2658339629
  0
LINE
  5
2E6
100
AcDbEntity
  8
0
100
AcDbLine
 62
7
  6
CONTINUOUS
 10
251.0623954507
 20
245.2658339629
 11
251.0623954507
 21
159.0658339629
  0
LINE
  5
2E7
100
AcDbEntity
  8
0
100
AcDbLine
 62
7
  6
CONTINUOUS
 10
254.7623954507
 20
245.2658339629
 11
253.8120888087
 21
251.2658339629
  0
ARC
  5
2E8
100
AcDbEntity
  8
0
100
AcDbCircle
 62
7
  6
CONTINUOUS
 10
39.4853954507
 20
177.6188822901
 40
8.2566172855
100
AcDbArc
 50
192.4815017318
 51
208.9770927103
  0
ARC
  5
2E9
100
AcDbEntity
  8
0
100
AcDbCircle
 62
7
  6
CONTINUOUS
 10
39.4853954507
 20
177.6188822901
 40
8.2566172855
100
AcDbArc
 50
151.0229073061
 51
166.4971202223
  0
ARC
  5
2EA
100
AcDbEntity
  8
0
100
AcDbCircle
 62
7
  6
CONTINUOUS
 10
39.4853954507
 20
157.1127856357
 40
8.2566172855
100
AcDbArc
 50
151.0229073061
 51
166.4971202223
  0
ARC
  5
2EB
100
AcDbEntity
  8
0
100
AcDbCircle
 62
7
  6
CONTINUOUS
 10
39.4853954507
 20
157.1127856357
 40
8.2566172855
100
AcDbArc
 50
192.4815017318
 51
208.9770927103
  0
CIRCLE
  5
2EC
100
AcDbEntity
  8
0
100
AcDbCircle
 62
7
  6
CONTINUOUS
 10
44.7623954507
 20
183.7708339629
 40
5.5
  0
CIRCLE
  5
2ED
100
AcDbEntity
  8
0
100
AcDbCircle
 62
7
  6
CONTINUOUS
 10
44.7623954507
 20
183.7708339629
 40
5.1
  0
ARC
  5
2EE
100
AcDbEntity
  8
0
100
AcDbCircle
 62
7
  6
CONTINUOUS
 10
102.4623954507
 20
173.9873598515
 40
5.0
100
AcDbArc
 50
0.0
 51
134.1915067264
  0
ARC
  5
2EF
100
AcDbEntity
  8
0
100
AcDbCircle
 62
7
  6
CONTINUOUS
 10
46.7623954507
 20
191.5374290985
 40
3.0
100
AcDbArc
 50
282.0436025073
 51
360.0
  0
CIRCLE
  5
2F0
100
AcDbEntity
  8
0
100
AcDbCircle
 62
7
  6
CONTINUOUS
 10
44.7623954507
 20
183.7708339629
 40
2.65
  0
CIRCLE
  5
2F1
100
AcDbEntity
  8
0
100
AcDbCircle
 62
7
  6
CONTINUOUS
 10
98.6809797377
 20
186.8658339629
 40
2.0
  0
CIRCLE
  5
2F2
100
AcDbEntity
  8
0
100
AcDbCircle
 62
7
  6
CONTINUOUS
 10
78.7623954507
 20
175.3658339629
 40
2.0
  0
CIRCLE
  5
2F3
100
AcDbEntity
  8
0
100
AcDbCircle
 62
7
  6
CONTINUOUS
 10
58.8438111637
 20
186.8658339629
 40
2.0
  0
CIRCLE
  5
2F4
100
AcDbEntity
  8
0
100
AcDbCircle
 62
7
  6
CONTINUOUS
 10
98.6809797377
 20
186.8658339629
 40
1.621
  0
CIRCLE
  5
2F5
100
AcDbEntity
  8
0
100
AcDbCircle
 62
7
  6
CONTINUOUS
 10
78.7623954507
 20
175.3658339629
 40
1.621
  0
CIRCLE
  5
2F6
100
AcDbEntity
  8
0
100
AcDbCircle
 62
7
  6
CONTINUOUS
 10
58.8438111637
 20
186.8658339629
 40
1.621
  0
ARC
  5
2F7
100
AcDbEntity
  8
0
100
AcDbCircle
 62
7
  6
CONTINUOUS
 10
38.7623954507
 20
182.9658339629
 40
0.6
100
AcDbArc
 50
326.4426902381
 51
346.1199129524
  0
ARC
  5
2F8
100
AcDbEntity
  8
0
100
AcDbCircle
 62
7
  6
CONTINUOUS
 10
-41.4376045493
 20
202.1658339629
 40
300.0
100
AcDbArc
 50
351.7399235704
 51
8.2600764296
  0
ARC
  5
2F9
100
AcDbEntity
  8
0
100
AcDbCircle
 62
7
  6
CONTINUOUS
 10
-41.4376045493
 20
198.1658339629
 40
274.0
100
AcDbArc
 50
349.3809658895
 51
0.6075351892
  0
ARC
  5
2FA
100
AcDbEntity
  8
0
100
AcDbCircle
 62
7
  6
CONTINUOUS
 10
50.8817564781
 20
207.3273267998
 40
3.0
100
AcDbArc
 50
63.7913518244
 51
260.5713960426
  0
CIRCLE
  5
2FB
100
AcDbEntity
  8
0
100
AcDbCircle
 62
7
  6
CONTINUOUS
 10
58.8438111637
 20
209.8658339629
 40
2.0
  0
CIRCLE
  5
2FC
100
AcDbEntity
  8
0
100
AcDbCircle
 62
7
  6
CONTINUOUS
 10
58.8438111637
 20
209.8658339629
 40
1.621
  0
ARC
  5
2FD
100
AcDbEntity
  8
0
100
AcDbCircle
 62
7
  6
CONTINUOUS
 10
78.7623954507
 20
198.3658339629
 40
32.0
100
AcDbArc
 50
164.7369812194
 51
196.9437057753
  0
ARC
  5
2FE
100
AcDbEntity
  8
0
100
AcDbCircle
 62
7
  6
CONTINUOUS
 10
78.7623954507
 20
198.3658339629
 40
32.0
100
AcDbArc
 50
27.9103611074
 51
159.5821311227
  0
ARC
  5
2FF
100
AcDbEntity
  8
0
100
AcDbCircle
 62
7
  6
CONTINUOUS
 10
78.7623954507
 20
198.3658339629
 40
31.7
100
AcDbArc
 50
165.3250366653
 51
196.8595140476
  0
ARC
  5
300
100
AcDbEntity
  8
0
100
AcDbCircle
 62
7
  6
CONTINUOUS
 10
78.7623954507
 20
198.3658339629
 40
31.7
100
AcDbArc
 50
28.1714689745
 51
87.0531564502
  0
ARC
  5
301
100
AcDbEntity
  8
0
100
AcDbCircle
 62
7
  6
CONTINUOUS
 10
78.7623954507
 20
198.3658339629
 40
31.7
100
AcDbArc
 50
92.9245990446
 51
158.6817809144
  0
ARC
  5
302
100
AcDbEntity
  8
0
100
AcDbCircle
 62
7
  6
CONTINUOUS
 10
78.7623954507
 20
198.3658339629
 40
29.0
100
AcDbArc
 50
15.0911498098
 51
344.9088501902
  0
ARC
  5
303
100
AcDbEntity
  8
0
100
AcDbCircle
 62
7
  6
CONTINUOUS
 10
78.7623954507
 20
198.3658339629
 40
27.0
100
AcDbArc
 50
16.2387770815
 51
343.7612229185
  0
ARC
  5
304
100
AcDbEntity
  8
0
100
AcDbCircle
 62
7
  6
CONTINUOUS
 10
78.7623954507
 20
198.3658339629
 40
26.6
100
AcDbArc
 50
15.4178115676
 51
344.5821884324
  0
CIRCLE
  5
305
100
AcDbEntity
  8
0
100
AcDbCircle
 62
7
  6
CONTINUOUS
 10
78.7623954507
 20
198.3658339629
 40
19.8
  0
CIRCLE
  5
306
100
AcDbEntity
  8
0
100
AcDbCircle
 62
7
  6
CONTINUOUS
 10
78.7623954507
 20
198.3658339629
 40
18.9
  0
CIRCLE
  5
307
100
AcDbEntity
  8
0
100
AcDbCircle
 62
7
  6
CONTINUOUS
 10
78.7623954507
 20
198.3658339629
 40
18.0
  0
CIRCLE
  5
308
100
AcDbEntity
  8
0
100
AcDbCircle
 62
7
  6
CONTINUOUS
 10
78.7623954507
 20
198.3658339629
 40
17.7
  0
CIRCLE
  5
309
100
AcDbEntity
  8
0
100
AcDbCircle
 62
7
  6
CONTINUOUS
 10
78.7623954507
 20
198.3658339629
 40
15.3
  0
CIRCLE
  5
30A
100
AcDbEntity
  8
0
100
AcDbCircle
 62
7
  6
CONTINUOUS
 10
78.7623954507
 20
198.3658339629
 40
15.0
  0
CIRCLE
  5
30B
100
AcDbEntity
  8
0
100
AcDbCircle
 62
7
  6
CONTINUOUS
 10
78.7623954507
 20
198.3658339629
 40
14.9437846722
  0
CIRCLE
  5
30C
100
AcDbEntity
  8
0
100
AcDbCircle
 62
7
  6
CONTINUOUS
 10
78.7623954507
 20
198.3658339629
 40
14.6377712579
  0
CIRCLE
  5
30D
100
AcDbEntity
  8
0
100
AcDbCircle
 62
7
  6
CONTINUOUS
 10
78.7623954507
 20
198.3658339629
 40
14.3658789218
  0
CIRCLE
  5
30E
100
AcDbEntity
  8
0
100
AcDbCircle
 62
7
  6
CONTINUOUS
 10
78.7623954507
 20
198.3658339629
 40
11.55
  0
CIRCLE
  5
30F
100
AcDbEntity
  8
0
100
AcDbCircle
 62
7
  6
CONTINUOUS
 10
78.7623954507
 20
198.3658339629
 40
10.95
  0
CIRCLE
  5
310
100
AcDbEntity
  8
0
100
AcDbCircle
 62
7
  6
CONTINUOUS
 10
78.7623954507
 20
198.3658339629
 40
10.9255282581
  0
CIRCLE
  5
311
100
AcDbEntity
  8
0
100
AcDbCircle
 62
7
  6
CONTINUOUS
 10
78.7623954507
 20
198.3658339629
 40
10.0
  0
CIRCLE
  5
312
100
AcDbEntity
  8
0
100
AcDbCircle
 62
7
  6
CONTINUOUS
 10
78.7623954507
 20
198.3658339629
 40
9.7052558883
  0
ARC
  5
313
100
AcDbEntity
  8
0
100
AcDbCircle
 62
7
  6
CONTINUOUS
 10
78.7623954507
 20
197.9658339629
 40
6.0
100
AcDbArc
 50
109.4712206345
 51
70.5287793655
  0
CIRCLE
  5
314
100
AcDbEntity
  8
0
100
AcDbCircle
 62
7
  6
CONTINUOUS
 10
98.6809797377
 20
209.8658339629
 40
2.0
  0
CIRCLE
  5
315
100
AcDbEntity
  8
0
100
AcDbCircle
 62
7
  6
CONTINUOUS
 10
98.6809797377
 20
209.8658339629
 40
1.621
  0
ARC
  5
316
100
AcDbEntity
  8
0
100
AcDbCircle
 62
7
  6
CONTINUOUS
 10
78.7623954507
 20
227.3658339629
 40
3.0
100
AcDbArc
 50
357.0351021528
 51
182.9648978472
  0
CIRCLE
  5
317
100
AcDbEntity
  8
0
100
AcDbCircle
 62
7
  6
CONTINUOUS
 10
78.7623954507
 20
221.3658339629
 40
2.0
  0
CIRCLE
  5
318
100
AcDbEntity
  8
0
100
AcDbCircle
 62
7
  6
CONTINUOUS
 10
78.7623954507
 20
221.3658339629
 40
1.621
  0
ARC
  5
319
100
AcDbEntity
  8
0
100
AcDbCircle
 62
7
  6
CONTINUOUS
 10
134.7393954507
 20
152.9658339629
 40
7.8229616514
100
AcDbArc
 50
329.2485188693
 51
346.7543183373
  0
ARC
  5
31A
100
AcDbEntity
  8
0
100
AcDbCircle
 62
7
  6
CONTINUOUS
 10
134.7393954507
 20
152.9658339629
 40
7.8229616514
100
AcDbArc
 50
13.2182465544
 51
30.7514809298
  0
ARC
  5
31B
100
AcDbEntity
  8
0
100
AcDbCircle
 62
7
  6
CONTINUOUS
 10
139.5648701804
 20
153.8756851319
 40
2.9092072646
100
AcDbArc
 50
12.9337306857
 51
13.6494190744
  0
ARC
  5
31C
100
AcDbEntity
  8
0
100
AcDbCircle
 62
7
  6
CONTINUOUS
 10
107.8271893991
 20
189.3658339629
 40
2.0
100
AcDbArc
 50
90.0
 51
133.5438718854
  0
ARC
  5
31D
100
AcDbEntity
  8
0
100
AcDbCircle
 62
7
  6
CONTINUOUS
 10
137.7623954507
 20
164.0658339629
 40
1.2
100
AcDbArc
 50
0.0
 51
90.0
  0
ARC
  5
31E
100
AcDbEntity
  8
0
100
AcDbCircle
 62
7
  6
CONTINUOUS
 10
135.1623954507
 20
164.0658339629
 40
1.2
100
AcDbArc
 50
90.0
 51
180.0
  0
ARC
  5
31F
100
AcDbEntity
  8
0
100
AcDbCircle
 62
7
  6
CONTINUOUS
 10
135.1623954507
 20
156.3158339629
 40
1.2
100
AcDbArc
 50
180.0
 51
270.0
  0
ARC
  5
320
100
AcDbEntity
  8
0
100
AcDbCircle
 62
7
  6
CONTINUOUS
 10
137.7623954507
 20
156.3158339629
 40
1.2
100
AcDbArc
 50
270.0
 51
360.0
  0
ARC
  5
321
100
AcDbEntity
  8
0
100
AcDbCircle
 62
7
  6
CONTINUOUS
 10
135.1623954507
 20
196.4658339629
 40
1.2
100
AcDbArc
 50
180.0
 51
270.0
  0
ARC
  5
322
100
AcDbEntity
  8
0
100
AcDbCircle
 62
7
  6
CONTINUOUS
 10
137.7623954507
 20
196.4658339629
 40
1.2
100
AcDbArc
 50
270.0
 51
360.0
  0
ARC
  5
323
100
AcDbEntity
  8
0
100
AcDbCircle
 62
7
  6
CONTINUOUS
 10
103.4251162988
 20
191.0951690785
 40
1.0
100
AcDbArc
 50
343.7612229185
 51
65.3445908715
  0
ARC
  5
324
100
AcDbEntity
  8
0
100
AcDbCircle
 62
7
  6
CONTINUOUS
 10
108.0623954507
 20
147.9658339629
 40
0.6
100
AcDbArc
 50
180.0
 51
270.0
  0
ARC
  5
325
100
AcDbEntity
  8
0
100
AcDbCircle
 62
7
  6
CONTINUOUS
 10
227.3784849989
 20
147.7658339629
 40
0.5
100
AcDbArc
 50
270.0
 51
349.3809658896
  0
ARC
  5
326
100
AcDbEntity
  8
0
100
AcDbCircle
 62
7
  6
CONTINUOUS
 10
139.9623954507
 20
192.2658339629
 40
0.5
100
AcDbArc
 50
0.0
 51
90.0
  0
ARC
  5
327
100
AcDbEntity
  8
0
100
AcDbCircle
 62
7
  6
CONTINUOUS
 10
138.9623954507
 20
192.2658339629
 40
0.5
100
AcDbArc
 50
90.0
 51
180.0
  0
ARC
  5
328
100
AcDbEntity
  8
0
100
AcDbCircle
 62
7
  6
CONTINUOUS
 10
138.9623954507
 20
168.2658339629
 40
0.5
100
AcDbArc
 50
180.0
 51
270.0
  0
ARC
  5
329
100
AcDbEntity
  8
0
100
AcDbCircle
 62
7
  6
CONTINUOUS
 10
139.9623954507
 20
168.2658339629
 40
0.5
100
AcDbArc
 50
270.0
 51
360.0
  0
ARC
  5
32A
100
AcDbEntity
  8
0
100
AcDbCircle
 62
7
  6
CONTINUOUS
 10
134.7393954507
 20
207.5658339629
 40
7.8229616514
100
AcDbArc
 50
329.2485188693
 51
346.7543183375
  0
ARC
  5
32B
100
AcDbEntity
  8
0
100
AcDbCircle
 62
7
  6
CONTINUOUS
 10
134.7393954507
 20
207.5658339629
 40
7.8229616514
100
AcDbArc
 50
13.2182465543
 51
30.7514809298
  0
ARC
  5
32C
100
AcDbEntity
  8
0
100
AcDbCircle
 62
7
  6
CONTINUOUS
 10
196.5561447619
 20
248.0658364675
 40
7.8
100
AcDbArc
 50
89.954084856
 51
120.7984176416
  0
ARC
  5
32D
100
AcDbEntity
  8
0
100
AcDbCircle
 62
7
  6
CONTINUOUS
 10
196.5686461394
 20
248.0658364675
 40
7.8
100
AcDbArc
 50
59.2015823584
 51
90.045915144
  0
ARC
  5
32E
100
AcDbEntity
  8
0
100
AcDbCircle
 62
7
  6
CONTINUOUS
 10
114.4623954507
 20
198.3658339629
 40
7.0
100
AcDbArc
 50
270.0
 51
90.0
  0
ARC
  5
32F
100
AcDbEntity
  8
0
100
AcDbCircle
 62
7
  6
CONTINUOUS
 10
106.7623954507
 20
198.3658339629
 40
7.0
100
AcDbArc
 50
114.6554094507
 51
245.344590872
  0
ARC
  5
330
100
AcDbEntity
  8
0
100
AcDbCircle
 62
7
  6
CONTINUOUS
 10
248.0690631053
 20
244.6658376677
 40
6.0
100
AcDbArc
 50
60.0734942192
 51
90.0636714245
  0
ARC
  5
331
100
AcDbEntity
  8
0
100
AcDbCircle
 62
7
  6
CONTINUOUS
 10
248.0557277961
 20
244.6658376677
 40
6.0
100
AcDbArc
 50
89.9363285755
 51
119.9265057808
  0
ARC
  5
332
100
AcDbEntity
  8
0
100
AcDbCircle
 62
7
  6
CONTINUOUS
 10
189.0690631053
 20
244.6658376677
 40
6.0
100
AcDbArc
 50
60.0734942192
 51
90.0636714245
  0
ARC
  5
333
100
AcDbEntity
  8
0
100
AcDbCircle
 62
7
  6
CONTINUOUS
 10
189.0557277961
 20
244.6658376677
 40
6.0
100
AcDbArc
 50
89.9363285755
 51
119.9265057808
  0
CIRCLE
  5
334
100
AcDbEntity
  8
0
100
AcDbCircle
 62
7
  6
CONTINUOUS
 10
112.7623954507
 20
212.9608339629
 40
5.5
  0
CIRCLE
  5
335
100
AcDbEntity
  8
0
100
AcDbCircle
 62
7
  6
CONTINUOUS
 10
112.7623954507
 20
212.9608339629
 40
5.1
  0
ARC
  5
336
100
AcDbEntity
  8
0
100
AcDbCircle
 62
7
  6
CONTINUOUS
 10
106.7623954507
 20
198.3658339629
 40
4.0
100
AcDbArc
 50
90.0
 51
270.0
  0
ARC
  5
337
100
AcDbEntity
  8
0
100
AcDbCircle
 62
7
  6
CONTINUOUS
 10
114.7623954507
 20
198.3658339629
 40
4.0
100
AcDbArc
 50
270.0
 51
90.0
  0
ARC
  5
338
100
AcDbEntity
  8
0
100
AcDbCircle
 62
7
  6
CONTINUOUS
 10
139.564869468
 20
208.4756849624
 40
2.9092079968
100
AcDbArc
 50
12.9337297131
 51
13.6494181835
  0
CIRCLE
  5
339
100
AcDbEntity
  8
0
100
AcDbCircle
 62
7
  6
CONTINUOUS
 10
112.7623954507
 20
212.9608339629
 40
2.65
  0
ARC
  5
33A
100
AcDbEntity
  8
0
100
AcDbCircle
 62
7
  6
CONTINUOUS
 10
107.8271893991
 20
207.3658339629
 40
2.0
100
AcDbArc
 50
226.4561281146
 51
270.0
  0
ARC
  5
33B
100
AcDbEntity
  8
0
100
AcDbCircle
 62
7
  6
CONTINUOUS
 10
137.7623954507
 20
204.2158339629
 40
1.2
100
AcDbArc
 50
0.0
 51
90.0
  0
ARC
  5
33C
100
AcDbEntity
  8
0
100
AcDbCircle
 62
7
  6
CONTINUOUS
 10
135.1623954507
 20
204.2158339629
 40
1.2
100
AcDbArc
 50
90.0
 51
180.0
  0
ARC
  5
33D
100
AcDbEntity
  8
0
100
AcDbCircle
 62
7
  6
CONTINUOUS
 10
103.4251162988
 20
205.6364988474
 40
1.0
100
AcDbArc
 50
294.6554068695
 51
16.2387770815
  0
ARC
  5
33E
100
AcDbEntity
  8
0
100
AcDbCircle
 62
7
  6
CONTINUOUS
 10
232.047020247
 20
201.0658339629
 40
0.5
100
AcDbArc
 50
0.6075351892
 51
72.857015308
  0
SPLINE
  5
33F
100
AcDbEntity
  8
0
100
AcDbSpline
 62
7
  6
CONTINUOUS
 70
0
 71
3
 72
10
 73
6
 74
0
 42
0.0000001
 43
0.0000001
 44
0.0000000001
 40
0.0
 40
0.0
 40
0.0
 40
0.0
 40
0.2489354164
 40
0.4987882715
 40
1.0
 40
1.0
 40
1.0
 40
1.0
 10
232.5533859277
 20
200.3878009863
 30
0.0
 10
230.2206552441
 20
200.1213032957
 30
0.0
 10
225.5535675538
 20
199.5257692499
 30
0.0
 10
216.2202732244
 20
198.1644675102
 30
0.0
 10
209.2282952257
 20
197.0253874165
 30
0.0
 10
204.5623954507
 20
196.2658339629
 30
0.0
  0
SPLINE
  5
340
100
AcDbEntity
  8
0
100
AcDbSpline
 62
7
  6
CONTINUOUS
 70
0
 71
3
 72
9
 73
5
 74
0
 42
0.0000001
 43
0.0000001
 44
0.0000000001
 40
0.0
 40
0.0
 40
0.0
 40
0.0
 40
0.5010005358
 40
1.0
 40
1.0
 40
1.0
 40
1.0
 10
204.5623954507
 20
164.2658339629
 30
0.0
 10
208.7949223313
 20
163.5768285053
 30
0.0
 10
217.24290284
 20
162.201451778
 30
0.0
 10
225.7158292208
 20
160.9770808049
 30
0.0
 10
229.9546893576
 20
160.4531786597
 30
0.0
  0
SPLINE
  5
341
100
AcDbEntity
  8
0
100
AcDbSpline
 62
7
  6
CONTINUOUS
 70
0
 71
3
 72
9
 73
5
 74
0
 42
0.0000001
 43
0.0000001
 44
0.0000000001
 40
0.0
 40
0.0
 40
0.0
 40
0.0
 40
0.289867373
 40
1.0
 40
1.0
 40
1.0
 40
1.0
 10
31.3739687973
 20
176.7097979467
 30
0.0
 10
31.3638428136
 20
176.7096943007
 30
0.0
 10
31.3521212843
 20
176.6624131444
 30
0.0
 10
31.3525763434
 20
176.6344919185
 30
0.0
 10
31.3526385023
 20
176.6096835193
 30
0.0
  0
SPLINE
  5
342
100
AcDbEntity
  8
0
100
AcDbSpline
 62
7
  6
CONTINUOUS
 70
0
 71
3
 72
9
 73
5
 74
0
 42
0.0000001
 43
0.0000001
 44
0.0000000001
 40
0.0
 40
0.0
 40
0.0
 40
0.0
 40
0.2144904039
 40
1.0
 40
1.0
 40
1.0
 40
1.0
 10
31.3526385023
 20
176.6096835193
 30
0.0
 10
31.3526899813
 20
176.5891376272
 30
0.0
 10
31.3565385507
 20
176.4933774778
 30
0.0
 10
31.3690944688
 20
176.3981210824
 30
0.0
 10
31.3821865791
 20
176.3240251501
 30
0.0
  0
SPLINE
  5
343
100
AcDbEntity
  8
0
100
AcDbSpline
 62
7
  6
CONTINUOUS
 70
0
 71
3
 72
14
 73
10
 74
0
 42
0.0000001
 43
0.0000001
 44
0.0000000001
 40
0.0
 40
0.0
 40
0.0
 40
0.0
 40
0.0298712319
 40
0.1003565323
 40
0.2108182066
 40
0.3531565845
 40
0.5161425806
 40
0.6868019038
 40
1.0
 40
1.0
 40
1.0
 40
1.0
 10
31.4398824295
 20
176.061257021
 30
0.0
 10
31.4488938925
 20
176.0612532752
 30
0.0
 10
31.4630918055
 20
176.0990450484
 30
0.0
 10
31.4670916205
 20
176.1551406225
 30
0.0
 10
31.4696858921
 20
176.256501561
 30
0.0
 10
31.4632162717
 20
176.3803596303
 30
0.0
 10
31.4508898121
 20
176.5239345624
 30
0.0
 10
31.4270152998
 20
176.7174433133
 30
0.0
 10
31.4027840191
 20
176.8616569739
 30
0.0
 10
31.3821865732
 20
176.9538692125
 30
0.0
  0
SPLINE
  5
344
100
AcDbEntity
  8
0
100
AcDbSpline
 62
7
  6
CONTINUOUS
 70
0
 71
3
 72
9
 73
5
 74
0
 42
0.0000001
 43
0.0000001
 44
0.0000000001
 40
0.0
 40
0.0
 40
0.0
 40
0.0
 40
0.2898673734
 40
1.0
 40
1.0
 40
1.0
 40
1.0
 10
31.3739687973
 20
178.5279666336
 30
0.0
 10
31.3638428137
 20
178.5280702796
 30
0.0
 10
31.3521212844
 20
178.575351435
 30
0.0
 10
31.3525763434
 20
178.6032726605
 30
0.0
 10
31.3526385023
 20
178.6280810592
 30
0.0
  0
SPLINE
  5
345
100
AcDbEntity
  8
0
100
AcDbSpline
 62
7
  6
CONTINUOUS
 70
0
 71
3
 72
9
 73
5
 74
0
 42
0.0000001
 43
0.0000001
 44
0.0000000001
 40
0.0
 40
0.0
 40
0.0
 40
0.0
 40
0.2144904034
 40
1.0
 40
1.0
 40
1.0
 40
1.0
 10
31.3526385023
 20
178.6280810592
 30
0.0
 10
31.3526899813
 20
178.648626953
 30
0.0
 10
31.3565385511
 20
178.7443871104
 30
0.0
 10
31.3690944708
 20
178.8396435136
 30
0.0
 10
31.382186583
 20
178.9137394519
 30
0.0
  0
SPLINE
  5
346
100
AcDbEntity
  8
0
100
AcDbSpline
 62
7
  6
CONTINUOUS
 70
0
 71
3
 72
9
 73
5
 74
0
 42
0.0000001
 43
0.0000001
 44
0.0000000001
 40
0.0
 40
0.0
 40
0.0
 40
0.0
 40
0.289867373
 40
1.0
 40
1.0
 40
1.0
 40
1.0
 10
31.3739687973
 20
156.2037012922
 30
0.0
 10
31.3638428136
 20
156.2035976463
 30
0.0
 10
31.3521212843
 20
156.15631649
 30
0.0
 10
31.3525763434
 20
156.1283952641
 30
0.0
 10
31.3526385023
 20
156.1035868649
 30
0.0
  0
SPLINE
  5
347
100
AcDbEntity
  8
0
100
AcDbSpline
 62
7
  6
CONTINUOUS
 70
0
 71
3
 72
9
 73
5
 74
0
 42
0.0000001
 43
0.0000001
 44
0.0000000001
 40
0.0
 40
0.0
 40
0.0
 40
0.0
 40
0.2144904039
 40
1.0
 40
1.0
 40
1.0
 40
1.0
 10
31.3526385023
 20
156.1035868649
 30
0.0
 10
31.3526899813
 20
156.0830409728
 30
0.0
 10
31.3565385507
 20
155.9872808234
 30
0.0
 10
31.3690944688
 20
155.892024428
 30
0.0
 10
31.3821865791
 20
155.8179284957
 30
0.0
  0
SPLINE
  5
348
100
AcDbEntity
  8
0
100
AcDbSpline
 62
7
  6
CONTINUOUS
 70
0
 71
3
 72
14
 73
10
 74
0
 42
0.0000001
 43
0.0000001
 44
0.0000000001
 40
0.0
 40
0.0
 40
0.0
 40
0.0
 40
0.0298712319
 40
0.1003565323
 40
0.2108182066
 40
0.3531565845
 40
0.5161425806
 40
0.6868019038
 40
1.0
 40
1.0
 40
1.0
 40
1.0
 10
31.4398824295
 20
155.5551603666
 30
0.0
 10
31.4488938925
 20
155.5551566208
 30
0.0
 10
31.4630918055
 20
155.592948394
 30
0.0
 10
31.4670916205
 20
155.649043968
 30
0.0
 10
31.4696858921
 20
155.7504049066
 30
0.0
 10
31.4632162717
 20
155.8742629759
 30
0.0
 10
31.4508898121
 20
156.017837908
 30
0.0
 10
31.4270152998
 20
156.2113466589
 30
0.0
 10
31.4027840191
 20
156.3555603195
 30
0.0
 10
31.3821865732
 20
156.447772558
 30
0.0
  0
SPLINE
  5
349
100
AcDbEntity
  8
0
100
AcDbSpline
 62
7
  6
CONTINUOUS
 70
0
 71
3
 72
9
 73
5
 74
0
 42
0.0000001
 43
0.0000001
 44
0.0000000001
 40
0.0
 40
0.0
 40
0.0
 40
0.0
 40
0.2898673734
 40
1.0
 40
1.0
 40
1.0
 40
1.0
 10
31.3739687973
 20
158.0218699792
 30
0.0
 10
31.3638428137
 20
158.0219736252
 30
0.0
 10
31.3521212844
 20
158.0692547806
 30
0.0
 10
31.3525763434
 20
158.097176006
 30
0.0
 10
31.3526385023
 20
158.1219844048
 30
0.0
  0
SPLINE
  5
34A
100
AcDbEntity
  8
0
100
AcDbSpline
 62
7
  6
CONTINUOUS
 70
0
 71
3
 72
9
 73
5
 74
0
 42
0.0000001
 43
0.0000001
 44
0.0000000001
 40
0.0
 40
0.0
 40
0.0
 40
0.0
 40
0.2144904034
 40
1.0
 40
1.0
 40
1.0
 40
1.0
 10
31.3526385023
 20
158.1219844048
 30
0.0
 10
31.3526899813
 20
158.1425302986
 30
0.0
 10
31.3565385511
 20
158.238290456
 30
0.0
 10
31.3690944708
 20
158.3335468592
 30
0.0
 10
31.382186583
 20
158.4076427975
 30
0.0
  0
SPLINE
  5
34B
100
AcDbEntity
  8
0
100
AcDbSpline
 62
7
  6
CONTINUOUS
 70
0
 71
3
 72
14
 73
10
 74
0
 42
0.0000001
 43
0.0000001
 44
0.0000000001
 40
0.0
 40
0.0
 40
0.0
 40
0.0
 40
0.0251588631
 40
0.0893237042
 40
0.191607691
 40
0.3261358282
 40
0.4841637321
 40
0.6560834146
 40
1.0
 40
1.0
 40
1.0
 40
1.0
 10
142.3228215333
 20
154.749873413
 30
0.0
 10
142.3162879268
 20
154.7498206657
 30
0.0
 10
142.3092275144
 20
154.7182941592
 30
0.0
 10
142.3085646263
 20
154.6760524509
 30
0.0
 10
142.3111378207
 20
154.5938957721
 30
0.0
 10
142.3204019686
 20
154.4933561805
 30
0.0
 10
142.3345171383
 20
154.3729971636
 30
0.0
 10
142.3594422671
 20
154.1999765171
 30
0.0
 10
142.3826196587
 20
154.0678921314
 30
0.0
 10
142.4002696857
 20
153.980337444
 30
0.0
  0
SPLINE
  5
34C
100
AcDbEntity
  8
0
100
AcDbSpline
 62
7
  6
CONTINUOUS
 70
0
 71
3
 72
14
 73
10
 74
0
 42
0.0000001
 43
0.0000001
 44
0.0000000001
 40
0.0
 40
0.0
 40
0.0
 40
0.0
 40
0.0251588632
 40
0.0893237048
 40
0.1916076924
 40
0.3261358303
 40
0.4841637347
 40
0.6560834171
 40
1.0
 40
1.0
 40
1.0
 40
1.0
 10
142.3228215333
 20
209.349873413
 30
0.0
 10
142.3162879267
 20
209.3498206657
 30
0.0
 10
142.3092275143
 20
209.3182941583
 30
0.0
 10
142.3085646263
 20
209.2760524491
 30
0.0
 10
142.311137821
 20
209.1938957684
 30
0.0
 10
142.3204019692
 20
209.0933561747
 30
0.0
 10
142.3345171393
 20
208.9729971557
 30
0.0
 10
142.3594422687
 20
208.7999765069
 30
0.0
 10
142.3826196608
 20
208.6678921198
 30
0.0
 10
142.4002696882
 20
208.5803374316
 30
0.0
  0
SPLINE
  5
34D
100
AcDbEntity
  8
0
100
AcDbSpline
 62
7
  6
CONTINUOUS
 70
0
 71
3
 72
11
 73
7
 74
0
 42
0.0000001
 43
0.0000001
 44
0.0000000001
 40
0.0
 40
0.0
 40
0.0
 40
0.0
 40
0.4279119795
 40
0.7371750289
 40
0.9257549609
 40
1.0
 40
1.0
 40
1.0
 40
1.0
 10
31.4666327029
 20
175.7485888801
 30
0.0
 10
31.467262984
 20
175.7404979045
 30
0.0
 10
31.4682672957
 20
175.7268367113
 30
0.0
 10
31.4684847682
 20
175.7083828382
 30
0.0
 10
31.4682882487
 20
175.6991185357
 30
0.0
 10
31.4665390377
 20
175.6924277495
 30
0.0
 10
31.465131091
 20
175.6924471928
 30
0.0
  0
SPLINE
  5
34E
100
AcDbEntity
  8
0
100
AcDbSpline
 62
7
  6
CONTINUOUS
 70
0
 71
3
 72
9
 73
5
 74
0
 42
0.0000001
 43
0.0000001
 44
0.0000000001
 40
0.0
 40
0.0
 40
0.0
 40
0.0
 40
0.6352784711
 40
1.0
 40
1.0
 40
1.0
 40
1.0
 10
31.3821865732
 20
176.0411370712
 30
0.0
 10
31.3741966701
 20
176.0836898153
 30
0.0
 10
31.3632494208
 20
176.150769158
 30
0.0
 10
31.3524621669
 20
176.2184923941
 30
0.0
 10
31.3526385023
 20
176.2433487636
 30
0.0
  0
SPLINE
  5
34F
100
AcDbEntity
  8
0
100
AcDbSpline
 62
7
  6
CONTINUOUS
 70
0
 71
3
 72
9
 73
5
 74
0
 42
0.0000001
 43
0.0000001
 44
0.0000000001
 40
0.0
 40
0.0
 40
0.0
 40
0.0
 40
0.4203293315
 40
1.0
 40
1.0
 40
1.0
 40
1.0
 10
31.3526385023
 20
176.2433487636
 30
0.0
 10
31.3526496409
 20
176.2449188612
 30
0.0
 10
31.3528950821
 20
176.2480215574
 30
0.0
 10
31.352965539
 20
176.2541145146
 30
0.0
 10
31.355130849
 20
176.2541285514
 30
0.0
  0
SPLINE
  5
350
100
AcDbEntity
  8
0
100
AcDbSpline
 62
7
  6
CONTINUOUS
 70
0
 71
3
 72
10
 73
6
 74
0
 42
0.0000001
 43
0.0000001
 44
0.0000000001
 40
0.0
 40
0.0
 40
0.0
 40
0.0
 40
0.5658030292
 40
0.8271112034
 40
1.0
 40
1.0
 40
1.0
 40
1.0
 10
31.3821865732
 20
176.9538692125
 30
0.0
 10
31.3605476417
 20
177.0507440602
 30
0.0
 10
31.3481671387
 20
177.1973521057
 30
0.0
 10
31.3565206971
 20
177.3716628124
 30
0.0
 10
31.3691188779
 20
177.448490139
 30
0.0
 10
31.3821865808
 20
177.475861638
 30
0.0
  0
SPLINE
  5
351
100
AcDbEntity
  8
0
100
AcDbSpline
 62
7
  6
CONTINUOUS
 70
0
 71
3
 72
9
 73
5
 74
0
 42
0.0000001
 43
0.0000001
 44
0.0000000001
 40
0.0
 40
0.0
 40
0.0
 40
0.0
 40
0.1922815639
 40
1.0
 40
1.0
 40
1.0
 40
1.0
 10
31.3821865808
 20
177.475861638
 30
0.0
 10
31.3863063752
 20
177.4844909283
 30
0.0
 10
31.4048159855
 20
177.5307387892
 30
0.0
 10
31.4160311463
 20
177.5794950331
 30
0.0
 10
31.423912124
 20
177.6188826955
 30
0.0
  0
SPLINE
  5
352
100
AcDbEntity
  8
0
100
AcDbSpline
 62
7
  6
CONTINUOUS
 70
0
 71
3
 72
10
 73
6
 74
0
 42
0.0000001
 43
0.0000001
 44
0.0000000001
 40
0.0
 40
0.0
 40
0.0
 40
0.0
 40
0.5179560734
 40
0.7856309846
 40
1.0
 40
1.0
 40
1.0
 40
1.0
 10
31.423912124
 20
177.6188826955
 30
0.0
 10
31.4511278144
 20
177.7549031989
 30
0.0
 10
31.4689155117
 20
177.9658910195
 30
0.0
 10
31.4690558727
 20
178.2335709003
 30
0.0
 10
31.4587654155
 20
178.3626889576
 30
0.0
 10
31.4491088469
 20
178.4192822968
 30
0.0
  0
SPLINE
  5
353
100
AcDbEntity
  8
0
100
AcDbSpline
 62
7
  6
CONTINUOUS
 70
0
 71
3
 72
9
 73
5
 74
0
 42
0.0000001
 43
0.0000001
 44
0.0000000001
 40
0.0
 40
0.0
 40
0.0
 40
0.0
 40
0.6638200655
 40
1.0
 40
1.0
 40
1.0
 40
1.0
 10
31.4491088469
 20
178.4192822968
 30
0.0
 10
31.4442944076
 20
178.4474978262
 30
0.0
 10
31.4361609834
 20
178.4866543486
 30
0.0
 10
31.415011992
 20
178.5325569142
 30
0.0
 10
31.40117228
 20
178.5368685226
 30
0.0
  0
SPLINE
  5
354
100
AcDbEntity
  8
0
100
AcDbSpline
 62
7
  6
CONTINUOUS
 70
0
 71
3
 72
9
 73
5
 74
0
 42
0.0000001
 43
0.0000001
 44
0.0000000001
 40
0.0
 40
0.0
 40
0.0
 40
0.0
 40
0.5042384359
 40
1.0
 40
1.0
 40
1.0
 40
1.0
 10
31.40117228
 20
178.5368685226
 30
0.0
 10
31.4003842888
 20
178.5371140124
 30
0.0
 10
31.3987849342
 20
178.537491881
 30
0.0
 10
31.3971463548
 20
178.5376248657
 30
0.0
 10
31.3963348939
 20
178.5376288057
 30
0.0
  0
SPLINE
  5
355
100
AcDbEntity
  8
0
100
AcDbSpline
 62
7
  6
CONTINUOUS
 70
0
 71
3
 72
16
 73
12
 74
0
 42
0.0000001
 43
0.0000001
 44
0.0000000001
 40
0.0
 40
0.0
 40
0.0
 40
0.0
 40
0.3690187947
 40
0.5416741519
 40
0.6955282962
 40
0.8235052818
 40
0.9195483608
 40
0.9539338194
 40
0.9787717966
 40
0.9939275127
 40
1.0
 40
1.0
 40
1.0
 40
1.0
 10
31.382186583
 20
178.9137394519
 30
0.0
 10
31.395855516
 20
178.9910999683
 30
0.0
 10
31.4149382477
 20
179.1048416474
 30
0.0
 10
31.4373029741
 20
179.2511931182
 30
0.0
 10
31.4507896697
 20
179.3470540119
 30
0.0
 10
31.4607731873
 20
179.4267423556
 30
0.0
 10
31.4662624102
 20
179.4817924724
 30
0.0
 10
31.4684073636
 20
179.5143633258
 30
0.0
 10
31.4684316346
 20
179.5309248438
 30
0.0
 10
31.4682132949
 20
179.5394065775
 30
0.0
 10
31.4664237135
 20
179.5453352382
 30
0.0
 10
31.465131091
 20
179.5453173875
 30
0.0
  0
SPLINE
  5
356
100
AcDbEntity
  8
0
100
AcDbSpline
 62
7
  6
CONTINUOUS
 70
0
 71
3
 72
13
 73
9
 74
0
 42
0.0000001
 43
0.0000001
 44
0.0000000001
 40
0.0
 40
0.0
 40
0.0
 40
0.0
 40
0.4044183094
 40
0.724755467
 40
0.8423575955
 40
0.9281537132
 40
0.980192777
 40
1.0
 40
1.0
 40
1.0
 40
1.0
 10
31.3821865732
 20
179.1966275091
 30
0.0
 10
31.3768178621
 20
179.1680347482
 30
0.0
 10
31.3676307236
 20
179.1168498577
 30
0.0
 10
31.3583770228
 20
179.0565360414
 30
0.0
 10
31.3539458052
 20
179.0196992792
 30
0.0
 10
31.3526833232
 20
179.0003531763
 30
0.0
 10
31.3524100352
 20
178.9908447068
 30
0.0
 10
31.3537060174
 20
178.9836452655
 30
0.0
 10
31.355130849
 20
178.9836360289
 30
0.0
  0
SPLINE
  5
357
100
AcDbEntity
  8
0
100
AcDbSpline
 62
7
  6
CONTINUOUS
 70
0
 71
3
 72
9
 73
5
 74
0
 42
0.0000001
 43
0.0000001
 44
0.0000000001
 40
0.0
 40
0.0
 40
0.0
 40
0.0
 40
0.2249888907
 40
1.0
 40
1.0
 40
1.0
 40
1.0
 10
31.3821865825
 20
178.2838954095
 30
0.0
 10
31.3772744367
 20
178.2619043394
 30
0.0
 10
31.3594690926
 20
178.1632957092
 30
0.0
 10
31.3524947858
 20
178.0628355829
 30
0.0
 10
31.3526385023
 20
177.9852170851
 30
0.0
  0
SPLINE
  5
358
100
AcDbEntity
  8
0
100
AcDbSpline
 62
7
  6
CONTINUOUS
 70
0
 71
3
 72
9
 73
5
 74
0
 42
0.0000001
 43
0.0000001
 44
0.0000000001
 40
0.0
 40
0.0
 40
0.0
 40
0.0
 40
0.6016957992
 40
1.0
 40
1.0
 40
1.0
 40
1.0
 10
31.3526385023
 20
177.9852170851
 30
0.0
 10
31.3527224917
 20
177.9398560259
 30
0.0
 10
31.3567339616
 20
177.8650154397
 30
0.0
 10
31.3692495147
 20
177.7890008193
 30
0.0
 10
31.382186575
 20
177.7619029543
 30
0.0
  0
SPLINE
  5
359
100
AcDbEntity
  8
0
100
AcDbSpline
 62
7
  6
CONTINUOUS
 70
0
 71
3
 72
9
 73
5
 74
0
 42
0.0000001
 43
0.0000001
 44
0.0000000001
 40
0.0
 40
0.0
 40
0.0
 40
0.0
 40
0.1922815573
 40
1.0
 40
1.0
 40
1.0
 40
1.0
 10
31.382186575
 20
177.7619029543
 30
0.0
 10
31.3863063702
 20
177.7532736637
 30
0.0
 10
31.4048159727
 20
177.7070257984
 30
0.0
 10
31.4160312974
 20
177.6582695815
 30
0.0
 10
31.423912124
 20
177.6188818847
 30
0.0
  0
SPLINE
  5
35A
100
AcDbEntity
  8
0
100
AcDbSpline
 62
7
  6
CONTINUOUS
 70
0
 71
3
 72
9
 73
5
 74
0
 42
0.0000001
 43
0.0000001
 44
0.0000000001
 40
0.0
 40
0.0
 40
0.0
 40
0.0
 40
0.2295099529
 40
1.0
 40
1.0
 40
1.0
 40
1.0
 10
31.3821865825
 20
178.2838954095
 30
0.0
 10
31.3855717409
 20
178.2990503497
 30
0.0
 10
31.3996498931
 20
178.3652315007
 30
0.0
 10
31.4114659114
 20
178.4318827355
 30
0.0
 10
31.4196225308
 20
178.4833712401
 30
0.0
  0
SPLINE
  5
35B
100
AcDbEntity
  8
0
100
AcDbSpline
 62
7
  6
CONTINUOUS
 70
0
 71
3
 72
11
 73
7
 74
0
 42
0.0000001
 43
0.0000001
 44
0.0000000001
 40
0.0
 40
0.0
 40
0.0
 40
0.0
 40
0.4279119795
 40
0.7371750289
 40
0.9257549609
 40
1.0
 40
1.0
 40
1.0
 40
1.0
 10
31.4666327029
 20
155.2424922257
 30
0.0
 10
31.467262984
 20
155.2344012501
 30
0.0
 10
31.4682672957
 20
155.2207400569
 30
0.0
 10
31.4684847682
 20
155.2022861838
 30
0.0
 10
31.4682882487
 20
155.1930218813
 30
0.0
 10
31.4665390377
 20
155.1863310951
 30
0.0
 10
31.465131091
 20
155.1863505384
 30
0.0
  0
SPLINE
  5
35C
100
AcDbEntity
  8
0
100
AcDbSpline
 62
7
  6
CONTINUOUS
 70
0
 71
3
 72
9
 73
5
 74
0
 42
0.0000001
 43
0.0000001
 44
0.0000000001
 40
0.0
 40
0.0
 40
0.0
 40
0.0
 40
0.6352784711
 40
1.0
 40
1.0
 40
1.0
 40
1.0
 10
31.3821865732
 20
155.5350404168
 30
0.0
 10
31.3741966701
 20
155.5775931609
 30
0.0
 10
31.3632494208
 20
155.6446725036
 30
0.0
 10
31.3524621669
 20
155.7123957397
 30
0.0
 10
31.3526385023
 20
155.7372521092
 30
0.0
  0
SPLINE
  5
35D
100
AcDbEntity
  8
0
100
AcDbSpline
 62
7
  6
CONTINUOUS
 70
0
 71
3
 72
9
 73
5
 74
0
 42
0.0000001
 43
0.0000001
 44
0.0000000001
 40
0.0
 40
0.0
 40
0.0
 40
0.0
 40
0.4203293315
 40
1.0
 40
1.0
 40
1.0
 40
1.0
 10
31.3526385023
 20
155.7372521092
 30
0.0
 10
31.3526496409
 20
155.7388222068
 30
0.0
 10
31.3528950821
 20
155.741924903
 30
0.0
 10
31.352965539
 20
155.7480178601
 30
0.0
 10
31.355130849
 20
155.748031897
 30
0.0
  0
SPLINE
  5
35E
100
AcDbEntity
  8
0
100
AcDbSpline
 62
7
  6
CONTINUOUS
 70
0
 71
3
 72
10
 73
6
 74
0
 42
0.0000001
 43
0.0000001
 44
0.0000000001
 40
0.0
 40
0.0
 40
0.0
 40
0.0
 40
0.5658030292
 40
0.8271112034
 40
1.0
 40
1.0
 40
1.0
 40
1.0
 10
31.3821865732
 20
156.447772558
 30
0.0
 10
31.3605476417
 20
156.5446474058
 30
0.0
 10
31.3481671387
 20
156.6912554513
 30
0.0
 10
31.3565206971
 20
156.865566158
 30
0.0
 10
31.3691188779
 20
156.9423934846
 30
0.0
 10
31.3821865808
 20
156.9697649835
 30
0.0
  0
SPLINE
  5
35F
100
AcDbEntity
  8
0
100
AcDbSpline
 62
7
  6
CONTINUOUS
 70
0
 71
3
 72
9
 73
5
 74
0
 42
0.0000001
 43
0.0000001
 44
0.0000000001
 40
0.0
 40
0.0
 40
0.0
 40
0.0
 40
0.1922815639
 40
1.0
 40
1.0
 40
1.0
 40
1.0
 10
31.3821865808
 20
156.9697649835
 30
0.0
 10
31.3863063752
 20
156.9783942739
 30
0.0
 10
31.4048159855
 20
157.0246421348
 30
0.0
 10
31.4160311463
 20
157.0733983787
 30
0.0
 10
31.423912124
 20
157.1127860411
 30
0.0
  0
SPLINE
  5
360
100
AcDbEntity
  8
0
100
AcDbSpline
 62
7
  6
CONTINUOUS
 70
0
 71
3
 72
10
 73
6
 74
0
 42
0.0000001
 43
0.0000001
 44
0.0000000001
 40
0.0
 40
0.0
 40
0.0
 40
0.0
 40
0.5179560734
 40
0.7856309846
 40
1.0
 40
1.0
 40
1.0
 40
1.0
 10
31.423912124
 20
157.1127860411
 30
0.0
 10
31.4511278144
 20
157.2488065444
 30
0.0
 10
31.4689155117
 20
157.4597943651
 30
0.0
 10
31.4690558727
 20
157.7274742459
 30
0.0
 10
31.4587654155
 20
157.8565923032
 30
0.0
 10
31.4491088469
 20
157.9131856424
 30
0.0
  0
SPLINE
  5
361
100
AcDbEntity
  8
0
100
AcDbSpline
 62
7
  6
CONTINUOUS
 70
0
 71
3
 72
9
 73
5
 74
0
 42
0.0000001
 43
0.0000001
 44
0.0000000001
 40
0.0
 40
0.0
 40
0.0
 40
0.0
 40
0.6638200655
 40
1.0
 40
1.0
 40
1.0
 40
1.0
 10
31.4491088469
 20
157.9131856424
 30
0.0
 10
31.4442944076
 20
157.9414011718
 30
0.0
 10
31.4361609834
 20
157.9805576942
 30
0.0
 10
31.415011992
 20
158.0264602598
 30
0.0
 10
31.40117228
 20
158.0307718681
 30
0.0
  0
SPLINE
  5
362
100
AcDbEntity
  8
0
100
AcDbSpline
 62
7
  6
CONTINUOUS
 70
0
 71
3
 72
9
 73
5
 74
0
 42
0.0000001
 43
0.0000001
 44
0.0000000001
 40
0.0
 40
0.0
 40
0.0
 40
0.0
 40
0.5042384359
 40
1.0
 40
1.0
 40
1.0
 40
1.0
 10
31.40117228
 20
158.0307718681
 30
0.0
 10
31.4003842888
 20
158.031017358
 30
0.0
 10
31.3987849342
 20
158.0313952266
 30
0.0
 10
31.3971463548
 20
158.0315282113
 30
0.0
 10
31.3963348939
 20
158.0315321513
 30
0.0
  0
SPLINE
  5
363
100
AcDbEntity
  8
0
100
AcDbSpline
 62
7
  6
CONTINUOUS
 70
0
 71
3
 72
16
 73
12
 74
0
 42
0.0000001
 43
0.0000001
 44
0.0000000001
 40
0.0
 40
0.0
 40
0.0
 40
0.0
 40
0.3690187947
 40
0.5416741519
 40
0.6955282962
 40
0.8235052818
 40
0.9195483608
 40
0.9539338194
 40
0.9787717966
 40
0.9939275127
 40
1.0
 40
1.0
 40
1.0
 40
1.0
 10
31.382186583
 20
158.4076427975
 30
0.0
 10
31.395855516
 20
158.4850033139
 30
0.0
 10
31.4149382477
 20
158.598744993
 30
0.0
 10
31.4373029741
 20
158.7450964638
 30
0.0
 10
31.4507896697
 20
158.8409573575
 30
0.0
 10
31.4607731873
 20
158.9206457011
 30
0.0
 10
31.4662624102
 20
158.975695818
 30
0.0
 10
31.4684073636
 20
159.0082666714
 30
0.0
 10
31.4684316346
 20
159.0248281894
 30
0.0
 10
31.4682132949
 20
159.0333099231
 30
0.0
 10
31.4664237135
 20
159.0392385838
 30
0.0
 10
31.465131091
 20
159.0392207331
 30
0.0
  0
SPLINE
  5
364
100
AcDbEntity
  8
0
100
AcDbSpline
 62
7
  6
CONTINUOUS
 70
0
 71
3
 72
13
 73
9
 74
0
 42
0.0000001
 43
0.0000001
 44
0.0000000001
 40
0.0
 40
0.0
 40
0.0
 40
0.0
 40
0.4044183094
 40
0.724755467
 40
0.8423575955
 40
0.9281537132
 40
0.980192777
 40
1.0
 40
1.0
 40
1.0
 40
1.0
 10
31.3821865732
 20
158.6905308547
 30
0.0
 10
31.3768178621
 20
158.6619380938
 30
0.0
 10
31.3676307236
 20
158.6107532033
 30
0.0
 10
31.3583770228
 20
158.550439387
 30
0.0
 10
31.3539458052
 20
158.5136026248
 30
0.0
 10
31.3526833232
 20
158.4942565219
 30
0.0
 10
31.3524100352
 20
158.4847480524
 30
0.0
 10
31.3537060174
 20
158.4775486111
 30
0.0
 10
31.355130849
 20
158.4775393745
 30
0.0
  0
SPLINE
  5
365
100
AcDbEntity
  8
0
100
AcDbSpline
 62
7
  6
CONTINUOUS
 70
0
 71
3
 72
9
 73
5
 74
0
 42
0.0000001
 43
0.0000001
 44
0.0000000001
 40
0.0
 40
0.0
 40
0.0
 40
0.0
 40
0.2249888907
 40
1.0
 40
1.0
 40
1.0
 40
1.0
 10
31.3821865825
 20
157.7777987551
 30
0.0
 10
31.3772744367
 20
157.755807685
 30
0.0
 10
31.3594690926
 20
157.6571990548
 30
0.0
 10
31.3524947858
 20
157.5567389285
 30
0.0
 10
31.3526385023
 20
157.4791204307
 30
0.0
  0
SPLINE
  5
366
100
AcDbEntity
  8
0
100
AcDbSpline
 62
7
  6
CONTINUOUS
 70
0
 71
3
 72
9
 73
5
 74
0
 42
0.0000001
 43
0.0000001
 44
0.0000000001
 40
0.0
 40
0.0
 40
0.0
 40
0.0
 40
0.6016957992
 40
1.0
 40
1.0
 40
1.0
 40
1.0
 10
31.3526385023
 20
157.4791204307
 30
0.0
 10
31.3527224917
 20
157.4337593715
 30
0.0
 10
31.3567339616
 20
157.3589187853
 30
0.0
 10
31.3692495147
 20
157.2829041649
 30
0.0
 10
31.382186575
 20
157.2558062999
 30
0.0
  0
SPLINE
  5
367
100
AcDbEntity
  8
0
100
AcDbSpline
 62
7
  6
CONTINUOUS
 70
0
 71
3
 72
9
 73
5
 74
0
 42
0.0000001
 43
0.0000001
 44
0.0000000001
 40
0.0
 40
0.0
 40
0.0
 40
0.0
 40
0.1922815573
 40
1.0
 40
1.0
 40
1.0
 40
1.0
 10
31.382186575
 20
157.2558062999
 30
0.0
 10
31.3863063702
 20
157.2471770093
 30
0.0
 10
31.4048159727
 20
157.200929144
 30
0.0
 10
31.4160312974
 20
157.1521729271
 30
0.0
 10
31.423912124
 20
157.1127852303
 30
0.0
  0
SPLINE
  5
368
100
AcDbEntity
  8
0
100
AcDbSpline
 62
7
  6
CONTINUOUS
 70
0
 71
3
 72
9
 73
5
 74
0
 42
0.0000001
 43
0.0000001
 44
0.0000000001
 40
0.0
 40
0.0
 40
0.0
 40
0.0
 40
0.2295099529
 40
1.0
 40
1.0
 40
1.0
 40
1.0
 10
31.3821865825
 20
157.7777987551
 30
0.0
 10
31.3855717409
 20
157.7929536953
 30
0.0
 10
31.3996498931
 20
157.8591348462
 30
0.0
 10
31.4114659114
 20
157.925786081
 30
0.0
 10
31.4196225308
 20
157.9772745857
 30
0.0
  0
SPLINE
  5
369
100
AcDbEntity
  8
0
100
AcDbSpline
 62
7
  6
CONTINUOUS
 70
0
 71
3
 72
12
 73
8
 74
0
 42
0.0000001
 43
0.0000001
 44
0.0000000001
 40
0.0
 40
0.0
 40
0.0
 40
0.0
 40
0.0460031576
 40
0.1219902672
 40
0.3609451385
 40
0.6761349256
 40
1.0
 40
1.0
 40
1.0
 40
1.0
 10
142.4002696824
 20
152.4193360997
 30
0.0
 10
142.4065009724
 20
152.4155375063
 30
0.0
 10
142.4164786259
 20
152.3972483192
 30
0.0
 10
142.4297340505
 20
152.342256864
 30
0.0
 10
142.4335903579
 20
152.2409785
 30
0.0
 10
142.4252931914
 20
152.1022859696
 30
0.0
 10
142.4104225044
 20
152.0016945411
 30
0.0
 10
142.4002696971
 20
151.9513305385
 30
0.0
  0
SPLINE
  5
36A
100
AcDbEntity
  8
0
100
AcDbSpline
 62
7
  6
CONTINUOUS
 70
0
 71
3
 72
14
 73
10
 74
0
 42
0.0000001
 43
0.0000001
 44
0.0000000001
 40
0.0
 40
0.0
 40
0.0
 40
0.0
 40
0.3438576646
 40
0.5157367672
 40
0.6737717214
 40
0.8083193152
 40
0.9106362443
 40
0.9748098752
 40
1.0
 40
1.0
 40
1.0
 40
1.0
 10
142.4002696971
 20
151.9513305385
 30
0.0
 10
142.3826226095
 20
151.8637904373
 30
0.0
 10
142.3594430105
 20
151.7317320858
 30
0.0
 10
142.3345235043
 20
151.5587338922
 30
0.0
 10
142.3204095128
 20
151.4383779847
 30
0.0
 10
142.3111484275
 20
151.337821971
 30
0.0
 10
142.3085551189
 20
151.2556506044
 30
0.0
 10
142.3092381652
 20
151.2133876281
 30
0.0
 10
142.3162778992
 20
151.181848257
 30
0.0
 10
142.3228195862
 20
151.181787506
 30
0.0
  0
SPLINE
  5
36B
100
AcDbEntity
  8
0
100
AcDbSpline
 62
7
  6
CONTINUOUS
 70
0
 71
3
 72
12
 73
8
 74
0
 42
0.0000001
 43
0.0000001
 44
0.0000000001
 40
0.0
 40
0.0
 40
0.0
 40
0.0
 40
0.3237134074
 40
0.6388712341
 40
0.8779059669
 40
0.9539468508
 40
1.0
 40
1.0
 40
1.0
 40
1.0
 10
142.4002696857
 20
153.980337444
 30
0.0
 10
142.4104178562
 20
153.9299964533
 30
0.0
 10
142.4252374259
 20
153.8294242359
 30
0.0
 10
142.433570966
 20
153.6907583147
 30
0.0
 10
142.4297985307
 20
153.5894482136
 30
0.0
 10
142.4164929304
 20
153.5344389274
 30
0.0
 10
142.4065078126
 20
153.5161345873
 30
0.0
 10
142.4002696791
 20
153.5123318241
 30
0.0
  0
SPLINE
  5
36C
100
AcDbEntity
  8
0
100
AcDbSpline
 62
7
  6
CONTINUOUS
 70
0
 71
3
 72
12
 73
8
 74
0
 42
0.0000001
 43
0.0000001
 44
0.0000000001
 40
0.0
 40
0.0
 40
0.0
 40
0.0
 40
0.0480140992
 40
0.1210504032
 40
0.3431419439
 40
0.6485058252
 40
1.0
 40
1.0
 40
1.0
 40
1.0
 10
142.4002696791
 20
153.5123318241
 30
0.0
 10
142.3925893451
 20
153.5076498859
 30
0.0
 10
142.3784201666
 20
153.488652547
 30
0.0
 10
142.3535130733
 20
153.4296585318
 30
0.0
 10
142.3306105629
 20
153.318391867
 30
0.0
 10
142.3129661397
 20
153.1549032236
 30
0.0
 10
142.3089663619
 20
153.0316825782
 30
0.0
 10
142.3089663554
 20
152.9658341698
 30
0.0
  0
SPLINE
  5
36D
100
AcDbEntity
  8
0
100
AcDbSpline
 62
7
  6
CONTINUOUS
 70
0
 71
3
 72
12
 73
8
 74
0
 42
0.0000001
 43
0.0000001
 44
0.0000000001
 40
0.0
 40
0.0
 40
0.0
 40
0.0
 40
0.3515096952
 40
0.6568221747
 40
0.8789529394
 40
0.9519922466
 40
1.0
 40
1.0
 40
1.0
 40
1.0
 10
142.3089663554
 20
152.9658341698
 30
0.0
 10
142.308966349
 20
152.8999830138
 30
0.0
 10
142.3128756973
 20
152.7767656808
 30
0.0
 10
142.3306094687
 20
152.6132819247
 30
0.0
 10
142.353539118
 20
152.5020273239
 30
0.0
 10
142.378428053
 20
152.443020968
 30
0.0
 10
142.3925903816
 20
152.4240174067
 30
0.0
 10
142.4002696824
 20
152.4193360997
 30
0.0
  0
SPLINE
  5
36E
100
AcDbEntity
  8
0
100
AcDbSpline
 62
7
  6
CONTINUOUS
 70
0
 71
3
 72
12
 73
8
 74
0
 42
0.0000001
 43
0.0000001
 44
0.0000000001
 40
0.0
 40
0.0
 40
0.0
 40
0.0
 40
0.3515097027
 40
0.6568221858
 40
0.8789529477
 40
0.951992251
 40
1.0
 40
1.0
 40
1.0
 40
1.0
 10
142.3089663554
 20
207.5658341698
 30
0.0
 10
142.308966349
 20
207.4999830117
 30
0.0
 10
142.3128756976
 20
207.3767656755
 30
0.0
 10
142.3306094698
 20
207.2132819164
 30
0.0
 10
142.3535391203
 20
207.102027315
 30
0.0
 10
142.3784280565
 20
207.0430209613
 30
0.0
 10
142.3925903861
 20
207.024017402
 30
0.0
 10
142.4002696872
 20
207.0193360967
 30
0.0
  0
SPLINE
  5
36F
100
AcDbEntity
  8
0
100
AcDbSpline
 62
7
  6
CONTINUOUS
 70
0
 71
3
 72
12
 73
8
 74
0
 42
0.0000001
 43
0.0000001
 44
0.0000000001
 40
0.0
 40
0.0
 40
0.0
 40
0.0
 40
0.0480140908
 40
0.1210503874
 40
0.3431419226
 40
0.6485058108
 40
1.0
 40
1.0
 40
1.0
 40
1.0
 10
142.4002696882
 20
208.1123318297
 30
0.0
 10
142.3925893537
 20
208.1076498949
 30
0.0
 10
142.3784201731
 20
208.0886525597
 30
0.0
 10
142.3535130777
 20
208.0296585488
 30
0.0
 10
142.3306105651
 20
207.9183918828
 30
0.0
 10
142.3129661402
 20
207.7549032339
 30
0.0
 10
142.3089663619
 20
207.6316825821
 30
0.0
 10
142.3089663554
 20
207.5658341698
 30
0.0
  0
SPLINE
  5
370
100
AcDbEntity
  8
0
100
AcDbSpline
 62
7
  6
CONTINUOUS
 70
0
 71
3
 72
12
 73
8
 74
0
 42
0.0000001
 43
0.0000001
 44
0.0000000001
 40
0.0
 40
0.0
 40
0.0
 40
0.0
 40
0.3237133916
 40
0.6388712049
 40
0.8779059427
 40
0.9539468378
 40
1.0
 40
1.0
 40
1.0
 40
1.0
 10
142.4002696882
 20
208.5803374316
 30
0.0
 10
142.4104178573
 20
208.5299964457
 30
0.0
 10
142.4252374254
 20
208.4294242379
 30
0.0
 10
142.4335709653
 20
208.2907583266
 30
0.0
 10
142.4297985324
 20
208.189448231
 30
0.0
 10
142.4164929346
 20
208.1344389412
 30
0.0
 10
142.4065078208
 20
208.1161345977
 30
0.0
 10
142.4002696882
 20
208.1123318297
 30
0.0
  0
SPLINE
  5
371
100
AcDbEntity
  8
0
100
AcDbSpline
 62
7
  6
CONTINUOUS
 70
0
 71
3
 72
14
 73
10
 74
0
 42
0.0000001
 43
0.0000001
 44
0.0000000001
 40
0.0
 40
0.0
 40
0.0
 40
0.0
 40
0.3438576737
 40
0.5157367765
 40
0.6737717289
 40
0.8083193201
 40
0.9106362466
 40
0.9748098758
 40
1.0
 40
1.0
 40
1.0
 40
1.0
 10
142.4002696882
 20
206.5513304942
 30
0.0
 10
142.3826226019
 20
206.4637903956
 30
0.0
 10
142.3594430046
 20
206.3317320493
 30
0.0
 10
142.3345235006
 20
206.1587338636
 30
0.0
 10
142.3204095108
 20
206.0383779641
 30
0.0
 10
142.3111484266
 20
205.9378219579
 30
0.0
 10
142.3085551191
 20
205.8556505982
 30
0.0
 10
142.3092381653
 20
205.8133876249
 30
0.0
 10
142.3162778997
 20
205.781848257
 30
0.0
 10
142.3228195862
 20
205.7817875061
 30
0.0
  0
SPLINE
  5
372
100
AcDbEntity
  8
0
100
AcDbSpline
 62
7
  6
CONTINUOUS
 70
0
 71
3
 72
12
 73
8
 74
0
 42
0.0000001
 43
0.0000001
 44
0.0000000001
 40
0.0
 40
0.0
 40
0.0
 40
0.0
 40
0.0460031647
 40
0.1219902828
 40
0.3609451657
 40
0.6761349488
 40
1.0
 40
1.0
 40
1.0
 40
1.0
 10
142.4002696872
 20
207.0193360967
 30
0.0
 10
142.4065009774
 20
207.0155375005
 30
0.0
 10
142.4164786295
 20
206.9972483086
 30
0.0
 10
142.4297340531
 20
206.9422568435
 30
0.0
 10
142.4335903575
 20
206.8409784688
 30
0.0
 10
142.4252931873
 20
206.7022859293
 30
0.0
 10
142.4104224972
 20
206.601694497
 30
0.0
 10
142.4002696882
 20
206.5513304942
 30
0.0
  0
SPLINE
  5
373
100
AcDbEntity
  8
0
100
AcDbSpline
 62
7
  6
CONTINUOUS
 70
0
 71
3
 72
9
 73
5
 74
0
 42
0.0000001
 43
0.0000001
 44
0.0000000001
 40
0.0
 40
0.0
 40
0.0
 40
0.0
 40
0.3195881245
 40
1.0
 40
1.0
 40
1.0
 40
1.0
 10
31.382186575
 20
155.6749078548
 30
0.0
 10
31.385363909
 20
155.6635806756
 30
0.0
 10
31.3960413247
 20
155.6284666692
 30
0.0
 10
31.4078627129
 20
155.5929591722
 30
0.0
 10
31.4210820311
 20
155.5716851202
 30
0.0
  0
SPLINE
  5
374
100
AcDbEntity
  8
0
100
AcDbSpline
 62
7
  6
CONTINUOUS
 70
0
 71
3
 72
9
 73
5
 74
0
 42
0.0000001
 43
0.0000001
 44
0.0000000001
 40
0.0
 40
0.0
 40
0.0
 40
0.0
 40
0.3459692002
 40
1.0
 40
1.0
 40
1.0
 40
1.0
 10
31.4210820311
 20
155.5716851202
 30
0.0
 10
31.4226292227
 20
155.5691952009
 30
0.0
 10
31.4272152093
 20
155.5624593638
 30
0.0
 10
31.4343406942
 20
155.5551626702
 30
0.0
 10
31.4398824295
 20
155.5551603666
 30
0.0
  0
SPLINE
  5
375
100
AcDbEntity
  8
0
100
AcDbSpline
 62
7
  6
CONTINUOUS
 70
0
 71
3
 72
11
 73
7
 74
0
 42
0.0000001
 43
0.0000001
 44
0.0000000001
 40
0.0
 40
0.0
 40
0.0
 40
0.0
 40
0.0759585693
 40
0.2714114386
 40
0.5830319185
 40
1.0
 40
1.0
 40
1.0
 40
1.0
 10
31.465131091
 20
159.0392207331
 30
0.0
 10
31.4613717038
 20
159.0391688172
 30
0.0
 10
31.4569110654
 20
159.0215086492
 30
0.0
 10
31.4474928049
 20
158.9985924831
 30
0.0
 10
31.4365931631
 20
158.9517374839
 30
0.0
 10
31.4283791335
 20
158.9173892687
 30
0.0
 10
31.4239198562
 20
158.8972379654
 30
0.0
  0
SPLINE
  5
376
100
AcDbEntity
  8
0
100
AcDbSpline
 62
7
  6
CONTINUOUS
 70
0
 71
3
 72
13
 73
9
 74
0
 42
0.0000001
 43
0.0000001
 44
0.0000000001
 40
0.0
 40
0.0
 40
0.0
 40
0.0
 40
0.1310804623
 40
0.2610147956
 40
0.3890827573
 40
0.5153263798
 40
0.761878957
 40
1.0
 40
1.0
 40
1.0
 40
1.0
 10
108.0623954507
 20
151.8683355274
 30
0.0
 10
107.9930682073
 20
151.8683355274
 30
0.0
 10
107.8632205077
 20
151.7831228251
 30
0.0
 10
107.7500143069
 20
151.6137044487
 30
0.0
 10
107.6607997101
 20
151.4298241757
 30
0.0
 10
107.5669343946
 20
151.1820721409
 30
0.0
 10
107.4887325069
 20
150.8673129659
 30
0.0
 10
107.4623954507
 20
150.6109456779
 30
0.0
 10
107.4623954507
 20
150.485005662
 30
0.0
  0
SPLINE
  5
377
100
AcDbEntity
  8
0
100
AcDbSpline
 62
7
  6
CONTINUOUS
 70
0
 71
3
 72
11
 73
7
 74
0
 42
0.0000001
 43
0.0000001
 44
0.0000000001
 40
0.0
 40
0.0
 40
0.0
 40
0.0
 40
0.0874196507
 40
0.288233939
 40
0.5987370193
 40
1.0
 40
1.0
 40
1.0
 40
1.0
 10
142.3228195862
 20
151.181787506
 30
0.0
 10
142.329770883
 20
151.1817229512
 30
0.0
 10
142.3429622764
 20
151.2076666387
 30
0.0
 10
142.3589581801
 20
151.2472566318
 30
0.0
 10
142.3797935714
 20
151.3195431311
 30
0.0
 10
142.3931224445
 20
151.3737349896
 30
0.0
 10
142.4002696804
 20
151.4048325934
 30
0.0
  0
SPLINE
  5
378
100
AcDbEntity
  8
0
100
AcDbSpline
 62
7
  6
CONTINUOUS
 70
0
 71
3
 72
11
 73
7
 74
0
 42
0.0000001
 43
0.0000001
 44
0.0000000001
 40
0.0
 40
0.0
 40
0.0
 40
0.0
 40
0.0874196477
 40
0.2882339389
 40
0.5987370221
 40
1.0
 40
1.0
 40
1.0
 40
1.0
 10
142.3228195862
 20
205.7817875061
 30
0.0
 10
142.329770885
 20
205.7817229512
 30
0.0
 10
142.3429622805
 20
205.807666649
 30
0.0
 10
142.3589581881
 20
205.8472566543
 30
0.0
 10
142.3797935839
 20
205.9195431779
 30
0.0
 10
142.39312246
 20
205.9737350537
 30
0.0
 10
142.4002696974
 20
206.0048326673
 30
0.0
  0
SPLINE
  5
379
100
AcDbEntity
  8
0
100
AcDbSpline
 62
7
  6
CONTINUOUS
 70
0
 71
3
 72
9
 73
5
 74
0
 42
0.0000001
 43
0.0000001
 44
0.0000000001
 40
0.0
 40
0.0
 40
0.0
 40
0.0
 40
0.2844071242
 40
1.0
 40
1.0
 40
1.0
 40
1.0
 10
142.3919150984
 20
154.5622009291
 30
0.0
 10
142.3892290163
 20
154.573253765
 30
0.0
 10
142.3795197066
 20
154.6120474046
 30
0.0
 10
142.3688753195
 20
154.6506369385
 30
0.0
 10
142.3600096655
 20
154.6778484487
 30
0.0
  0
SPLINE
  5
37A
100
AcDbEntity
  8
0
100
AcDbSpline
 62
7
  6
CONTINUOUS
 70
0
 71
3
 72
10
 73
6
 74
0
 42
0.0000001
 43
0.0000001
 44
0.0000000001
 40
0.0
 40
0.0
 40
0.0
 40
0.0
 40
0.6970238703
 40
0.8944691198
 40
1.0
 40
1.0
 40
1.0
 40
1.0
 10
142.3600096655
 20
154.6778484487
 30
0.0
 10
142.354058144
 20
154.6961155597
 30
0.0
 10
142.3455740541
 20
154.7199709767
 30
0.0
 10
142.3327697487
 20
154.7433958507
 30
0.0
 10
142.3257302033
 20
154.7498968954
 30
0.0
 10
142.3228215333
 20
154.749873413
 30
0.0
  0
SPLINE
  5
37B
100
AcDbEntity
  8
0
100
AcDbSpline
 62
7
  6
CONTINUOUS
 70
0
 71
3
 72
9
 73
5
 74
0
 42
0.0000001
 43
0.0000001
 44
0.0000000001
 40
0.0
 40
0.0
 40
0.0
 40
0.0
 40
0.2844071174
 40
1.0
 40
1.0
 40
1.0
 40
1.0
 10
142.3919151083
 20
209.1622008884
 30
0.0
 10
142.3892290261
 20
209.1732537254
 30
0.0
 10
142.3795197159
 20
209.2120473697
 30
0.0
 10
142.3688753283
 20
209.2506369085
 30
0.0
 10
142.360009674
 20
209.2778484224
 30
0.0
  0
SPLINE
  5
37C
100
AcDbEntity
  8
0
100
AcDbSpline
 62
7
  6
CONTINUOUS
 70
0
 71
3
 72
10
 73
6
 74
0
 42
0.0000001
 43
0.0000001
 44
0.0000000001
 40
0.0
 40
0.0
 40
0.0
 40
0.0
 40
0.6970238797
 40
0.8944691285
 40
1.0
 40
1.0
 40
1.0
 40
1.0
 10
142.360009674
 20
209.2778484224
 30
0.0
 10
142.3540581511
 20
209.2961155399
 30
0.0
 10
142.3455740591
 20
209.3199709656
 30
0.0
 10
142.3327697511
 20
209.3433958477
 30
0.0
 10
142.3257302041
 20
209.3498968953
 30
0.0
 10
142.3228215333
 20
209.349873413
 30
0.0
  0
SPLINE
  5
37D
100
AcDbEntity
  8
0
100
AcDbSpline
 62
7
  6
CONTINUOUS
 70
0
 71
3
 72
9
 73
5
 74
0
 42
0.0000001
 43
0.0000001
 44
0.0000000001
 40
0.0
 40
0.0
 40
0.0
 40
0.0
 40
0.3195881245
 40
1.0
 40
1.0
 40
1.0
 40
1.0
 10
31.382186575
 20
176.1810045092
 30
0.0
 10
31.385363909
 20
176.16967733
 30
0.0
 10
31.3960413247
 20
176.1345633236
 30
0.0
 10
31.4078627129
 20
176.0990558266
 30
0.0
 10
31.4210820311
 20
176.0777817746
 30
0.0
  0
SPLINE
  5
37E
100
AcDbEntity
  8
0
100
AcDbSpline
 62
7
  6
CONTINUOUS
 70
0
 71
3
 72
9
 73
5
 74
0
 42
0.0000001
 43
0.0000001
 44
0.0000000001
 40
0.0
 40
0.0
 40
0.0
 40
0.0
 40
0.3459692002
 40
1.0
 40
1.0
 40
1.0
 40
1.0
 10
31.4210820311
 20
176.0777817746
 30
0.0
 10
31.4226292227
 20
176.0752918553
 30
0.0
 10
31.4272152093
 20
176.0685560182
 30
0.0
 10
31.4343406942
 20
176.0612593246
 30
0.0
 10
31.4398824295
 20
176.061257021
 30
0.0
  0
SPLINE
  5
37F
100
AcDbEntity
  8
0
100
AcDbSpline
 62
7
  6
CONTINUOUS
 70
0
 71
3
 72
11
 73
7
 74
0
 42
0.0000001
 43
0.0000001
 44
0.0000000001
 40
0.0
 40
0.0
 40
0.0
 40
0.0
 40
0.0759585693
 40
0.2714114386
 40
0.5830319185
 40
1.0
 40
1.0
 40
1.0
 40
1.0
 10
31.465131091
 20
179.5453173875
 30
0.0
 10
31.4613717038
 20
179.5452654716
 30
0.0
 10
31.4569110654
 20
179.5276053036
 30
0.0
 10
31.4474928049
 20
179.5046891375
 30
0.0
 10
31.4365931631
 20
179.4578341384
 30
0.0
 10
31.4283791335
 20
179.4234859231
 30
0.0
 10
31.4239198562
 20
179.4033346198
 30
0.0
  0
ELLIPSE
  5
380
100
AcDbEntity
  8
0
100
AcDbEllipse
 62
7
  6
CONTINUOUS
 10
34.5623954507
 20
156.3658339629
 30
0.0
 11
0.0
 21
4.0
 31
0.0
 40
1.0
 41
-1.9605570596
 42
-1.5707963268
  0
ELLIPSE
  5
381
100
AcDbEntity
  8
0
100
AcDbEllipse
 62
7
  6
CONTINUOUS
 10
-250.1093436385
 20
153.8658339629
 30
0.0
 11
389.5717390892
 21
0.0
 31
0.0
 40
0.0174550649
 41
-0.2911914751
 42
-0.0
  0
ELLIPSE
  5
382
100
AcDbEntity
  8
0
100
AcDbEllipse
 62
7
  6
CONTINUOUS
 10
265.4331059671
 20
195.8658339629
 30
0.0
 11
125.9707105164
 21
-0.0
 31
0.0
 40
0.0436609429
 41
2.6452597645
 42
3.1415926536
  0
ELLIPSE
  5
383
100
AcDbEntity
  8
0
100
AcDbEllipse
 62
7
  6
CONTINUOUS
 10
159.2924704788
 20
195.8658339629
 30
0.0
 11
-0.0
 21
5.5
 31
0.0
 40
0.9572917423
 41
0.9656345423
 42
1.0744634377
  0
ELLIPSE
  5
384
100
AcDbEntity
  8
0
100
AcDbEllipse
 62
7
  6
CONTINUOUS
 10
-250.1093436385
 20
206.6658339629
 30
0.0
 11
389.5717390892
 21
-0.0
 31
0.0
 40
0.0174550649
 41
-0.0
 42
0.2911914751
  0
ELLIPSE
  5
385
100
AcDbEntity
  8
0
100
AcDbEllipse
 62
7
  6
CONTINUOUS
 10
34.5623954507
 20
178.3658339629
 30
0.0
 11
0.0
 21
4.0
 31
0.0
 40
1.0
 41
-1.5707963268
 42
-1.181035594
  0
ELLIPSE
  5
386
100
AcDbEntity
  8
0
100
AcDbEllipse
 62
7
  6
CONTINUOUS
 10
159.2924704788
 20
164.6658339629
 30
0.0
 11
-0.0
 21
5.5
 31
0.0
 40
0.9572917423
 41
-4.2160560913
 42
-4.1072271959
  0
ELLIPSE
  5
387
100
AcDbEntity
  8
0
100
AcDbEllipse
 62
7
  6
CONTINUOUS
 10
265.4331059671
 20
164.6658339629
 30
0.0
 11
125.9707105164
 21
-0.0
 31
0.0
 40
0.0436609429
 41
-3.1415926536
 42
-2.6452597645
  0
ENDSEC
  0
SECTION
  2
OBJECTS
  0
DICTIONARY
  5
C
100
AcDbDictionary
280
0
281
1
  3
ACAD_GROUP
350
D
  3
ACAD_MLINESTYLE
350
17
  3
ACAD_LAYOUT
350
1A
  3
ACAD_PLOTSETTINGS
350
19
  3
ACAD_PLOTSTYLENAME
350
E
  0
DICTIONARY
  5
D
102
{ACAD_REACTORS
330
C
102
}
100
AcDbDictionary
280
0
281
1
  0
ACDBDICTIONARYWDFLT
  5
E
102
{ACAD_REACTORS
330
C
102
}
100
AcDbDictionary
281
1
  3
Normal
350
F
100
AcDbDictionaryWithDefault
340
F
  0
DICTIONARY
  5
17
102
{ACAD_REACTORS
330
C
102
}
100
AcDbDictionary
280
0
281
1
  3
Standard
350
18
  0
DICTIONARY
  5
19
102
{ACAD_REACTORS
330
C
102
}
100
AcDbDictionary
281
1
  0
DICTIONARY
  5
1A
102
{ACAD_REACTORS
330
C
102
}
100
AcDbDictionary
281
1
  3
Model
350
388
  3
Layout1
350
389
  0
ACDBPLACEHOLDER
  5
F
102
{ACAD_REACTORS
330
E
102
}
  0
MLINESTYLE
  5
18
102
{ACAD_REACTORS
330
17
102
}
100
AcDbMlineStyle
  2
STANDARD
 70
0
  3

 62
256
 51
90.0
 52
90.0
 71
2
 49
0.5
 62
256
  6
BYLAYER
 49
-0.5
 62
256
  6
BYLAYER
  0
LAYOUT
  5
388
102
{ACAD_REACTORS
330
1A
102
}
100
AcDbPlotSettings
  1

  2
none_device
  4

  6

 40
0.0
 41
0.0
 42
0.0
 43
0.0
 44
210.0
 45
297.0
 46
0.0
 47
0.0
 48
0.0
 49
0.0
140
0.0
141
0.0
142
1.0
143
1.0
 70
1024
 72
1
 73
0
 74
0
  7

 75
0
147
1.0
148
0.0
149
0.0
100
AcDbLayout
  1
Model
 70
0
 71
0
 10
0.0
 20
0.0
 11
210.0
 21
297.0
 12
0.0
 22
0.0
 32
0.0
 14
0.0
 24
0.0
 34
0.0
 15
0.0
 25
0.0
 35
0.0
146
0.0
 13
0.0
 23
0.0
 33
0.0
 16
1.0
 26
0.0
 36
0.0
 17
0.0
 27
1.0
 37
0.0
 76
0
330
210
345
0
346
0
  0
LAYOUT
  5
389
102
{ACAD_REACTORS
330
1A
102
}
100
AcDbPlotSettings
  1

  2
none_device
  4

  6

 40
0.0
 41
0.0
 42
0.0
 43
0.0
 44
210.0
 45
297.0
 46
0.0
 47
0.0
 48
0.0
 49
0.0
140
0.0
141
0.0
142
1.0
143
1.0
 70
0
 72
1
 73
0
 74
0
  7

 75
0
147
1.0
148
0.0
149
0.0
100
AcDbLayout
  1
Layout1
 70
0
 71
1
 10
0.0
 20
0.0
 11
210.0
 21
297.0
 12
0.0
 22
0.0
 32
0.0
 14
0.0
 24
0.0
 34
0.0
 15
0.0
 25
0.0
 35
0.0
146
0.0
 13
0.0
 23
0.0
 33
0.0
 16
1.0
 26
0.0
 36
0.0
 17
0.0
 27
1.0
 37
0.0
 76
0
330
211
345
0
346
0
  0
ENDSEC
  0
EOF
