999
DXF file: C:\Users\sesa63760\Dev\_Creo\CAD\MCADID0004239_3D-CAD\drw0001_5.dxf
999
Pro/ENGINEER 2019471 by Parametric Technology Corporation
  0
SECTION
  2
HEADER
  9
$ACADVER
  1
AC1024
  9
$DWGCODEPAGE
  3
ANSI_1252
  9
$EXTMAX
 10
331.8694095604
 20
469.3581649498
 30
0.0
  9
$EXTMIN
 10
0.0
 20
0.0
 30
0.0
  9
$LIMMIN
 10
0.0
 20
0.0
  9
$LIMMAX
 10
331.8694095604
 20
469.3581649498
  9
$VIEWCTR
 10
165.9347047802
 20
234.6790824749
  9
$VIEWSIZE
 40
469.3581649498
  9
$CLAYER
  8
0
  9
$LTSCALE
 40
30.5951989004
  9
$CELTYPE
  6
BYLAYER
  9
$DIMSCALE
 40
1.0
  9
$DIMASZ
 40
3.9508263043
  9
$DIMEXO
 40
1.0
  9
$DIMDLI
 40
21.1385010585
  9
$DIMEXE
 40
1.0
  9
$DIMCEN
 40
5.0064870928
  9
$DIMLFAC
 40
1.0
  9
$DIMBLK
  1
_FILLED
  9
$DIMALT
 70
0
  9
$DIMALTF
 40
0.0393700787
  9
$DIMTXT
 40
5.531156826
  9
$DIMTOL
 70
1
  9
$DIMLIM
 70
0
  9
$DIMTFAC
 40
1.0
  9
$DIMTP
 40
0.01
  9
$DIMTM
 40
0.01
  9
$DIMGAP
 40
0.625
  9
$DIMDSEP
 70
46
  9
$AUNITS
 70
0
  9
$PDMODE
 70
3
  9
$PDSIZE
 40
0.3125
  9
$HANDSEED
  5
35B
  9
$TILEMODE
 70
1
  9
$MEASUREMENT
 70
1
  9
$INSUNITS
 70
4
  0
ENDSEC
  0
SECTION
  2
CLASSES
  0
CLASS
  1
ACDBDICTIONARYWDFLT
  2
AcDbDictionaryWithDefault
  3
AutoCAD 2000
 90
0
 91
1
280
0
281
0
  0
CLASS
  1
ACDBPLACEHOLDER
  2
AcDbPlaceHolder
  3
AutoCAD 2000
 90
0
 91
1
280
0
281
0
  0
CLASS
  1
LAYOUT
  2
AcDbLayout
  3
AutoCAD 2000
 90
0
 91
0
280
0
281
0
  0
ENDSEC
  0
SECTION
  2
TABLES
  0
TABLE
  2
VPORT
  5
8
100
AcDbSymbolTable
 70
2
  0
VPORT
  5
1F4
100
AcDbSymbolTableRecord
100
AcDbViewportTableRecord
  2
*ACTIVE
 70
0
 10
0.0
 20
0.0
 11
1.0
 21
1.0
 12
165.9347047802
 22
234.6790824749
 13
0.0
 23
0.0
 14
1.0
 24
1.0
 15
0.0
 25
0.0
 16
0.0
 26
0.0
 36
1.0
 17
0.0
 27
0.0
 37
0.0
 40
469.3581649498
 41
0.7070707071
 42
50.0
 43
0.0
 44
0.0
 50
0.0
 51
0.0
 71
0
 72
100
 73
1
 74
1
 75
0
 76
0
 77
0
 78
0
  0
ENDTAB
  0
TABLE
  2
LTYPE
  5
5
100
AcDbSymbolTable
 70
6
  0
LTYPE
  5
14
100
AcDbSymbolTableRecord
100
AcDbLinetypeTableRecord
  2
BYBLOCK
 70
0
  3

 72
65
 73
0
 40
0.0
  0
LTYPE
  5
15
100
AcDbSymbolTableRecord
100
AcDbLinetypeTableRecord
  2
BYLAYER
 70
0
  3

 72
65
 73
0
 40
0.0
  0
LTYPE
  5
16
100
AcDbSymbolTableRecord
100
AcDbLinetypeTableRecord
  2
CONTINUOUS
 70
64
  3
Solid line
 72
65
 73
0
 40
0.0
  0
LTYPE
  5
1F5
100
AcDbSymbolTableRecord
100
AcDbLinetypeTableRecord
  2
CENTER
 70
64
  3
____ _ ____ _ ____ _ ____ _ ____ _ ____ _ ____
 72
65
 73
4
 40
0.6
 49
0.375
 74
0
 49
-0.075
 74
0
 49
0.075
 74
0
 49
-0.075
 74
0
  0
LTYPE
  5
1F6
100
AcDbSymbolTableRecord
100
AcDbLinetypeTableRecord
  2
HIDDEN
 70
64
  3
- - - - - - - - - - - - - - - - - - - -
 72
65
 73
2
 40
0.2
 49
0.1
 74
0
 49
-0.1
 74
0
  0
LTYPE
  5
1F7
100
AcDbSymbolTableRecord
100
AcDbLinetypeTableRecord
  2
PHANTOM
 70
64
  3
_____ _ _ _____ _ _ _____ _ _ _____
 72
65
 73
6
 40
0.8
 49
0.45
 74
0
 49
-0.05
 74
0
 49
0.1
 74
0
 49
-0.05
 74
0
 49
0.1
 74
0
 49
-0.05
 74
0
  0
LTYPE
  5
1F8
100
AcDbSymbolTableRecord
100
AcDbLinetypeTableRecord
  2
DOT
 70
64
  3
. . . . . . . . . . . . . . . . . . . .
 72
65
 73
2
 40
0.2
 49
0.1
 74
0
 49
-0.1
 74
0
  0
LTYPE
  5
1F9
100
AcDbSymbolTableRecord
100
AcDbLinetypeTableRecord
  2
DASHED
 70
64
  3
- - - - - - - - - - - - - - - - - - - -
 72
65
 73
2
 40
0.2
 49
0.1
 74
0
 49
-0.1
 74
0
  0
ENDTAB
  0
TABLE
  2
LAYER
  5
2
100
AcDbSymbolTable
 70
36
  0
LAYER
  5
10
100
AcDbSymbolTableRecord
100
AcDbLayerTableRecord
  2
0
 70
0
 62
7
  6
CONTINUOUS
370
-3
390
F
  0
LAYER
  5
1FA
100
AcDbSymbolTableRecord
100
AcDbLayerTableRecord
  2
DEFAULT_1
 70
0
 62
7
  6
CENTER
370
-3
390
F
  0
LAYER
  5
1FB
100
AcDbSymbolTableRecord
100
AcDbLayerTableRecord
  2
DEFAULT_2
 70
0
 62
7
  6
HIDDEN
370
-3
390
F
  0
LAYER
  5
1FC
100
AcDbSymbolTableRecord
100
AcDbLayerTableRecord
  2
DEFAULT_3
 70
0
 62
7
  6
PHANTOM
370
-3
390
F
  0
LAYER
  5
1FD
100
AcDbSymbolTableRecord
100
AcDbLayerTableRecord
  2
00_COMPONENTS
 70
0
 62
7
  6
CONTINUOUS
370
-3
390
F
  0
LAYER
  5
1FE
100
AcDbSymbolTableRecord
100
AcDbLayerTableRecord
  2
01_1_DEFAULT_DATUMS
 70
0
 62
7
  6
CONTINUOUS
370
-3
390
F
  0
LAYER
  5
1FF
100
AcDbSymbolTableRecord
100
AcDbLayerTableRecord
  2
01_PLANES
 70
0
 62
7
  6
CONTINUOUS
370
-3
390
F
  0
LAYER
  5
200
100
AcDbSymbolTableRecord
100
AcDbLayerTableRecord
  2
02_COORD_SYS
 70
0
 62
7
  6
CONTINUOUS
370
-3
390
F
  0
LAYER
  5
201
100
AcDbSymbolTableRecord
100
AcDbLayerTableRecord
  2
03_AXES
 70
0
 62
7
  6
CONTINUOUS
370
-3
390
F
  0
LAYER
  5
202
100
AcDbSymbolTableRecord
100
AcDbLayerTableRecord
  2
04_POINTS
 70
0
 62
7
  6
CONTINUOUS
370
-3
390
F
  0
LAYER
  5
203
100
AcDbSymbolTableRecord
100
AcDbLayerTableRecord
  2
05_CURVES
 70
0
 62
7
  6
CONTINUOUS
370
-3
390
F
  0
LAYER
  5
204
100
AcDbSymbolTableRecord
100
AcDbLayerTableRecord
  2
06_SURFS
 70
0
 62
7
  6
CONTINUOUS
370
-3
390
F
  0
LAYER
  5
205
100
AcDbSymbolTableRecord
100
AcDbLayerTableRecord
  2
07_COSMETICS
 70
0
 62
7
  6
CONTINUOUS
370
-3
390
F
  0
LAYER
  5
206
100
AcDbSymbolTableRecord
100
AcDbLayerTableRecord
  2
10_NOTES
 70
0
 62
7
  6
CONTINUOUS
370
-3
390
F
  0
LAYER
  5
207
100
AcDbSymbolTableRecord
100
AcDbLayerTableRecord
  2
11_NOTES_PUB
 70
0
 62
7
  6
CONTINUOUS
370
-3
390
F
  0
LAYER
  5
208
100
AcDbSymbolTableRecord
100
AcDbLayerTableRecord
  2
13_REF_GTOL
 70
0
 62
7
  6
CONTINUOUS
370
-3
390
F
  0
LAYER
  5
209
100
AcDbSymbolTableRecord
100
AcDbLayerTableRecord
  2
16_MISC
 70
0
 62
7
  6
CONTINUOUS
370
-3
390
F
  0
LAYER
  5
20A
100
AcDbSymbolTableRecord
100
AcDbLayerTableRecord
  2
17_NO_PRINT
 70
0
 62
7
  6
CONTINUOUS
370
-3
390
F
  0
LAYER
  5
20B
100
AcDbSymbolTableRecord
100
AcDbLayerTableRecord
  2
18_DATUM_CAMS_JOINTS
 70
0
 62
7
  6
CONTINUOUS
370
-3
390
F
  0
LAYER
  5
20C
100
AcDbSymbolTableRecord
100
AcDbLayerTableRecord
  2
19_DATUM_FUNCTIONAL
 70
0
 62
7
  6
CONTINUOUS
370
-3
390
F
  0
LAYER
  5
20D
100
AcDbSymbolTableRecord
100
AcDbLayerTableRecord
  2
20_DATUM_KINEMATIC_SCHEME
 70
0
 62
7
  6
CONTINUOUS
370
-3
390
F
  0
LAYER
  5
20E
100
AcDbSymbolTableRecord
100
AcDbLayerTableRecord
  2
3
 70
0
 62
7
  6
CONTINUOUS
370
-3
390
F
  0
LAYER
  5
20F
100
AcDbSymbolTableRecord
100
AcDbLayerTableRecord
  2
4
 70
0
 62
7
  6
CONTINUOUS
370
-3
390
F
  0
ENDTAB
  0
TABLE
  2
STYLE
  5
3
100
AcDbSymbolTable
 70
1
  0
STYLE
  5
11
100
AcDbSymbolTableRecord
100
AcDbTextStyleTableRecord
  2
STANDARD
 70
0
 40
0.0
 41
1.0
 50
0.0
 71
0
 42
0.2
  3
ARIAL.TTF
  4

  0
STYLE
  5
210
100
AcDbSymbolTableRecord
100
AcDbTextStyleTableRecord
  2
TEXTSTYLE_1
 70
0
 40
0.0
 41
0.8
 50
0.0
 71
0
 42
0.2
  3
gdt
  4

  0
ENDTAB
  0
TABLE
  2
VIEW
  5
6
100
AcDbSymbolTable
 70
0
  0
ENDTAB
  0
TABLE
  2
UCS
  5
7
100
AcDbSymbolTable
 70
0
  0
ENDTAB
  0
TABLE
  2
APPID
  5
9
100
AcDbSymbolTable
 70
1
  0
APPID
  5
211
100
AcDbSymbolTableRecord
100
AcDbRegAppTableRecord
  2
ACAD
 70
0
  0
ENDTAB
  0
TABLE
  2
BLOCK_RECORD
  5
1
100
AcDbSymbolTable
 70
0
  0
BLOCK_RECORD
  5
212
100
AcDbSymbolTableRecord
100
AcDbBlockTableRecord
  2
*Model_Space
  0
BLOCK_RECORD
  5
213
100
AcDbSymbolTableRecord
100
AcDbBlockTableRecord
  2
*Paper_Space
  0
BLOCK_RECORD
  5
214
100
AcDbSymbolTableRecord
100
AcDbBlockTableRecord
  2
_FILLED
  0
ENDTAB
  0
TABLE
  2
DIMSTYLE
  5
A
100
AcDbSymbolTable
 70
1
100
AcDbDimStyleTable
 71
0
  0
DIMSTYLE
105
215
100
AcDbSymbolTableRecord
100
AcDbDimStyleTableRecord
  2
STANDARD
 70
0
  3

  4

 40
1.0
 41
3.9508263043
 42
1.0
 43
0.38
 44
1.0
 45
0.0
 46
0.0
 47
0.01
 48
0.01
140
5.531156826
141
0.09
142
0.0
143
25.4
144
1.0
145
0.0
146
1.0
147
0.625
 71
1
 72
0
 73
0
 74
0
 75
0
 76
0
 77
1
 78
8
 79
2
170
0
171
1
172
0
173
0
174
0
175
0
176
0
177
0
178
0
270
2
179
2
271
2
272
2
273
2
274
2
275
0
280
0
281
0
282
0
283
1
284
8
285
0
286
0
287
3
288
0
340
11
278
46
341
214
342
214
343
214
344
214
  0
ENDTAB
  0
ENDSEC
  0
SECTION
  2
BLOCKS
  0
BLOCK
  5
20
100
AcDbEntity
  8
0
100
AcDbBlockBegin
  2
*Model_Space
 70
0
 10
0.0
 20
0.0
 30
0.0
  3
*Model_Space
  1

  0
ENDBLK
  5
21
100
AcDbEntity
  8
0
100
AcDbBlockEnd
  0
BLOCK
  5
1C
100
AcDbEntity
  8
0
100
AcDbBlockBegin
  2
*Paper_Space
 70
0
 10
0.0
 20
0.0
 30
0.0
  3
*Paper_Space
  1

  0
ENDBLK
  5
1D
100
AcDbEntity
  8
0
100
AcDbBlockEnd
  0
BLOCK
  5
216
100
AcDbEntity
  8
0
100
AcDbBlockBegin
  2
_FILLED
 70
64
 10
0.0
 20
0.0
  3
_FILLED
  1

  0
SOLID
  5
217
100
AcDbEntity
  8
0
  6
BYBLOCK
 62
0
100
AcDbTrace
 10
0.0
 20
0.0
 11
-1.0
 21
0.25
 12
-1.0
 22
-0.25
 13
-1.0
 23
-0.25
  0
ENDBLK
  5
218
100
AcDbEntity
  8
0
  6
BYBLOCK
 62
0
100
AcDbBlockEnd
  0
ENDSEC
  0
SECTION
  2
ENTITIES
  0
LINE
  5
219
100
AcDbEntity
  8
0
100
AcDbLine
 62
7
  6
BYLAYER
 10
214.951498499
 20
38.2035715657
 11
210.3516751967
 21
38.2035715657
  0
LINE
  5
21A
100
AcDbEntity
  8
0
100
AcDbLine
 62
7
  6
BYLAYER
 10
174.9514866258
 20
38.2035715657
 11
170.3516633235
 21
38.2035715657
  0
LINE
  5
21B
100
AcDbEntity
  8
0
100
AcDbLine
 62
7
  6
BYLAYER
 10
222.1510838084
 20
38.3034614272
 11
215.3243767586
 21
38.3034614272
  0
LINE
  5
21C
100
AcDbEntity
  8
0
100
AcDbLine
 62
7
  6
BYLAYER
 10
169.1510838084
 20
38.3034614272
 11
169.9787765634
 21
38.3034614272
  0
LINE
  5
21D
100
AcDbEntity
  8
0
100
AcDbLine
 62
7
  6
BYLAYER
 10
175.3243648854
 20
38.3034614272
 11
209.9787884366
 21
38.3034614272
  0
LINE
  5
21E
100
AcDbEntity
  8
0
100
AcDbLine
 62
7
  6
BYLAYER
 10
199.7925319884
 20
38.8034614272
 11
191.5106001542
 21
38.8034614272
  0
LINE
  5
21F
100
AcDbEntity
  8
0
100
AcDbLine
 62
7
  6
BYLAYER
 10
215.9515825976
 20
39.2035715657
 11
209.3515825976
 21
39.2035715657
  0
LINE
  5
220
100
AcDbEntity
  8
0
100
AcDbLine
 62
7
  6
BYLAYER
 10
175.9515707244
 20
39.2035715657
 11
169.3515707244
 21
39.2035715657
  0
LINE
  5
221
100
AcDbEntity
  8
0
100
AcDbLine
 62
7
  6
BYLAYER
 10
223.1510838084
 20
39.3034614272
 11
215.9515825976
 21
39.3034614272
  0
LINE
  5
222
100
AcDbEntity
  8
0
100
AcDbLine
 62
7
  6
BYLAYER
 10
209.3515825976
 20
39.3034614272
 11
199.6510838084
 21
39.3034614338
  0
LINE
  5
223
100
AcDbEntity
  8
0
100
AcDbLine
 62
7
  6
BYLAYER
 10
191.6510838084
 20
39.3034614273
 11
175.9515707244
 21
39.3034614272
  0
LINE
  5
224
100
AcDbEntity
  8
0
100
AcDbLine
 62
7
  6
BYLAYER
 10
169.3515707244
 20
39.3034614272
 11
168.1510838084
 21
39.3034614272
  0
LINE
  5
225
100
AcDbEntity
  8
0
100
AcDbLine
 62
7
  6
BYLAYER
 10
168.1510838084
 20
40.3034613583
 11
169.3515707244
 21
40.3034614272
  0
LINE
  5
226
100
AcDbEntity
  8
0
100
AcDbLine
 62
7
  6
BYLAYER
 10
175.9515707244
 20
40.3034614272
 11
177.1510838084
 21
40.3034613582
  0
LINE
  5
227
100
AcDbEntity
  8
0
100
AcDbLine
 62
7
  6
BYLAYER
 10
208.1510838084
 20
40.3034613583
 11
209.3515825976
 21
40.3034614272
  0
LINE
  5
228
100
AcDbEntity
  8
0
100
AcDbLine
 62
7
  6
BYLAYER
 10
215.9515825976
 20
40.3034614272
 11
216.5633990172
 21
40.3034614272
  0
LINE
  5
229
100
AcDbEntity
  8
0
100
AcDbLine
 62
7
  6
BYLAYER
 10
168.6510838084
 20
40.8034614272
 11
175.6510838084
 21
40.8034614272
  0
LINE
  5
22A
100
AcDbEntity
  8
0
100
AcDbLine
 62
7
  6
BYLAYER
 10
209.6510838084
 20
40.8034614272
 11
216.2008373008
 21
40.8034614272
  0
LINE
  5
22B
100
AcDbEntity
  8
0
100
AcDbLine
 62
7
  6
BYLAYER
 10
218.0631655002
 20
41.3034614272
 11
209.6510838084
 21
41.3034614272
  0
LINE
  5
22C
100
AcDbEntity
  8
0
100
AcDbLine
 62
7
  6
BYLAYER
 10
175.6510838084
 20
41.3034614272
 11
168.1510838084
 21
41.3034614272
  0
LINE
  5
22D
100
AcDbEntity
  8
0
100
AcDbLine
 62
7
  6
BYLAYER
 10
168.1510838084
 20
55.8034614272
 11
191.6510838084
 21
55.8034614272
  0
LINE
  5
22E
100
AcDbEntity
  8
0
100
AcDbLine
 62
7
  6
BYLAYER
 10
191.6515825976
 20
55.8034614272
 11
223.1510838084
 21
55.8034614272
  0
LINE
  5
22F
100
AcDbEntity
  8
3
100
AcDbLine
 62
7
  6
BYLAYER
 10
223.1515825976
 20
55.8035843742
 11
168.1515652827
 21
55.8035843742
  0
LINE
  5
230
100
AcDbEntity
  8
3
100
AcDbLine
 62
7
  6
BYLAYER
 10
122.9096637305
 20
83.1517466889
 11
167.9096637305
 21
83.1517466889
  0
LINE
  5
231
100
AcDbEntity
  8
3
100
AcDbLine
 62
7
  6
BYLAYER
 10
163.5729490466
 20
86.7992466889
 11
164.8175483085
 21
86.7992466889
  0
LINE
  5
232
100
AcDbEntity
  8
3
100
AcDbLine
 62
7
  6
BYLAYER
 10
167.9096637305
 20
88.1517466889
 11
164.9096637305
 21
88.1517466889
  0
LINE
  5
233
100
AcDbEntity
  8
3
100
AcDbLine
 62
7
  6
BYLAYER
 10
163.4694641127
 20
88.4752095085
 11
160.4694641127
 21
88.4752095085
  0
LINE
  5
234
100
AcDbEntity
  8
3
100
AcDbLine
 62
7
  6
BYLAYER
 10
126.1096637305
 20
89.9017466889
 11
139.6096637305
 21
89.9017466889
  0
LINE
  5
235
100
AcDbEntity
  8
3
100
AcDbLine
 62
7
  6
BYLAYER
 10
156.1990087053
 20
90.1517466889
 11
160.4694641127
 21
90.1517466889
  0
LINE
  5
236
100
AcDbEntity
  8
3
100
AcDbLine
 62
7
  6
BYLAYER
 10
163.4694641127
 20
90.1517466889
 11
163.5729490466
 21
90.1517466889
  0
LINE
  5
237
100
AcDbEntity
  8
3
100
AcDbLine
 62
7
  6
BYLAYER
 10
164.8175483085
 20
90.1517466889
 11
164.9096637305
 21
90.1517466889
  0
LINE
  5
238
100
AcDbEntity
  8
3
100
AcDbLine
 62
7
  6
BYLAYER
 10
167.9096637305
 20
90.1517466889
 11
168.1515652827
 21
90.1517466889
  0
LINE
  5
239
100
AcDbEntity
  8
3
100
AcDbLine
 62
7
  6
BYLAYER
 10
163.4694641127
 20
93.1517466889
 11
160.4694641127
 21
93.1517466889
  0
LINE
  5
23A
100
AcDbEntity
  8
3
100
AcDbLine
 62
7
  6
BYLAYER
 10
156.1990087053
 20
96.1517466889
 11
160.4694641127
 21
96.1517466889
  0
LINE
  5
23B
100
AcDbEntity
  8
3
100
AcDbLine
 62
7
  6
BYLAYER
 10
163.4694641127
 20
96.1517466889
 11
163.5729490466
 21
96.1517466889
  0
LINE
  5
23C
100
AcDbEntity
  8
3
100
AcDbLine
 62
7
  6
BYLAYER
 10
164.8175483085
 20
96.1517466889
 11
164.9096637305
 21
96.1517466889
  0
LINE
  5
23D
100
AcDbEntity
  8
3
100
AcDbLine
 62
7
  6
BYLAYER
 10
167.9096637305
 20
96.1517466889
 11
168.1515652827
 21
96.1517466889
  0
LINE
  5
23E
100
AcDbEntity
  8
3
100
AcDbLine
 62
7
  6
BYLAYER
 10
139.6096637305
 20
96.4017466889
 11
126.1096637305
 21
96.4017466889
  0
LINE
  5
23F
100
AcDbEntity
  8
3
100
AcDbLine
 62
7
  6
BYLAYER
 10
163.4694641127
 20
97.8282838693
 11
160.4694641127
 21
97.8282838693
  0
LINE
  5
240
100
AcDbEntity
  8
3
100
AcDbLine
 62
7
  6
BYLAYER
 10
164.8175483085
 20
99.5042466889
 11
163.5729490466
 21
99.5042466889
  0
LINE
  5
241
100
AcDbEntity
  8
0
100
AcDbLine
 62
7
  6
BYLAYER
 10
175.9013245455
 20
427.8035715657
 11
176.4013245455
 21
428.3035715657
  0
LINE
  5
242
100
AcDbEntity
  8
0
100
AcDbLine
 62
7
  6
BYLAYER
 10
200.1513229976
 20
431.8035721762
 11
200.6513239813
 21
432.30357298
  0
LINE
  5
243
100
AcDbEntity
  8
0
100
AcDbLine
 62
7
  6
BYLAYER
 10
198.4013245455
 20
427.8035715657
 11
198.9013245455
 21
428.3035715657
  0
LINE
  5
244
100
AcDbEntity
  8
3
100
AcDbLine
 62
7
  6
BYLAYER
 10
163.5729490466
 20
116.7992466889
 11
164.8175483085
 21
116.7992466889
  0
LINE
  5
245
100
AcDbEntity
  8
3
100
AcDbLine
 62
7
  6
BYLAYER
 10
163.4694641127
 20
118.4752095085
 11
160.4694641127
 21
118.4752095085
  0
LINE
  5
246
100
AcDbEntity
  8
3
100
AcDbLine
 62
7
  6
BYLAYER
 10
126.1096637305
 20
119.9017466889
 11
139.6096637305
 21
119.9017466889
  0
LINE
  5
247
100
AcDbEntity
  8
3
100
AcDbLine
 62
7
  6
BYLAYER
 10
156.1990087053
 20
120.1517466889
 11
160.4694641127
 21
120.1517466889
  0
LINE
  5
248
100
AcDbEntity
  8
3
100
AcDbLine
 62
7
  6
BYLAYER
 10
163.4694641127
 20
120.1517466889
 11
163.5729490466
 21
120.1517466889
  0
LINE
  5
249
100
AcDbEntity
  8
3
100
AcDbLine
 62
7
  6
BYLAYER
 10
164.8175483085
 20
120.1517466889
 11
164.9096637305
 21
120.1517466889
  0
LINE
  5
24A
100
AcDbEntity
  8
3
100
AcDbLine
 62
7
  6
BYLAYER
 10
167.9096637305
 20
120.1517466889
 11
168.1515652827
 21
120.1517466889
  0
LINE
  5
24B
100
AcDbEntity
  8
3
100
AcDbLine
 62
7
  6
BYLAYER
 10
163.4694641127
 20
123.1517466889
 11
160.4694641127
 21
123.1517466889
  0
LINE
  5
24C
100
AcDbEntity
  8
3
100
AcDbLine
 62
7
  6
BYLAYER
 10
156.1990087053
 20
126.1517466889
 11
160.4694641127
 21
126.1517466889
  0
LINE
  5
24D
100
AcDbEntity
  8
3
100
AcDbLine
 62
7
  6
BYLAYER
 10
163.4694641127
 20
126.1517466889
 11
163.5729490466
 21
126.1517466889
  0
LINE
  5
24E
100
AcDbEntity
  8
3
100
AcDbLine
 62
7
  6
BYLAYER
 10
164.8175483085
 20
126.1517466889
 11
164.9096637305
 21
126.1517466889
  0
LINE
  5
24F
100
AcDbEntity
  8
3
100
AcDbLine
 62
7
  6
BYLAYER
 10
167.9096637305
 20
126.1517466889
 11
168.1515652827
 21
126.1517466889
  0
LINE
  5
250
100
AcDbEntity
  8
3
100
AcDbLine
 62
7
  6
BYLAYER
 10
139.6096637305
 20
126.4017466889
 11
126.1096637305
 21
126.4017466889
  0
LINE
  5
251
100
AcDbEntity
  8
3
100
AcDbLine
 62
7
  6
BYLAYER
 10
163.4694641127
 20
127.8282838693
 11
160.4694641127
 21
127.8282838693
  0
LINE
  5
252
100
AcDbEntity
  8
3
100
AcDbLine
 62
7
  6
BYLAYER
 10
164.9096637305
 20
128.1517466889
 11
167.9096637305
 21
128.1517466889
  0
LINE
  5
253
100
AcDbEntity
  8
3
100
AcDbLine
 62
7
  6
BYLAYER
 10
164.8175483085
 20
129.5042466889
 11
163.5729490466
 21
129.5042466889
  0
LINE
  5
254
100
AcDbEntity
  8
3
100
AcDbLine
 62
7
  6
BYLAYER
 10
122.9096637305
 20
133.1517466889
 11
167.9096637305
 21
133.1517466889
  0
LINE
  5
255
100
AcDbEntity
  8
3
100
AcDbLine
 62
7
  6
BYLAYER
 10
117.9096637305
 20
374.4866491498
 11
117.9096637305
 21
334.4866491498
  0
LINE
  5
256
100
AcDbEntity
  8
3
100
AcDbLine
 62
7
  6
BYLAYER
 10
117.9096637305
 20
128.1517466889
 11
117.9096637305
 21
88.1517466889
  0
LINE
  5
257
100
AcDbEntity
  8
3
100
AcDbLine
 62
7
  6
BYLAYER
 10
156.1990087053
 20
90.1518696649
 11
156.1990087053
 21
96.151623713
  0
LINE
  5
258
100
AcDbEntity
  8
3
100
AcDbLine
 62
7
  6
BYLAYER
 10
156.1990087053
 20
120.1518696649
 11
156.1990087053
 21
126.151623713
  0
LINE
  5
259
100
AcDbEntity
  8
3
100
AcDbLine
 62
7
  6
BYLAYER
 10
156.1990087053
 20
336.4867721257
 11
156.1990087053
 21
342.4865261738
  0
LINE
  5
25A
100
AcDbEntity
  8
3
100
AcDbLine
 62
7
  6
BYLAYER
 10
156.1990087053
 20
366.4867721257
 11
156.1990087053
 21
372.4865261738
  0
LINE
  5
25B
100
AcDbEntity
  8
3
100
AcDbLine
 62
7
  6
BYLAYER
 10
160.4694641127
 20
88.4752095085
 11
160.4694641127
 21
97.8282838693
  0
LINE
  5
25C
100
AcDbEntity
  8
3
100
AcDbLine
 62
7
  6
BYLAYER
 10
160.4694641127
 20
118.4752095085
 11
160.4694641127
 21
127.8282838693
  0
LINE
  5
25D
100
AcDbEntity
  8
3
100
AcDbLine
 62
7
  6
BYLAYER
 10
160.4694641127
 20
334.8101119693
 11
160.4694641127
 21
344.1631863302
  0
LINE
  5
25E
100
AcDbEntity
  8
3
100
AcDbLine
 62
7
  6
BYLAYER
 10
160.4694641127
 20
364.8101119693
 11
160.4694641127
 21
374.1631863302
  0
LINE
  5
25F
100
AcDbEntity
  8
3
100
AcDbLine
 62
7
  6
BYLAYER
 10
160.9096637305
 20
379.4866491498
 11
160.9096637305
 21
374.1631863302
  0
LINE
  5
260
100
AcDbEntity
  8
3
100
AcDbLine
 62
7
  6
BYLAYER
 10
160.9096637305
 20
364.8101119693
 11
160.9096637305
 21
344.1631863302
  0
LINE
  5
261
100
AcDbEntity
  8
3
100
AcDbLine
 62
7
  6
BYLAYER
 10
160.9096637305
 20
334.8101119693
 11
160.9096637305
 21
329.4866491498
  0
LINE
  5
262
100
AcDbEntity
  8
3
100
AcDbLine
 62
7
  6
BYLAYER
 10
160.9096637305
 20
133.1517466889
 11
160.9096637305
 21
127.8282838693
  0
LINE
  5
263
100
AcDbEntity
  8
3
100
AcDbLine
 62
7
  6
BYLAYER
 10
160.9096637305
 20
118.4752095085
 11
160.9096637305
 21
97.8282838693
  0
LINE
  5
264
100
AcDbEntity
  8
3
100
AcDbLine
 62
7
  6
BYLAYER
 10
160.9096637305
 20
88.4752095085
 11
160.9096637305
 21
83.1517466889
  0
LINE
  5
265
100
AcDbEntity
  8
3
100
AcDbLine
 62
7
  6
BYLAYER
 10
163.4694641127
 20
374.1631863302
 11
163.4694641127
 21
364.8101119693
  0
LINE
  5
266
100
AcDbEntity
  8
3
100
AcDbLine
 62
7
  6
BYLAYER
 10
163.4694641127
 20
344.1631863302
 11
163.4694641127
 21
334.8101119693
  0
LINE
  5
267
100
AcDbEntity
  8
3
100
AcDbLine
 62
7
  6
BYLAYER
 10
163.4694641127
 20
127.8282838693
 11
163.4694641127
 21
118.4752095085
  0
LINE
  5
268
100
AcDbEntity
  8
3
100
AcDbLine
 62
7
  6
BYLAYER
 10
163.4694641127
 20
97.8282838693
 11
163.4694641127
 21
88.4752095085
  0
LINE
  5
269
100
AcDbEntity
  8
3
100
AcDbLine
 62
7
  6
BYLAYER
 10
163.5729490466
 20
86.7992466889
 11
163.5729490466
 21
99.5042466889
  0
LINE
  5
26A
100
AcDbEntity
  8
3
100
AcDbLine
 62
7
  6
BYLAYER
 10
163.5729490466
 20
116.7992466889
 11
163.5729490466
 21
129.5042466889
  0
LINE
  5
26B
100
AcDbEntity
  8
3
100
AcDbLine
 62
7
  6
BYLAYER
 10
163.5729490466
 20
333.1341491498
 11
163.5729490466
 21
345.8391491498
  0
LINE
  5
26C
100
AcDbEntity
  8
3
100
AcDbLine
 62
7
  6
BYLAYER
 10
163.5729490466
 20
363.1341491498
 11
163.5729490466
 21
375.8391491498
  0
LINE
  5
26D
100
AcDbEntity
  8
3
100
AcDbLine
 62
7
  6
BYLAYER
 10
164.8175483085
 20
375.8391491498
 11
164.8175483085
 21
363.1341491498
  0
LINE
  5
26E
100
AcDbEntity
  8
3
100
AcDbLine
 62
7
  6
BYLAYER
 10
164.8175483085
 20
345.8391491498
 11
164.8175483085
 21
333.1341491498
  0
LINE
  5
26F
100
AcDbEntity
  8
3
100
AcDbLine
 62
7
  6
BYLAYER
 10
164.8175483085
 20
129.5042466889
 11
164.8175483085
 21
116.7992466889
  0
LINE
  5
270
100
AcDbEntity
  8
3
100
AcDbLine
 62
7
  6
BYLAYER
 10
164.8175483085
 20
99.5042466889
 11
164.8175483085
 21
86.7992466889
  0
LINE
  5
271
100
AcDbEntity
  8
3
100
AcDbLine
 62
7
  6
BYLAYER
 10
164.9096637305
 20
83.1517466889
 11
164.9096637305
 21
133.1517466889
  0
LINE
  5
272
100
AcDbEntity
  8
3
100
AcDbLine
 62
7
  6
BYLAYER
 10
164.9096637305
 20
329.4866491498
 11
164.9096637305
 21
379.4866491498
  0
LINE
  5
273
100
AcDbEntity
  8
3
100
AcDbLine
 62
7
  6
BYLAYER
 10
167.9096637305
 20
379.4866491498
 11
167.9096637305
 21
329.4866491498
  0
LINE
  5
274
100
AcDbEntity
  8
3
100
AcDbLine
 62
7
  6
BYLAYER
 10
167.9096637305
 20
133.1517466889
 11
167.9096637305
 21
83.1517466889
  0
LINE
  5
275
100
AcDbEntity
  8
0
100
AcDbLine
 62
7
  6
BYLAYER
 10
168.1510838084
 20
39.3034614272
 11
168.1510838084
 21
55.8034614272
  0
LINE
  5
276
100
AcDbEntity
  8
0
100
AcDbLine
 62
7
  6
BYLAYER
 10
168.1513245455
 20
418.8035715657
 11
168.1513245455
 21
404.3035715657
  0
LINE
  5
277
100
AcDbEntity
  8
0
100
AcDbLine
 62
7
  6
BYLAYER
 10
168.1513245455
 20
420.8035715657
 11
168.1513245455
 21
418.8155616118
  0
LINE
  5
278
100
AcDbEntity
  8
3
100
AcDbLine
 62
7
  6
BYLAYER
 10
168.1515652827
 20
404.3035843742
 11
168.1515652827
 21
55.8035843742
  0
LINE
  5
279
100
AcDbEntity
  8
0
100
AcDbLine
 62
7
  6
BYLAYER
 10
169.1510838084
 20
38.3034614272
 11
169.1510838067
 21
40.3034614272
  0
LINE
  5
27A
100
AcDbEntity
  8
0
100
AcDbLine
 62
7
  6
BYLAYER
 10
169.1513245438
 20
419.8035715657
 11
169.1513245455
 21
421.8035715657
  0
LINE
  5
27B
100
AcDbEntity
  8
0
100
AcDbLine
 62
7
  6
BYLAYER
 10
169.3513245455
 20
419.3035715657
 11
169.3513245455
 21
420.9035715657
  0
LINE
  5
27C
100
AcDbEntity
  8
0
100
AcDbLine
 62
7
  6
BYLAYER
 10
169.3515707244
 20
40.8035715657
 11
169.3515707244
 21
39.2035715657
  0
LINE
  5
27D
100
AcDbEntity
  8
0
100
AcDbLine
 62
7
  6
BYLAYER
 10
172.1510838084
 20
40.8034614272
 11
172.1510838084
 21
55.8034614272
  0
LINE
  5
27E
100
AcDbEntity
  8
0
100
AcDbLine
 62
7
  6
BYLAYER
 10
172.1513245455
 20
404.3035715657
 11
172.1513245455
 21
419.3035715657
  0
LINE
  5
27F
100
AcDbEntity
  8
3
100
AcDbLine
 62
7
  6
BYLAYER
 10
172.1515652827
 20
55.8035843742
 11
172.1515652827
 21
404.3035843742
  0
LINE
  5
280
100
AcDbEntity
  8
0
100
AcDbLine
 62
7
  6
BYLAYER
 10
175.6510837358
 20
41.3034614272
 11
175.6510837358
 21
40.8034614272
  0
LINE
  5
281
100
AcDbEntity
  8
0
100
AcDbLine
 62
7
  6
BYLAYER
 10
175.6513244727
 20
419.3035715657
 11
175.6513244727
 21
418.8035715657
  0
LINE
  5
282
100
AcDbEntity
  8
0
100
AcDbLine
 62
7
  6
BYLAYER
 10
175.9013245455
 20
421.8035715657
 11
175.9013245455
 21
427.8035715657
  0
LINE
  5
283
100
AcDbEntity
  8
0
100
AcDbLine
 62
7
  6
BYLAYER
 10
175.9513245455
 20
419.4077540005
 11
175.9513245455
 21
420.9035715657
  0
LINE
  5
284
100
AcDbEntity
  8
0
100
AcDbLine
 62
7
  6
BYLAYER
 10
175.9515707244
 20
40.7013756345
 11
175.9515707244
 21
39.2035715657
  0
LINE
  5
285
100
AcDbEntity
  8
0
100
AcDbLine
 62
7
  6
BYLAYER
 10
176.1510838084
 20
40.3034614272
 11
176.1510838084
 21
39.3034614272
  0
LINE
  5
286
100
AcDbEntity
  8
0
100
AcDbLine
 62
7
  6
BYLAYER
 10
176.1513245455
 20
420.8035715657
 11
176.1513245455
 21
419.8035715657
  0
LINE
  5
287
100
AcDbEntity
  8
0
100
AcDbLine
 62
7
  6
BYLAYER
 10
177.1510838084
 20
38.3034614272
 11
177.1510838084
 21
40.3034614272
  0
LINE
  5
288
100
AcDbEntity
  8
0
100
AcDbLine
 62
7
  6
BYLAYER
 10
177.1513245455
 20
419.8035715657
 11
177.1513245455
 21
421.8035715657
  0
LINE
  5
289
100
AcDbEntity
  8
0
100
AcDbLine
 62
7
  6
BYLAYER
 10
179.5275845455
 20
429.5035715657
 11
179.5275845455
 21
428.3035715657
  0
LINE
  5
28A
100
AcDbEntity
  8
0
100
AcDbLine
 62
7
  6
BYLAYER
 10
187.7775845455
 20
429.5035715657
 11
187.7775845455
 21
428.3035715657
  0
LINE
  5
28B
100
AcDbEntity
  8
0
100
AcDbLine
 62
7
  6
BYLAYER
 10
191.1510838084
 20
55.8034614272
 11
191.1510838084
 21
39.3034614272
  0
LINE
  5
28C
100
AcDbEntity
  8
0
100
AcDbLine
 62
7
  6
BYLAYER
 10
191.1513245455
 20
420.8035715657
 11
191.1513245455
 21
404.3035715657
  0
LINE
  5
28D
100
AcDbEntity
  8
3
100
AcDbLine
 62
7
  6
BYLAYER
 10
191.1515825976
 20
404.3035843742
 11
191.1515825976
 21
55.8035843742
  0
LINE
  5
28E
100
AcDbEntity
  8
0
100
AcDbLine
 62
7
  6
BYLAYER
 10
191.4013245455
 20
421.8035715657
 11
191.4013245455
 21
427.8035715657
  0
LINE
  5
28F
100
AcDbEntity
  8
0
100
AcDbLine
 62
7
  6
BYLAYER
 10
191.6510838084
 20
39.3034614272
 11
191.6510838084
 21
55.8034614272
  0
LINE
  5
290
100
AcDbEntity
  8
0
100
AcDbLine
 62
7
  6
BYLAYER
 10
191.6513245455
 20
404.3035715657
 11
191.6513245455
 21
420.8035715656
  0
LINE
  5
291
100
AcDbEntity
  8
3
100
AcDbLine
 62
7
  6
BYLAYER
 10
191.6515825976
 20
55.8035843742
 11
191.6515825976
 21
404.3035843742
  0
LINE
  5
292
100
AcDbEntity
  8
0
100
AcDbLine
 62
7
  6
BYLAYER
 10
198.4013245455
 20
421.8035715657
 11
198.4013245455
 21
427.8035715657
  0
LINE
  5
293
100
AcDbEntity
  8
0
100
AcDbLine
 62
7
  6
BYLAYER
 10
199.6510838084
 20
55.8034614272
 11
199.6510838084
 21
39.3034614273
  0
LINE
  5
294
100
AcDbEntity
  8
0
100
AcDbLine
 62
7
  6
BYLAYER
 10
199.6513245455
 20
420.8035715656
 11
199.6513245455
 21
404.3035715657
  0
LINE
  5
295
100
AcDbEntity
  8
3
100
AcDbLine
 62
7
  6
BYLAYER
 10
199.6515825976
 20
404.3035843742
 11
199.6515825976
 21
55.8035843742
  0
LINE
  5
296
100
AcDbEntity
  8
0
100
AcDbLine
 62
7
  6
BYLAYER
 10
200.1510838084
 20
39.3034614272
 11
200.1510838084
 21
55.8034614272
  0
LINE
  5
297
100
AcDbEntity
  8
0
100
AcDbLine
 62
7
  6
BYLAYER
 10
200.1513245455
 20
404.3035715657
 11
200.1513245455
 21
420.8035715657
  0
LINE
  5
298
100
AcDbEntity
  8
0
100
AcDbLine
 62
7
  6
BYLAYER
 10
200.1513245455
 20
428.3035715657
 11
200.1513245455
 21
431.8035706283
  0
LINE
  5
299
100
AcDbEntity
  8
3
100
AcDbLine
 62
7
  6
BYLAYER
 10
200.1515825976
 20
55.8035843742
 11
200.1515825976
 21
404.3035843742
  0
LINE
  5
29A
100
AcDbEntity
  8
0
100
AcDbLine
 62
7
  6
BYLAYER
 10
202.0269045455
 20
429.5035715657
 11
202.0269045455
 21
428.3035715657
  0
LINE
  5
29B
100
AcDbEntity
  8
0
100
AcDbLine
 62
7
  6
BYLAYER
 10
208.1510838084
 20
40.3034614272
 11
208.1510838084
 21
38.3034614272
  0
LINE
  5
29C
100
AcDbEntity
  8
0
100
AcDbLine
 62
7
  6
BYLAYER
 10
208.1513245455
 20
421.8035715657
 11
208.1513245455
 21
419.8035715657
  0
LINE
  5
29D
100
AcDbEntity
  8
0
100
AcDbLine
 62
7
  6
BYLAYER
 10
209.1510838084
 20
39.3034614272
 11
209.1510838084
 21
40.3034614272
  0
LINE
  5
29E
100
AcDbEntity
  8
0
100
AcDbLine
 62
7
  6
BYLAYER
 10
209.1513245455
 20
419.8035715657
 11
209.1513245455
 21
420.8035715657
  0
LINE
  5
29F
100
AcDbEntity
  8
0
100
AcDbLine
 62
7
  6
BYLAYER
 10
209.3513245455
 20
419.4051704423
 11
209.3513245455
 21
420.9035715657
  0
LINE
  5
2A0
100
AcDbEntity
  8
0
100
AcDbLine
 62
7
  6
BYLAYER
 10
209.3515825976
 20
40.7023613398
 11
209.3515825976
 21
39.2035715657
  0
LINE
  5
2A1
100
AcDbEntity
  8
0
100
AcDbLine
 62
7
  6
BYLAYER
 10
209.6510838812
 20
40.8034614272
 11
209.6510838812
 21
41.3034614272
  0
LINE
  5
2A2
100
AcDbEntity
  8
0
100
AcDbLine
 62
7
  6
BYLAYER
 10
209.6513246131
 20
418.8035715657
 11
209.6513246131
 21
419.3035715657
  0
LINE
  5
2A3
100
AcDbEntity
  8
0
100
AcDbLine
 62
7
  6
BYLAYER
 10
210.2170767436
 20
428.3035715657
 11
210.2170767436
 21
429.5035715657
  0
LINE
  5
2A4
100
AcDbEntity
  8
0
100
AcDbLine
 62
7
  6
BYLAYER
 10
212.1513245455
 20
428.3035715657
 11
212.1513245455
 21
431.8035706283
  0
LINE
  5
2A5
100
AcDbEntity
  8
0
100
AcDbLine
 62
7
  6
BYLAYER
 10
213.9013245455
 20
421.9035715657
 11
213.9013245455
 21
427.8035715657
  0
LINE
  5
2A6
100
AcDbEntity
  8
0
100
AcDbLine
 62
7
  6
BYLAYER
 10
214.750534362
 20
55.8034614272
 11
214.750534362
 21
40.8034614272
  0
LINE
  5
2A7
100
AcDbEntity
  8
0
100
AcDbLine
 62
7
  6
BYLAYER
 10
214.7507750991
 20
419.3035715657
 11
214.7507750991
 21
404.3035715657
  0
LINE
  5
2A8
100
AcDbEntity
  8
3
100
AcDbLine
 62
7
  6
BYLAYER
 10
214.7510331512
 20
404.3035843742
 11
214.7510331512
 21
55.8035843742
  0
LINE
  5
2A9
100
AcDbEntity
  8
0
100
AcDbLine
 62
7
  6
BYLAYER
 10
215.9513245455
 20
419.4051704423
 11
215.9513245455
 21
420.9035715657
  0
LINE
  5
2AA
100
AcDbEntity
  8
0
100
AcDbLine
 62
7
  6
BYLAYER
 10
215.9515825976
 20
40.7013637613
 11
215.9515825976
 21
39.2035715657
  0
LINE
  5
2AB
100
AcDbEntity
  8
0
100
AcDbLine
 62
7
  6
BYLAYER
 10
216.1510838084
 20
40.3034614272
 11
216.1510838084
 21
39.3034614272
  0
LINE
  5
2AC
100
AcDbEntity
  8
0
100
AcDbLine
 62
7
  6
BYLAYER
 10
216.1513245455
 20
420.8035715657
 11
216.1513245455
 21
419.8035715657
  0
LINE
  5
2AD
100
AcDbEntity
  8
0
100
AcDbLine
 62
7
  6
BYLAYER
 10
217.4977456409
 20
41.3034614272
 11
217.4977456409
 21
55.8034614272
  0
LINE
  5
2AE
100
AcDbEntity
  8
0
100
AcDbLine
 62
7
  6
BYLAYER
 10
217.4979863781
 20
404.3035715657
 11
217.4979863781
 21
418.8035715657
  0
LINE
  5
2AF
100
AcDbEntity
  8
3
100
AcDbLine
 62
7
  6
BYLAYER
 10
217.4982444302
 20
55.8035843742
 11
217.4982444302
 21
404.3035843742
  0
LINE
  5
2B0
100
AcDbEntity
  8
0
100
AcDbLine
 62
7
  6
BYLAYER
 10
218.0631655002
 20
39.3034614272
 11
218.0631655002
 21
41.3034614272
  0
LINE
  5
2B1
100
AcDbEntity
  8
0
100
AcDbLine
 62
7
  6
BYLAYER
 10
218.0634062374
 20
418.8035715657
 11
218.0634062374
 21
420.8035715657
  0
LINE
  5
2B2
100
AcDbEntity
  8
0
100
AcDbLine
 62
7
  6
BYLAYER
 10
221.7005260642
 20
55.8034614272
 11
221.7005260642
 21
39.3034614272
  0
LINE
  5
2B3
100
AcDbEntity
  8
0
100
AcDbLine
 62
7
  6
BYLAYER
 10
221.7007668013
 20
420.8035715657
 11
221.7007668013
 21
404.3035715657
  0
LINE
  5
2B4
100
AcDbEntity
  8
3
100
AcDbLine
 62
7
  6
BYLAYER
 10
221.7010248533
 20
404.3035843742
 11
221.7010248533
 21
55.8035843742
  0
LINE
  5
2B5
100
AcDbEntity
  8
0
100
AcDbLine
 62
7
  6
BYLAYER
 10
223.1510838084
 20
39.3034614272
 11
223.1510838084
 21
55.8034614272
  0
LINE
  5
2B6
100
AcDbEntity
  8
0
100
AcDbLine
 62
7
  6
BYLAYER
 10
223.1513245455
 20
404.3035715657
 11
223.1513245455
 21
420.8035715657
  0
LINE
  5
2B7
100
AcDbEntity
  8
3
100
AcDbLine
 62
7
  6
BYLAYER
 10
223.1515825976
 20
55.8035843742
 11
223.1515825976
 21
404.3035843742
  0
LINE
  5
2B8
100
AcDbEntity
  8
3
100
AcDbLine
 62
7
  6
BYLAYER
 10
122.9096637305
 20
329.4866491498
 11
167.9096637305
 21
329.4866491498
  0
LINE
  5
2B9
100
AcDbEntity
  8
3
100
AcDbLine
 62
7
  6
BYLAYER
 10
163.5729490466
 20
333.1341491498
 11
164.8175483085
 21
333.1341491498
  0
LINE
  5
2BA
100
AcDbEntity
  8
3
100
AcDbLine
 62
7
  6
BYLAYER
 10
167.9096637305
 20
334.4866491498
 11
164.9096637305
 21
334.4866491498
  0
LINE
  5
2BB
100
AcDbEntity
  8
3
100
AcDbLine
 62
7
  6
BYLAYER
 10
163.4694641127
 20
334.8101119693
 11
160.4694641127
 21
334.8101119693
  0
LINE
  5
2BC
100
AcDbEntity
  8
3
100
AcDbLine
 62
7
  6
BYLAYER
 10
126.1096637305
 20
336.2366491498
 11
139.6096637305
 21
336.2366491498
  0
LINE
  5
2BD
100
AcDbEntity
  8
3
100
AcDbLine
 62
7
  6
BYLAYER
 10
156.1990087053
 20
336.4866491498
 11
160.4694641127
 21
336.4866491498
  0
LINE
  5
2BE
100
AcDbEntity
  8
3
100
AcDbLine
 62
7
  6
BYLAYER
 10
163.4694641127
 20
336.4866491498
 11
163.5729490466
 21
336.4866491498
  0
LINE
  5
2BF
100
AcDbEntity
  8
3
100
AcDbLine
 62
7
  6
BYLAYER
 10
164.8175483085
 20
336.4866491498
 11
164.9096637305
 21
336.4866491498
  0
LINE
  5
2C0
100
AcDbEntity
  8
3
100
AcDbLine
 62
7
  6
BYLAYER
 10
167.9096637305
 20
336.4866491498
 11
168.1515652827
 21
336.4866491498
  0
LINE
  5
2C1
100
AcDbEntity
  8
3
100
AcDbLine
 62
7
  6
BYLAYER
 10
163.4694641127
 20
339.4866491498
 11
160.4694641127
 21
339.4866491498
  0
LINE
  5
2C2
100
AcDbEntity
  8
3
100
AcDbLine
 62
7
  6
BYLAYER
 10
156.1990087053
 20
342.4866491498
 11
160.4694641127
 21
342.4866491498
  0
LINE
  5
2C3
100
AcDbEntity
  8
3
100
AcDbLine
 62
7
  6
BYLAYER
 10
163.4694641127
 20
342.4866491498
 11
163.5729490466
 21
342.4866491498
  0
LINE
  5
2C4
100
AcDbEntity
  8
3
100
AcDbLine
 62
7
  6
BYLAYER
 10
164.8175483085
 20
342.4866491498
 11
164.9096637305
 21
342.4866491498
  0
LINE
  5
2C5
100
AcDbEntity
  8
3
100
AcDbLine
 62
7
  6
BYLAYER
 10
167.9096637305
 20
342.4866491498
 11
168.1515652827
 21
342.4866491498
  0
LINE
  5
2C6
100
AcDbEntity
  8
3
100
AcDbLine
 62
7
  6
BYLAYER
 10
139.6096637305
 20
342.7366491498
 11
126.1096637305
 21
342.7366491498
  0
LINE
  5
2C7
100
AcDbEntity
  8
3
100
AcDbLine
 62
7
  6
BYLAYER
 10
163.4694641127
 20
344.1631863302
 11
160.4694641127
 21
344.1631863302
  0
LINE
  5
2C8
100
AcDbEntity
  8
3
100
AcDbLine
 62
7
  6
BYLAYER
 10
164.8175483085
 20
345.8391491498
 11
163.5729490466
 21
345.8391491498
  0
LINE
  5
2C9
100
AcDbEntity
  8
3
100
AcDbLine
 62
7
  6
BYLAYER
 10
163.5729490466
 20
363.1341491498
 11
164.8175483085
 21
363.1341491498
  0
LINE
  5
2CA
100
AcDbEntity
  8
3
100
AcDbLine
 62
7
  6
BYLAYER
 10
163.4694641127
 20
364.8101119693
 11
160.4694641127
 21
364.8101119693
  0
LINE
  5
2CB
100
AcDbEntity
  8
3
100
AcDbLine
 62
7
  6
BYLAYER
 10
126.1096637305
 20
366.2366491498
 11
139.6096637305
 21
366.2366491498
  0
LINE
  5
2CC
100
AcDbEntity
  8
3
100
AcDbLine
 62
7
  6
BYLAYER
 10
156.1990087053
 20
366.4866491498
 11
160.4694641127
 21
366.4866491498
  0
LINE
  5
2CD
100
AcDbEntity
  8
3
100
AcDbLine
 62
7
  6
BYLAYER
 10
163.4694641127
 20
366.4866491498
 11
163.5729490466
 21
366.4866491498
  0
LINE
  5
2CE
100
AcDbEntity
  8
3
100
AcDbLine
 62
7
  6
BYLAYER
 10
164.8175483085
 20
366.4866491498
 11
164.9096637305
 21
366.4866491498
  0
LINE
  5
2CF
100
AcDbEntity
  8
3
100
AcDbLine
 62
7
  6
BYLAYER
 10
167.9096637305
 20
366.4866491498
 11
168.1515652827
 21
366.4866491498
  0
LINE
  5
2D0
100
AcDbEntity
  8
3
100
AcDbLine
 62
7
  6
BYLAYER
 10
163.4694641127
 20
369.4866491498
 11
160.4694641127
 21
369.4866491498
  0
LINE
  5
2D1
100
AcDbEntity
  8
3
100
AcDbLine
 62
7
  6
BYLAYER
 10
156.1990087053
 20
372.4866491498
 11
160.4694641127
 21
372.4866491498
  0
LINE
  5
2D2
100
AcDbEntity
  8
3
100
AcDbLine
 62
7
  6
BYLAYER
 10
163.4694641127
 20
372.4866491498
 11
163.5729490466
 21
372.4866491498
  0
LINE
  5
2D3
100
AcDbEntity
  8
3
100
AcDbLine
 62
7
  6
BYLAYER
 10
164.8175483085
 20
372.4866491498
 11
164.9096637305
 21
372.4866491498
  0
LINE
  5
2D4
100
AcDbEntity
  8
3
100
AcDbLine
 62
7
  6
BYLAYER
 10
167.9096637305
 20
372.4866491498
 11
168.1515652827
 21
372.4866491498
  0
LINE
  5
2D5
100
AcDbEntity
  8
3
100
AcDbLine
 62
7
  6
BYLAYER
 10
139.6096637305
 20
372.7366491498
 11
126.1096637305
 21
372.7366491498
  0
LINE
  5
2D6
100
AcDbEntity
  8
3
100
AcDbLine
 62
7
  6
BYLAYER
 10
163.4694641127
 20
374.1631863302
 11
160.4694641127
 21
374.1631863302
  0
LINE
  5
2D7
100
AcDbEntity
  8
3
100
AcDbLine
 62
7
  6
BYLAYER
 10
164.9096637305
 20
374.4866491498
 11
167.9096637305
 21
374.4866491498
  0
LINE
  5
2D8
100
AcDbEntity
  8
3
100
AcDbLine
 62
7
  6
BYLAYER
 10
164.8175483085
 20
375.8391491498
 11
163.5729490466
 21
375.8391491498
  0
LINE
  5
2D9
100
AcDbEntity
  8
3
100
AcDbLine
 62
7
  6
BYLAYER
 10
122.9096637305
 20
379.4866491498
 11
167.9096637305
 21
379.4866491498
  0
LINE
  5
2DA
100
AcDbEntity
  8
0
100
AcDbLine
 62
7
  6
BYLAYER
 10
190.9013245455
 20
428.3035715657
 11
191.4013245455
 21
427.8035715657
  0
LINE
  5
2DB
100
AcDbEntity
  8
0
100
AcDbLine
 62
7
  6
BYLAYER
 10
168.1513245455
 20
404.3035715657
 11
223.1513245455
 21
404.3035715657
  0
LINE
  5
2DC
100
AcDbEntity
  8
3
100
AcDbLine
 62
7
  6
BYLAYER
 10
168.1515652827
 20
404.3035843742
 11
223.1515825976
 21
404.3035843742
  0
LINE
  5
2DD
100
AcDbEntity
  8
0
100
AcDbLine
 62
7
  6
BYLAYER
 10
213.4013245455
 20
428.3035715657
 11
213.9013245455
 21
427.8035715657
  0
LINE
  5
2DE
100
AcDbEntity
  8
0
100
AcDbLine
 62
7
  6
BYLAYER
 10
211.6513251098
 20
432.30357298
 11
212.1513260935
 21
431.8035721762
  0
LINE
  5
2DF
100
AcDbEntity
  8
0
100
AcDbLine
 62
7
  6
BYLAYER
 10
206.1677264541
 20
417.8035715657
 11
198.1513245455
 21
417.8035715657
  0
LINE
  5
2E0
100
AcDbEntity
  8
0
100
AcDbLine
 62
7
  6
BYLAYER
 10
183.634922637
 20
417.8035715657
 11
191.6513245455
 21
417.8035715657
  0
LINE
  5
2E1
100
AcDbEntity
  8
0
100
AcDbLine
 62
7
  6
BYLAYER
 10
206.1675107504
 20
417.8147658167
 11
198.2565335744
 21
417.8147658167
  0
LINE
  5
2E2
100
AcDbEntity
  8
0
100
AcDbLine
 62
7
  6
BYLAYER
 10
183.63513852
 20
417.8147846486
 11
191.5460280609
 21
417.8147846486
  0
LINE
  5
2E3
100
AcDbEntity
  8
0
100
AcDbLine
 62
7
  6
BYLAYER
 10
183.6347063478
 20
418.7923157489
 11
191.7568192058
 21
418.7923157489
  0
LINE
  5
2E4
100
AcDbEntity
  8
0
100
AcDbLine
 62
7
  6
BYLAYER
 10
206.1679421577
 20
418.7923773147
 11
198.0461155167
 21
418.7923773147
  0
LINE
  5
2E5
100
AcDbEntity
  8
0
100
AcDbLine
 62
7
  6
BYLAYER
 10
168.1513245455
 20
418.8035715657
 11
175.6513245455
 21
418.8035715657
  0
LINE
  5
2E6
100
AcDbEntity
  8
0
100
AcDbLine
 62
7
  6
BYLAYER
 10
209.6513245455
 20
418.8035715657
 11
218.0634062374
 21
418.8035715657
  0
LINE
  5
2E7
100
AcDbEntity
  8
0
100
AcDbLine
 62
7
  6
BYLAYER
 10
168.6513245455
 20
419.3035715657
 11
175.6513245455
 21
419.3035715657
  0
LINE
  5
2E8
100
AcDbEntity
  8
0
100
AcDbLine
 62
7
  6
BYLAYER
 10
209.6513245455
 20
419.3035715657
 11
216.2010780391
 21
419.3035715657
  0
LINE
  5
2E9
100
AcDbEntity
  8
0
100
AcDbLine
 62
7
  6
BYLAYER
 10
216.563639775
 20
419.8035715657
 11
215.9513245455
 21
419.8035715657
  0
LINE
  5
2EA
100
AcDbEntity
  8
0
100
AcDbLine
 62
7
  6
BYLAYER
 10
209.3513245455
 20
419.8035715657
 11
208.1513245455
 21
419.8035716228
  0
LINE
  5
2EB
100
AcDbEntity
  8
0
100
AcDbLine
 62
7
  6
BYLAYER
 10
177.1513245455
 20
419.8035716346
 11
175.9513245455
 21
419.8035715657
  0
LINE
  5
2EC
100
AcDbEntity
  8
0
100
AcDbLine
 62
7
  6
BYLAYER
 10
169.3513245455
 20
419.8035715657
 11
168.1513245455
 21
419.8035716347
  0
LINE
  5
2ED
100
AcDbEntity
  8
0
100
AcDbLine
 62
7
  6
BYLAYER
 10
168.1513245455
 20
420.8035715657
 11
169.3513245455
 21
420.8035715657
  0
LINE
  5
2EE
100
AcDbEntity
  8
0
100
AcDbLine
 62
7
  6
BYLAYER
 10
175.9513245455
 20
420.8035715657
 11
191.6513245455
 21
420.803571559
  0
LINE
  5
2EF
100
AcDbEntity
  8
0
100
AcDbLine
 62
7
  6
BYLAYER
 10
199.6513245455
 20
420.8035715656
 11
209.3513245455
 21
420.8035715657
  0
LINE
  5
2F0
100
AcDbEntity
  8
0
100
AcDbLine
 62
7
  6
BYLAYER
 10
215.9513245455
 20
420.8035715657
 11
223.1513245455
 21
420.8035715657
  0
LINE
  5
2F1
100
AcDbEntity
  8
0
100
AcDbLine
 62
7
  6
BYLAYER
 10
169.3513245455
 20
420.9035715657
 11
175.9513245455
 21
420.9035715657
  0
LINE
  5
2F2
100
AcDbEntity
  8
0
100
AcDbLine
 62
7
  6
BYLAYER
 10
209.3513245455
 20
420.9035715657
 11
215.9513245455
 21
420.9035715657
  0
LINE
  5
2F3
100
AcDbEntity
  8
0
100
AcDbLine
 62
7
  6
BYLAYER
 10
191.5098763654
 20
421.3035715657
 11
199.7918081998
 21
421.3035715657
  0
LINE
  5
2F4
100
AcDbEntity
  8
0
100
AcDbLine
 62
7
  6
BYLAYER
 10
169.9781193421
 20
421.8035715657
 11
169.1513245455
 21
421.8035715657
  0
LINE
  5
2F5
100
AcDbEntity
  8
0
100
AcDbLine
 62
7
  6
BYLAYER
 10
175.324529749
 20
421.8035715657
 11
209.9781193421
 21
421.8035715657
  0
LINE
  5
2F6
100
AcDbEntity
  8
0
100
AcDbLine
 62
7
  6
BYLAYER
 10
215.324529749
 20
421.8035715657
 11
222.1513245455
 21
421.8035715657
  0
LINE
  5
2F7
100
AcDbEntity
  8
0
100
AcDbLine
 62
7
  6
BYLAYER
 10
170.3514171447
 20
421.9035715657
 11
174.9512404469
 21
421.9035715657
  0
LINE
  5
2F8
100
AcDbEntity
  8
0
100
AcDbLine
 62
7
  6
BYLAYER
 10
210.3514171447
 20
421.9035715657
 11
214.9512404469
 21
421.9035715657
  0
LINE
  5
2F9
100
AcDbEntity
  8
0
100
AcDbLine
 62
7
  6
BYLAYER
 10
213.9012602487
 20
423.3035715657
 11
198.4013888424
 21
423.3035715657
  0
LINE
  5
2FA
100
AcDbEntity
  8
0
100
AcDbLine
 62
7
  6
BYLAYER
 10
191.4012602487
 20
423.3035715657
 11
175.9013888424
 21
423.3035715657
  0
LINE
  5
2FB
100
AcDbEntity
  8
0
100
AcDbLine
 62
7
  6
BYLAYER
 10
213.9013245455
 20
426.3035715657
 11
198.4013245455
 21
426.3035715657
  0
LINE
  5
2FC
100
AcDbEntity
  8
0
100
AcDbLine
 62
7
  6
BYLAYER
 10
191.4013245455
 20
426.3035715657
 11
175.9013245455
 21
426.3035715657
  0
LINE
  5
2FD
100
AcDbEntity
  8
0
100
AcDbLine
 62
7
  6
BYLAYER
 10
175.9013245455
 20
427.8035715657
 11
191.4013245455
 21
427.8035715657
  0
LINE
  5
2FE
100
AcDbEntity
  8
0
100
AcDbLine
 62
7
  6
BYLAYER
 10
198.4013245455
 20
427.8035715657
 11
213.9013245455
 21
427.8035715657
  0
LINE
  5
2FF
100
AcDbEntity
  8
0
100
AcDbLine
 62
7
  6
BYLAYER
 10
176.4013245455
 20
428.3035715657
 11
190.9013245455
 21
428.3035715657
  0
LINE
  5
300
100
AcDbEntity
  8
0
100
AcDbLine
 62
7
  6
BYLAYER
 10
198.9013245455
 20
428.3035715657
 11
213.4013245455
 21
428.3035715657
  0
LINE
  5
301
100
AcDbEntity
  8
0
100
AcDbLine
 62
7
  6
BYLAYER
 10
179.5275845455
 20
429.5035715657
 11
187.7775845455
 21
429.5035715657
  0
LINE
  5
302
100
AcDbEntity
  8
0
100
AcDbLine
 62
7
  6
BYLAYER
 10
202.0269045455
 20
429.5035715657
 11
210.2170767436
 21
429.5035715657
  0
LINE
  5
303
100
AcDbEntity
  8
0
100
AcDbLine
 62
7
  6
BYLAYER
 10
179.8276720216
 20
429.8035715657
 11
187.4776031627
 21
429.8035715657
  0
LINE
  5
304
100
AcDbEntity
  8
0
100
AcDbLine
 62
7
  6
BYLAYER
 10
202.3269132098
 20
429.8035715657
 11
209.9122991795
 21
429.8035715657
  0
LINE
  5
305
100
AcDbEntity
  8
0
100
AcDbLine
 62
7
  6
BYLAYER
 10
200.1513245455
 20
431.8035706283
 11
212.1513245455
 21
431.8035706283
  0
LINE
  5
306
100
AcDbEntity
  8
0
100
AcDbLine
 62
7
  6
BYLAYER
 10
200.6513239813
 20
432.3035715657
 11
211.6513251098
 21
432.3035715657
  0
ARC
  5
307
100
AcDbEntity
  8
3
100
AcDbCircle
 62
7
  6
BYLAYER
 10
122.9096637305
 20
128.1517466889
 40
5.0
100
AcDbArc
 50
90.0
 51
180.0
  0
ARC
  5
308
100
AcDbEntity
  8
3
100
AcDbCircle
 62
7
  6
BYLAYER
 10
122.9096637305
 20
88.1517466889
 40
5.0
100
AcDbArc
 50
180.0
 51
270.0
  0
ARC
  5
309
100
AcDbEntity
  8
3
100
AcDbCircle
 62
7
  6
BYLAYER
 10
126.1096637305
 20
93.1517466889
 40
3.25
100
AcDbArc
 50
90.0
 51
270.0
  0
ARC
  5
30A
100
AcDbEntity
  8
3
100
AcDbCircle
 62
7
  6
BYLAYER
 10
139.6096637305
 20
93.1517466889
 40
3.25
100
AcDbArc
 50
270.0
 51
90.0
  0
ARC
  5
30B
100
AcDbEntity
  8
3
100
AcDbCircle
 62
7
  6
BYLAYER
 10
126.1096637305
 20
123.1517466889
 40
3.25
100
AcDbArc
 50
90.0
 51
270.0
  0
ARC
  5
30C
100
AcDbEntity
  8
3
100
AcDbCircle
 62
7
  6
BYLAYER
 10
139.6096637305
 20
123.1517466889
 40
3.25
100
AcDbArc
 50
270.0
 51
90.0
  0
ARC
  5
30D
100
AcDbEntity
  8
0
100
AcDbCircle
 62
7
  6
BYLAYER
 10
170.3515707244
 20
39.2035715657
 40
1.0
100
AcDbArc
 50
180.0
 51
270.0
  0
ARC
  5
30E
100
AcDbEntity
  8
0
100
AcDbCircle
 62
7
  6
BYLAYER
 10
169.1510838084
 20
39.3034614272
 40
1.0
100
AcDbArc
 50
180.0
 51
270.0
  0
ARC
  5
30F
100
AcDbEntity
  8
0
100
AcDbCircle
 62
7
  6
BYLAYER
 10
168.6510838084
 20
41.3034614272
 40
0.5
100
AcDbArc
 50
180.0
 51
270.0
  0
ARC
  5
310
100
AcDbEntity
  8
3
100
AcDbCircle
 62
7
  6
BYLAYER
 10
122.9096637305
 20
374.4866491498
 40
5.0
100
AcDbArc
 50
90.0
 51
180.0
  0
ARC
  5
311
100
AcDbEntity
  8
3
100
AcDbCircle
 62
7
  6
BYLAYER
 10
122.9096637305
 20
334.4866491498
 40
5.0
100
AcDbArc
 50
180.0
 51
270.0
  0
ARC
  5
312
100
AcDbEntity
  8
3
100
AcDbCircle
 62
7
  6
BYLAYER
 10
126.1096637305
 20
339.4866491498
 40
3.25
100
AcDbArc
 50
90.0
 51
270.0
  0
ARC
  5
313
100
AcDbEntity
  8
3
100
AcDbCircle
 62
7
  6
BYLAYER
 10
139.6096637305
 20
339.4866491498
 40
3.25
100
AcDbArc
 50
270.0
 51
90.0
  0
ARC
  5
314
100
AcDbEntity
  8
3
100
AcDbCircle
 62
7
  6
BYLAYER
 10
126.1096637305
 20
369.4866491498
 40
3.25
100
AcDbArc
 50
90.0
 51
270.0
  0
ARC
  5
315
100
AcDbEntity
  8
3
100
AcDbCircle
 62
7
  6
BYLAYER
 10
139.6096637305
 20
369.4866491498
 40
3.25
100
AcDbArc
 50
270.0
 51
90.0
  0
ARC
  5
316
100
AcDbEntity
  8
0
100
AcDbCircle
 62
7
  6
BYLAYER
 10
170.3513245455
 20
420.9035715657
 40
1.0
100
AcDbArc
 50
90.0
 51
180.0
  0
ARC
  5
317
100
AcDbEntity
  8
0
100
AcDbCircle
 62
7
  6
BYLAYER
 10
169.1513245455
 20
420.8035715657
 40
1.0
100
AcDbArc
 50
90.0
 51
180.0
  0
ARC
  5
318
100
AcDbEntity
  8
0
100
AcDbCircle
 62
7
  6
BYLAYER
 10
168.6513245455
 20
418.8035715657
 40
0.5
100
AcDbArc
 50
90.0
 51
180.0
  0
ARC
  5
319
100
AcDbEntity
  8
0
100
AcDbCircle
 62
7
  6
BYLAYER
 10
195.8778863955
 20
26.7289327407
 40
25.9492033556
100
AcDbArc
 50
33.0803197527
 51
33.6236390968
  0
ARC
  5
31A
100
AcDbEntity
  8
0
100
AcDbCircle
 62
7
  6
BYLAYER
 10
174.9515707244
 20
39.2035715657
 40
1.0
100
AcDbArc
 50
270.0
 51
360.0
  0
ARC
  5
31B
100
AcDbEntity
  8
0
100
AcDbCircle
 62
7
  6
BYLAYER
 10
210.3515825976
 20
39.2035715657
 40
1.0
100
AcDbArc
 50
180.0
 51
270.0
  0
ARC
  5
31C
100
AcDbEntity
  8
0
100
AcDbCircle
 62
7
  6
BYLAYER
 10
214.9515825976
 20
39.2035715657
 40
1.0
100
AcDbArc
 50
270.0
 51
360.0
  0
ARC
  5
31D
100
AcDbEntity
  8
0
100
AcDbCircle
 62
7
  6
BYLAYER
 10
190.6510838084
 20
39.3034614272
 40
1.0
100
AcDbArc
 50
270.0
 51
360.0
  0
ARC
  5
31E
100
AcDbEntity
  8
0
100
AcDbCircle
 62
7
  6
BYLAYER
 10
200.6510838084
 20
39.3034614272
 40
1.0
100
AcDbArc
 50
179.9999999984
 51
270.0
  0
ARC
  5
31F
100
AcDbEntity
  8
0
100
AcDbCircle
 62
7
  6
BYLAYER
 10
208.1510838084
 20
39.3034614272
 40
1.0
100
AcDbArc
 50
270.0
 51
360.0
  0
ARC
  5
320
100
AcDbEntity
  8
0
100
AcDbCircle
 62
7
  6
BYLAYER
 10
217.1510838084
 20
39.3034614272
 40
1.0
100
AcDbArc
 50
180.0
 51
270.0
  0
ARC
  5
321
100
AcDbEntity
  8
0
100
AcDbCircle
 62
7
  6
BYLAYER
 10
177.1510838084
 20
39.3034614272
 40
1.0
100
AcDbArc
 50
180.0
 51
270.0
  0
ARC
  5
322
100
AcDbEntity
  8
0
100
AcDbCircle
 62
7
  6
BYLAYER
 10
222.1510838083
 20
39.3034614272
 40
1.0
100
AcDbArc
 50
270.0000000017
 51
360.0
  0
ARC
  5
323
100
AcDbEntity
  8
0
100
AcDbCircle
 62
7
  6
BYLAYER
 10
175.6510838084
 20
40.3034614272
 40
0.5
100
AcDbArc
 50
0.0
 51
90.0
  0
ARC
  5
324
100
AcDbEntity
  8
0
100
AcDbCircle
 62
7
  6
BYLAYER
 10
209.6510838084
 20
40.3034614272
 40
0.5
100
AcDbArc
 50
90.0
 51
180.0
  0
ARC
  5
325
100
AcDbEntity
  8
0
100
AcDbCircle
 62
7
  6
BYLAYER
 10
215.6510838084
 20
40.3034614272
 40
0.5
100
AcDbArc
 50
0.0
 51
90.0
  0
ARC
  5
326
100
AcDbEntity
  8
0
100
AcDbCircle
 62
7
  6
BYLAYER
 10
174.9513245455
 20
420.9035715657
 40
1.0
100
AcDbArc
 50
0.0
 51
90.0
  0
ARC
  5
327
100
AcDbEntity
  8
0
100
AcDbCircle
 62
7
  6
BYLAYER
 10
177.1513245455
 20
420.8035715657
 40
1.0
100
AcDbArc
 50
90.0
 51
180.0
  0
ARC
  5
328
100
AcDbEntity
  8
0
100
AcDbCircle
 62
7
  6
BYLAYER
 10
190.6513245455
 20
420.8035715657
 40
1.0
100
AcDbArc
 50
0.0
 51
90.0
  0
ARC
  5
329
100
AcDbEntity
  8
0
100
AcDbCircle
 62
7
  6
BYLAYER
 10
175.6513245455
 20
419.8035715657
 40
0.5
100
AcDbArc
 50
270.0
 51
360.0
  0
ARC
  5
32A
100
AcDbEntity
  8
0
100
AcDbCircle
 62
7
  6
BYLAYER
 10
198.1513245455
 20
418.3035715657
 40
0.5
100
AcDbArc
 50
102.1468526144
 51
282.1468526144
  0
ARC
  5
32B
100
AcDbEntity
  8
0
100
AcDbCircle
 62
7
  6
BYLAYER
 10
191.6513245455
 20
418.3035715657
 40
0.5
100
AcDbArc
 50
257.8196647598
 51
77.8196647598
  0
ARC
  5
32C
100
AcDbEntity
  8
0
100
AcDbCircle
 62
7
  6
BYLAYER
 10
194.4243364956
 20
434.3349513186
 40
27.6896077239
100
AcDbArc
 50
326.3934359328
 51
326.902605216
  0
ARC
  5
32D
100
AcDbEntity
  8
0
100
AcDbCircle
 62
7
  6
BYLAYER
 10
179.8275845455
 20
429.5035715657
 40
0.3
100
AcDbArc
 50
90.0
 51
180.0
  0
ARC
  5
32E
100
AcDbEntity
  8
0
100
AcDbCircle
 62
7
  6
BYLAYER
 10
187.4775845455
 20
429.5035715657
 40
0.3
100
AcDbArc
 50
0.0
 51
90.0
  0
ARC
  5
32F
100
AcDbEntity
  8
0
100
AcDbCircle
 62
7
  6
BYLAYER
 10
210.3513245455
 20
420.9035715657
 40
1.0
100
AcDbArc
 50
90.0
 51
180.0
  0
ARC
  5
330
100
AcDbEntity
  8
0
100
AcDbCircle
 62
7
  6
BYLAYER
 10
214.9513245455
 20
420.9035715657
 40
1.0
100
AcDbArc
 50
0.0
 51
90.0
  0
ARC
  5
331
100
AcDbEntity
  8
0
100
AcDbCircle
 62
7
  6
BYLAYER
 10
200.6513245455
 20
420.8035715657
 40
1.0
100
AcDbArc
 50
90.0
 51
180.0000000008
  0
ARC
  5
332
100
AcDbEntity
  8
0
100
AcDbCircle
 62
7
  6
BYLAYER
 10
222.1513245456
 20
420.8035715657
 40
1.0
100
AcDbArc
 50
0.0000000002
 51
90.0000000009
  0
ARC
  5
333
100
AcDbEntity
  8
0
100
AcDbCircle
 62
7
  6
BYLAYER
 10
208.1513245455
 20
420.8035715657
 40
1.0
100
AcDbArc
 50
0.0
 51
90.0
  0
ARC
  5
334
100
AcDbEntity
  8
0
100
AcDbCircle
 62
7
  6
BYLAYER
 10
217.1513245456
 20
420.8035715657
 40
1.0
100
AcDbArc
 50
90.0000000003
 51
180.0
  0
ARC
  5
335
100
AcDbEntity
  8
0
100
AcDbCircle
 62
7
  6
BYLAYER
 10
215.6513245455
 20
419.8035715657
 40
0.5
100
AcDbArc
 50
270.0
 51
360.0
  0
ARC
  5
336
100
AcDbEntity
  8
0
100
AcDbCircle
 62
7
  6
BYLAYER
 10
209.6513245455
 20
419.8035715657
 40
0.5
100
AcDbArc
 50
180.0
 51
270.0
  0
ARC
  5
337
100
AcDbEntity
  8
0
100
AcDbCircle
 62
7
  6
BYLAYER
 10
202.3269045455
 20
429.5035715657
 40
0.3
100
AcDbArc
 50
90.0
 51
180.0
  0
SPLINE
  5
338
100
AcDbEntity
  8
0
100
AcDbSpline
 62
7
  6
BYLAYER
 70
0
 71
3
 72
11
 73
7
 74
0
 42
0.0000001
 43
0.0000001
 44
0.0000000001
 40
0.0
 40
0.0
 40
0.0
 40
0.0
 40
0.2500122228
 40
0.4999397271
 40
0.7499119404
 40
1.0
 40
1.0
 40
1.0
 40
1.0
 10
210.2170767436
 20
429.5035715657
 30
0.0
 10
210.2170767436
 20
429.5429059879
 30
0.0
 10
210.2009478665
 20
429.6224602575
 30
0.0
 10
210.1324146669
 20
429.7221939284
 30
0.0
 10
210.0311595534
 20
429.7882839633
 30
0.0
 10
209.9516456586
 20
429.803572514
 30
0.0
 10
209.912299305
 20
429.8035715657
 30
0.0
  0
SPLINE
  5
339
100
AcDbEntity
  8
0
100
AcDbSpline
 62
7
  6
BYLAYER
 70
0
 71
3
 72
20
 73
16
 74
0
 42
0.0000001
 43
0.0000001
 44
0.0000000001
 40
0.0
 40
0.0
 40
0.0
 40
0.0
 40
0.1238080638
 40
0.2666953726
 40
0.420299857
 40
0.5759579771
 40
0.7251494748
 40
0.793928924
 40
0.8569220493
 40
0.9124045426
 40
0.9574392426
 40
0.9749810012
 40
0.9883988687
 40
0.9969788418
 40
1.0
 40
1.0
 40
1.0
 40
1.0
 10
169.1513245572
 20
419.8035715657
 30
0.0
 10
169.1513244841
 20
419.7737218871
 30
0.0
 10
169.1276417301
 20
419.7102611314
 30
0.0
 10
169.0629647702
 20
419.6321682134
 30
0.0
 10
168.9850280524
 20
419.5556703402
 30
0.0
 10
168.900738564
 20
419.4841292625
 30
0.0
 10
168.8304679415
 20
419.4277473148
 30
0.0
 10
168.7765548294
 20
419.3867296847
 30
0.0
 10
168.7400683294
 20
419.360131917
 30
0.0
 10
168.7076624795
 20
419.3376850434
 30
0.0
 10
168.6837086949
 20
419.3222685643
 30
0.0
 10
168.6680978612
 20
419.312724928
 30
0.0
 10
168.6595883873
 20
419.3082833589
 30
0.0
 10
168.654712642
 20
419.304884402
 30
0.0
 10
168.6517771725
 20
419.3041422601
 30
0.0
 10
168.6513245538
 20
419.3035715685
 30
0.0
  0
SPLINE
  5
33A
100
AcDbEntity
  8
0
100
AcDbSpline
 62
7
  6
BYLAYER
 70
0
 71
3
 72
13
 73
9
 74
0
 42
0.0000001
 43
0.0000001
 44
0.0000000001
 40
0.0
 40
0.0
 40
0.0
 40
0.0
 40
0.3392858511
 40
0.6244968217
 40
0.7400572223
 40
0.83843806
 40
0.9230857451
 40
1.0
 40
1.0
 40
1.0
 40
1.0
 10
191.1513231224
 20
420.8035715657
 30
0.0
 10
191.151323122
 20
420.9401725838
 30
0.0
 10
191.1262014439
 20
421.1921862901
 30
0.0
 10
191.0317915747
 20
421.4790396155
 30
0.0
 10
190.9235453391
 20
421.6495951697
 30
0.0
 10
190.8391217827
 20
421.7366868461
 30
0.0
 10
190.7478079596
 20
421.7909086866
 30
0.0
 10
190.6822883109
 20
421.8035645691
 30
0.0
 10
190.6513216047
 20
421.8035715661
 30
0.0
  0
SPLINE
  5
33B
100
AcDbEntity
  8
0
100
AcDbSpline
 62
7
  6
BYLAYER
 70
0
 71
3
 72
14
 73
10
 74
0
 42
0.0000001
 43
0.0000001
 44
0.0000000001
 40
0.0
 40
0.0
 40
0.0
 40
0.0
 40
0.1247548922
 40
0.2497370872
 40
0.3748455166
 40
0.5000186734
 40
0.7495155103
 40
0.8747430806
 40
1.0
 40
1.0
 40
1.0
 40
1.0
 10
208.1513245455
 20
419.8035715657
 30
0.0
 10
208.1513246812
 20
419.7205634834
 30
0.0
 10
208.1834568766
 20
419.5533386636
 30
0.0
 10
208.3059607921
 20
419.3327514231
 30
0.0
 10
208.4770744948
 20
419.1481307433
 30
0.0
 10
208.7491448967
 20
418.9538122216
 30
0.0
 10
209.0698817563
 20
418.8399236712
 30
0.0
 10
209.4011359088
 20
418.8035542256
 30
0.0
 10
209.5679824297
 20
418.8035715618
 30
0.0
 10
209.6513245455
 20
418.8035715657
 30
0.0
  0
SPLINE
  5
33C
100
AcDbEntity
  8
0
100
AcDbSpline
 62
7
  6
BYLAYER
 70
0
 71
3
 72
13
 73
9
 74
0
 42
0.0000001
 43
0.0000001
 44
0.0000000001
 40
0.0
 40
0.0
 40
0.0
 40
0.0
 40
0.1203849781
 40
0.2167041628
 40
0.338332266
 40
0.4823465581
 40
0.6444003142
 40
1.0
 40
1.0
 40
1.0
 40
1.0
 10
221.4260456734
 20
421.8035715657
 30
0.0
 10
221.4693112268
 20
421.8035715657
 30
0.0
 10
221.534208795
 20
421.7349515183
 30
0.0
 10
221.5837560822
 20
421.6284497281
 30
0.0
 10
221.6248970218
 20
421.5032480616
 30
0.0
 10
221.657512547
 20
421.3533292693
 30
0.0
 10
221.6914639123
 20
421.1176447463
 30
0.0
 10
221.7007668013
 20
420.9313717067
 30
0.0
 10
221.7007668013
 20
420.8035715657
 30
0.0
  0
SPLINE
  5
33D
100
AcDbEntity
  8
0
100
AcDbSpline
 62
7
  6
BYLAYER
 70
0
 71
3
 72
9
 73
5
 74
0
 42
0.0000001
 43
0.0000001
 44
0.0000000001
 40
0.0
 40
0.0
 40
0.0
 40
0.0
 40
0.2472785885
 40
1.0
 40
1.0
 40
1.0
 40
1.0
 10
218.0634062374
 20
418.8035715657
 30
0.0
 10
218.0159773104
 20
418.8210058515
 30
0.0
 10
217.8240630046
 20
418.8912041025
 30
0.0
 10
217.631486722
 20
418.9596319839
 30
0.0
 10
217.4858432693
 20
419.0091142697
 30
0.0
  0
SPLINE
  5
33E
100
AcDbEntity
  8
0
100
AcDbSpline
 62
7
  6
BYLAYER
 70
0
 71
3
 72
9
 73
5
 74
0
 42
0.0000001
 43
0.0000001
 44
0.0000000001
 40
0.0
 40
0.0
 40
0.0
 40
0.0
 40
0.2510691642
 40
1.0
 40
1.0
 40
1.0
 40
1.0
 10
217.6211267736
 20
419.2146570817
 30
0.0
 10
217.65926422
 20
419.1814957414
 30
0.0
 10
217.8098384098
 20
419.0478884406
 30
0.0
 10
217.9557645644
 20
418.9091188386
 30
0.0
 10
218.0634063317
 20
418.8035716697
 30
0.0
  0
SPLINE
  5
33F
100
AcDbEntity
  8
0
100
AcDbSpline
 62
7
  6
BYLAYER
 70
0
 71
3
 72
12
 73
8
 74
0
 42
0.0000001
 43
0.0000001
 44
0.0000000001
 40
0.0
 40
0.0
 40
0.0
 40
0.0
 40
0.1003453412
 40
0.2120468593
 40
0.4599434278
 40
0.7263410539
 40
1.0
 40
1.0
 40
1.0
 40
1.0
 10
216.563639775
 20
419.8035715657
 30
0.0
 10
216.6047028222
 20
419.8035712869
 30
0.0
 10
216.6914431597
 20
419.7903299128
 30
0.0
 10
216.869962552
 20
419.7293980889
 30
0.0
 10
217.0967033616
 20
419.607324336
 30
0.0
 10
217.3633891057
 20
419.4258901362
 30
0.0
 10
217.5366122103
 20
419.2881291557
 30
0.0
 10
217.6211266798
 20
419.2146569737
 30
0.0
  0
SPLINE
  5
340
100
AcDbEntity
  8
0
100
AcDbSpline
 62
7
  6
BYLAYER
 70
0
 71
3
 72
13
 73
9
 74
0
 42
0.0000001
 43
0.0000001
 44
0.0000000001
 40
0.0
 40
0.0
 40
0.0
 40
0.0
 40
0.3554818092
 40
0.51747332
 40
0.6615013205
 40
0.7831694886
 40
0.8795585688
 40
1.0
 40
1.0
 40
1.0
 40
1.0
 10
218.0634062374
 20
420.8035715657
 30
0.0
 10
218.0634062374
 20
420.931328847
 30
0.0
 10
218.0541101448
 20
421.1175361098
 30
0.0
 10
218.0201806606
 20
421.3531622393
 30
0.0
 10
217.9875809336
 20
421.5030802303
 30
0.0
 10
217.9464436057
 20
421.6283308293
 30
0.0
 10
217.8968923289
 20
421.7348893017
 30
0.0
 10
217.8319707838
 20
421.8035715657
 30
0.0
 10
217.7886851095
 20
421.8035715657
 30
0.0
  0
SPLINE
  5
341
100
AcDbEntity
  8
0
100
AcDbSpline
 62
7
  6
BYLAYER
 70
0
 71
3
 72
10
 73
6
 74
0
 42
0.0000001
 43
0.0000001
 44
0.0000000001
 40
0.0
 40
0.0
 40
0.0
 40
0.0
 40
0.5192781373
 40
0.7706703291
 40
1.0
 40
1.0
 40
1.0
 40
1.0
 10
217.4858433287
 20
419.0091144754
 30
0.0
 10
217.270129049
 20
419.0856176636
 30
0.0
 10
216.9443254135
 20
419.1846606513
 30
0.0
 10
216.5137335331
 20
419.2785565569
 30
0.0
 10
216.3021581423
 20
419.3035713282
 30
0.0
 10
216.2010781283
 20
419.3035715657
 30
0.0
  0
SPLINE
  5
342
100
AcDbEntity
  8
0
100
AcDbSpline
 62
7
  6
BYLAYER
 70
0
 71
3
 72
9
 73
5
 74
0
 42
0.0000001
 43
0.0000001
 44
0.0000000001
 40
0.0
 40
0.0
 40
0.0
 40
0.0
 40
0.2566268573
 40
1.0
 40
1.0
 40
1.0
 40
1.0
 10
217.4979863781
 20
418.8035715657
 30
0.0
 10
217.4979863781
 20
418.8211908214
 30
0.0
 10
217.4969816177
 20
418.8898403719
 30
0.0
 10
217.4921181612
 20
418.9584636306
 30
0.0
 10
217.4858432693
 20
419.0091142697
 30
0.0
  0
SPLINE
  5
343
100
AcDbEntity
  8
0
100
AcDbSpline
 62
7
  6
BYLAYER
 70
0
 71
3
 72
13
 73
9
 74
0
 42
0.0000001
 43
0.0000001
 44
0.0000000001
 40
0.0
 40
0.0
 40
0.0
 40
0.0
 40
0.0769117591
 40
0.1615599831
 40
0.2599401278
 40
0.3754978975
 40
0.6607031278
 40
1.0
 40
1.0
 40
1.0
 40
1.0
 10
200.6513265798
 20
421.803571566
 30
0.0
 10
200.6203608779
 20
421.8035652269
 30
0.0
 10
200.5548420256
 20
421.790909041
 30
0.0
 10
200.4635286518
 20
421.7366888184
 30
0.0
 10
200.3791054716
 20
421.6495982267
 30
0.0
 10
200.2708600155
 20
421.4790466273
 30
0.0
 10
200.1764473369
 20
421.1921929862
 30
0.0
 10
200.1513257313
 20
420.9401770228
 30
0.0
 10
200.1513250864
 20
420.8035715657
 30
0.0
  0
SPLINE
  5
344
100
AcDbEntity
  8
0
100
AcDbSpline
 62
7
  6
BYLAYER
 70
0
 71
3
 72
11
 73
7
 74
0
 42
0.0000001
 43
0.0000001
 44
0.0000000001
 40
0.0
 40
0.0
 40
0.0
 40
0.0
 40
0.2742864213
 40
0.5514542927
 40
0.7962818329
 40
1.0
 40
1.0
 40
1.0
 40
1.0
 10
216.563639776
 20
419.8035715657
 30
0.0
 10
216.5636397693
 20
419.7416384123
 30
0.0
 10
216.5469460901
 20
419.6164366489
 30
0.0
 10
216.4711883179
 20
419.4498522545
 30
0.0
 10
216.3495609618
 20
419.3322116006
 30
0.0
 10
216.2470771593
 20
419.3035715653
 30
0.0
 10
216.2010781324
 20
419.3035715657
 30
0.0
  0
SPLINE
  5
345
100
AcDbEntity
  8
0
100
AcDbSpline
 62
7
  6
BYLAYER
 70
0
 71
3
 72
14
 73
10
 74
0
 42
0.0000001
 43
0.0000001
 44
0.0000000001
 40
0.0
 40
0.0
 40
0.0
 40
0.0
 40
0.1247554493
 40
0.2497373879
 40
0.3748457258
 40
0.5000187559
 40
0.7495153736
 40
0.8747430248
 40
1.0
 40
1.0
 40
1.0
 40
1.0
 10
177.1513245455
 20
419.8035715657
 30
0.0
 10
177.1513243253
 20
419.720563112
 30
0.0
 10
177.1191920738
 20
419.5533380802
 30
0.0
 10
176.9966878417
 20
419.3327508518
 30
0.0
 10
176.8255742743
 20
419.148130496
 30
0.0
 10
176.5535040701
 20
418.9538121858
 30
0.0
 10
176.2327673953
 20
418.8399237747
 30
0.0
 10
175.9015133196
 20
418.8035540296
 30
0.0
 10
175.7346666992
 20
418.803571545
 30
0.0
 10
175.6513245455
 20
418.8035715657
 30
0.0
  0
SPLINE
  5
346
100
AcDbEntity
  8
0
100
AcDbSpline
 62
7
  6
BYLAYER
 70
0
 71
3
 72
13
 73
9
 74
0
 42
0.0000001
 43
0.0000001
 44
0.0000000001
 40
0.0
 40
0.0
 40
0.0
 40
0.0
 40
0.3392858713
 40
0.6244968417
 40
0.74005726
 40
0.8384380717
 40
0.9230857484
 40
1.0
 40
1.0
 40
1.0
 40
1.0
 10
200.1510851161
 20
39.3034614272
 30
0.0
 10
200.1510851165
 20
39.1668603984
 30
0.0
 10
200.1762067879
 20
38.9148466723
 30
0.0
 10
200.2706167002
 20
38.6279933506
 30
0.0
 10
200.3788628955
 20
38.457437766
 30
0.0
 10
200.4632864852
 20
38.370346125
 30
0.0
 10
200.5546003008
 20
38.3161243061
 30
0.0
 10
200.6201199458
 20
38.3034684209
 30
0.0
 10
200.6510866512
 20
38.3034614268
 30
0.0
  0
SPLINE
  5
347
100
AcDbEntity
  8
0
100
AcDbSpline
 62
7
  6
BYLAYER
 70
0
 71
3
 72
13
 73
9
 74
0
 42
0.0000001
 43
0.0000001
 44
0.0000000001
 40
0.0
 40
0.0
 40
0.0
 40
0.0
 40
0.1203849781
 40
0.2167041628
 40
0.338332266
 40
0.4823465581
 40
0.6444003142
 40
1.0
 40
1.0
 40
1.0
 40
1.0
 10
217.7884443723
 20
38.3034614272
 30
0.0
 10
217.8317099257
 20
38.3034614272
 30
0.0
 10
217.8966074939
 20
38.3720814746
 30
0.0
 10
217.946154781
 20
38.4785832648
 30
0.0
 10
217.9872957207
 20
38.6037849313
 30
0.0
 10
218.0199112459
 20
38.7537037236
 30
0.0
 10
218.0538626112
 20
38.9893882466
 30
0.0
 10
218.0631655002
 20
39.1756612862
 30
0.0
 10
218.0631655002
 20
39.3034614272
 30
0.0
  0
SPLINE
  5
348
100
AcDbEntity
  8
0
100
AcDbSpline
 62
7
  6
BYLAYER
 70
0
 71
3
 72
20
 73
16
 74
0
 42
0.0000001
 43
0.0000001
 44
0.0000000001
 40
0.0
 40
0.0
 40
0.0
 40
0.0
 40
0.0030211582
 40
0.0116011313
 40
0.0250189988
 40
0.0425607574
 40
0.0875954574
 40
0.1430779508
 40
0.2060710762
 40
0.2748505254
 40
0.4240420232
 40
0.5797001434
 40
0.7333046278
 40
0.8761919364
 40
1.0
 40
1.0
 40
1.0
 40
1.0
 10
168.6510838158
 20
40.8034614243
 30
0.0
 10
168.6515359315
 20
40.8028903342
 30
0.0
 10
168.6544725866
 20
40.8021491318
 30
0.0
 10
168.6593472456
 20
40.7987493141
 30
0.0
 10
168.6678572899
 20
40.794308197
 30
0.0
 10
168.6834678182
 20
40.7847643187
 30
0.0
 10
168.7074218038
 20
40.7693479989
 30
0.0
 10
168.7398275705
 20
40.7469010593
 30
0.0
 10
168.7763140975
 20
40.720303313
 30
0.0
 10
168.8302271991
 20
40.6792856746
 30
0.0
 10
168.9004978272
 20
40.6229037313
 30
0.0
 10
168.9847873135
 20
40.551362652
 30
0.0
 10
169.0627240316
 20
40.4748647792
 30
0.0
 10
169.1274009912
 20
40.3967718612
 30
0.0
 10
169.1510837452
 20
40.3333111057
 30
0.0
 10
169.1510838183
 20
40.3034614272
 30
0.0
  0
SPLINE
  5
349
100
AcDbEntity
  8
0
100
AcDbSpline
 62
7
  6
BYLAYER
 70
0
 71
3
 72
14
 73
10
 74
0
 42
0.0000001
 43
0.0000001
 44
0.0000000001
 40
0.0
 40
0.0
 40
0.0
 40
0.0
 40
0.124755068
 40
0.2497371838
 40
0.3748455004
 40
0.5000186091
 40
0.7495154875
 40
0.8747430736
 40
1.0
 40
1.0
 40
1.0
 40
1.0
 10
177.1510838084
 20
40.3034614272
 30
0.0
 10
177.151083588
 20
40.3864696264
 30
0.0
 10
177.1189514616
 20
40.5536945133
 30
0.0
 10
176.9964474447
 20
40.7742817054
 30
0.0
 10
176.8253338411
 20
40.9589022404
 30
0.0
 10
176.5532635202
 20
41.153220738
 30
0.0
 10
176.2325266601
 20
41.2671093209
 30
0.0
 10
175.901272465
 20
41.3034787623
 30
0.0
 10
175.7344259289
 20
41.3034614479
 30
0.0
 10
175.6510838084
 20
41.3034614272
 30
0.0
  0
SPLINE
  5
34A
100
AcDbEntity
  8
0
100
AcDbSpline
 62
7
  6
BYLAYER
 70
0
 71
3
 72
13
 73
9
 74
0
 42
0.0000001
 43
0.0000001
 44
0.0000000001
 40
0.0
 40
0.0
 40
0.0
 40
0.0
 40
0.0769117554
 40
0.161559974
 40
0.2599401127
 40
0.3754978776
 40
0.6607031082
 40
1.0
 40
1.0
 40
1.0
 40
1.0
 10
190.6510818665
 20
38.3034614269
 30
0.0
 10
190.6820475673
 20
38.303467763
 30
0.0
 10
190.7475664183
 20
38.316123942
 30
0.0
 10
190.8388797926
 20
38.3703441554
 30
0.0
 10
190.9233029744
 20
38.4574347394
 30
0.0
 10
191.031548436
 20
38.6279863342
 30
0.0
 10
191.1259611227
 20
38.9148399847
 30
0.0
 10
191.1510827314
 20
39.1668559601
 30
0.0
 10
191.1510833764
 20
39.3034614271
 30
0.0
  0
SPLINE
  5
34B
100
AcDbEntity
  8
0
100
AcDbSpline
 62
7
  6
BYLAYER
 70
0
 71
3
 72
14
 73
10
 74
0
 42
0.0000001
 43
0.0000001
 44
0.0000000001
 40
0.0
 40
0.0
 40
0.0
 40
0.0
 40
0.1247554493
 40
0.2497373879
 40
0.3748457258
 40
0.5000187559
 40
0.7495153736
 40
0.8747430248
 40
1.0
 40
1.0
 40
1.0
 40
1.0
 10
208.1510838084
 20
40.3034614272
 30
0.0
 10
208.1510840287
 20
40.3864698809
 30
0.0
 10
208.1832162801
 20
40.5536949126
 30
0.0
 10
208.3057205122
 20
40.7742821411
 30
0.0
 10
208.4768340797
 20
40.9589024969
 30
0.0
 10
208.7489042838
 20
41.1532208071
 30
0.0
 10
209.0696409586
 20
41.2671092182
 30
0.0
 10
209.4008950343
 20
41.3034789633
 30
0.0
 10
209.5677416547
 20
41.3034614479
 30
0.0
 10
209.6510838084
 20
41.3034614272
 30
0.0
  0
SPLINE
  5
34C
100
AcDbEntity
  8
0
100
AcDbSpline
 62
7
  6
BYLAYER
 70
0
 71
3
 72
9
 73
5
 74
0
 42
0.0000001
 43
0.0000001
 44
0.0000000001
 40
0.0
 40
0.0
 40
0.0
 40
0.0
 40
0.2481650378
 40
1.0
 40
1.0
 40
1.0
 40
1.0
 10
218.0631656324
 20
41.3034612814
 30
0.0
 10
218.0274982075
 20
41.268487927
 30
0.0
 10
217.8830571536
 20
41.1283018804
 30
0.0
 10
217.735087804
 20
40.9916767614
 30
0.0
 10
217.6208860741
 20
40.8923758679
 30
0.0
  0
SPLINE
  5
34D
100
AcDbEntity
  8
0
100
AcDbSpline
 62
7
  6
BYLAYER
 70
0
 71
3
 72
9
 73
5
 74
0
 42
0.0000001
 43
0.0000001
 44
0.0000000001
 40
0.0
 40
0.0
 40
0.0
 40
0.0
 40
0.2472783313
 40
1.0
 40
1.0
 40
1.0
 40
1.0
 10
218.0631655002
 20
41.3034614272
 30
0.0
 10
218.0157366208
 20
41.2860271719
 30
0.0
 10
217.823819737
 20
41.2158360209
 30
0.0
 10
217.6312460296
 20
41.1474010155
 30
0.0
 10
217.4856025322
 20
41.0979187232
 30
0.0
  0
SPLINE
  5
34E
100
AcDbEntity
  8
0
100
AcDbSpline
 62
7
  6
BYLAYER
 70
0
 71
3
 72
12
 73
8
 74
0
 42
0.0000001
 43
0.0000001
 44
0.0000000001
 40
0.0
 40
0.0
 40
0.0
 40
0.0
 40
0.1003457233
 40
0.212047276
 40
0.4599435574
 40
0.7263411187
 40
1.0
 40
1.0
 40
1.0
 40
1.0
 10
216.5633990172
 20
40.3034614272
 30
0.0
 10
216.6044622213
 20
40.303461704
 30
0.0
 10
216.6912027333
 20
40.3167031302
 30
0.0
 10
216.8697221319
 20
40.3776351029
 30
0.0
 10
217.0964628135
 20
40.4997088027
 30
0.0
 10
217.3631484457
 20
40.6811428791
 30
0.0
 10
217.5363714985
 20
40.8189038458
 30
0.0
 10
217.6208859426
 20
40.8923760192
 30
0.0
  0
SPLINE
  5
34F
100
AcDbEntity
  8
0
100
AcDbSpline
 62
7
  6
BYLAYER
 70
0
 71
3
 72
11
 73
7
 74
0
 42
0.0000001
 43
0.0000001
 44
0.0000000001
 40
0.0
 40
0.0
 40
0.0
 40
0.0
 40
0.2037181708
 40
0.4485457117
 40
0.7257135813
 40
1.0
 40
1.0
 40
1.0
 40
1.0
 10
216.2008373771
 20
40.8034614272
 30
0.0
 10
216.246836405
 20
40.8034614275
 30
0.0
 10
216.3493202087
 20
40.7748213924
 30
0.0
 10
216.4709475655
 20
40.6571807378
 30
0.0
 10
216.5467053359
 20
40.4905963429
 30
0.0
 10
216.5633990128
 20
40.3653945801
 30
0.0
 10
216.5633990183
 20
40.3034614272
 30
0.0
  0
SPLINE
  5
350
100
AcDbEntity
  8
0
100
AcDbSpline
 62
7
  6
BYLAYER
 70
0
 71
3
 72
9
 73
5
 74
0
 42
0.0000001
 43
0.0000001
 44
0.0000000001
 40
0.0
 40
0.0
 40
0.0
 40
0.0
 40
0.2408658181
 40
1.0
 40
1.0
 40
1.0
 40
1.0
 10
217.4856025322
 20
41.0979187232
 30
0.0
 10
217.4876357362
 20
41.1143306531
 30
0.0
 10
217.4948747184
 20
41.1826137297
 30
0.0
 10
217.4977456409
 20
41.2513407057
 30
0.0
 10
217.4977456409
 20
41.3034614272
 30
0.0
  0
SPLINE
  5
351
100
AcDbEntity
  8
0
100
AcDbSpline
 62
7
  6
BYLAYER
 70
0
 71
3
 72
10
 73
6
 74
0
 42
0.0000001
 43
0.0000001
 44
0.0000000001
 40
0.0
 40
0.0
 40
0.0
 40
0.0
 40
0.2293296864
 40
0.4807218845
 40
1.0
 40
1.0
 40
1.0
 40
1.0
 10
216.2008373978
 20
40.8034614272
 30
0.0
 10
216.3019174181
 20
40.8034616636
 30
0.0
 10
216.5134928179
 20
40.8284764347
 30
0.0
 10
216.9440846963
 20
40.92237234
 30
0.0
 10
217.2698883259
 20
41.0214153192
 30
0.0
 10
217.4856025947
 20
41.0979185068
 30
0.0
  0
SPLINE
  5
352
100
AcDbEntity
  8
0
100
AcDbSpline
 62
7
  6
BYLAYER
 70
0
 71
3
 72
13
 73
9
 74
0
 42
0.0000001
 43
0.0000001
 44
0.0000000001
 40
0.0
 40
0.0
 40
0.0
 40
0.0
 40
0.3554818092
 40
0.51747332
 40
0.6615013205
 40
0.7831694886
 40
0.8795585688
 40
1.0
 40
1.0
 40
1.0
 40
1.0
 10
221.7005260642
 20
39.3034614272
 30
0.0
 10
221.7005260642
 20
39.1757041459
 30
0.0
 10
221.6912299716
 20
38.989496883
 30
0.0
 10
221.6573004874
 20
38.7538707536
 30
0.0
 10
221.6247007603
 20
38.6039527626
 30
0.0
 10
221.5835634325
 20
38.4787021636
 30
0.0
 10
221.5340121557
 20
38.3721436911
 30
0.0
 10
221.4690906106
 20
38.3034614272
 30
0.0
 10
221.4258049363
 20
38.3034614272
 30
0.0
  0
SPLINE
  5
353
100
AcDbEntity
  8
0
100
AcDbSpline
 62
7
  6
BYLAYER
 70
0
 71
3
 72
15
 73
11
 74
0
 42
0.0000001
 43
0.0000001
 44
0.0000000001
 40
0.0
 40
0.0
 40
0.0
 40
0.0
 40
0.0669617425
 40
0.186153423
 40
0.3431991328
 40
0.519156981
 40
0.6928039503
 40
0.8431957534
 40
0.9521930809
 40
1.0
 40
1.0
 40
1.0
 40
1.0
 10
206.1347069334
 20
418.7923773147
 30
0.0
 10
206.1344990869
 20
418.7705572941
 30
0.0
 10
206.1343237808
 20
418.7099053392
 30
0.0
 10
206.1340606071
 20
418.5979765252
 30
0.0
 10
206.1339212036
 20
418.4511108937
 30
0.0
 10
206.1339007886
 20
418.2838740762
 30
0.0
 10
206.1338667631
 20
418.1285999253
 30
0.0
 10
206.1343397401
 20
417.9648151886
 30
0.0
 10
206.1338918597
 20
417.9151985159
 30
0.0
 10
206.1349899499
 20
417.7991875489
 30
0.0
 10
206.1351383406
 20
417.8147658167
 30
0.0
  0
SPLINE
  5
354
100
AcDbEntity
  8
0
100
AcDbSpline
 62
7
  6
BYLAYER
 70
0
 71
3
 72
15
 73
11
 74
0
 42
0.0000001
 43
0.0000001
 44
0.0000000001
 40
0.0
 40
0.0
 40
0.0
 40
0.0
 40
0.0669617425
 40
0.186153423
 40
0.3431991328
 40
0.519156981
 40
0.6928039503
 40
0.8431957534
 40
0.9521930809
 40
1.0
 40
1.0
 40
1.0
 40
1.0
 10
206.1679421577
 20
418.7923773147
 30
0.0
 10
206.1681500042
 20
418.7705572941
 30
0.0
 10
206.1683253103
 20
418.7099053392
 30
0.0
 10
206.1685884839
 20
418.5979765252
 30
0.0
 10
206.1687278875
 20
418.4511108937
 30
0.0
 10
206.1687483025
 20
418.2838740762
 30
0.0
 10
206.168782328
 20
418.1285999253
 30
0.0
 10
206.168309351
 20
417.9648151886
 30
0.0
 10
206.1687572314
 20
417.9151985159
 30
0.0
 10
206.1676591412
 20
417.7991875489
 30
0.0
 10
206.1675107504
 20
417.8147658167
 30
0.0
  0
SPLINE
  5
355
100
AcDbEntity
  8
0
100
AcDbSpline
 62
7
  6
BYLAYER
 70
0
 71
3
 72
15
 73
11
 74
0
 42
0.0000001
 43
0.0000001
 44
0.0000000001
 40
0.0
 40
0.0
 40
0.0
 40
0.0
 40
0.0669937573
 40
0.186213591
 40
0.3432801964
 40
0.5192491623
 40
0.6928961304
 40
0.8432768136
 40
0.9522532438
 40
1.0
 40
1.0
 40
1.0
 40
1.0
 10
183.667942337
 20
418.7923584828
 30
0.0
 10
183.6681500942
 20
418.7705288691
 30
0.0
 10
183.6683254903
 20
418.7098596562
 30
0.0
 10
183.6685885549
 20
418.5979086729
 30
0.0
 10
183.6687279633
 20
418.4510293675
 30
0.0
 10
183.6687482289
 20
418.2837875919
 30
0.0
 10
183.6687824823
 20
418.1285221823
 30
0.0
 10
183.6683086623
 20
417.9647485084
 30
0.0
 10
183.6687581303
 20
417.9151622437
 30
0.0
 10
183.6676586407
 20
417.7992265834
 30
0.0
 10
183.6675105711
 20
417.8147846486
 30
0.0
  0
SPLINE
  5
356
100
AcDbEntity
  8
0
100
AcDbSpline
 62
7
  6
BYLAYER
 70
0
 71
3
 72
15
 73
11
 74
0
 42
0.0000001
 43
0.0000001
 44
0.0000000001
 40
0.0
 40
0.0
 40
0.0
 40
0.0
 40
0.0669937573
 40
0.186213591
 40
0.3432801964
 40
0.5192491623
 40
0.6928961304
 40
0.8432768136
 40
0.9522532438
 40
1.0
 40
1.0
 40
1.0
 40
1.0
 10
183.6347067541
 20
418.7923584828
 30
0.0
 10
183.6344989969
 20
418.7705288691
 30
0.0
 10
183.6343236008
 20
418.7098596562
 30
0.0
 10
183.6340605362
 20
418.5979086729
 30
0.0
 10
183.6339211278
 20
418.4510293675
 30
0.0
 10
183.6339008622
 20
418.2837875919
 30
0.0
 10
183.6338666088
 20
418.1285221823
 30
0.0
 10
183.6343404288
 20
417.9647485084
 30
0.0
 10
183.6338909608
 20
417.9151622437
 30
0.0
 10
183.6349904504
 20
417.7992265834
 30
0.0
 10
183.63513852
 20
417.8147846486
 30
0.0
  0
SPLINE
  5
357
100
AcDbEntity
  8
0
100
AcDbSpline
 62
7
  6
BYLAYER
 70
0
 71
3
 72
15
 73
11
 74
0
 42
0.0000001
 43
0.0000001
 44
0.0000000001
 40
0.0
 40
0.0
 40
0.0
 40
0.0
 40
0.0670663168
 40
0.1863499579
 40
0.3434639219
 40
0.5194580854
 40
0.6931050508
 40
0.8434605314
 40
0.9523895991
 40
1.0
 40
1.0
 40
1.0
 40
1.0
 10
183.6679427433
 20
418.7923157489
 30
0.0
 10
183.6681502986
 20
418.7704643985
 30
0.0
 10
183.6683258978
 20
418.7097560835
 30
0.0
 10
183.6685887158
 20
418.5977548744
 30
0.0
 10
183.668728135
 20
418.4508446
 30
0.0
 10
183.6687480614
 20
418.2835916055
 30
0.0
 10
183.6687828339
 20
418.1283460326
 30
0.0
 10
183.6683070962
 20
417.9645974268
 30
0.0
 10
183.6687601744
 20
417.9150800948
 30
0.0
 10
183.6676575084
 20
417.7993151014
 30
0.0
 10
183.6675101648
 20
417.8148273824
 30
0.0
  0
SPLINE
  5
358
100
AcDbEntity
  8
0
100
AcDbSpline
 62
7
  6
BYLAYER
 70
0
 71
3
 72
15
 73
11
 74
0
 42
0.0000001
 43
0.0000001
 44
0.0000000001
 40
0.0
 40
0.0
 40
0.0
 40
0.0
 40
0.0670663168
 40
0.1863499579
 40
0.3434639219
 40
0.5194580854
 40
0.6931050508
 40
0.8434605314
 40
0.9523895991
 40
1.0
 40
1.0
 40
1.0
 40
1.0
 10
183.6347063478
 20
418.7923157489
 30
0.0
 10
183.6344987925
 20
418.7704643985
 30
0.0
 10
183.6343231933
 20
418.7097560835
 30
0.0
 10
183.6340603753
 20
418.5977548744
 30
0.0
 10
183.6339209561
 20
418.4508446
 30
0.0
 10
183.6339010297
 20
418.2835916055
 30
0.0
 10
183.6338662572
 20
418.1283460326
 30
0.0
 10
183.6343419949
 20
417.9645974268
 30
0.0
 10
183.6338889167
 20
417.9150800948
 30
0.0
 10
183.6349915827
 20
417.7993151014
 30
0.0
 10
183.6351389263
 20
417.8148273824
 30
0.0
  0
ENDSEC
  0
SECTION
  2
OBJECTS
  0
DICTIONARY
  5
C
100
AcDbDictionary
280
0
281
1
  3
ACAD_GROUP
350
D
  3
ACAD_MLINESTYLE
350
17
  3
ACAD_LAYOUT
350
1A
  3
ACAD_PLOTSETTINGS
350
19
  3
ACAD_PLOTSTYLENAME
350
E
  0
DICTIONARY
  5
D
102
{ACAD_REACTORS
330
C
102
}
100
AcDbDictionary
280
0
281
1
  0
ACDBDICTIONARYWDFLT
  5
E
102
{ACAD_REACTORS
330
C
102
}
100
AcDbDictionary
281
1
  3
Normal
350
F
100
AcDbDictionaryWithDefault
340
F
  0
DICTIONARY
  5
17
102
{ACAD_REACTORS
330
C
102
}
100
AcDbDictionary
280
0
281
1
  3
Standard
350
18
  0
DICTIONARY
  5
19
102
{ACAD_REACTORS
330
C
102
}
100
AcDbDictionary
281
1
  0
DICTIONARY
  5
1A
102
{ACAD_REACTORS
330
C
102
}
100
AcDbDictionary
281
1
  3
Model
350
359
  3
Layout1
350
35A
  0
ACDBPLACEHOLDER
  5
F
102
{ACAD_REACTORS
330
E
102
}
  0
MLINESTYLE
  5
18
102
{ACAD_REACTORS
330
17
102
}
100
AcDbMlineStyle
  2
STANDARD
 70
0
  3

 62
256
 51
90.0
 52
90.0
 71
2
 49
0.5
 62
256
  6
BYLAYER
 49
-0.5
 62
256
  6
BYLAYER
  0
LAYOUT
  5
359
102
{ACAD_REACTORS
330
1A
102
}
100
AcDbPlotSettings
  1

  2
none_device
  4

  6

 40
0.0
 41
0.0
 42
0.0
 43
0.0
 44
210.0
 45
297.0
 46
0.0
 47
0.0
 48
0.0
 49
0.0
140
0.0
141
0.0
142
1.0
143
1.0
 70
1024
 72
1
 73
0
 74
0
  7

 75
0
147
1.0
148
0.0
149
0.0
100
AcDbLayout
  1
Model
 70
0
 71
0
 10
0.0
 20
0.0
 11
210.0
 21
297.0
 12
0.0
 22
0.0
 32
0.0
 14
0.0
 24
0.0
 34
0.0
 15
0.0
 25
0.0
 35
0.0
146
0.0
 13
0.0
 23
0.0
 33
0.0
 16
1.0
 26
0.0
 36
0.0
 17
0.0
 27
1.0
 37
0.0
 76
0
330
212
345
0
346
0
  0
LAYOUT
  5
35A
102
{ACAD_REACTORS
330
1A
102
}
100
AcDbPlotSettings
  1

  2
none_device
  4

  6

 40
0.0
 41
0.0
 42
0.0
 43
0.0
 44
210.0
 45
297.0
 46
0.0
 47
0.0
 48
0.0
 49
0.0
140
0.0
141
0.0
142
1.0
143
1.0
 70
0
 72
1
 73
0
 74
0
  7

 75
0
147
1.0
148
0.0
149
0.0
100
AcDbLayout
  1
Layout1
 70
0
 71
1
 10
0.0
 20
0.0
 11
210.0
 21
297.0
 12
0.0
 22
0.0
 32
0.0
 14
0.0
 24
0.0
 34
0.0
 15
0.0
 25
0.0
 35
0.0
146
0.0
 13
0.0
 23
0.0
 33
0.0
 16
1.0
 26
0.0
 36
0.0
 17
0.0
 27
1.0
 37
0.0
 76
0
330
213
345
0
346
0
  0
ENDSEC
  0
EOF
