999
DXF file: C:\Users\sesa63760\Documents\7-Dev\_Creo\CAD\MCADFD0001431_3D-CAD\drw0001_1.dxf
999
Pro/ENGINEER 2019471 by Parametric Technology Corporation
  0
SECTION
  2
HEADER
  9
$ACADVER
  1
AC1024
  9
$DWGCODEPAGE
  3
ANSI_1252
  9
$EXTMAX
 10
79.3710423487
 20
112.2533313217
 30
0.0
  9
$EXTMIN
 10
0.0
 20
0.0
 30
0.0
  9
$LIMMIN
 10
0.0
 20
0.0
  9
$LIMMAX
 10
79.3710423487
 20
112.2533313217
  9
$VIEWCTR
 10
39.6855211743
 20
56.1266656609
  9
$VIEWSIZE
 40
112.2533313217
  9
$CLAYER
  8
0
  9
$LTSCALE
 40
7.3172541899
  9
$CELTYPE
  6
BYLAYER
  9
$DIMSCALE
 40
1.0
  9
$DIMASZ
 40
0.9448933613
  9
$DIMEXO
 40
1.0
  9
$DIMDLI
 40
5.0555574403
  9
$DIMEXE
 40
1.0
  9
$DIMCEN
 40
1.1973688674
  9
$DIMLFAC
 40
1.0
  9
$DIMBLK
  1
_FILLED
  9
$DIMALT
 70
0
  9
$DIMALTF
 40
0.0393700787
  9
$DIMTXT
 40
1.3228507058
  9
$DIMTOL
 70
1
  9
$DIMLIM
 70
0
  9
$DIMTFAC
 40
1.0
  9
$DIMTP
 40
0.01
  9
$DIMTM
 40
0.01
  9
$DIMGAP
 40
0.625
  9
$DIMDSEP
 70
46
  9
$AUNITS
 70
0
  9
$PDMODE
 70
3
  9
$PDSIZE
 40
0.3125
  9
$HANDSEED
  5
304
  9
$TILEMODE
 70
1
  9
$MEASUREMENT
 70
1
  9
$INSUNITS
 70
4
  0
ENDSEC
  0
SECTION
  2
CLASSES
  0
CLASS
  1
ACDBDICTIONARYWDFLT
  2
AcDbDictionaryWithDefault
  3
AutoCAD 2000
 90
0
 91
1
280
0
281
0
  0
CLASS
  1
ACDBPLACEHOLDER
  2
AcDbPlaceHolder
  3
AutoCAD 2000
 90
0
 91
1
280
0
281
0
  0
CLASS
  1
LAYOUT
  2
AcDbLayout
  3
AutoCAD 2000
 90
0
 91
0
280
0
281
0
  0
ENDSEC
  0
SECTION
  2
TABLES
  0
TABLE
  2
VPORT
  5
8
100
AcDbSymbolTable
 70
2
  0
VPORT
  5
1F4
100
AcDbSymbolTableRecord
100
AcDbViewportTableRecord
  2
*ACTIVE
 70
0
 10
0.0
 20
0.0
 11
1.0
 21
1.0
 12
39.6855211743
 22
56.1266656609
 13
0.0
 23
0.0
 14
1.0
 24
1.0
 15
0.0
 25
0.0
 16
0.0
 26
0.0
 36
1.0
 17
0.0
 27
0.0
 37
0.0
 40
112.2533313217
 41
0.7070707071
 42
50.0
 43
0.0
 44
0.0
 50
0.0
 51
0.0
 71
0
 72
100
 73
1
 74
1
 75
0
 76
0
 77
0
 78
0
  0
ENDTAB
  0
TABLE
  2
LTYPE
  5
5
100
AcDbSymbolTable
 70
6
  0
LTYPE
  5
14
100
AcDbSymbolTableRecord
100
AcDbLinetypeTableRecord
  2
BYBLOCK
 70
0
  3

 72
65
 73
0
 40
0.0
  0
LTYPE
  5
15
100
AcDbSymbolTableRecord
100
AcDbLinetypeTableRecord
  2
BYLAYER
 70
0
  3

 72
65
 73
0
 40
0.0
  0
LTYPE
  5
16
100
AcDbSymbolTableRecord
100
AcDbLinetypeTableRecord
  2
CONTINUOUS
 70
64
  3
Solid line
 72
65
 73
0
 40
0.0
  0
LTYPE
  5
1F5
100
AcDbSymbolTableRecord
100
AcDbLinetypeTableRecord
  2
CENTER
 70
64
  3
____ _ ____ _ ____ _ ____ _ ____ _ ____ _ ____
 72
65
 73
4
 40
0.6
 49
0.375
 74
0
 49
-0.075
 74
0
 49
0.075
 74
0
 49
-0.075
 74
0
  0
LTYPE
  5
1F6
100
AcDbSymbolTableRecord
100
AcDbLinetypeTableRecord
  2
HIDDEN
 70
64
  3
- - - - - - - - - - - - - - - - - - - -
 72
65
 73
2
 40
0.2
 49
0.1
 74
0
 49
-0.1
 74
0
  0
LTYPE
  5
1F7
100
AcDbSymbolTableRecord
100
AcDbLinetypeTableRecord
  2
PHANTOM
 70
64
  3
_____ _ _ _____ _ _ _____ _ _ _____
 72
65
 73
6
 40
0.8
 49
0.45
 74
0
 49
-0.05
 74
0
 49
0.1
 74
0
 49
-0.05
 74
0
 49
0.1
 74
0
 49
-0.05
 74
0
  0
LTYPE
  5
1F8
100
AcDbSymbolTableRecord
100
AcDbLinetypeTableRecord
  2
DOT
 70
64
  3
. . . . . . . . . . . . . . . . . . . .
 72
65
 73
2
 40
0.2
 49
0.1
 74
0
 49
-0.1
 74
0
  0
LTYPE
  5
1F9
100
AcDbSymbolTableRecord
100
AcDbLinetypeTableRecord
  2
DASHED
 70
64
  3
- - - - - - - - - - - - - - - - - - - -
 72
65
 73
2
 40
0.2
 49
0.1
 74
0
 49
-0.1
 74
0
  0
ENDTAB
  0
TABLE
  2
LAYER
  5
2
100
AcDbSymbolTable
 70
36
  0
LAYER
  5
10
100
AcDbSymbolTableRecord
100
AcDbLayerTableRecord
  2
0
 70
0
 62
7
  6
CONTINUOUS
370
-3
390
F
  0
LAYER
  5
1FA
100
AcDbSymbolTableRecord
100
AcDbLayerTableRecord
  2
DEFAULT_1
 70
0
 62
7
  6
CENTER
370
-3
390
F
  0
LAYER
  5
1FB
100
AcDbSymbolTableRecord
100
AcDbLayerTableRecord
  2
DEFAULT_2
 70
0
 62
8
  6
HIDDEN
370
-3
390
F
  0
LAYER
  5
1FC
100
AcDbSymbolTableRecord
100
AcDbLayerTableRecord
  2
DEFAULT_3
 70
0
 62
7
  6
PHANTOM
370
-3
390
F
  0
LAYER
  5
1FD
100
AcDbSymbolTableRecord
100
AcDbLayerTableRecord
  2
00_COMPONENTS
 70
0
 62
7
  6
CONTINUOUS
370
-3
390
F
  0
LAYER
  5
1FE
100
AcDbSymbolTableRecord
100
AcDbLayerTableRecord
  2
01_1_DEFAULT_DATUMS
 70
0
 62
7
  6
CONTINUOUS
370
-3
390
F
  0
LAYER
  5
1FF
100
AcDbSymbolTableRecord
100
AcDbLayerTableRecord
  2
01_PLANES
 70
0
 62
7
  6
CONTINUOUS
370
-3
390
F
  0
LAYER
  5
200
100
AcDbSymbolTableRecord
100
AcDbLayerTableRecord
  2
02_COORD_SYS
 70
0
 62
7
  6
CONTINUOUS
370
-3
390
F
  0
LAYER
  5
201
100
AcDbSymbolTableRecord
100
AcDbLayerTableRecord
  2
03_AXES
 70
0
 62
7
  6
CONTINUOUS
370
-3
390
F
  0
LAYER
  5
202
100
AcDbSymbolTableRecord
100
AcDbLayerTableRecord
  2
04_POINTS
 70
0
 62
7
  6
CONTINUOUS
370
-3
390
F
  0
LAYER
  5
203
100
AcDbSymbolTableRecord
100
AcDbLayerTableRecord
  2
05_CURVES
 70
0
 62
7
  6
CONTINUOUS
370
-3
390
F
  0
LAYER
  5
204
100
AcDbSymbolTableRecord
100
AcDbLayerTableRecord
  2
06_SURFS
 70
0
 62
7
  6
CONTINUOUS
370
-3
390
F
  0
LAYER
  5
205
100
AcDbSymbolTableRecord
100
AcDbLayerTableRecord
  2
07_COSMETICS
 70
0
 62
7
  6
CONTINUOUS
370
-3
390
F
  0
LAYER
  5
206
100
AcDbSymbolTableRecord
100
AcDbLayerTableRecord
  2
10_NOTES
 70
0
 62
7
  6
CONTINUOUS
370
-3
390
F
  0
LAYER
  5
207
100
AcDbSymbolTableRecord
100
AcDbLayerTableRecord
  2
11_NOTES_PUB
 70
0
 62
7
  6
CONTINUOUS
370
-3
390
F
  0
LAYER
  5
208
100
AcDbSymbolTableRecord
100
AcDbLayerTableRecord
  2
13_REF_GTOL
 70
0
 62
7
  6
CONTINUOUS
370
-3
390
F
  0
LAYER
  5
209
100
AcDbSymbolTableRecord
100
AcDbLayerTableRecord
  2
16_MISC
 70
0
 62
7
  6
CONTINUOUS
370
-3
390
F
  0
LAYER
  5
20A
100
AcDbSymbolTableRecord
100
AcDbLayerTableRecord
  2
17_NO_PRINT
 70
0
 62
7
  6
CONTINUOUS
370
-3
390
F
  0
LAYER
  5
20B
100
AcDbSymbolTableRecord
100
AcDbLayerTableRecord
  2
18_DATUM_CAMS_JOINTS
 70
0
 62
7
  6
CONTINUOUS
370
-3
390
F
  0
LAYER
  5
20C
100
AcDbSymbolTableRecord
100
AcDbLayerTableRecord
  2
19_DATUM_FUNCTIONAL
 70
0
 62
7
  6
CONTINUOUS
370
-3
390
F
  0
LAYER
  5
20D
100
AcDbSymbolTableRecord
100
AcDbLayerTableRecord
  2
20_DATUM_KINEMATIC_SCHEME
 70
0
 62
7
  6
CONTINUOUS
370
-3
390
F
  0
ENDTAB
  0
TABLE
  2
STYLE
  5
3
100
AcDbSymbolTable
 70
1
  0
STYLE
  5
11
100
AcDbSymbolTableRecord
100
AcDbTextStyleTableRecord
  2
STANDARD
 70
0
 40
0.0
 41
0.8
 50
0.0
 71
0
 42
0.2
  3
txt
  4

  0
STYLE
  5
20E
100
AcDbSymbolTableRecord
100
AcDbTextStyleTableRecord
  2
TEXTSTYLE_1
 70
0
 40
0.0
 41
0.8
 50
0.0
 71
0
 42
0.2
  3
gdt
  4

  0
ENDTAB
  0
TABLE
  2
VIEW
  5
6
100
AcDbSymbolTable
 70
0
  0
ENDTAB
  0
TABLE
  2
UCS
  5
7
100
AcDbSymbolTable
 70
0
  0
ENDTAB
  0
TABLE
  2
APPID
  5
9
100
AcDbSymbolTable
 70
1
  0
APPID
  5
20F
100
AcDbSymbolTableRecord
100
AcDbRegAppTableRecord
  2
ACAD
 70
0
  0
ENDTAB
  0
TABLE
  2
BLOCK_RECORD
  5
1
100
AcDbSymbolTable
 70
0
  0
BLOCK_RECORD
  5
210
100
AcDbSymbolTableRecord
100
AcDbBlockTableRecord
  2
*Model_Space
  0
BLOCK_RECORD
  5
211
100
AcDbSymbolTableRecord
100
AcDbBlockTableRecord
  2
*Paper_Space
  0
BLOCK_RECORD
  5
212
100
AcDbSymbolTableRecord
100
AcDbBlockTableRecord
  2
_FILLED
  0
ENDTAB
  0
TABLE
  2
DIMSTYLE
  5
A
100
AcDbSymbolTable
 70
1
100
AcDbDimStyleTable
 71
0
  0
DIMSTYLE
105
213
100
AcDbSymbolTableRecord
100
AcDbDimStyleTableRecord
  2
STANDARD
 70
0
  3

  4

 40
1.0
 41
0.9448933613
 42
1.0
 43
0.38
 44
1.0
 45
0.0
 46
0.0
 47
0.01
 48
0.01
140
1.3228507058
141
0.09
142
0.0
143
25.4
144
1.0
145
0.0
146
1.0
147
0.625
 71
1
 72
0
 73
0
 74
0
 75
0
 76
0
 77
1
 78
8
 79
2
170
0
171
1
172
0
173
0
174
0
175
0
176
0
177
0
178
0
270
2
179
2
271
2
272
2
273
2
274
2
275
0
280
0
281
0
282
0
283
1
284
8
285
0
286
0
287
3
288
0
340
11
278
46
341
212
342
212
343
212
344
212
  0
ENDTAB
  0
ENDSEC
  0
SECTION
  2
BLOCKS
  0
BLOCK
  5
20
100
AcDbEntity
  8
0
100
AcDbBlockBegin
  2
*Model_Space
 70
0
 10
0.0
 20
0.0
 30
0.0
  3
*Model_Space
  1

  0
ENDBLK
  5
21
100
AcDbEntity
  8
0
100
AcDbBlockEnd
  0
BLOCK
  5
1C
100
AcDbEntity
  8
0
100
AcDbBlockBegin
  2
*Paper_Space
 70
0
 10
0.0
 20
0.0
 30
0.0
  3
*Paper_Space
  1

  0
ENDBLK
  5
1D
100
AcDbEntity
  8
0
100
AcDbBlockEnd
  0
BLOCK
  5
214
100
AcDbEntity
  8
0
100
AcDbBlockBegin
  2
_FILLED
 70
64
 10
0.0
 20
0.0
  3
_FILLED
  1

  0
SOLID
  5
215
100
AcDbEntity
  8
0
  6
BYBLOCK
 62
0
100
AcDbTrace
 10
0.0
 20
0.0
 11
-1.0
 21
0.25
 12
-1.0
 22
-0.25
 13
-1.0
 23
-0.25
  0
ENDBLK
  5
216
100
AcDbEntity
  8
0
  6
BYBLOCK
 62
0
100
AcDbBlockEnd
  0
ENDSEC
  0
SECTION
  2
ENTITIES
  0
LINE
  5
217
100
AcDbEntity
  8
0
100
AcDbLine
 62
7
  6
CONTINUOUS
 10
24.0905383795
 20
17.1372140029
 11
25.4694023435
 21
16.3411445316
  0
LINE
  5
218
100
AcDbEntity
  8
0
100
AcDbLine
 62
7
  6
CONTINUOUS
 10
35.156805578
 20
10.7482461947
 11
36.5356695421
 21
9.9521767234
  0
LINE
  5
219
100
AcDbEntity
  8
0
100
AcDbLine
 62
7
  6
CONTINUOUS
 10
21.440952343
 20
21.1840237443
 11
23.4748445071
 21
20.0886877645
  0
LINE
  5
21A
100
AcDbEntity
  8
0
100
AcDbLine
 62
7
  6
CONTINUOUS
 10
25.0680315001
 20
20.1116504494
 11
25.4106152115
 21
19.9271547953
  0
LINE
  5
21B
100
AcDbEntity
  8
0
100
AcDbLine
 62
7
  6
CONTINUOUS
 10
26.0207828607
 20
19.5985540013
 11
26.3633665721
 21
19.4140583473
  0
LINE
  5
21C
100
AcDbEntity
  8
0
100
AcDbLine
 62
7
  6
CONTINUOUS
 10
38.5155602863
 20
11.0952603542
 11
40.5802456409
 21
9.903240676
  0
LINE
  5
21D
100
AcDbEntity
  8
0
100
AcDbLine
 62
7
  6
CONTINUOUS
 10
13.0496808581
 20
25.9381347572
 11
25.4948120207
 21
18.7530974776
  0
LINE
  5
21E
100
AcDbEntity
  8
0
100
AcDbLine
 62
7
  6
CONTINUOUS
 10
9.207954098
 20
28.2465887975
 11
21.440952343
 21
21.1840237443
  0
LINE
  5
21F
100
AcDbEntity
  8
0
100
AcDbLine
 62
7
  6
CONTINUOUS
 10
23.694398346
 20
20.4689682796
 11
25.0805873792
 21
19.6686697733
  0
LINE
  5
220
100
AcDbEntity
  8
0
100
AcDbLine
 62
7
  6
CONTINUOUS
 10
22.2395925995
 20
21.7446134674
 11
25.0680315001
 21
20.1116504494
  0
LINE
  5
221
100
AcDbEntity
  8
0
100
AcDbLine
 62
7
  6
CONTINUOUS
 10
26.0207828607
 20
19.5985540013
 11
25.4208652393
 21
19.9449087659
  0
LINE
  5
222
100
AcDbEntity
  8
0
100
AcDbLine
 62
7
  6
CONTINUOUS
 10
39.9863485146
 20
11.7158239357
 11
38.5155602863
 21
12.5649647051
  0
LINE
  5
223
100
AcDbEntity
  8
0
100
AcDbLine
 62
7
  6
CONTINUOUS
 10
25.365787483
 20
20.6393443853
 11
22.5373485824
 21
22.2723074034
  0
LINE
  5
224
100
AcDbEntity
  8
0
100
AcDbLine
 62
7
  6
CONTINUOUS
 10
40.6581027535
 20
11.9403720317
 11
40.5166808084
 21
12.0220201826
  0
LINE
  5
225
100
AcDbEntity
  8
0
100
AcDbLine
 62
7
  6
CONTINUOUS
 10
28.9094510301
 20
19.9193979116
 11
30.2883149941
 21
19.1233284403
  0
LINE
  5
226
100
AcDbEntity
  8
0
100
AcDbLine
 62
7
  6
CONTINUOUS
 10
23.1149983466
 20
23.2960392349
 11
25.9434372472
 21
21.6630762168
  0
LINE
  5
227
100
AcDbEntity
  8
0
100
AcDbLine
 62
7
  6
CONTINUOUS
 10
34.4437938205
 20
22.5499933638
 11
34.2600215692
 21
22.5447704909
  0
LINE
  5
228
100
AcDbEntity
  8
0
100
AcDbLine
 62
7
  6
CONTINUOUS
 10
55.3897022507
 20
19.531088739
 11
53.268390739
 21
19.6127601448
  0
LINE
  5
229
100
AcDbEntity
  8
0
100
AcDbLine
 62
7
  6
CONTINUOUS
 10
25.0805873792
 20
24.439857674
 11
24.2590699614
 21
24.7368382551
  0
LINE
  5
22A
100
AcDbEntity
  8
0
100
AcDbLine
 62
7
  6
CONTINUOUS
 10
27.5365283021
 20
21.4931780507
 11
27.1939445907
 21
21.6776737048
  0
LINE
  5
22B
100
AcDbEntity
  8
0
100
AcDbLine
 62
7
  6
CONTINUOUS
 10
26.5837769415
 20
22.0062744987
 11
26.2411932301
 21
22.1907701528
  0
LINE
  5
22C
100
AcDbEntity
  8
0
100
AcDbLine
 62
7
  6
CONTINUOUS
 10
24.4833380934
 20
24.1454797848
 11
24.5496684287
 21
24.1084726409
  0
LINE
  5
22D
100
AcDbEntity
  8
0
100
AcDbLine
 62
7
  6
CONTINUOUS
 10
23.4127543295
 20
23.8237331709
 11
26.2411932301
 21
22.1907701528
  0
LINE
  5
22E
100
AcDbEntity
  8
0
100
AcDbLine
 62
7
  6
CONTINUOUS
 10
26.5837769415
 20
22.0062744987
 11
23.7553380409
 21
23.6392375168
  0
LINE
  5
22F
100
AcDbEntity
  8
0
100
AcDbLine
 62
7
  6
CONTINUOUS
 10
24.3655056901
 20
23.3106367229
 11
27.1939445907
 21
21.6776737048
  0
LINE
  5
230
100
AcDbEntity
  8
0
100
AcDbLine
 62
7
  6
CONTINUOUS
 10
24.7080894015
 20
23.1261410688
 11
27.5365283021
 21
21.4931780507
  0
LINE
  5
231
100
AcDbEntity
  8
0
100
AcDbLine
 62
7
  6
CONTINUOUS
 10
23.3127558036
 20
24.5773056262
 11
19.9186291229
 21
26.5368612479
  0
LINE
  5
232
100
AcDbEntity
  8
0
100
AcDbLine
 62
7
  6
CONTINUOUS
 10
11.0797575586
 20
31.6398706794
 11
13.342508679
 21
30.333500265
  0
LINE
  5
233
100
AcDbEntity
  8
0
100
AcDbLine
 62
7
  6
CONTINUOUS
 10
42.8147638634
 20
13.3488005511
 11
41.3439756351
 21
14.1979413205
  0
LINE
  5
234
100
AcDbEntity
  8
0
100
AcDbLine
 62
7
  6
CONTINUOUS
 10
23.8154671472
 20
24.7037496892
 11
25.3132360482
 21
23.8390319735
  0
LINE
  5
235
100
AcDbEntity
  8
0
100
AcDbLine
 62
7
  6
CONTINUOUS
 10
23.7444571014
 20
24.7807346465
 11
20.3503304206
 21
26.7402902682
  0
LINE
  5
236
100
AcDbEntity
  8
0
100
AcDbLine
 62
7
  6
CONTINUOUS
 10
13.5318946664
 20
30.67682693
 11
11.5114588563
 21
31.8432996997
  0
LINE
  5
237
100
AcDbEntity
  8
0
100
AcDbLine
 62
7
  6
CONTINUOUS
 10
43.4865181023
 20
13.5733486472
 11
43.3450961573
 21
13.6549967981
  0
LINE
  5
238
100
AcDbEntity
  8
0
100
AcDbLine
 62
7
  6
CONTINUOUS
 10
11.8139334951
 20
31.9218663507
 11
13.6378267361
 21
30.8688649191
  0
LINE
  5
239
100
AcDbEntity
  8
0
100
AcDbLine
 62
7
  6
CONTINUOUS
 10
21.5720477022
 20
26.2881439383
 11
24.2590646577
 21
24.7368290711
  0
LINE
  5
23A
100
AcDbEntity
  8
0
100
AcDbLine
 62
7
  6
CONTINUOUS
 10
20.219492735
 20
28.8056195293
 11
14.3643814945
 21
32.1859931059
  0
LINE
  5
23B
100
AcDbEntity
  8
0
100
AcDbLine
 62
7
  6
CONTINUOUS
 10
13.8375488823
 20
33.2967743425
 11
20.0708833029
 21
29.6980384511
  0
LINE
  5
23C
100
AcDbEntity
  8
0
100
AcDbLine
 62
7
  6
CONTINUOUS
 10
13.5547135792
 20
34.0389856857
 11
13.6997080602
 21
33.7185629236
  0
LINE
  5
23D
100
AcDbEntity
  8
0
100
AcDbLine
 62
7
  6
CONTINUOUS
 10
57.7475812271
 20
102.6240463048
 11
28.9094510301
 21
85.9744434574
  0
LINE
  5
23E
100
AcDbEntity
  8
0
100
AcDbLine
 62
7
  6
CONTINUOUS
 10
26.0704291237
 20
84.3353431796
 11
24.0905383795
 21
83.1922595487
  0
LINE
  5
23F
100
AcDbEntity
  8
0
100
AcDbLine
 62
7
  6
CONTINUOUS
 10
39.6468298637
 20
91.1938490438
 11
50.9832567778
 21
97.7388991057
  0
LINE
  5
240
100
AcDbEntity
  8
0
100
AcDbLine
 62
7
  6
CONTINUOUS
 10
28.9094510301
 20
84.3618511835
 11
27.4669949639
 21
83.5290537565
  0
LINE
  5
241
100
AcDbEntity
  8
0
100
AcDbLine
 62
7
  6
CONTINUOUS
 10
33.575322039
 20
22.9400730061
 11
34.2600215692
 21
22.5447704909
  0
LINE
  5
242
100
AcDbEntity
  8
0
100
AcDbLine
 62
7
  6
CONTINUOUS
 10
35.156805578
 20
22.1383451463
 11
34.3789539687
 21
22.5874278228
  0
LINE
  5
243
100
AcDbEntity
  8
0
100
AcDbLine
 62
7
  6
CONTINUOUS
 10
13.7936980441
 20
34.7364104505
 11
20.2757136926
 21
30.9941016332
  0
LINE
  5
244
100
AcDbEntity
  8
0
100
AcDbLine
 62
7
  6
CONTINUOUS
 10
46.6825981246
 20
17.4026259028
 11
48.0614620887
 21
16.6065564315
  0
LINE
  5
245
100
AcDbEntity
  8
0
100
AcDbLine
 62
7
  6
CONTINUOUS
 10
12.6354562166
 20
60.2486559134
 11
12.6354562166
 21
41.5969269215
  0
LINE
  5
246
100
AcDbEntity
  8
0
100
AcDbLine
 62
7
  6
CONTINUOUS
 10
12.6354562166
 20
31.4475707163
 11
12.6354562166
 21
31.1943742018
  0
LINE
  5
247
100
AcDbEntity
  8
0
100
AcDbLine
 62
7
  6
CONTINUOUS
 10
32.4449996558
 20
83.9332396848
 11
29.6059777494
 21
82.294139407
  0
LINE
  5
248
100
AcDbEntity
  8
0
100
AcDbLine
 62
7
  6
CONTINUOUS
 10
55.9683803401
 20
94.8608017863
 11
44.631953426
 21
88.3157517245
  0
LINE
  5
249
100
AcDbEntity
  8
0
100
AcDbLine
 62
7
  6
CONTINUOUS
 10
12.6354562166
 20
41.5969269215
 11
15.3224731722
 21
40.0456120544
  0
LINE
  5
24A
100
AcDbEntity
  8
0
100
AcDbLine
 62
7
  6
CONTINUOUS
 10
22.3935704237
 20
35.9632045092
 11
25.0805873792
 21
34.411889642
  0
LINE
  5
24B
100
AcDbEntity
  8
0
100
AcDbLine
 62
7
  6
CONTINUOUS
 10
15.3224731722
 20
40.6033857403
 11
22.3935704237
 21
36.5209781951
  0
LINE
  5
24C
100
AcDbEntity
  8
0
100
AcDbLine
 62
7
  6
CONTINUOUS
 10
40.6581027535
 20
11.9403720317
 11
41.3439991869
 21
10.9898089868
  0
LINE
  5
24D
100
AcDbEntity
  8
0
100
AcDbLine
 62
7
  6
CONTINUOUS
 10
15.3224731722
 20
40.0456120544
 11
15.3224731722
 21
40.6033857403
  0
LINE
  5
24E
100
AcDbEntity
  8
0
100
AcDbLine
 62
7
  6
CONTINUOUS
 10
45.3390631512
 20
87.9075109699
 11
56.6754900653
 21
94.4525610318
  0
LINE
  5
24F
100
AcDbEntity
  8
0
100
AcDbLine
 62
7
  6
CONTINUOUS
 10
44.1724145357
 20
12.6227856023
 11
43.4865181023
 21
13.5733486472
  0
LINE
  5
250
100
AcDbEntity
  8
0
100
AcDbLine
 62
7
  6
CONTINUOUS
 10
69.5390426844
 20
95.816396868
 11
61.9261865649
 21
91.4211385742
  0
LINE
  5
251
100
AcDbEntity
  8
0
100
AcDbLine
 62
7
  6
CONTINUOUS
 10
50.5897596508
 20
84.8760885124
 11
40.6903059298
 21
79.1606703582
  0
LINE
  5
252
100
AcDbEntity
  8
0
100
AcDbLine
 62
7
  6
CONTINUOUS
 10
37.8618905809
 20
77.5276937427
 11
35.8819998367
 21
76.3846101119
  0
LINE
  5
253
100
AcDbEntity
  8
0
100
AcDbLine
 62
7
  6
CONTINUOUS
 10
24.0905383795
 20
68.4952160404
 11
14.0496638911
 21
62.6981490554
  0
LINE
  5
254
100
AcDbEntity
  8
0
100
AcDbLine
 62
7
  6
CONTINUOUS
 10
25.3132360482
 20
23.8390319735
 11
25.3574162742
 21
23.3494158149
  0
LINE
  5
255
100
AcDbEntity
  8
0
100
AcDbLine
 62
7
  6
CONTINUOUS
 10
22.3935704237
 20
25.8138483039
 11
22.3935704237
 21
25.5606517894
  0
LINE
  5
256
100
AcDbEntity
  8
0
100
AcDbLine
 62
7
  6
CONTINUOUS
 10
22.3935704237
 20
35.9632045092
 11
22.3935704237
 21
36.5209781951
  0
LINE
  5
257
100
AcDbEntity
  8
0
100
AcDbLine
 62
7
  6
CONTINUOUS
 10
24.0905383795
 20
83.1922595487
 11
24.0905383795
 21
68.4952160404
  0
LINE
  5
258
100
AcDbEntity
  8
0
100
AcDbLine
 62
7
  6
CONTINUOUS
 10
24.0905383795
 20
19.563836901
 11
24.0905383795
 21
17.1372140029
  0
LINE
  5
259
100
AcDbEntity
  8
0
100
AcDbLine
 62
7
  6
CONTINUOUS
 10
25.0805873792
 20
53.0636186339
 11
25.0805873792
 21
34.411889642
  0
LINE
  5
25A
100
AcDbEntity
  8
0
100
AcDbLine
 62
7
  6
CONTINUOUS
 10
25.0805873792
 20
24.439857674
 11
25.0805873792
 21
23.9733487066
  0
LINE
  5
25B
100
AcDbEntity
  8
0
100
AcDbLine
 62
7
  6
CONTINUOUS
 10
25.0805873792
 20
20.1116504494
 11
25.0805873792
 21
19.6686697733
  0
LINE
  5
25C
100
AcDbEntity
  8
0
100
AcDbLine
 62
7
  6
CONTINUOUS
 10
25.4694023435
 20
16.3411445316
 11
25.4694023435
 21
18.7530974776
  0
LINE
  5
25D
100
AcDbEntity
  8
0
100
AcDbLine
 62
7
  6
CONTINUOUS
 10
40.7622429509
 20
75.853212403
 11
43.5906582997
 21
77.4861890185
  0
LINE
  5
25E
100
AcDbEntity
  8
0
100
AcDbLine
 62
7
  6
CONTINUOUS
 10
70.6228635118
 20
92.8704220699
 11
61.9261920078
 21
87.8494264073
  0
LINE
  5
25F
100
AcDbEntity
  8
0
100
AcDbLine
 62
7
  6
CONTINUOUS
 10
51.2434293561
 20
81.6817673306
 11
43.6612594503
 21
77.3042256248
  0
LINE
  5
260
100
AcDbEntity
  8
0
100
AcDbLine
 62
7
  6
CONTINUOUS
 10
39.5939212515
 20
74.9559608381
 11
36.5356695421
 21
73.1902889301
  0
LINE
  5
261
100
AcDbEntity
  8
0
100
AcDbLine
 62
7
  6
CONTINUOUS
 10
54.2787211031
 20
82.7400385096
 11
51.2434293561
 21
80.9876224629
  0
LINE
  5
262
100
AcDbEntity
  8
0
100
AcDbLine
 62
7
  6
CONTINUOUS
 10
44.1724145357
 20
75.986803553
 11
40.2833345991
 21
73.7414344436
  0
LINE
  5
263
100
AcDbEntity
  8
0
100
AcDbLine
 62
7
  6
CONTINUOUS
 10
34.2600215692
 20
22.5447704909
 11
34.061460239
 21
23.2207433514
  0
LINE
  5
264
100
AcDbEntity
  8
0
100
AcDbLine
 62
7
  6
CONTINUOUS
 10
27.4492930877
 20
17.4842281625
 11
27.4492930877
 21
19.0968204363
  0
LINE
  5
265
100
AcDbEntity
  8
0
100
AcDbLine
 62
7
  6
CONTINUOUS
 10
28.9094510301
 20
85.9744434574
 11
28.9094510301
 21
84.3618511835
  0
LINE
  5
266
100
AcDbEntity
  8
0
100
AcDbLine
 62
7
  6
CONTINUOUS
 10
28.9094510301
 20
19.9398379853
 11
28.9094510301
 21
19.9193979116
  0
LINE
  5
267
100
AcDbEntity
  8
0
100
AcDbLine
 62
7
  6
CONTINUOUS
 10
11.0797575586
 20
31.6398706794
 11
9.207954098
 21
28.2465887975
  0
LINE
  5
268
100
AcDbEntity
  8
0
100
AcDbLine
 62
7
  6
CONTINUOUS
 10
14.3643814945
 20
32.1859931059
 11
13.342508679
 21
30.333500265
  0
LINE
  5
269
100
AcDbEntity
  8
0
100
AcDbLine
 62
7
  6
CONTINUOUS
 10
30.2883149941
 20
19.1233284403
 11
30.2883149941
 21
20.7359207141
  0
LINE
  5
26A
100
AcDbEntity
  8
0
100
AcDbLine
 62
7
  6
CONTINUOUS
 10
60.1830873081
 20
79.3312282093
 11
51.2434293561
 21
74.169945093
  0
LINE
  5
26B
100
AcDbEntity
  8
0
100
AcDbLine
 62
7
  6
CONTINUOUS
 10
25.0805873792
 20
53.0636186339
 11
12.6354562166
 21
60.2486559134
  0
LINE
  5
26C
100
AcDbEntity
  8
0
100
AcDbLine
 62
7
  6
CONTINUOUS
 10
14.0496638911
 20
62.6981490554
 11
26.4947950536
 21
55.5131117759
  0
LINE
  5
26D
100
AcDbEntity
  8
0
100
AcDbLine
 62
7
  6
CONTINUOUS
 10
34.3789539687
 20
22.5874278228
 11
34.3789539687
 21
23.4040473476
  0
LINE
  5
26E
100
AcDbEntity
  8
0
100
AcDbLine
 62
7
  6
CONTINUOUS
 10
35.156805578
 20
22.2609302762
 11
35.156805578
 21
10.7482461947
  0
LINE
  5
26F
100
AcDbEntity
  8
0
100
AcDbLine
 62
7
  6
CONTINUOUS
 10
36.5356695421
 20
73.1902889301
 11
36.5356695421
 21
61.3101787608
  0
LINE
  5
270
100
AcDbEntity
  8
0
100
AcDbLine
 62
7
  6
CONTINUOUS
 10
36.5356695421
 20
24.6492202317
 11
36.5356695421
 21
9.9521767234
  0
LINE
  5
271
100
AcDbEntity
  8
0
100
AcDbLine
 62
7
  6
CONTINUOUS
 10
19.9186291229
 20
26.5368612479
 11
20.4724996558
 21
27.5409404067
  0
LINE
  5
272
100
AcDbEntity
  8
0
100
AcDbLine
 62
7
  6
CONTINUOUS
 10
36.5356695421
 20
61.3101787608
 11
26.4947950536
 21
55.5131117759
  0
LINE
  5
273
100
AcDbEntity
  8
0
100
AcDbLine
 62
7
  6
CONTINUOUS
 10
67.5068176121
 20
72.7017452467
 11
66.251535951
 21
72.2325967051
  0
LINE
  5
274
100
AcDbEntity
  8
0
100
AcDbLine
 62
7
  6
CONTINUOUS
 10
69.3453028974
 20
71.6403192849
 11
68.0900212363
 21
71.1711707433
  0
LINE
  5
275
100
AcDbEntity
  8
0
100
AcDbLine
 62
7
  6
CONTINUOUS
 10
68.6022947457
 20
70.7619820763
 11
69.3453052526
 21
71.0396745707
  0
LINE
  5
276
100
AcDbEntity
  8
0
100
AcDbLine
 62
7
  6
CONTINUOUS
 10
33.4530290646
 20
55.0428901062
 11
32.3216535043
 21
55.6960753134
  0
LINE
  5
277
100
AcDbEntity
  8
0
100
AcDbLine
 62
7
  6
CONTINUOUS
 10
38.5155602863
 20
12.5649647051
 11
38.5155602863
 21
11.0952603542
  0
LINE
  5
278
100
AcDbEntity
  8
0
100
AcDbLine
 62
7
  6
CONTINUOUS
 10
21.440952343
 20
21.1840237443
 11
23.3127558036
 21
24.5773056262
  0
LINE
  5
279
100
AcDbEntity
  8
0
100
AcDbLine
 62
7
  6
CONTINUOUS
 10
22.2894759508
 20
25.8739459163
 11
22.1798384803
 21
25.6840471929
  0
LINE
  5
27A
100
AcDbEntity
  8
0
100
AcDbLine
 62
7
  6
CONTINUOUS
 10
67.5068176121
 20
75.1495857356
 11
70.1938121935
 21
76.7009135203
  0
LINE
  5
27B
100
AcDbEntity
  8
0
100
AcDbLine
 62
7
  6
CONTINUOUS
 10
69.3453052526
 20
68.3989965393
 11
68.2112172183
 21
67.9751428626
  0
LINE
  5
27C
100
AcDbEntity
  8
0
100
AcDbLine
 62
7
  6
CONTINUOUS
 10
67.6007138747
 20
67.6843405183
 11
69.3453028974
 21
68.3363626271
  0
LINE
  5
27D
100
AcDbEntity
  8
0
100
AcDbLine
 62
7
  6
CONTINUOUS
 10
37.1900618166
 20
56.9743039103
 11
36.0586862564
 21
57.6274891175
  0
LINE
  5
27E
100
AcDbEntity
  8
0
100
AcDbLine
 62
7
  6
CONTINUOUS
 10
35.8819998367
 20
76.3846101119
 11
36.5356695421
 21
73.1902889301
  0
LINE
  5
27F
100
AcDbEntity
  8
0
100
AcDbLine
 62
7
  6
CONTINUOUS
 10
46.2959286853
 20
21.588496574
 11
46.6825981246
 21
17.4026259028
  0
LINE
  5
280
100
AcDbEntity
  8
0
100
AcDbLine
 62
7
  6
CONTINUOUS
 10
48.0614620887
 20
16.6065564315
 11
47.54923702
 21
22.1516232874
  0
LINE
  5
281
100
AcDbEntity
  8
0
100
AcDbLine
 62
7
  6
CONTINUOUS
 10
40.0482125994
 20
73.8771791225
 11
39.9863485146
 21
74.7293979776
  0
LINE
  5
282
100
AcDbEntity
  8
0
100
AcDbLine
 62
7
  6
CONTINUOUS
 10
42.7581833096
 20
19.3879468122
 11
42.7581833096
 21
13.5447252775
  0
LINE
  5
283
100
AcDbEntity
  8
0
100
AcDbLine
 62
7
  6
CONTINUOUS
 10
50.9832567778
 20
97.7388991057
 11
49.6475311498
 21
91.2114795883
  0
LINE
  5
284
100
AcDbEntity
  8
0
100
AcDbLine
 62
7
  6
CONTINUOUS
 10
23.4127543295
 20
23.8237331709
 11
23.1149983466
 21
23.2960392349
  0
LINE
  5
285
100
AcDbEntity
  8
0
100
AcDbLine
 62
7
  6
CONTINUOUS
 10
22.5373485824
 20
22.2723074034
 11
22.2395925995
 21
21.7446134674
  0
LINE
  5
286
100
AcDbEntity
  8
0
100
AcDbLine
 62
7
  6
CONTINUOUS
 10
25.3574162742
 20
23.3494158149
 11
25.0984070408
 21
22.9007961727
  0
LINE
  5
287
100
AcDbEntity
  8
0
100
AcDbLine
 62
7
  6
CONTINUOUS
 10
23.8830759882
 20
20.7957693563
 11
23.4748445071
 21
20.0886877645
  0
LINE
  5
288
100
AcDbEntity
  8
0
100
AcDbLine
 62
7
  6
CONTINUOUS
 10
67.6007138747
 20
67.6843405183
 11
68.2112172183
 21
67.9751428626
  0
LINE
  5
289
100
AcDbEntity
  8
0
100
AcDbLine
 62
7
  6
CONTINUOUS
 10
38.2122594951
 20
59.4535003105
 11
37.8346511922
 21
59.5081065052
  0
LINE
  5
28A
100
AcDbEntity
  8
0
100
AcDbLine
 62
7
  6
CONTINUOUS
 10
24.0905383795
 20
68.4952160404
 11
36.5356695421
 21
61.3101787608
  0
LINE
  5
28B
100
AcDbEntity
  8
0
100
AcDbLine
 62
7
  6
CONTINUOUS
 10
38.2266193296
 20
75.7453551123
 11
37.8618905809
 21
77.5276937427
  0
LINE
  5
28C
100
AcDbEntity
  8
0
100
AcDbLine
 62
7
  6
CONTINUOUS
 10
26.2411932301
 20
22.1907701528
 11
25.9434372472
 21
21.6630762168
  0
LINE
  5
28D
100
AcDbEntity
  8
0
100
AcDbLine
 62
7
  6
CONTINUOUS
 10
25.365787483
 20
20.6393443853
 11
25.0680315001
 21
20.1116504494
  0
LINE
  5
28E
100
AcDbEntity
  8
0
100
AcDbLine
 62
7
  6
CONTINUOUS
 10
26.3633665721
 20
19.4140583473
 11
26.6502983226
 21
19.9225691867
  0
LINE
  5
28F
100
AcDbEntity
  8
0
100
AcDbLine
 62
7
  6
CONTINUOUS
 10
27.2495965515
 20
20.9846672113
 11
27.5365283021
 21
21.4931780507
  0
LINE
  5
290
100
AcDbEntity
  8
0
100
AcDbLine
 62
7
  6
CONTINUOUS
 10
67.5068176121
 20
46.9802209826
 11
68.9210252865
 21
46.1637358181
  0
LINE
  5
291
100
AcDbEntity
  8
0
100
AcDbLine
 62
7
  6
CONTINUOUS
 10
67.5068176121
 20
48.204890976
 11
71.3958887167
 21
45.9595855224
  0
LINE
  5
292
100
AcDbEntity
  8
0
100
AcDbLine
 62
7
  6
CONTINUOUS
 10
40.7622429509
 20
75.853212403
 11
41.3439991869
 21
74.3538269375
  0
LINE
  5
293
100
AcDbEntity
  8
0
100
AcDbLine
 62
7
  6
CONTINUOUS
 10
51.2434293561
 20
74.169945093
 11
51.2434293561
 21
81.6817673306
  0
LINE
  5
294
100
AcDbEntity
  8
0
100
AcDbLine
 62
7
  6
CONTINUOUS
 10
56.6754900653
 20
94.4525610318
 11
54.2787211031
 21
82.7400385096
  0
LINE
  5
295
100
AcDbEntity
  8
0
100
AcDbLine
 62
7
  6
CONTINUOUS
 10
11.5114588563
 20
31.8432996997
 11
11.0797575586
 21
31.6398706794
  0
LINE
  5
296
100
AcDbEntity
  8
0
100
AcDbLine
 62
7
  6
CONTINUOUS
 10
44.1724145357
 20
75.986803553
 11
43.5906582997
 21
77.4861890185
  0
LINE
  5
297
100
AcDbEntity
  8
0
100
AcDbLine
 62
7
  6
CONTINUOUS
 10
60.1830873081
 20
79.3312282093
 11
61.9261920078
 21
87.8494264073
  0
LINE
  5
298
100
AcDbEntity
  8
0
100
AcDbLine
 62
7
  6
CONTINUOUS
 10
40.0482125994
 20
73.8771791225
 11
40.2833345992
 21
73.7414344436
  0
LINE
  5
299
100
AcDbEntity
  8
0
100
AcDbLine
 62
7
  6
CONTINUOUS
 10
24.0905383795
 20
83.1922595487
 11
35.8819998367
 21
76.3846101119
  0
LINE
  5
29A
100
AcDbEntity
  8
0
100
AcDbLine
 62
7
  6
CONTINUOUS
 10
20.3503304206
 20
26.7402902682
 11
19.9186291229
 21
26.5368612479
  0
LINE
  5
29B
100
AcDbEntity
  8
0
100
AcDbLine
 62
7
  6
CONTINUOUS
 10
38.2266193296
 20
75.7453551123
 11
39.9863485146
 21
74.7293979776
  0
LINE
  5
29C
100
AcDbEntity
  8
0
100
AcDbLine
 62
7
  6
CONTINUOUS
 10
40.7622429509
 20
75.853212403
 11
37.8618905809
 21
77.5276937427
  0
LINE
  5
29D
100
AcDbEntity
  8
0
100
AcDbLine
 62
7
  6
CONTINUOUS
 10
26.0704291237
 20
84.3353431796
 11
29.6059777494
 21
82.294139407
  0
LINE
  5
29E
100
AcDbEntity
  8
0
100
AcDbLine
 62
7
  6
CONTINUOUS
 10
28.9094510301
 20
84.3618511835
 11
31.0484338157
 21
83.126936834
  0
LINE
  5
29F
100
AcDbEntity
  8
0
100
AcDbLine
 62
7
  6
CONTINUOUS
 10
51.2434293561
 20
81.6817673306
 11
50.5897596508
 21
84.8760885124
  0
LINE
  5
2A0
100
AcDbEntity
  8
0
100
AcDbLine
 62
7
  6
CONTINUOUS
 10
61.9261865649
 20
91.4211385742
 11
61.9261920078
 21
87.8494264073
  0
LINE
  5
2A1
100
AcDbEntity
  8
0
100
AcDbLine
 62
7
  6
CONTINUOUS
 10
70.4981820272
 20
77.6114926522
 11
70.1938121935
 21
76.7009135203
  0
LINE
  5
2A2
100
AcDbEntity
  8
0
100
AcDbLine
 62
7
  6
CONTINUOUS
 10
68.5674733679
 20
46.3678649498
 11
67.5068176121
 21
45.755498719
  0
LINE
  5
2A3
100
AcDbEntity
  8
0
100
AcDbLine
 62
7
  6
CONTINUOUS
 10
23.3127558036
 20
24.5773056262
 11
23.7444571014
 21
24.7807346465
  0
LINE
  5
2A4
100
AcDbEntity
  8
0
100
AcDbLine
 62
7
  6
CONTINUOUS
 10
40.6903059298
 20
79.1606703582
 11
43.5906582998
 21
77.4861890185
  0
LINE
  5
2A5
100
AcDbEntity
  8
0
100
AcDbLine
 62
7
  6
CONTINUOUS
 10
28.9094510301
 20
85.9744434574
 11
32.4449996558
 21
83.9332396848
  0
LINE
  5
2A6
100
AcDbEntity
  8
0
100
AcDbLine
 62
7
  6
CONTINUOUS
 10
64.3955607283
 20
24.7305925185
 11
64.3955607283
 21
26.0369963859
  0
LINE
  5
2A7
100
AcDbEntity
  8
0
100
AcDbLine
 62
7
  6
CONTINUOUS
 10
66.251535951
 20
72.2325967051
 11
65.7622285893
 21
68.7457664801
  0
LINE
  5
2A8
100
AcDbEntity
  8
0
100
AcDbLine
 62
7
  6
CONTINUOUS
 10
68.0900212363
 20
71.1711707433
 11
67.6007138747
 21
67.6843405183
  0
LINE
  5
2A9
100
AcDbEntity
  8
0
100
AcDbLine
 62
7
  6
CONTINUOUS
 10
68.2112172183
 20
67.9751428626
 11
68.6022947457
 21
70.7619820763
  0
LINE
  5
2AA
100
AcDbEntity
  8
0
100
AcDbLine
 62
7
  6
CONTINUOUS
 10
71.3958887167
 20
45.9595855224
 11
68.9210252865
 21
44.5307309839
  0
LINE
  5
2AB
100
AcDbEntity
  8
0
100
AcDbLine
 62
7
  6
CONTINUOUS
 10
26.4947950536
 20
18.8521532467
 11
36.5356695421
 21
24.6492202317
  0
LINE
  5
2AC
100
AcDbEntity
  8
0
100
AcDbLine
 62
7
  6
CONTINUOUS
 10
27.4492930877
 20
19.0968204363
 11
30.2883149941
 21
20.7359207141
  0
LINE
  5
2AD
100
AcDbEntity
  8
0
100
AcDbLine
 62
7
  6
CONTINUOUS
 10
65.7622285893
 20
68.7457664801
 11
67.6007138747
 21
67.6843405183
  0
LINE
  5
2AE
100
AcDbEntity
  8
0
100
AcDbLine
 62
7
  6
CONTINUOUS
 10
67.5068176121
 20
45.755498719
 11
67.5068176121
 21
67.7385503245
  0
LINE
  5
2AF
100
AcDbEntity
  8
0
100
AcDbLine
 62
7
  6
CONTINUOUS
 10
67.5068176121
 20
72.7017452467
 11
67.5068176121
 21
75.1495857356
  0
LINE
  5
2B0
100
AcDbEntity
  8
0
100
AcDbLine
 62
7
  6
CONTINUOUS
 10
68.9210252865
 20
44.5307309839
 11
68.9210252865
 21
46.1637358181
  0
LINE
  5
2B1
100
AcDbEntity
  8
0
100
AcDbLine
 62
7
  6
CONTINUOUS
 10
69.3453028974
 20
68.3363626271
 11
69.3453028974
 21
71.6403192849
  0
LINE
  5
2B2
100
AcDbEntity
  8
0
100
AcDbLine
 62
7
  6
CONTINUOUS
 10
71.3958887167
 20
84.0085981607
 11
70.4981820272
 21
77.6114926522
  0
LINE
  5
2B3
100
AcDbEntity
  8
0
100
AcDbLine
 62
7
  6
CONTINUOUS
 10
41.3439991869
 20
10.9898089868
 11
40.5802456409
 21
9.903240676
  0
LINE
  5
2B4
100
AcDbEntity
  8
0
100
AcDbLine
 62
7
  6
CONTINUOUS
 10
43.4086609898
 20
11.5362172915
 11
44.1724145357
 21
12.6227856023
  0
LINE
  5
2B5
100
AcDbEntity
  8
0
100
AcDbLine
 62
7
  6
CONTINUOUS
 10
25.4694023435
 20
16.3411445316
 11
27.4492930877
 21
17.4842281625
  0
LINE
  5
2B6
100
AcDbEntity
  8
0
100
AcDbLine
 62
7
  6
CONTINUOUS
 10
30.2883149941
 20
19.1233284403
 11
35.156805578
 21
21.9341360112
  0
LINE
  5
2B7
100
AcDbEntity
  8
0
100
AcDbLine
 62
7
  6
CONTINUOUS
 10
66.251535951
 20
72.2325967051
 11
68.0900212363
 21
71.1711707433
  0
LINE
  5
2B8
100
AcDbEntity
  8
0
100
AcDbLine
 62
7
  6
CONTINUOUS
 10
67.5068176121
 20
72.7017452467
 11
69.3453028974
 21
71.6403192849
  0
LINE
  5
2B9
100
AcDbEntity
  8
0
100
AcDbLine
 62
7
  6
CONTINUOUS
 10
54.2787211031
 20
82.7400385096
 11
60.1830873081
 21
79.3312282093
  0
LINE
  5
2BA
100
AcDbEntity
  8
0
100
AcDbLine
 62
7
  6
CONTINUOUS
 10
39.6468298637
 20
91.1938490438
 11
44.631953426
 21
88.3157517245
  0
LINE
  5
2BB
100
AcDbEntity
  8
0
100
AcDbLine
 62
7
  6
CONTINUOUS
 10
45.3390631512
 20
87.9075109699
 11
50.5897596508
 21
84.8760885124
  0
LINE
  5
2BC
100
AcDbEntity
  8
0
100
AcDbLine
 62
7
  6
CONTINUOUS
 10
68.0900212363
 20
71.1711707433
 11
68.6022947457
 21
70.7619820763
  0
LINE
  5
2BD
100
AcDbEntity
  8
0
100
AcDbLine
 62
7
  6
CONTINUOUS
 10
71.3958887167
 20
30.0786135093
 11
71.3958887167
 21
45.9595855224
  0
LINE
  5
2BE
100
AcDbEntity
  8
0
100
AcDbLine
 62
7
  6
CONTINUOUS
 10
71.3958887167
 20
84.0085981607
 11
71.3958887167
 21
88.2544107297
  0
LINE
  5
2BF
100
AcDbEntity
  8
0
100
AcDbLine
 62
7
  6
CONTINUOUS
 10
41.3439756351
 20
14.1979413205
 11
38.5155602863
 21
12.5649647051
  0
LINE
  5
2C0
100
AcDbEntity
  8
0
100
AcDbLine
 62
7
  6
CONTINUOUS
 10
47.54923702
 20
22.1516232874
 11
43.5880744395
 21
20.6711797302
  0
LINE
  5
2C1
100
AcDbEntity
  8
0
100
AcDbLine
 62
7
  6
CONTINUOUS
 10
70.6228635118
 20
92.8704220699
 11
71.3958887167
 21
88.2544107297
  0
LINE
  5
2C2
100
AcDbEntity
  8
0
100
AcDbLine
 62
7
  6
CONTINUOUS
 10
36.5356695421
 20
9.9521767234
 11
38.5155602863
 21
11.0952603542
  0
LINE
  5
2C3
100
AcDbEntity
  8
0
100
AcDbLine
 62
7
  6
CONTINUOUS
 10
42.616795135
 20
13.4630952641
 11
42.7581833096
 21
13.5447252775
  0
LINE
  5
2C4
100
AcDbEntity
  8
0
100
AcDbLine
 62
7
  6
CONTINUOUS
 10
48.0614620887
 20
16.6065564315
 11
53.268390739
 21
19.6127601448
  0
LINE
  5
2C5
100
AcDbEntity
  8
0
100
AcDbLine
 62
7
  6
CONTINUOUS
 10
64.3955607283
 20
26.0369963859
 11
71.3958887167
 21
30.0786135093
  0
LINE
  5
2C6
100
AcDbEntity
  8
0
100
AcDbLine
 62
7
  6
CONTINUOUS
 10
39.9863485146
 20
11.7158239357
 11
43.3450961573
 21
13.6549967981
  0
LINE
  5
2C7
100
AcDbEntity
  8
0
100
AcDbLine
 62
7
  6
CONTINUOUS
 10
40.6581027535
 20
11.9403720317
 11
43.4865181023
 21
13.5733486472
  0
LINE
  5
2C8
100
AcDbEntity
  8
0
100
AcDbLine
 62
7
  6
CONTINUOUS
 10
55.3897022507
 20
19.531088739
 11
64.3955607283
 21
24.7305925185
  0
LINE
  5
2C9
100
AcDbEntity
  8
0
100
AcDbLine
 62
7
  6
CONTINUOUS
 10
41.3439991869
 20
10.9898089868
 11
44.1724145357
 21
12.6227856023
  0
LINE
  5
2CA
100
AcDbEntity
  8
0
100
AcDbLine
 62
7
  6
CONTINUOUS
 10
40.5802456409
 20
9.903240676
 11
43.4086609898
 21
11.5362172915
  0
LINE
  5
2CB
100
AcDbEntity
  8
0
100
AcDbLine
 62
7
  6
CONTINUOUS
 10
50.9832567778
 20
97.7388991057
 11
55.9683803401
 21
94.8608017863
  0
LINE
  5
2CC
100
AcDbEntity
  8
0
100
AcDbLine
 62
7
  6
CONTINUOUS
 10
56.6754900653
 20
94.4525610318
 11
61.9261865649
 21
91.4211385742
  0
LINE
  5
2CD
100
AcDbEntity
  8
0
100
AcDbLine
 62
7
  6
CONTINUOUS
 10
69.5390426844
 20
95.816396868
 11
70.6228635118
 21
92.8704220699
  0
LINE
  5
2CE
100
AcDbEntity
  8
0
100
AcDbLine
 62
7
  6
CONTINUOUS
 10
57.7475812271
 20
102.6240463048
 11
69.5390426844
 21
95.816396868
  0
ARC
  5
2CF
100
AcDbEntity
  8
0
100
AcDbCircle
 62
7
  6
CONTINUOUS
 10
16.5039710179
 20
33.4760496053
 40
2.625250063
100
AcDbArc
 50
211.3551090393
 51
212.5222508676
  0
ARC
  5
2D0
100
AcDbEntity
  8
0
100
AcDbCircle
 62
7
  6
CONTINUOUS
 10
25.4828161282
 20
26.8561401947
 40
2.4472523112
100
AcDbArc
 50
230.0755934472
 51
239.9966216534
  0
ARC
  5
2D1
100
AcDbEntity
  8
0
100
AcDbCircle
 62
7
  6
CONTINUOUS
 10
13.0309850511
 20
34.0301079219
 40
2.4343158393
100
AcDbArc
 50
235.7174086936
 51
240.0029002403
  0
ARC
  5
2D2
100
AcDbEntity
  8
0
100
AcDbCircle
 62
7
  6
CONTINUOUS
 10
43.9668594807
 20
21.3726719959
 40
2.3390475084
100
AcDbArc
 50
5.2851653033
 51
7.3608266298
  0
ARC
  5
2D3
100
AcDbEntity
  8
0
100
AcDbCircle
 62
7
  6
CONTINUOUS
 10
31.2094871204
 20
57.0137466289
 40
1.7242887697
100
AcDbArc
 50
308.7565394962
 51
310.1656810136
  0
SPLINE
  5
2D4
100
AcDbEntity
  8
0
100
AcDbSpline
 62
7
  6
CONTINUOUS
 70
0
 71
3
 72
12
 73
8
 74
0
 42
0.0000001
 43
0.0000001
 44
0.0000000001
 40
0.0
 40
0.0
 40
0.0
 40
0.0
 40
0.0975629306
 40
0.1992651575
 40
0.4260806715
 40
0.6943793468
 40
1.0
 40
1.0
 40
1.0
 40
1.0
 10
25.917837246
 20
20.1080441346
 30
0.0
 10
25.901607044
 20
20.1174118386
 30
0.0
 10
25.8657867595
 20
20.1322630064
 30
0.0
 10
25.7840231074
 20
20.1437892417
 30
0.0
 10
25.6686328618
 20
20.1204080992
 30
0.0
 10
25.5331627563
 20
20.0445231001
 30
0.0
 10
25.4505765153
 20
19.9701560734
 30
0.0
 10
25.4106152115
 20
19.9271547953
 30
0.0
  0
SPLINE
  5
2D5
100
AcDbEntity
  8
0
100
AcDbSpline
 62
7
  6
CONTINUOUS
 70
0
 71
3
 72
17
 73
13
 74
0
 42
0.0000001
 43
0.0000001
 44
0.0000000001
 40
0.0
 40
0.0
 40
0.0
 40
0.0
 40
0.0428569944
 40
0.0874783169
 40
0.1353167971
 40
0.1872729805
 40
0.3045398562
 40
0.438205313
 40
0.5825464442
 40
0.7296715376
 40
0.8713404129
 40
1.0
 40
1.0
 40
1.0
 40
1.0
 10
24.1577796353
 20
29.2972295458
 30
0.0
 10
24.1405165608
 20
29.307179901
 30
0.0
 10
24.1024875172
 20
29.3229908987
 30
0.0
 10
24.0396987378
 20
29.3322363522
 30
0.0
 10
23.9722725785
 20
29.3272262717
 30
0.0
 10
23.8742805599
 20
29.3012193328
 30
0.0
 10
23.7490421331
 20
29.232690112
 30
0.0
 10
23.6106524412
 20
29.1101499955
 30
0.0
 10
23.4883615064
 20
28.9535737963
 30
0.0
 10
23.3920303241
 20
28.7756424826
 30
0.0
 10
23.3296008678
 20
28.5909011236
 30
0.0
 10
23.3128277862
 20
28.4650807992
 30
0.0
 10
23.3128277862
 20
28.4052632733
 30
0.0
  0
SPLINE
  5
2D6
100
AcDbEntity
  8
0
100
AcDbSpline
 62
7
  6
CONTINUOUS
 70
0
 71
3
 72
15
 73
11
 74
0
 42
0.0000001
 43
0.0000001
 44
0.0000000001
 40
0.0
 40
0.0
 40
0.0
 40
0.0
 40
0.1141229605
 40
0.2373462928
 40
0.366971064
 40
0.4999983279
 40
0.633025824
 40
0.762651271
 40
0.8858756957
 40
1.0
 40
1.0
 40
1.0
 40
1.0
 10
14.0496638911
 20
62.6981490554
 30
0.0
 10
13.9528770084
 20
62.6422694562
 30
0.0
 10
13.7616627186
 20
62.5081768621
 30
0.0
 10
13.4985075019
 20
62.2620624733
 30
0.0
 10
13.2560499965
 20
61.9710231941
 30
0.0
 10
13.0433262153
 20
61.6461700074
 30
0.0
 10
12.8683583564
 20
61.299517791
 30
0.0
 10
12.7375404606
 20
60.9440214381
 30
0.0
 10
12.6559769612
 20
60.5930619864
 30
0.0
 10
12.6354562166
 20
60.3604169282
 30
0.0
 10
12.6354562166
 20
60.2486559134
 30
0.0
  0
SPLINE
  5
2D7
100
AcDbEntity
  8
0
100
AcDbSpline
 62
7
  6
CONTINUOUS
 70
0
 71
3
 72
12
 73
8
 74
0
 42
0.0000001
 43
0.0000001
 44
0.0000000001
 40
0.0
 40
0.0
 40
0.0
 40
0.0
 40
0.2626357167
 40
0.5234189258
 40
0.7720265963
 40
0.8890976057
 40
1.0
 40
1.0
 40
1.0
 40
1.0
 10
12.6354562166
 20
41.5969269215
 30
0.0
 10
12.2755557203
 20
41.1169192023
 30
0.0
 10
11.6278007862
 20
40.1060794137
 30
0.0
 10
10.8920388555
 20
38.4974272921
 30
0.0
 10
10.4934707305
 20
37.1157749124
 30
0.0
 10
10.330729008
 20
36.0380996014
 30
0.0
 10
10.3020135538
 20
35.5170428252
 30
0.0
 10
10.3020135538
 20
35.2637052297
 30
0.0
  0
SPLINE
  5
2D8
100
AcDbEntity
  8
0
100
AcDbSpline
 62
7
  6
CONTINUOUS
 70
0
 71
3
 72
13
 73
9
 74
0
 42
0.0000001
 43
0.0000001
 44
0.0000000001
 40
0.0
 40
0.0
 40
0.0
 40
0.0
 40
0.2879701376
 40
0.4212975261
 40
0.5476476621
 40
0.7817419533
 40
0.8921738345
 40
1.0
 40
1.0
 40
1.0
 40
1.0
 10
10.3020135538
 20
35.2637052297
 30
0.0
 10
10.3020135538
 20
34.9129589482
 30
0.0
 10
10.3409006358
 20
34.3976978081
 30
0.0
 10
10.4901049012
 20
33.7463811739
 30
0.0
 10
10.6873666892
 20
33.1774778912
 30
0.0
 10
10.9724124919
 20
32.6702976555
 30
0.0
 10
11.3433828061
 20
32.2605210033
 30
0.0
 10
11.551277496
 20
32.0926788148
 30
0.0
 10
11.6597957431
 20
32.0187070452
 30
0.0
  0
SPLINE
  5
2D9
100
AcDbEntity
  8
0
100
AcDbSpline
 62
7
  6
CONTINUOUS
 70
0
 71
3
 72
9
 73
5
 74
0
 42
0.0000001
 43
0.0000001
 44
0.0000000001
 40
0.0
 40
0.0
 40
0.0
 40
0.0
 40
0.5086262338
 40
1.0
 40
1.0
 40
1.0
 40
1.0
 10
12.8182006472
 20
26.15631953
 30
0.0
 10
12.8487650114
 20
26.1114670356
 30
0.0
 10
12.9179967491
 20
26.029034283
 30
0.0
 10
13.0042752358
 20
25.964360613
 30
0.0
 10
13.0496858479
 20
25.9381434
 30
0.0
  0
SPLINE
  5
2DA
100
AcDbEntity
  8
0
100
AcDbSpline
 62
7
  6
CONTINUOUS
 70
0
 71
3
 72
9
 73
5
 74
0
 42
0.0000001
 43
0.0000001
 44
0.0000000001
 40
0.0
 40
0.0
 40
0.0
 40
0.0
 40
0.2323947354
 40
1.0
 40
1.0
 40
1.0
 40
1.0
 10
14.4041074052
 20
34.408781939
 30
0.0
 10
14.4059159754
 20
34.3816482253
 30
0.0
 10
14.4074064614
 20
34.2644798341
 30
0.0
 10
14.3863371852
 20
34.1476942266
 30
0.0
 10
14.3617638495
 20
34.0612987896
 30
0.0
  0
SPLINE
  5
2DB
100
AcDbEntity
  8
0
100
AcDbSpline
 62
7
  6
CONTINUOUS
 70
0
 71
3
 72
10
 73
6
 74
0
 42
0.0000001
 43
0.0000001
 44
0.0000000001
 40
0.0
 40
0.0
 40
0.0
 40
0.0
 40
0.2301996381
 40
0.4760325945
 40
1.0
 40
1.0
 40
1.0
 40
1.0
 10
35.156805578
 20
22.2609302762
 30
0.0
 10
35.156805578
 20
22.3712677608
 30
0.0
 10
35.1407945284
 20
22.5996244034
 30
0.0
 10
35.0521385771
 20
23.0713516732
 30
0.0
 10
34.9267327507
 20
23.4217086662
 30
0.0
 10
34.8218209352
 20
23.6498901569
 30
0.0
  0
SPLINE
  5
2DC
100
AcDbEntity
  8
0
100
AcDbSpline
 62
7
  6
CONTINUOUS
 70
0
 71
3
 72
14
 73
10
 74
0
 42
0.0000001
 43
0.0000001
 44
0.0000000001
 40
0.0
 40
0.0
 40
0.0
 40
0.0
 40
0.1071402543
 40
0.2260937183
 40
0.3542802452
 40
0.4883149963
 40
0.7566697257
 40
0.8833399066
 40
1.0
 40
1.0
 40
1.0
 40
1.0
 10
43.5880744395
 20
20.6711797302
 30
0.0
 10
43.5344243454
 20
20.6511285623
 30
0.0
 10
43.4261523775
 20
20.5952141534
 30
0.0
 10
43.2752703376
 20
20.4795681755
 30
0.0
 10
43.1331899705
 20
20.3324856273
 30
0.0
 10
42.9644222741
 20
20.1038988273
 30
0.0
 10
42.8391025734
 20
19.8461463485
 30
0.0
 10
42.7709731588
 20
19.5805454504
 30
0.0
 10
42.7581833096
 20
19.4503105092
 30
0.0
 10
42.7581833096
 20
19.3879468122
 30
0.0
  0
SPLINE
  5
2DD
100
AcDbEntity
  8
0
100
AcDbSpline
 62
7
  6
CONTINUOUS
 70
0
 71
3
 72
11
 73
7
 74
0
 42
0.0000001
 43
0.0000001
 44
0.0000000001
 40
0.0
 40
0.0
 40
0.0
 40
0.0
 40
0.289702809
 40
0.549088757
 40
0.7822160314
 40
1.0
 40
1.0
 40
1.0
 40
1.0
 10
26.4947950536
 20
18.8521532467
 30
0.0
 10
26.407038651
 20
18.8014873665
 30
0.0
 10
26.2324628922
 20
18.7184366083
 30
0.0
 10
25.9641361876
 20
18.6536381383
 30
0.0
 10
25.7123669549
 20
18.6600107378
 30
0.0
 10
25.5607881217
 20
18.7150185355
 30
0.0
 10
25.4948170105
 20
18.7531061204
 30
0.0
  0
SPLINE
  5
2DE
100
AcDbEntity
  8
0
100
AcDbSpline
 62
7
  6
CONTINUOUS
 70
0
 71
3
 72
11
 73
7
 74
0
 42
0.0000001
 43
0.0000001
 44
0.0000000001
 40
0.0
 40
0.0
 40
0.0
 40
0.0
 40
0.2498423953
 40
0.5123899928
 40
0.7683564982
 40
1.0
 40
1.0
 40
1.0
 40
1.0
 10
33.0076505542
 20
57.0133636748
 30
0.0
 10
32.8942876182
 20
56.9176928997
 30
0.0
 10
32.685482594
 20
56.6926513689
 30
0.0
 10
32.4442845967
 20
56.3024108162
 30
0.0
 10
32.284442669
 20
55.8839206376
 30
0.0
 10
32.2403944373
 20
55.5941175704
 30
0.0
 10
32.2403944373
 20
55.4565850751
 30
0.0
  0
SPLINE
  5
2DF
100
AcDbEntity
  8
0
100
AcDbSpline
 62
7
  6
CONTINUOUS
 70
0
 71
3
 72
11
 73
7
 74
0
 42
0.0000001
 43
0.0000001
 44
0.0000000001
 40
0.0
 40
0.0
 40
0.0
 40
0.0
 40
0.2895961837
 40
0.5491162332
 40
0.7822463576
 40
1.0
 40
1.0
 40
1.0
 40
1.0
 10
32.2403944373
 20
55.4565850751
 30
0.0
 10
32.2403944373
 20
55.3856765118
 30
0.0
 10
32.2511931686
 20
55.2507719119
 30
0.0
 10
32.3057697689
 20
55.0654072791
 30
0.0
 10
32.3977502045
 20
54.914948719
 30
0.0
 10
32.4842068874
 20
54.8423944857
 30
0.0
 10
32.5303736519
 20
54.8157223029
 30
0.0
  0
SPLINE
  5
2E0
100
AcDbEntity
  8
0
100
AcDbSpline
 62
7
  6
CONTINUOUS
 70
0
 71
3
 72
11
 73
7
 74
0
 42
0.0000001
 43
0.0000001
 44
0.0000000001
 40
0.0
 40
0.0
 40
0.0
 40
0.0
 40
0.2228140815
 40
0.4640355634
 40
0.7235539183
 40
1.0
 40
1.0
 40
1.0
 40
1.0
 10
37.8346511922
 20
59.5081065052
 30
0.0
 10
37.4333293665
 20
59.4359700928
 30
0.0
 10
36.6102379475
 20
59.2097559797
 30
0.0
 10
35.3956850407
 20
58.6729389046
 30
0.0
 10
34.1749023734
 20
57.9368493122
 30
0.0
 10
33.3942713319
 20
57.3396458866
 30
0.0
 10
33.0076505542
 20
57.0133636748
 30
0.0
  0
SPLINE
  5
2E1
100
AcDbEntity
  8
0
100
AcDbSpline
 62
7
  6
CONTINUOUS
 70
0
 71
3
 72
11
 73
7
 74
0
 42
0.0000001
 43
0.0000001
 44
0.0000000001
 40
0.0
 40
0.0
 40
0.0
 40
0.0
 40
0.2893975675
 40
0.5491290883
 40
0.7823145228
 40
1.0
 40
1.0
 40
1.0
 40
1.0
 10
23.3128277862
 20
28.4052632733
 30
0.0
 10
23.3128277862
 20
28.369833927
 30
0.0
 10
23.3182728135
 20
28.3023906523
 30
0.0
 10
23.3454859713
 20
28.209674933
 30
0.0
 10
23.3915250064
 20
28.1344511715
 30
0.0
 10
23.4347321638
 20
28.0981472915
 30
0.0
 10
23.4578213092
 20
28.0848388162
 30
0.0
  0
SPLINE
  5
2E2
100
AcDbEntity
  8
0
100
AcDbSpline
 62
7
  6
CONTINUOUS
 70
0
 71
3
 72
11
 73
7
 74
0
 42
0.0000001
 43
0.0000001
 44
0.0000000001
 40
0.0
 40
0.0
 40
0.0
 40
0.0
 40
0.2886921238
 40
0.5591730619
 40
0.7980259855
 40
1.0
 40
1.0
 40
1.0
 40
1.0
 10
26.7338463946
 20
20.5699976468
 30
0.0
 10
26.7018733619
 20
20.5133338803
 30
0.0
 10
26.6491952297
 20
20.3980156158
 30
0.0
 10
26.6053162339
 20
20.2223805691
 30
0.0
 10
26.600903307
 20
20.0607143112
 30
0.0
 10
26.6283700852
 20
19.9624575723
 30
0.0
 10
26.6502983226
 20
19.9225691867
 30
0.0
  0
SPLINE
  5
2E3
100
AcDbEntity
  8
0
100
AcDbSpline
 62
7
  6
CONTINUOUS
 70
0
 71
3
 72
11
 73
7
 74
0
 42
0.0000001
 43
0.0000001
 44
0.0000000001
 40
0.0
 40
0.0
 40
0.0
 40
0.0
 40
0.203581284
 40
0.4436013985
 40
0.7136974789
 40
1.0
 40
1.0
 40
1.0
 40
1.0
 10
27.2495965515
 20
20.9846672113
 30
0.0
 10
27.2032818249
 20
20.9814796459
 30
0.0
 10
27.1039396768
 20
20.9518068025
 30
0.0
 10
26.9665231199
 20
20.8621207389
 30
0.0
 10
26.8379250714
 20
20.7322527121
 30
0.0
 10
26.7659304555
 20
20.6268581814
 30
0.0
 10
26.7338463946
 20
20.5699976468
 30
0.0
  0
SPLINE
  5
2E4
100
AcDbEntity
  8
0
100
AcDbSpline
 62
7
  6
CONTINUOUS
 70
0
 71
3
 72
12
 73
8
 74
0
 42
0.0000001
 43
0.0000001
 44
0.0000000001
 40
0.0
 40
0.0
 40
0.0
 40
0.0
 40
0.3048461912
 40
0.5723766521
 40
0.7994024937
 40
0.9016784895
 40
1.0
 40
1.0
 40
1.0
 40
1.0
 10
26.5837769415
 20
22.0062744988
 30
0.0
 10
26.5683730625
 20
21.9519951085
 30
0.0
 10
26.5483482413
 20
21.8471047431
 30
0.0
 10
26.5532417688
 20
21.6978053609
 30
0.0
 10
26.5912128236
 20
21.5909917398
 30
0.0
 10
26.6410445249
 20
21.528639943
 30
0.0
 10
26.6709614927
 20
21.5058812933
 30
0.0
 10
26.6867225562
 20
21.4967843655
 30
0.0
  0
SPLINE
  5
2E5
100
AcDbEntity
  8
0
100
AcDbSpline
 62
7
  6
CONTINUOUS
 70
0
 71
3
 72
9
 73
5
 74
0
 42
0.0000001
 43
0.0000001
 44
0.0000000001
 40
0.0
 40
0.0
 40
0.0
 40
0.0
 40
0.5056628646
 40
1.0
 40
1.0
 40
1.0
 40
1.0
 10
23.7444571014
 20
24.7807346465
 30
0.0
 10
23.848461481
 20
24.6527235244
 30
0.0
 10
24.0761364138
 20
24.4164418328
 30
0.0
 10
24.3436956478
 20
24.226094826
 30
0.0
 10
24.4833342961
 20
24.1454732076
 30
0.0
  0
SPLINE
  5
2E6
100
AcDbEntity
  8
0
100
AcDbSpline
 62
7
  6
CONTINUOUS
 70
0
 71
3
 72
10
 73
6
 74
0
 42
0.0000001
 43
0.0000001
 44
0.0000000001
 40
0.0
 40
0.0
 40
0.0
 40
0.0
 40
0.5198254872
 40
0.7711787471
 40
1.0
 40
1.0
 40
1.0
 40
1.0
 10
13.8347623413
 20
34.7154943441
 30
0.0
 10
13.7494406881
 20
34.6187119248
 30
0.0
 10
13.6463966544
 20
34.451966748
 30
0.0
 10
13.5698403092
 20
34.2151556402
 30
0.0
 10
13.5547135792
 20
34.0957796047
 30
0.0
 10
13.5547135792
 20
34.0389856857
 30
0.0
  0
SPLINE
  5
2E7
100
AcDbEntity
  8
0
100
AcDbSpline
 62
7
  6
CONTINUOUS
 70
0
 71
3
 72
12
 73
8
 74
0
 42
0.0000001
 43
0.0000001
 44
0.0000000001
 40
0.0
 40
0.0
 40
0.0
 40
0.0
 40
0.2626357167
 40
0.5234189258
 40
0.7720265963
 40
0.8890976057
 40
1.0
 40
1.0
 40
1.0
 40
1.0
 10
22.3935704237
 20
35.9632045091
 30
0.0
 10
22.0336699273
 20
35.4831967899
 30
0.0
 10
21.3859149932
 20
34.4723570013
 30
0.0
 10
20.6501530625
 20
32.8637048797
 30
0.0
 10
20.2515849376
 20
31.4820525
 30
0.0
 10
20.088843215
 20
30.404377189
 30
0.0
 10
20.0601277609
 20
29.8833204129
 30
0.0
 10
20.0601277609
 20
29.6299828174
 30
0.0
  0
SPLINE
  5
2E8
100
AcDbEntity
  8
0
100
AcDbSpline
 62
7
  6
CONTINUOUS
 70
0
 71
3
 72
14
 73
10
 74
0
 42
0.0000001
 43
0.0000001
 44
0.0000000001
 40
0.0
 40
0.0
 40
0.0
 40
0.0
 40
0.2892717396
 40
0.4225562558
 40
0.5485008031
 40
0.6678918322
 40
0.7818705803
 40
0.8919421829
 40
1.0
 40
1.0
 40
1.0
 40
1.0
 10
20.0601277609
 20
29.6299828174
 30
0.0
 10
20.0601277609
 20
29.2599763945
 30
0.0
 10
20.1033314724
 20
28.7168279963
 30
0.0
 10
20.2703105099
 20
28.0341727654
 30
0.0
 10
20.440161334
 20
27.5792607678
 30
0.0
 10
20.6567654082
 20
27.1722634553
 30
0.0
 10
20.918171097
 20
26.8170604776
 30
0.0
 10
21.2222439584
 20
26.517834291
 30
0.0
 10
21.4523412377
 20
26.3572389711
 30
0.0
 10
21.5720480535
 20
26.2881445436
 30
0.0
  0
SPLINE
  5
2E9
100
AcDbEntity
  8
0
100
AcDbSpline
 62
7
  6
CONTINUOUS
 70
0
 71
3
 72
11
 73
7
 74
0
 42
0.0000001
 43
0.0000001
 44
0.0000000001
 40
0.0
 40
0.0
 40
0.0
 40
0.0
 40
0.2835917802
 40
0.5519965863
 40
0.7928343625
 40
1.0
 40
1.0
 40
1.0
 40
1.0
 10
25.8440185729
 20
21.049207138
 30
0.0
 10
25.8737225455
 20
21.101849594
 30
0.0
 10
25.9233988235
 20
21.2091622459
 30
0.0
 10
25.9680505753
 20
21.3731170131
 30
0.0
 10
25.9783169926
 20
21.5265371467
 30
0.0
 10
25.9599650241
 20
21.6221309572
 30
0.0
 10
25.9434372472
 20
21.6630762168
 30
0.0
  0
SPLINE
  5
2EA
100
AcDbEntity
  8
0
100
AcDbSpline
 62
7
  6
CONTINUOUS
 70
0
 71
3
 72
11
 73
7
 74
0
 42
0.0000001
 43
0.0000001
 44
0.0000000001
 40
0.0
 40
0.0
 40
0.0
 40
0.0
 40
0.208875548
 40
0.4507540997
 40
0.7186974116
 40
1.0
 40
1.0
 40
1.0
 40
1.0
 10
25.365787483
 20
20.6393443853
 30
0.0
 10
25.4100597895
 20
20.6475533784
 30
0.0
 10
25.5022900906
 20
20.6832900924
 30
0.0
 10
25.6295114883
 20
20.7734833519
 30
0.0
 10
25.7475990051
 20
20.8977917426
 30
0.0
 10
25.8142186423
 20
20.9963946218
 30
0.0
 10
25.8440185729
 20
21.049207138
 30
0.0
  0
SPLINE
  5
2EB
100
AcDbEntity
  8
0
100
AcDbSpline
 62
7
  6
CONTINUOUS
 70
0
 71
3
 72
12
 73
8
 74
0
 42
0.0000001
 43
0.0000001
 44
0.0000000001
 40
0.0
 40
0.0
 40
0.0
 40
0.0
 40
0.3048461912
 40
0.5723766521
 40
0.7994024937
 40
0.9016784895
 40
1.0
 40
1.0
 40
1.0
 40
1.0
 10
26.0207828607
 20
19.5985540013
 30
0.0
 10
26.0361867396
 20
19.6528333916
 30
0.0
 10
26.0562115608
 20
19.757723757
 30
0.0
 10
26.0513180334
 20
19.9070231392
 30
0.0
 10
26.0133469786
 20
20.0138367603
 30
0.0
 10
25.9635152772
 20
20.0761885571
 30
0.0
 10
25.9335983094
 20
20.0989472068
 30
0.0
 10
25.917837246
 20
20.1080441346
 30
0.0
  0
SPLINE
  5
2EC
100
AcDbEntity
  8
0
100
AcDbSpline
 62
7
  6
CONTINUOUS
 70
0
 71
3
 72
12
 73
8
 74
0
 42
0.0000001
 43
0.0000001
 44
0.0000000001
 40
0.0
 40
0.0
 40
0.0
 40
0.0
 40
0.0975629306
 40
0.1992651575
 40
0.4260806715
 40
0.6943793468
 40
1.0
 40
1.0
 40
1.0
 40
1.0
 10
26.6867225562
 20
21.4967843655
 30
0.0
 10
26.7029527581
 20
21.4874166615
 30
0.0
 10
26.7387730427
 20
21.4725654937
 30
0.0
 10
26.8205366948
 20
21.4610392584
 30
0.0
 10
26.9359269403
 20
21.4844204009
 30
0.0
 10
27.0713970458
 20
21.5603054
 30
0.0
 10
27.1539832868
 20
21.6346724267
 30
0.0
 10
27.1939445907
 20
21.6776737048
 30
0.0
  0
SPLINE
  5
2ED
100
AcDbEntity
  8
0
100
AcDbSpline
 62
7
  6
CONTINUOUS
 70
0
 71
3
 72
11
 73
7
 74
0
 42
0.0000001
 43
0.0000001
 44
0.0000000001
 40
0.0
 40
0.0
 40
0.0
 40
0.0
 40
0.2225668335
 40
0.4619224538
 40
0.7208900101
 40
1.0
 40
1.0
 40
1.0
 40
1.0
 10
13.7359140194
 20
31.0554300202
 30
0.0
 10
13.6108398789
 20
31.2216924553
 30
0.0
 10
13.3885772062
 20
31.5958793699
 30
0.0
 10
13.1564812642
 20
32.2318251624
 30
0.0
 10
13.0175627446
 20
32.9477706224
 30
0.0
 10
12.9890305094
 20
33.4514793781
 30
0.0
 10
12.9890305094
 20
33.7123903626
 30
0.0
  0
SPLINE
  5
2EE
100
AcDbEntity
  8
0
100
AcDbSpline
 62
7
  6
CONTINUOUS
 70
0
 71
3
 72
17
 73
13
 74
0
 42
0.0000001
 43
0.0000001
 44
0.0000000001
 40
0.0
 40
0.0
 40
0.0
 40
0.0
 40
0.0428569944
 40
0.0874783169
 40
0.1353167971
 40
0.1872729805
 40
0.3045398562
 40
0.438205313
 40
0.5825464442
 40
0.7296715376
 40
0.8713404129
 40
1.0
 40
1.0
 40
1.0
 40
1.0
 10
23.4578213092
 20
28.0848388162
 30
0.0
 10
23.4750843837
 20
28.0748884609
 30
0.0
 10
23.5131134273
 20
28.0590774633
 30
0.0
 10
23.5759022067
 20
28.0498320098
 30
0.0
 10
23.643328366
 20
28.0548420902
 30
0.0
 10
23.7413203846
 20
28.0808490292
 30
0.0
 10
23.8665588114
 20
28.14937825
 30
0.0
 10
24.0049485033
 20
28.2719183665
 30
0.0
 10
24.1272394381
 20
28.4284945657
 30
0.0
 10
24.2235706203
 20
28.6064258794
 30
0.0
 10
24.2860000767
 20
28.7911672384
 30
0.0
 10
24.3027731583
 20
28.9169875628
 30
0.0
 10
24.3027731583
 20
28.9768050887
 30
0.0
  0
SPLINE
  5
2EF
100
AcDbEntity
  8
0
100
AcDbSpline
 62
7
  6
CONTINUOUS
 70
0
 71
3
 72
11
 73
7
 74
0
 42
0.0000001
 43
0.0000001
 44
0.0000000001
 40
0.0
 40
0.0
 40
0.0
 40
0.0
 40
0.222786639
 40
0.4640329566
 40
0.723597496
 40
1.0
 40
1.0
 40
1.0
 40
1.0
 10
36.0586862563
 20
57.6274891175
 30
0.0
 10
35.7480244425
 20
57.5716485745
 30
0.0
 10
35.1108269242
 20
57.3964291426
 30
0.0
 10
34.1704004302
 20
56.9809698928
 30
0.0
 10
33.2253338335
 20
56.4109196502
 30
0.0
 10
32.6209249704
 20
55.9486405181
 30
0.0
 10
32.3216535044
 20
55.6960753134
 30
0.0
  0
SPLINE
  5
2F0
100
AcDbEntity
  8
0
100
AcDbSpline
 62
7
  6
CONTINUOUS
 70
0
 71
3
 72
15
 73
11
 74
0
 42
0.0000001
 43
0.0000001
 44
0.0000000001
 40
0.0
 40
0.0
 40
0.0
 40
0.0
 40
0.1237418625
 40
0.2561094767
 40
0.3931257419
 40
0.5303297049
 40
0.6631310877
 40
0.7874173971
 40
0.9002506735
 40
1.0
 40
1.0
 40
1.0
 40
1.0
 10
37.3656439818
 20
59.3454439836
 30
0.0
 10
37.3576316233
 20
59.2516700685
 30
0.0
 10
37.3234747159
 20
59.0588741712
 30
0.0
 10
37.2283237721
 20
58.7744845181
 30
0.0
 10
37.0919304778
 20
58.4959655443
 30
0.0
 10
36.9209808859
 20
58.2368418434
 30
0.0
 10
36.7236721827
 20
58.0097683105
 30
0.0
 10
36.5094308013
 20
57.8255482842
 30
0.0
 10
36.2884112135
 20
57.6933168704
 30
0.0
 10
36.1333569274
 20
57.64091095
 30
0.0
 10
36.0586862563
 20
57.6274891175
 30
0.0
  0
SPLINE
  5
2F1
100
AcDbEntity
  8
0
100
AcDbSpline
 62
7
  6
CONTINUOUS
 70
0
 71
3
 72
11
 73
7
 74
0
 42
0.0000001
 43
0.0000001
 44
0.0000000001
 40
0.0
 40
0.0
 40
0.0
 40
0.0
 40
0.2177825102
 40
0.4509091639
 40
0.7102957096
 40
1.0
 40
1.0
 40
1.0
 40
1.0
 10
25.4948170105
 20
18.7531061204
 30
0.0
 10
25.4288437278
 20
18.7911949588
 30
0.0
 10
25.3054102568
 20
18.8949642655
 30
0.0
 10
25.1740008722
 20
19.1098241558
 30
0.0
 10
25.0959514702
 20
19.3746121945
 30
0.0
 10
25.0805873792
 20
19.5673330271
 30
0.0
 10
25.0805873792
 20
19.6686697733
 30
0.0
  0
SPLINE
  5
2F2
100
AcDbEntity
  8
0
100
AcDbSpline
 62
7
  6
CONTINUOUS
 70
0
 71
3
 72
12
 73
8
 74
0
 42
0.0000001
 43
0.0000001
 44
0.0000000001
 40
0.0
 40
0.0
 40
0.0
 40
0.0
 40
0.1078668374
 40
0.2189233345
 40
0.4546374528
 40
0.7142017498
 40
1.0
 40
1.0
 40
1.0
 40
1.0
 10
23.9122274325
 20
24.9793623646
 30
0.0
 10
23.8180684172
 20
25.0580327694
 30
0.0
 10
23.6384927157
 20
25.2320386019
 30
0.0
 10
23.3199575871
 20
25.6411852392
 30
0.0
 10
23.0085603959
 20
26.2649120536
 30
0.0
 10
22.7908649622
 20
27.1316137708
 30
0.0
 10
22.7471447164
 20
27.7535721802
 30
0.0
 10
22.7471447164
 20
28.0786679502
 30
0.0
  0
SPLINE
  5
2F3
100
AcDbEntity
  8
0
100
AcDbSpline
 62
7
  6
CONTINUOUS
 70
0
 71
3
 72
11
 73
7
 74
0
 42
0.0000001
 43
0.0000001
 44
0.0000000001
 40
0.0
 40
0.0
 40
0.0
 40
0.0
 40
0.2813021185
 40
0.5492449078
 40
0.7911239914
 40
1.0
 40
1.0
 40
1.0
 40
1.0
 10
23.0155796723
 20
22.6821701561
 30
0.0
 10
22.9857797919
 20
22.6293577289
 30
0.0
 10
22.9191603677
 20
22.530754971
 30
0.0
 10
22.8010729147
 20
22.4064466426
 30
0.0
 10
22.6738514361
 20
22.3162533593
 30
0.0
 10
22.5816209858
 20
22.2805164145
 30
0.0
 10
22.5373485824
 20
22.2723074034
 30
0.0
  0
SPLINE
  5
2F4
100
AcDbEntity
  8
0
100
AcDbSpline
 62
7
  6
CONTINUOUS
 70
0
 71
3
 72
11
 73
7
 74
0
 42
0.0000001
 43
0.0000001
 44
0.0000000001
 40
0.0
 40
0.0
 40
0.0
 40
0.0
 40
0.2071651795
 40
0.4480024243
 40
0.7164077516
 40
1.0
 40
1.0
 40
1.0
 40
1.0
 10
23.1149983466
 20
23.2960392349
 30
0.0
 10
23.1315260872
 20
23.2550940651
 30
0.0
 10
23.1498781762
 20
23.1595005016
 30
0.0
 10
23.1396117359
 20
23.0060804467
 30
0.0
 10
23.0949599651
 20
22.8421255944
 30
0.0
 10
23.0452836945
 20
22.7348126999
 30
0.0
 10
23.0155796723
 20
22.6821701561
 30
0.0
  0
SPLINE
  5
2F5
100
AcDbEntity
  8
0
100
AcDbSpline
 62
7
  6
CONTINUOUS
 70
0
 71
3
 72
9
 73
5
 74
0
 42
0.0000001
 43
0.0000001
 44
0.0000000001
 40
0.0
 40
0.0
 40
0.0
 40
0.0
 40
0.4953334792
 40
1.0
 40
1.0
 40
1.0
 40
1.0
 10
24.5496684287
 20
24.1084726409
 30
0.0
 10
24.6677198289
 20
24.0448970255
 30
0.0
 10
24.9165224967
 20
23.9351544545
 30
0.0
 10
25.1790882513
 20
23.8648432777
 30
0.0
 10
25.3132360482
 20
23.8390319735
 30
0.0
  0
SPLINE
  5
2F6
100
AcDbEntity
  8
0
100
AcDbSpline
 62
7
  6
CONTINUOUS
 70
0
 71
3
 72
13
 73
9
 74
0
 42
0.0000001
 43
0.0000001
 44
0.0000000001
 40
0.0
 40
0.0
 40
0.0
 40
0.0
 40
0.0923342878
 40
0.190417971
 40
0.298479338
 40
0.4184248688
 40
0.6926457429
 40
1.0
 40
1.0
 40
1.0
 40
1.0
 10
13.6997027529
 20
33.7185537249
 30
0.0
 10
13.7212632473
 20
33.7061306607
 30
0.0
 10
13.7702282737
 20
33.6877112205
 30
0.0
 10
13.8515282492
 20
33.6830432663
 30
0.0
 10
13.9384633929
 20
33.7003892261
 30
0.0
 10
14.0638389683
 20
33.7532405478
 30
0.0
 10
14.2162536772
 20
33.8697691673
 30
0.0
 10
14.3161409396
 20
33.992165964
 30
0.0
 10
14.3617638495
 20
34.0612987896
 30
0.0
  0
SPLINE
  5
2F7
100
AcDbEntity
  8
0
100
AcDbSpline
 62
7
  6
CONTINUOUS
 70
0
 71
3
 72
12
 73
8
 74
0
 42
0.0000001
 43
0.0000001
 44
0.0000000001
 40
0.0
 40
0.0
 40
0.0
 40
0.0
 40
0.1109023943
 40
0.2279734037
 40
0.4765810742
 40
0.7373642833
 40
1.0
 40
1.0
 40
1.0
 40
1.0
 10
22.7471447164
 20
28.0786679502
 30
0.0
 10
22.7471447164
 20
28.3320055457
 30
0.0
 10
22.7758601705
 20
28.8530623218
 30
0.0
 10
22.9386018931
 20
29.9307376328
 30
0.0
 10
23.3371700181
 20
31.3123900125
 30
0.0
 10
24.0729319488
 20
32.9210421342
 30
0.0
 10
24.7206868829
 20
33.9318819228
 30
0.0
 10
25.0805873792
 20
34.411889642
 30
0.0
  0
SPLINE
  5
2F8
100
AcDbEntity
  8
0
100
AcDbSpline
 62
7
  6
CONTINUOUS
 70
0
 71
3
 72
15
 73
11
 74
0
 42
0.0000001
 43
0.0000001
 44
0.0000000001
 40
0.0
 40
0.0
 40
0.0
 40
0.0
 40
0.1141242661
 40
0.2373486253
 40
0.3669740476
 40
0.5000015346
 40
0.6330288076
 40
0.7626536034
 40
0.8858770013
 40
1.0
 40
1.0
 40
1.0
 40
1.0
 10
25.0805873792
 20
53.0636186339
 30
0.0
 10
25.0805873792
 20
53.1753796112
 30
0.0
 10
25.1011080798
 20
53.4080245707
 30
0.0
 10
25.1826715557
 20
53.7589838993
 30
0.0
 10
25.3134893755
 20
54.1144801743
 30
0.0
 10
25.488457183
 20
54.4611323904
 30
0.0
 10
25.7011809389
 20
54.7859856218
 30
0.0
 10
25.9436384738
 20
55.0770250056
 30
0.0
 10
26.2067937852
 20
55.3231394763
 30
0.0
 10
26.3980081386
 20
55.4572321579
 30
0.0
 10
26.4947950536
 20
55.5131117759
 30
0.0
  0
SPLINE
  5
2F9
100
AcDbEntity
  8
0
100
AcDbSpline
 62
7
  6
CONTINUOUS
 70
0
 71
3
 72
12
 73
8
 74
0
 42
0.0000001
 43
0.0000001
 44
0.0000000001
 40
0.0
 40
0.0
 40
0.0
 40
0.0
 40
0.1018846368
 40
0.2069249904
 40
0.4355455898
 40
0.6996790018
 40
1.0
 40
1.0
 40
1.0
 40
1.0
 10
32.5303736519
 20
54.8157223029
 30
0.0
 10
32.5599915525
 20
54.7986109877
 30
0.0
 10
32.624223589
 20
54.77045191
 30
0.0
 10
32.7685610629
 20
54.7416154211
 30
0.0
 10
32.9726803789
 20
54.7627966793
 30
0.0
 10
33.2202642566
 20
54.8673921429
 30
0.0
 10
33.3759754778
 20
54.9778620058
 30
0.0
 10
33.4530290646
 20
55.0428901062
 30
0.0
  0
SPLINE
  5
2FA
100
AcDbEntity
  8
0
100
AcDbSpline
 62
7
  6
CONTINUOUS
 70
0
 71
3
 72
11
 73
7
 74
0
 42
0.0000001
 43
0.0000001
 44
0.0000000001
 40
0.0
 40
0.0
 40
0.0
 40
0.0
 40
0.276402504
 40
0.5359670434
 40
0.777213361
 40
1.0
 40
1.0
 40
1.0
 40
1.0
 10
33.4530290646
 20
55.0428901062
 30
0.0
 10
33.7523005307
 20
55.2954553109
 30
0.0
 10
34.3567093938
 20
55.757734443
 30
0.0
 10
35.3017759904
 20
56.3277846856
 30
0.0
 10
36.2422024845
 20
56.7432439353
 30
0.0
 10
36.8794000028
 20
56.9184633672
 30
0.0
 10
37.1900618166
 20
56.9743039103
 30
0.0
  0
SPLINE
  5
2FB
100
AcDbEntity
  8
0
100
AcDbSpline
 62
7
  6
CONTINUOUS
 70
0
 71
3
 72
11
 73
7
 74
0
 42
0.0000001
 43
0.0000001
 44
0.0000000001
 40
0.0
 40
0.0
 40
0.0
 40
0.0
 40
0.252756229
 40
0.5119427022
 40
0.7649190597
 40
1.0
 40
1.0
 40
1.0
 40
1.0
 10
14.3617638495
 20
34.0612987896
 30
0.0
 10
14.3400380736
 20
33.9849148616
 30
0.0
 10
14.2821314426
 20
33.8339276648
 30
0.0
 10
14.1617860006
 20
33.624841706
 30
0.0
 10
14.0139676576
 20
33.4412347884
 30
0.0
 10
13.8980119179
 20
33.3391953766
 30
0.0
 10
13.8375488823
 20
33.2967743425
 30
0.0
  0
SPLINE
  5
2FC
100
AcDbEntity
  8
0
100
AcDbSpline
 62
7
  6
CONTINUOUS
 70
0
 71
3
 72
15
 73
11
 74
0
 42
0.0000001
 43
0.0000001
 44
0.0000000001
 40
0.0
 40
0.0
 40
0.0
 40
0.0
 40
0.1005479105
 40
0.2149244825
 40
0.341171909
 40
0.4757672856
 40
0.6139498903
 40
0.7505229447
 40
0.8806738672
 40
1.0
 40
1.0
 40
1.0
 40
1.0
 10
37.1900618166
 20
56.9743039103
 30
0.0
 10
37.2692937402
 20
56.9885456144
 30
0.0
 10
37.4340295237
 20
57.045807037
 30
0.0
 10
37.6672457958
 20
57.1909115186
 30
0.0
 10
37.8915212027
 20
57.392823043
 30
0.0
 10
38.095037649
 20
57.6404645088
 30
0.0
 10
38.2668767703
 20
57.9207159078
 30
0.0
 10
38.3979417168
 20
58.2183930035
 30
0.0
 10
38.4808366601
 20
58.5172651773
 30
0.0
 10
38.5023018765
 20
58.717210909
 30
0.0
 10
38.5023018765
 20
58.8127470231
 30
0.0
  0
SPLINE
  5
2FD
100
AcDbEntity
  8
0
100
AcDbSpline
 62
7
  6
CONTINUOUS
 70
0
 71
3
 72
11
 73
7
 74
0
 42
0.0000001
 43
0.0000001
 44
0.0000000001
 40
0.0
 40
0.0
 40
0.0
 40
0.0
 40
0.2554111307
 40
0.514226686
 40
0.7656711484
 40
1.0
 40
1.0
 40
1.0
 40
1.0
 10
16.2233059891
 20
40.1264234343
 30
0.0
 10
15.8870283345
 20
39.7421845658
 30
0.0
 10
15.2701404793
 20
38.9142309836
 30
0.0
 10
14.5377636911
 20
37.5643642429
 30
0.0
 10
14.0226462568
 20
36.1622188318
 30
0.0
 10
13.8362561451
 20
35.2029359223
 30
0.0
 10
13.7936980441
 20
34.7364104505
 30
0.0
  0
SPLINE
  5
2FE
100
AcDbEntity
  8
0
100
AcDbSpline
 62
7
  6
CONTINUOUS
 70
0
 71
3
 72
11
 73
7
 74
0
 42
0.0000001
 43
0.0000001
 44
0.0000000001
 40
0.0
 40
0.0
 40
0.0
 40
0.0
 40
0.2895823727
 40
0.5491603443
 40
0.7823007063
 40
1.0
 40
1.0
 40
1.0
 40
1.0
 10
38.5023018765
 20
58.8127470231
 30
0.0
 10
38.5023018765
 20
58.883652041
 30
0.0
 10
38.49148956
 20
59.0185643751
 30
0.0
 10
38.4369184431
 20
59.2039484064
 30
0.0
 10
38.3449116916
 20
59.3543873775
 30
0.0
 10
38.2584912347
 20
59.4269675103
 30
0.0
 10
38.2123333101
 20
59.4536281457
 30
0.0
  0
SPLINE
  5
2FF
100
AcDbEntity
  8
0
100
AcDbSpline
 62
7
  6
CONTINUOUS
 70
0
 71
3
 72
9
 73
5
 74
0
 42
0.0000001
 43
0.0000001
 44
0.0000000001
 40
0.0
 40
0.0
 40
0.0
 40
0.0
 40
0.2665855355
 40
1.0
 40
1.0
 40
1.0
 40
1.0
 10
13.8375488823
 20
33.2967743425
 30
0.0
 10
13.8567220717
 20
33.1860668492
 30
0.0
 10
13.9445210078
 20
32.7740627163
 30
0.0
 10
14.101266596
 20
32.3739833995
 30
0.0
 10
14.2621157721
 20
32.1100250996
 30
0.0
  0
SPLINE
  5
300
100
AcDbEntity
  8
0
100
AcDbSpline
 62
7
  6
CONTINUOUS
 70
0
 71
3
 72
12
 73
8
 74
0
 42
0.0000001
 43
0.0000001
 44
0.0000000001
 40
0.0
 40
0.0
 40
0.0
 40
0.0
 40
0.1109023943
 40
0.2279734037
 40
0.4765810742
 40
0.7373642833
 40
1.0
 40
1.0
 40
1.0
 40
1.0
 10
12.9890305094
 20
33.7123903626
 30
0.0
 10
12.9890305094
 20
33.9657279581
 30
0.0
 10
13.0177459635
 20
34.4867847342
 30
0.0
 10
13.1804876861
 20
35.5644600452
 30
0.0
 10
13.5790558111
 20
36.9461124249
 30
0.0
 10
14.3148177417
 20
38.5547645466
 30
0.0
 10
14.9625726759
 20
39.5656043352
 30
0.0
 10
15.3224731722
 20
40.0456120544
 30
0.0
  0
SPLINE
  5
301
100
AcDbEntity
  8
0
100
AcDbSpline
 62
7
  6
CONTINUOUS
 70
0
 71
3
 72
11
 73
7
 74
0
 42
0.0000001
 43
0.0000001
 44
0.0000000001
 40
0.0
 40
0.0
 40
0.0
 40
0.0
 40
0.2893975675
 40
0.5491290883
 40
0.7823145228
 40
1.0
 40
1.0
 40
1.0
 40
1.0
 10
24.3027731583
 20
28.9768050887
 30
0.0
 10
24.3027731583
 20
29.012234435
 30
0.0
 10
24.297328131
 20
29.0796777097
 30
0.0
 10
24.2701149731
 20
29.172393429
 30
0.0
 10
24.2240759381
 20
29.2476171905
 30
0.0
 10
24.1808687807
 20
29.2839210705
 30
0.0
 10
24.1577796353
 20
29.2972295458
 30
0.0
  0
ENDSEC
  0
SECTION
  2
OBJECTS
  0
DICTIONARY
  5
C
100
AcDbDictionary
280
0
281
1
  3
ACAD_GROUP
350
D
  3
ACAD_MLINESTYLE
350
17
  3
ACAD_LAYOUT
350
1A
  3
ACAD_PLOTSETTINGS
350
19
  3
ACAD_PLOTSTYLENAME
350
E
  0
DICTIONARY
  5
D
102
{ACAD_REACTORS
330
C
102
}
100
AcDbDictionary
280
0
281
1
  0
ACDBDICTIONARYWDFLT
  5
E
102
{ACAD_REACTORS
330
C
102
}
100
AcDbDictionary
281
1
  3
Normal
350
F
100
AcDbDictionaryWithDefault
340
F
  0
DICTIONARY
  5
17
102
{ACAD_REACTORS
330
C
102
}
100
AcDbDictionary
280
0
281
1
  3
Standard
350
18
  0
DICTIONARY
  5
19
102
{ACAD_REACTORS
330
C
102
}
100
AcDbDictionary
281
1
  0
DICTIONARY
  5
1A
102
{ACAD_REACTORS
330
C
102
}
100
AcDbDictionary
281
1
  3
Model
350
302
  3
Layout1
350
303
  0
ACDBPLACEHOLDER
  5
F
102
{ACAD_REACTORS
330
E
102
}
  0
MLINESTYLE
  5
18
102
{ACAD_REACTORS
330
17
102
}
100
AcDbMlineStyle
  2
STANDARD
 70
0
  3

 62
256
 51
90.0
 52
90.0
 71
2
 49
0.5
 62
256
  6
BYLAYER
 49
-0.5
 62
256
  6
BYLAYER
  0
LAYOUT
  5
302
102
{ACAD_REACTORS
330
1A
102
}
100
AcDbPlotSettings
  1

  2
none_device
  4

  6

 40
0.0
 41
0.0
 42
0.0
 43
0.0
 44
210.0
 45
297.0
 46
0.0
 47
0.0
 48
0.0
 49
0.0
140
0.0
141
0.0
142
1.0
143
1.0
 70
1024
 72
1
 73
0
 74
0
  7

 75
0
147
1.0
148
0.0
149
0.0
100
AcDbLayout
  1
Model
 70
0
 71
0
 10
0.0
 20
0.0
 11
210.0
 21
297.0
 12
0.0
 22
0.0
 32
0.0
 14
0.0
 24
0.0
 34
0.0
 15
0.0
 25
0.0
 35
0.0
146
0.0
 13
0.0
 23
0.0
 33
0.0
 16
1.0
 26
0.0
 36
0.0
 17
0.0
 27
1.0
 37
0.0
 76
0
330
210
345
0
346
0
  0
LAYOUT
  5
303
102
{ACAD_REACTORS
330
1A
102
}
100
AcDbPlotSettings
  1

  2
none_device
  4

  6

 40
0.0
 41
0.0
 42
0.0
 43
0.0
 44
210.0
 45
297.0
 46
0.0
 47
0.0
 48
0.0
 49
0.0
140
0.0
141
0.0
142
1.0
143
1.0
 70
0
 72
1
 73
0
 74
0
  7

 75
0
147
1.0
148
0.0
149
0.0
100
AcDbLayout
  1
Layout1
 70
0
 71
1
 10
0.0
 20
0.0
 11
210.0
 21
297.0
 12
0.0
 22
0.0
 32
0.0
 14
0.0
 24
0.0
 34
0.0
 15
0.0
 25
0.0
 35
0.0
146
0.0
 13
0.0
 23
0.0
 33
0.0
 16
1.0
 26
0.0
 36
0.0
 17
0.0
 27
1.0
 37
0.0
 76
0
330
211
345
0
346
0
  0
ENDSEC
  0
EOF
