999
DXF file: C:\Users\sesa63760\Dev\_Creo\CAD\MCADPP0003359_3D-CAD\drw0001_1.dxf
999
Pro/ENGINEER 2019471 by Parametric Technology Corporation
  0
SECTION
  2
HEADER
  9
$ACADVER
  1
AC1024
  9
$DWGCODEPAGE
  3
ANSI_1252
  9
$EXTMAX
 10
91.7750183453
 20
129.796097374
 30
0.0
  9
$EXTMIN
 10
0.0
 20
0.0
 30
0.0
  9
$LIMMIN
 10
0.0
 20
0.0
  9
$LIMMAX
 10
91.7750183453
 20
129.796097374
  9
$VIEWCTR
 10
45.8875091726
 20
64.898048687
  9
$VIEWSIZE
 40
129.796097374
  9
$CLAYER
  8
0
  9
$LTSCALE
 40
8.4607826436
  9
$CELTYPE
  6
BYLAYER
  9
$DIMSCALE
 40
1.0
  9
$DIMASZ
 40
1.0925597422
  9
$DIMEXO
 40
1.0
  9
$DIMDLI
 40
5.8456316447
  9
$DIMEXE
 40
1.0
  9
$DIMCEN
 40
1.3844917053
  9
$DIMLFAC
 40
1.0
  9
$DIMBLK
  1
_FILLED
  9
$DIMALT
 70
0
  9
$DIMALTF
 40
0.0393700787
  9
$DIMTXT
 40
1.5295836391
  9
$DIMTOL
 70
1
  9
$DIMLIM
 70
0
  9
$DIMTFAC
 40
1.0
  9
$DIMTP
 40
0.01
  9
$DIMTM
 40
0.01
  9
$DIMGAP
 40
0.625
  9
$DIMDSEP
 70
46
  9
$AUNITS
 70
0
  9
$PDMODE
 70
3
  9
$PDSIZE
 40
0.3125
  9
$HANDSEED
  5
374
  9
$TILEMODE
 70
1
  9
$MEASUREMENT
 70
1
  9
$INSUNITS
 70
4
  0
ENDSEC
  0
SECTION
  2
CLASSES
  0
CLASS
  1
ACDBDICTIONARYWDFLT
  2
AcDbDictionaryWithDefault
  3
AutoCAD 2000
 90
0
 91
1
280
0
281
0
  0
CLASS
  1
ACDBPLACEHOLDER
  2
AcDbPlaceHolder
  3
AutoCAD 2000
 90
0
 91
1
280
0
281
0
  0
CLASS
  1
LAYOUT
  2
AcDbLayout
  3
AutoCAD 2000
 90
0
 91
0
280
0
281
0
  0
ENDSEC
  0
SECTION
  2
TABLES
  0
TABLE
  2
VPORT
  5
8
100
AcDbSymbolTable
 70
2
  0
VPORT
  5
1F4
100
AcDbSymbolTableRecord
100
AcDbViewportTableRecord
  2
*ACTIVE
 70
0
 10
0.0
 20
0.0
 11
1.0
 21
1.0
 12
45.8875091726
 22
64.898048687
 13
0.0
 23
0.0
 14
1.0
 24
1.0
 15
0.0
 25
0.0
 16
0.0
 26
0.0
 36
1.0
 17
0.0
 27
0.0
 37
0.0
 40
129.796097374
 41
0.7070707071
 42
50.0
 43
0.0
 44
0.0
 50
0.0
 51
0.0
 71
0
 72
100
 73
1
 74
1
 75
0
 76
0
 77
0
 78
0
  0
ENDTAB
  0
TABLE
  2
LTYPE
  5
5
100
AcDbSymbolTable
 70
6
  0
LTYPE
  5
14
100
AcDbSymbolTableRecord
100
AcDbLinetypeTableRecord
  2
BYBLOCK
 70
0
  3

 72
65
 73
0
 40
0.0
  0
LTYPE
  5
15
100
AcDbSymbolTableRecord
100
AcDbLinetypeTableRecord
  2
BYLAYER
 70
0
  3

 72
65
 73
0
 40
0.0
  0
LTYPE
  5
16
100
AcDbSymbolTableRecord
100
AcDbLinetypeTableRecord
  2
CONTINUOUS
 70
64
  3
Solid line
 72
65
 73
0
 40
0.0
  0
LTYPE
  5
1F5
100
AcDbSymbolTableRecord
100
AcDbLinetypeTableRecord
  2
CENTER
 70
64
  3
____ _ ____ _ ____ _ ____ _ ____ _ ____ _ ____
 72
65
 73
4
 40
0.6
 49
0.375
 74
0
 49
-0.075
 74
0
 49
0.075
 74
0
 49
-0.075
 74
0
  0
LTYPE
  5
1F6
100
AcDbSymbolTableRecord
100
AcDbLinetypeTableRecord
  2
HIDDEN
 70
64
  3
- - - - - - - - - - - - - - - - - - - -
 72
65
 73
2
 40
0.2
 49
0.1
 74
0
 49
-0.1
 74
0
  0
LTYPE
  5
1F7
100
AcDbSymbolTableRecord
100
AcDbLinetypeTableRecord
  2
PHANTOM
 70
64
  3
_____ _ _ _____ _ _ _____ _ _ _____
 72
65
 73
6
 40
0.8
 49
0.45
 74
0
 49
-0.05
 74
0
 49
0.1
 74
0
 49
-0.05
 74
0
 49
0.1
 74
0
 49
-0.05
 74
0
  0
LTYPE
  5
1F8
100
AcDbSymbolTableRecord
100
AcDbLinetypeTableRecord
  2
DOT
 70
64
  3
. . . . . . . . . . . . . . . . . . . .
 72
65
 73
2
 40
0.2
 49
0.1
 74
0
 49
-0.1
 74
0
  0
LTYPE
  5
1F9
100
AcDbSymbolTableRecord
100
AcDbLinetypeTableRecord
  2
DASHED
 70
64
  3
- - - - - - - - - - - - - - - - - - - -
 72
65
 73
2
 40
0.2
 49
0.1
 74
0
 49
-0.1
 74
0
  0
ENDTAB
  0
TABLE
  2
LAYER
  5
2
100
AcDbSymbolTable
 70
36
  0
LAYER
  5
10
100
AcDbSymbolTableRecord
100
AcDbLayerTableRecord
  2
0
 70
0
 62
7
  6
CONTINUOUS
370
-3
390
F
  0
LAYER
  5
1FA
100
AcDbSymbolTableRecord
100
AcDbLayerTableRecord
  2
DEFAULT_1
 70
0
 62
7
  6
CENTER
370
-3
390
F
  0
LAYER
  5
1FB
100
AcDbSymbolTableRecord
100
AcDbLayerTableRecord
  2
DEFAULT_2
 70
0
 62
8
  6
HIDDEN
370
-3
390
F
  0
LAYER
  5
1FC
100
AcDbSymbolTableRecord
100
AcDbLayerTableRecord
  2
DEFAULT_3
 70
0
 62
7
  6
PHANTOM
370
-3
390
F
  0
LAYER
  5
1FD
100
AcDbSymbolTableRecord
100
AcDbLayerTableRecord
  2
00_COMPONENTS
 70
0
 62
7
  6
CONTINUOUS
370
-3
390
F
  0
LAYER
  5
1FE
100
AcDbSymbolTableRecord
100
AcDbLayerTableRecord
  2
01_1_DEFAULT_DATUMS
 70
0
 62
7
  6
CONTINUOUS
370
-3
390
F
  0
LAYER
  5
1FF
100
AcDbSymbolTableRecord
100
AcDbLayerTableRecord
  2
01_PLANES
 70
0
 62
7
  6
CONTINUOUS
370
-3
390
F
  0
LAYER
  5
200
100
AcDbSymbolTableRecord
100
AcDbLayerTableRecord
  2
02_COORD_SYS
 70
0
 62
7
  6
CONTINUOUS
370
-3
390
F
  0
LAYER
  5
201
100
AcDbSymbolTableRecord
100
AcDbLayerTableRecord
  2
03_AXES
 70
0
 62
7
  6
CONTINUOUS
370
-3
390
F
  0
LAYER
  5
202
100
AcDbSymbolTableRecord
100
AcDbLayerTableRecord
  2
04_POINTS
 70
0
 62
7
  6
CONTINUOUS
370
-3
390
F
  0
LAYER
  5
203
100
AcDbSymbolTableRecord
100
AcDbLayerTableRecord
  2
05_CURVES
 70
0
 62
7
  6
CONTINUOUS
370
-3
390
F
  0
LAYER
  5
204
100
AcDbSymbolTableRecord
100
AcDbLayerTableRecord
  2
06_SURFS
 70
0
 62
7
  6
CONTINUOUS
370
-3
390
F
  0
LAYER
  5
205
100
AcDbSymbolTableRecord
100
AcDbLayerTableRecord
  2
07_COSMETICS
 70
0
 62
7
  6
CONTINUOUS
370
-3
390
F
  0
LAYER
  5
206
100
AcDbSymbolTableRecord
100
AcDbLayerTableRecord
  2
10_NOTES
 70
0
 62
7
  6
CONTINUOUS
370
-3
390
F
  0
LAYER
  5
207
100
AcDbSymbolTableRecord
100
AcDbLayerTableRecord
  2
11_NOTES_PUB
 70
0
 62
7
  6
CONTINUOUS
370
-3
390
F
  0
LAYER
  5
208
100
AcDbSymbolTableRecord
100
AcDbLayerTableRecord
  2
13_REF_GTOL
 70
0
 62
7
  6
CONTINUOUS
370
-3
390
F
  0
LAYER
  5
209
100
AcDbSymbolTableRecord
100
AcDbLayerTableRecord
  2
16_MISC
 70
0
 62
7
  6
CONTINUOUS
370
-3
390
F
  0
LAYER
  5
20A
100
AcDbSymbolTableRecord
100
AcDbLayerTableRecord
  2
17_NO_PRINT
 70
0
 62
7
  6
CONTINUOUS
370
-3
390
F
  0
LAYER
  5
20B
100
AcDbSymbolTableRecord
100
AcDbLayerTableRecord
  2
18_DATUM_CAMS_JOINTS
 70
0
 62
7
  6
CONTINUOUS
370
-3
390
F
  0
LAYER
  5
20C
100
AcDbSymbolTableRecord
100
AcDbLayerTableRecord
  2
19_DATUM_FUNCTIONAL
 70
0
 62
7
  6
CONTINUOUS
370
-3
390
F
  0
LAYER
  5
20D
100
AcDbSymbolTableRecord
100
AcDbLayerTableRecord
  2
20_DATUM_KINEMATIC_SCHEME
 70
0
 62
7
  6
CONTINUOUS
370
-3
390
F
  0
ENDTAB
  0
TABLE
  2
STYLE
  5
3
100
AcDbSymbolTable
 70
1
  0
STYLE
  5
11
100
AcDbSymbolTableRecord
100
AcDbTextStyleTableRecord
  2
STANDARD
 70
0
 40
0.0
 41
0.8
 50
0.0
 71
0
 42
0.2
  3
txt
  4

  0
STYLE
  5
20E
100
AcDbSymbolTableRecord
100
AcDbTextStyleTableRecord
  2
TEXTSTYLE_1
 70
0
 40
0.0
 41
0.8
 50
0.0
 71
0
 42
0.2
  3
gdt
  4

  0
ENDTAB
  0
TABLE
  2
VIEW
  5
6
100
AcDbSymbolTable
 70
0
  0
ENDTAB
  0
TABLE
  2
UCS
  5
7
100
AcDbSymbolTable
 70
0
  0
ENDTAB
  0
TABLE
  2
APPID
  5
9
100
AcDbSymbolTable
 70
1
  0
APPID
  5
20F
100
AcDbSymbolTableRecord
100
AcDbRegAppTableRecord
  2
ACAD
 70
0
  0
ENDTAB
  0
TABLE
  2
BLOCK_RECORD
  5
1
100
AcDbSymbolTable
 70
0
  0
BLOCK_RECORD
  5
210
100
AcDbSymbolTableRecord
100
AcDbBlockTableRecord
  2
*Model_Space
  0
BLOCK_RECORD
  5
211
100
AcDbSymbolTableRecord
100
AcDbBlockTableRecord
  2
*Paper_Space
  0
BLOCK_RECORD
  5
212
100
AcDbSymbolTableRecord
100
AcDbBlockTableRecord
  2
_FILLED
  0
ENDTAB
  0
TABLE
  2
DIMSTYLE
  5
A
100
AcDbSymbolTable
 70
1
100
AcDbDimStyleTable
 71
0
  0
DIMSTYLE
105
213
100
AcDbSymbolTableRecord
100
AcDbDimStyleTableRecord
  2
STANDARD
 70
0
  3

  4

 40
1.0
 41
1.0925597422
 42
1.0
 43
0.38
 44
1.0
 45
0.0
 46
0.0
 47
0.01
 48
0.01
140
1.5295836391
141
0.09
142
0.0
143
25.4
144
1.0
145
0.0
146
1.0
147
0.625
 71
1
 72
0
 73
0
 74
0
 75
0
 76
0
 77
1
 78
8
 79
2
170
0
171
1
172
0
173
0
174
0
175
0
176
0
177
0
178
0
270
2
179
2
271
2
272
2
273
2
274
2
275
0
280
0
281
0
282
0
283
1
284
8
285
0
286
0
287
3
288
0
340
11
278
46
341
212
342
212
343
212
344
212
  0
ENDTAB
  0
ENDSEC
  0
SECTION
  2
BLOCKS
  0
BLOCK
  5
20
100
AcDbEntity
  8
0
100
AcDbBlockBegin
  2
*Model_Space
 70
0
 10
0.0
 20
0.0
 30
0.0
  3
*Model_Space
  1

  0
ENDBLK
  5
21
100
AcDbEntity
  8
0
100
AcDbBlockEnd
  0
BLOCK
  5
1C
100
AcDbEntity
  8
0
100
AcDbBlockBegin
  2
*Paper_Space
 70
0
 10
0.0
 20
0.0
 30
0.0
  3
*Paper_Space
  1

  0
ENDBLK
  5
1D
100
AcDbEntity
  8
0
100
AcDbBlockEnd
  0
BLOCK
  5
214
100
AcDbEntity
  8
0
100
AcDbBlockBegin
  2
_FILLED
 70
64
 10
0.0
 20
0.0
  3
_FILLED
  1

  0
SOLID
  5
215
100
AcDbEntity
  8
0
  6
BYBLOCK
 62
0
100
AcDbTrace
 10
0.0
 20
0.0
 11
-1.0
 21
0.25
 12
-1.0
 22
-0.25
 13
-1.0
 23
-0.25
  0
ENDBLK
  5
216
100
AcDbEntity
  8
0
  6
BYBLOCK
 62
0
100
AcDbBlockEnd
  0
ENDSEC
  0
SECTION
  2
ENTITIES
  0
LINE
  5
217
100
AcDbEntity
  8
0
100
AcDbLine
 62
7
  6
CONTINUOUS
 10
17.1462040852
 20
36.5647815889
 11
17.7118918653
 21
36.2381889853
  0
LINE
  5
218
100
AcDbEntity
  8
0
100
AcDbLine
 62
7
  6
CONTINUOUS
 10
23.2627032077
 20
33.0334990623
 11
23.8283909878
 21
32.7069064587
  0
LINE
  5
219
100
AcDbEntity
  8
0
100
AcDbLine
 62
7
  6
CONTINUOUS
 10
29.3792023302
 20
29.5022165357
 11
29.9519612076
 21
29.1715415245
  0
LINE
  5
21A
100
AcDbEntity
  8
0
100
AcDbLine
 62
7
  6
CONTINUOUS
 10
35.4886303555
 20
25.9750164166
 11
36.0613892329
 21
25.6443414055
  0
LINE
  5
21B
100
AcDbEntity
  8
0
100
AcDbLine
 62
7
  6
CONTINUOUS
 10
11.5812505483
 20
39.9409368104
 11
10.7610032671
 21
40.4144960856
  0
LINE
  5
21C
100
AcDbEntity
  8
0
100
AcDbLine
 62
7
  6
CONTINUOUS
 10
41.6263427698
 20
22.5947871508
 11
42.5809408987
 21
22.0436621322
  0
LINE
  5
21D
100
AcDbEntity
  8
0
100
AcDbLine
 62
7
  6
CONTINUOUS
 10
10.6469580247
 20
42.2984773459
 11
42.4668956563
 21
23.9276433925
  0
LINE
  5
21E
100
AcDbEntity
  8
0
100
AcDbLine
 62
7
  6
CONTINUOUS
 10
10.6469580247
 20
80.527120516
 11
10.6469580247
 21
42.2984773459
  0
LINE
  5
21F
100
AcDbEntity
  8
0
100
AcDbLine
 62
7
  6
CONTINUOUS
 10
10.7610032671
 20
82.542789093
 11
10.7610032671
 21
80.5929641743
  0
LINE
  5
220
100
AcDbEntity
  8
0
100
AcDbLine
 62
7
  6
CONTINUOUS
 10
10.7610032671
 20
42.2326347841
 11
10.7610032671
 21
40.4144960856
  0
LINE
  5
221
100
AcDbEntity
  8
0
100
AcDbLine
 62
7
  6
CONTINUOUS
 10
11.5812505483
 20
41.7590755089
 11
11.5812505483
 21
39.9409368104
  0
LINE
  5
222
100
AcDbEntity
  8
0
100
AcDbLine
 62
7
  6
CONTINUOUS
 10
11.7438857851
 20
81.9753344442
 11
11.7438857851
 21
80.0255095255
  0
LINE
  5
223
100
AcDbEntity
  8
0
100
AcDbLine
 62
7
  6
CONTINUOUS
 10
45.9634460055
 20
105.3151806956
 11
50.7335831848
 21
108.0692042409
  0
LINE
  5
224
100
AcDbEntity
  8
0
100
AcDbLine
 62
7
  6
CONTINUOUS
 10
46.819056439
 20
104.8293815136
 11
51.7235368
 21
107.6609676679
  0
LINE
  5
225
100
AcDbEntity
  8
0
100
AcDbLine
 62
7
  6
CONTINUOUS
 10
48.317909657
 20
101.7774798725
 11
48.552792779
 21
101.8654931704
  0
LINE
  5
226
100
AcDbEntity
  8
0
100
AcDbLine
 62
7
  6
CONTINUOUS
 10
17.1462040852
 20
36.5647815889
 11
17.1462040852
 21
38.5462207708
  0
LINE
  5
227
100
AcDbEntity
  8
0
100
AcDbLine
 62
7
  6
CONTINUOUS
 10
26.7382737092
 20
91.7672154213
 11
10.7610032671
 21
82.542789093
  0
LINE
  5
228
100
AcDbEntity
  8
0
100
AcDbLine
 62
7
  6
CONTINUOUS
 10
27.7211562272
 20
91.1997607725
 11
11.7438857851
 21
81.9753344442
  0
LINE
  5
229
100
AcDbEntity
  8
0
100
AcDbLine
 62
7
  6
CONTINUOUS
 10
10.6469580247
 20
80.527120516
 11
10.7610032671
 21
80.5929641743
  0
LINE
  5
22A
100
AcDbEntity
  8
0
100
AcDbLine
 62
7
  6
CONTINUOUS
 10
11.7438857851
 20
80.0255095255
 11
27.8086438546
 21
89.3004465575
  0
LINE
  5
22B
100
AcDbEntity
  8
0
100
AcDbLine
 62
7
  6
CONTINUOUS
 10
27.8157149518
 20
89.29636415
 11
45.7167972414
 21
99.6279337626
  0
LINE
  5
22C
100
AcDbEntity
  8
0
100
AcDbLine
 62
7
  6
CONTINUOUS
 10
21.2712269949
 20
85.4036164575
 11
17.3781275197
 21
83.1559478443
  0
LINE
  5
22D
100
AcDbEntity
  8
0
100
AcDbLine
 62
7
  6
CONTINUOUS
 10
35.6864194168
 20
93.0204386854
 11
46.2929789831
 21
99.1440998342
  0
LINE
  5
22E
100
AcDbEntity
  8
0
100
AcDbLine
 62
7
  6
CONTINUOUS
 10
28.808940651
 20
88.8864533308
 11
35.9692633069
 21
93.020442867
  0
LINE
  5
22F
100
AcDbEntity
  8
0
100
AcDbLine
 62
7
  6
CONTINUOUS
 10
50.2591501464
 20
98.1498997859
 11
50.0478946651
 21
98.066448136
  0
LINE
  5
230
100
AcDbEntity
  8
0
100
AcDbLine
 62
7
  6
CONTINUOUS
 10
17.280554933
 20
76.8289844176
 11
17.280554933
 21
78.9421098197
  0
LINE
  5
231
100
AcDbEntity
  8
0
100
AcDbLine
 62
7
  6
CONTINUOUS
 10
17.7118918653
 20
38.2196281672
 11
17.7118918653
 21
36.2381889853
  0
LINE
  5
232
100
AcDbEntity
  8
0
100
AcDbLine
 62
7
  6
CONTINUOUS
 10
17.8533138103
 20
78.6114348086
 11
17.8533138103
 21
76.4983094065
  0
LINE
  5
233
100
AcDbEntity
  8
0
100
AcDbLine
 62
7
  6
CONTINUOUS
 10
20.160372474
 20
81.6173893642
 11
20.160372474
 21
81.5496543101
  0
LINE
  5
234
100
AcDbEntity
  8
0
100
AcDbLine
 62
7
  6
CONTINUOUS
 10
46.2926942158
 20
98.3274333941
 11
36.5349661919
 21
92.6938415428
  0
LINE
  5
235
100
AcDbEntity
  8
0
100
AcDbLine
 62
7
  6
CONTINUOUS
 10
48.4285800349
 20
99.0013383162
 11
50.5251683662
 21
100.2117842786
  0
LINE
  5
236
100
AcDbEntity
  8
0
100
AcDbLine
 62
7
  6
CONTINUOUS
 10
21.2712269949
 20
82.3009072724
 11
20.0651909083
 21
81.6046061695
  0
LINE
  5
237
100
AcDbEntity
  8
0
100
AcDbLine
 62
7
  6
CONTINUOUS
 10
20.160372474
 20
81.6173893642
 11
20.1017113579
 21
81.5835215552
  0
LINE
  5
238
100
AcDbEntity
  8
0
100
AcDbLine
 62
7
  6
CONTINUOUS
 10
50.3583100282
 20
98.2456723846
 11
50.0478901258
 21
98.066450279
  0
LINE
  5
239
100
AcDbEntity
  8
0
100
AcDbLine
 62
7
  6
CONTINUOUS
 10
33.3921086242
 20
88.2440641552
 11
17.280554933
 21
78.9421098197
  0
LINE
  5
23A
100
AcDbEntity
  8
0
100
AcDbLine
 62
7
  6
CONTINUOUS
 10
33.9648675016
 20
87.9133891441
 11
17.8533138103
 21
78.6114348086
  0
LINE
  5
23B
100
AcDbEntity
  8
0
100
AcDbLine
 62
7
  6
CONTINUOUS
 10
21.2712269949
 20
85.4036164575
 11
21.2712269949
 21
82.3009072724
  0
LINE
  5
23C
100
AcDbEntity
  8
0
100
AcDbLine
 62
7
  6
CONTINUOUS
 10
23.2627032077
 20
33.0334990623
 11
23.2627032077
 21
35.0149382442
  0
LINE
  5
23D
100
AcDbEntity
  8
0
100
AcDbLine
 62
7
  6
CONTINUOUS
 10
23.3899829582
 20
73.3017842986
 11
23.3899829582
 21
75.4149097007
  0
LINE
  5
23E
100
AcDbEntity
  8
0
100
AcDbLine
 62
7
  6
CONTINUOUS
 10
23.8283909878
 20
34.6883456406
 11
23.8283909878
 21
32.7069064587
  0
LINE
  5
23F
100
AcDbEntity
  8
0
100
AcDbLine
 62
7
  6
CONTINUOUS
 10
23.9768840301
 20
75.0760698744
 11
23.9768840301
 21
72.9629444723
  0
LINE
  5
240
100
AcDbEntity
  8
0
100
AcDbLine
 62
7
  6
CONTINUOUS
 10
51.157681521
 20
96.4971035767
 11
40.5526161108
 21
90.3743027556
  0
LINE
  5
241
100
AcDbEntity
  8
0
100
AcDbLine
 62
7
  6
CONTINUOUS
 10
17.8533138103
 20
76.4983094065
 11
34.0596823365
 21
85.8550047857
  0
LINE
  5
242
100
AcDbEntity
  8
0
100
AcDbLine
 62
7
  6
CONTINUOUS
 10
27.3827763493
 20
81.8751916162
 11
23.4896768741
 21
79.6275230029
  0
LINE
  5
243
100
AcDbEntity
  8
0
100
AcDbLine
 62
7
  6
CONTINUOUS
 10
56.1219333473
 20
97.0571147287
 11
55.4510477349
 21
96.6697810518
  0
LINE
  5
244
100
AcDbEntity
  8
0
100
AcDbLine
 62
7
  6
CONTINUOUS
 10
35.2826608488
 20
44.7085397873
 11
28.1479237221
 21
48.8276890004
  0
LINE
  5
245
100
AcDbEntity
  8
0
100
AcDbLine
 62
7
  6
CONTINUOUS
 10
32.1290338536
 20
47.1324376849
 11
33.5502369818
 21
46.2927751669
  0
LINE
  5
246
100
AcDbEntity
  8
0
100
AcDbLine
 62
7
  6
CONTINUOUS
 10
26.2719218285
 20
78.0889645229
 11
26.2719218285
 21
78.0212294688
  0
LINE
  5
247
100
AcDbEntity
  8
0
100
AcDbLine
 62
7
  6
CONTINUOUS
 10
27.3827763493
 20
81.8751916162
 11
27.3827763493
 21
78.7724824311
  0
LINE
  5
248
100
AcDbEntity
  8
0
100
AcDbLine
 62
7
  6
CONTINUOUS
 10
28.1479237221
 20
53.7916608066
 11
28.1479237221
 21
48.8276890004
  0
LINE
  5
249
100
AcDbEntity
  8
0
100
AcDbLine
 62
7
  6
CONTINUOUS
 10
27.3827763493
 20
78.7724824311
 11
26.1767402628
 21
78.0761813282
  0
LINE
  5
24A
100
AcDbEntity
  8
0
100
AcDbLine
 62
7
  6
CONTINUOUS
 10
26.2719218285
 20
78.0889645229
 11
26.2132607123
 21
78.0550967138
  0
LINE
  5
24B
100
AcDbEntity
  8
0
100
AcDbLine
 62
7
  6
CONTINUOUS
 10
39.5015366495
 20
84.7168640362
 11
23.3899829582
 21
75.4149097007
  0
LINE
  5
24C
100
AcDbEntity
  8
0
100
AcDbLine
 62
7
  6
CONTINUOUS
 10
40.0884377214
 20
84.3780242099
 11
23.9768840301
 21
75.0760698744
  0
LINE
  5
24D
100
AcDbEntity
  8
0
100
AcDbLine
 62
7
  6
CONTINUOUS
 10
31.0470494547
 20
50.501299514
 11
32.1289939444
 21
49.8765912032
  0
LINE
  5
24E
100
AcDbEntity
  8
0
100
AcDbLine
 62
7
  6
CONTINUOUS
 10
28.1479237221
 20
53.7916608066
 11
35.2826608488
 21
49.6725115935
  0
LINE
  5
24F
100
AcDbEntity
  8
0
100
AcDbLine
 62
7
  6
CONTINUOUS
 10
33.5502408446
 20
49.3248157501
 11
33.1896188168
 21
49.5350747524
  0
LINE
  5
250
100
AcDbEntity
  8
0
100
AcDbLine
 62
7
  6
CONTINUOUS
 10
32.1289810803
 20
51.2231450082
 11
33.5502408446
 21
50.3944339165
  0
LINE
  5
251
100
AcDbEntity
  8
0
100
AcDbLine
 62
7
  6
CONTINUOUS
 10
33.1896169195
 20
47.5754700375
 11
33.5502215302
 21
47.3624021495
  0
LINE
  5
252
100
AcDbEntity
  8
0
100
AcDbLine
 62
7
  6
CONTINUOUS
 10
27.8086438546
 20
89.3004465575
 11
27.7211562272
 21
91.1997607725
  0
LINE
  5
253
100
AcDbEntity
  8
0
100
AcDbLine
 62
7
  6
CONTINUOUS
 10
29.3792023302
 20
29.5022165357
 11
29.3792023302
 21
31.4836557176
  0
LINE
  5
254
100
AcDbEntity
  8
0
100
AcDbLine
 62
7
  6
CONTINUOUS
 10
29.513553178
 20
69.7664193644
 11
29.513553178
 21
71.8795447665
  0
LINE
  5
255
100
AcDbEntity
  8
0
100
AcDbLine
 62
7
  6
CONTINUOUS
 10
29.9519612076
 20
31.1529807064
 11
29.9519612076
 21
29.1715415245
  0
LINE
  5
256
100
AcDbEntity
  8
0
100
AcDbLine
 62
7
  6
CONTINUOUS
 10
30.0863120554
 20
71.5488697554
 11
30.0863120554
 21
69.4357443533
  0
LINE
  5
257
100
AcDbEntity
  8
0
100
AcDbLine
 62
7
  6
CONTINUOUS
 10
31.0470494547
 20
52.1178876503
 11
31.0470494547
 21
50.501299514
  0
LINE
  5
258
100
AcDbEntity
  8
0
100
AcDbLine
 62
7
  6
CONTINUOUS
 10
32.1290470469
 20
47.1324300683
 11
32.128967887
 21
51.2231526248
  0
LINE
  5
259
100
AcDbEntity
  8
0
100
AcDbLine
 62
7
  6
CONTINUOUS
 10
23.9768840301
 20
72.9629444723
 11
40.1832525563
 21
82.3196398516
  0
LINE
  5
25A
100
AcDbEntity
  8
0
100
AcDbLine
 62
7
  6
CONTINUOUS
 10
33.4943257038
 20
78.3467667749
 11
29.6012262286
 21
76.0990981616
  0
LINE
  5
25B
100
AcDbEntity
  8
0
100
AcDbLine
 62
7
  6
CONTINUOUS
 10
33.4943257038
 20
75.2440575898
 11
32.2882896172
 21
74.5477564869
  0
LINE
  5
25C
100
AcDbEntity
  8
0
100
AcDbLine
 62
7
  6
CONTINUOUS
 10
32.3834711829
 20
74.5605396816
 11
32.3248100667
 21
74.5266718725
  0
LINE
  5
25D
100
AcDbEntity
  8
0
100
AcDbLine
 62
7
  6
CONTINUOUS
 10
45.6251068693
 20
81.181499102
 11
29.513553178
 21
71.8795447665
  0
LINE
  5
25E
100
AcDbEntity
  8
0
100
AcDbLine
 62
7
  6
CONTINUOUS
 10
34.0596823365
 20
85.8550047857
 11
33.9648675016
 21
87.9133891441
  0
LINE
  5
25F
100
AcDbEntity
  8
0
100
AcDbLine
 62
7
  6
CONTINUOUS
 10
32.1642828204
 20
51.4728672581
 11
32.1642828204
 21
51.2435415894
  0
LINE
  5
260
100
AcDbEntity
  8
0
100
AcDbLine
 62
7
  6
CONTINUOUS
 10
32.3834711829
 20
74.5605396816
 11
32.3834711829
 21
74.4928046275
  0
LINE
  5
261
100
AcDbEntity
  8
0
100
AcDbLine
 62
7
  6
CONTINUOUS
 10
33.1896192911
 20
49.5350744786
 11
33.1896164452
 21
47.5754703113
  0
LINE
  5
262
100
AcDbEntity
  8
0
100
AcDbLine
 62
7
  6
CONTINUOUS
 10
33.4943257038
 20
78.3467667749
 11
33.4943257038
 21
75.2440575898
  0
LINE
  5
263
100
AcDbEntity
  8
0
100
AcDbLine
 62
7
  6
CONTINUOUS
 10
33.5502176673
 20
47.3624043796
 11
33.5502408446
 21
46.2927729369
  0
LINE
  5
264
100
AcDbEntity
  8
0
100
AcDbLine
 62
7
  6
CONTINUOUS
 10
33.5502408446
 20
50.3944339165
 11
33.5502408446
 21
49.3248157501
  0
LINE
  5
265
100
AcDbEntity
  8
0
100
AcDbLine
 62
7
  6
CONTINUOUS
 10
35.2826608488
 20
44.7085397873
 11
35.2826608488
 21
49.6725115935
  0
LINE
  5
266
100
AcDbEntity
  8
0
100
AcDbLine
 62
7
  6
CONTINUOUS
 10
35.4886303555
 20
25.9750164166
 11
35.4886303555
 21
27.9564555985
  0
LINE
  5
267
100
AcDbEntity
  8
0
100
AcDbLine
 62
7
  6
CONTINUOUS
 10
35.6229812033
 20
66.2392192454
 11
35.6229812033
 21
68.3523446475
  0
LINE
  5
268
100
AcDbEntity
  8
0
100
AcDbLine
 62
7
  6
CONTINUOUS
 10
46.1978657466
 20
80.8508240909
 11
30.0863120554
 21
71.5488697554
  0
LINE
  5
269
100
AcDbEntity
  8
0
100
AcDbLine
 62
7
  6
CONTINUOUS
 10
30.0863120554
 20
69.4357443533
 11
46.2926805816
 21
78.7924397325
  0
LINE
  5
26A
100
AcDbEntity
  8
0
100
AcDbLine
 62
7
  6
CONTINUOUS
 10
39.6058750582
 20
74.8183419335
 11
35.712775583
 21
72.5706733203
  0
LINE
  5
26B
100
AcDbEntity
  8
0
100
AcDbLine
 62
7
  6
CONTINUOUS
 10
68.2365903178
 20
90.1687436413
 11
67.5934486797
 21
89.7974278599
  0
LINE
  5
26C
100
AcDbEntity
  8
0
100
AcDbLine
 62
7
  6
CONTINUOUS
 10
36.0613892329
 20
27.6257805874
 11
36.0613892329
 21
25.6443414055
  0
LINE
  5
26D
100
AcDbEntity
  8
0
100
AcDbLine
 62
7
  6
CONTINUOUS
 10
36.2098822751
 20
68.0135048212
 11
36.2098822751
 21
65.9003794191
  0
LINE
  5
26E
100
AcDbEntity
  8
0
100
AcDbLine
 62
7
  6
CONTINUOUS
 10
38.4950205374
 20
71.0321148402
 11
38.4950205374
 21
70.9643797862
  0
LINE
  5
26F
100
AcDbEntity
  8
0
100
AcDbLine
 62
7
  6
CONTINUOUS
 10
39.6058750582
 20
74.8183419335
 11
39.6058750582
 21
71.7156327484
  0
LINE
  5
270
100
AcDbEntity
  8
0
100
AcDbLine
 62
7
  6
CONTINUOUS
 10
39.6058750582
 20
71.7156327484
 11
38.3998389717
 21
71.0193316456
  0
LINE
  5
271
100
AcDbEntity
  8
0
100
AcDbLine
 62
7
  6
CONTINUOUS
 10
38.4950205374
 20
71.0321148402
 11
38.4363594212
 21
70.9982470312
  0
LINE
  5
272
100
AcDbEntity
  8
0
100
AcDbLine
 62
7
  6
CONTINUOUS
 10
51.7345348945
 20
77.654298983
 11
35.6229812033
 21
68.3523446475
  0
LINE
  5
273
100
AcDbEntity
  8
0
100
AcDbLine
 62
7
  6
CONTINUOUS
 10
52.3214359664
 20
77.3154591567
 11
36.2098822751
 21
68.0135048212
  0
LINE
  5
274
100
AcDbEntity
  8
0
100
AcDbLine
 62
7
  6
CONTINUOUS
 10
40.1832525563
 20
82.3196398516
 11
40.0884377214
 21
84.3780242099
  0
LINE
  5
275
100
AcDbEntity
  8
0
100
AcDbLine
 62
7
  6
CONTINUOUS
 10
41.6263427698
 20
22.5947871508
 11
41.6263427698
 21
24.4129258493
  0
LINE
  5
276
100
AcDbEntity
  8
0
100
AcDbLine
 62
7
  6
CONTINUOUS
 10
41.746551423
 20
62.7038543112
 11
41.746551423
 21
64.6536792299
  0
LINE
  5
277
100
AcDbEntity
  8
0
100
AcDbLine
 62
7
  6
CONTINUOUS
 10
42.4668956563
 20
62.1562865625
 11
42.4668956563
 21
23.9276433925
  0
LINE
  5
278
100
AcDbEntity
  8
0
100
AcDbLine
 62
7
  6
CONTINUOUS
 10
42.5809408987
 20
64.1719551396
 11
42.5809408987
 21
62.2221302209
  0
LINE
  5
279
100
AcDbEntity
  8
0
100
AcDbLine
 62
7
  6
CONTINUOUS
 10
42.5809408987
 20
23.9934870509
 11
42.5809408987
 21
22.0436621322
  0
LINE
  5
27A
100
AcDbEntity
  8
0
100
AcDbLine
 62
7
  6
CONTINUOUS
 10
72.186670095
 20
87.6583492962
 11
72.5317365207
 21
87.8575744097
  0
LINE
  5
27B
100
AcDbEntity
  8
0
100
AcDbLine
 62
7
  6
CONTINUOUS
 10
36.2098822751
 20
65.9003794191
 11
52.4162508013
 21
75.2570747984
  0
LINE
  5
27C
100
AcDbEntity
  8
0
100
AcDbLine
 62
7
  6
CONTINUOUS
 10
45.8901347487
 20
71.3586043003
 11
41.851195107
 21
69.0267353303
  0
LINE
  5
27D
100
AcDbEntity
  8
0
100
AcDbLine
 62
7
  6
CONTINUOUS
 10
74.3394775726
 20
86.6967266607
 11
72.0886078757
 21
85.3972104739
  0
LINE
  5
27E
100
AcDbEntity
  8
0
100
AcDbLine
 62
7
  6
CONTINUOUS
 10
76.6590868402
 20
87.6016216728
 11
81.5635672012
 21
90.4332078272
  0
LINE
  5
27F
100
AcDbEntity
  8
0
100
AcDbLine
 62
7
  6
CONTINUOUS
 10
76.793430022
 20
87.5158837986
 11
81.5635672012
 21
90.2699073438
  0
LINE
  5
280
100
AcDbEntity
  8
0
100
AcDbLine
 62
7
  6
CONTINUOUS
 10
71.8310063143
 20
84.5616491974
 11
61.2259409042
 21
78.4388231377
  0
LINE
  5
281
100
AcDbEntity
  8
0
100
AcDbLine
 62
7
  6
CONTINUOUS
 10
71.8322140299
 20
83.582518329
 11
62.0744872374
 21
77.9489257667
  0
LINE
  5
282
100
AcDbEntity
  8
0
100
AcDbLine
 62
7
  6
CONTINUOUS
 10
77.7833836372
 20
86.9443467422
 11
82.5535208164
 21
89.6983702874
  0
LINE
  5
283
100
AcDbEntity
  8
0
100
AcDbLine
 62
7
  6
CONTINUOUS
 10
72.703196379
 20
42.5311225553
 11
76.6590940642
 21
40.2472356302
  0
LINE
  5
284
100
AcDbEntity
  8
0
100
AcDbLine
 62
7
  6
CONTINUOUS
 10
76.793430022
 20
40.4908445322
 11
77.7833836372
 21
39.9193074758
  0
LINE
  5
285
100
AcDbEntity
  8
0
100
AcDbLine
 62
7
  6
CONTINUOUS
 10
42.4668956563
 20
62.1562865625
 11
10.6469580247
 21
80.527120516
  0
LINE
  5
286
100
AcDbEntity
  8
0
100
AcDbLine
 62
7
  6
CONTINUOUS
 10
10.7610032671
 20
80.5929641743
 11
11.7438857851
 21
80.0255095255
  0
LINE
  5
287
100
AcDbEntity
  8
0
100
AcDbLine
 62
7
  6
CONTINUOUS
 10
17.280554933
 20
76.8289844176
 11
17.8533138103
 21
76.4983094065
  0
LINE
  5
288
100
AcDbEntity
  8
0
100
AcDbLine
 62
7
  6
CONTINUOUS
 10
23.3899829582
 20
73.3017842986
 11
23.9768840301
 21
72.9629444723
  0
LINE
  5
289
100
AcDbEntity
  8
0
100
AcDbLine
 62
7
  6
CONTINUOUS
 10
29.513553178
 20
69.7664193644
 11
30.0863120554
 21
69.4357443533
  0
LINE
  5
28A
100
AcDbEntity
  8
0
100
AcDbLine
 62
7
  6
CONTINUOUS
 10
35.6229812033
 20
66.2392192454
 11
36.2098822751
 21
65.9003794191
  0
LINE
  5
28B
100
AcDbEntity
  8
0
100
AcDbLine
 62
7
  6
CONTINUOUS
 10
41.746551423
 20
62.7038543112
 11
42.5809408987
 21
62.2221302209
  0
LINE
  5
28C
100
AcDbEntity
  8
0
100
AcDbLine
 62
7
  6
CONTINUOUS
 10
46.2926805816
 20
78.7924397325
 11
46.1978657466
 21
80.8508240909
  0
LINE
  5
28D
100
AcDbEntity
  8
0
100
AcDbLine
 62
7
  6
CONTINUOUS
 10
44.6065698918
 20
67.5036899989
 11
44.6065698918
 21
67.4359549448
  0
LINE
  5
28E
100
AcDbEntity
  8
0
100
AcDbLine
 62
7
  6
CONTINUOUS
 10
45.8901347487
 20
71.3586043003
 11
45.8901347487
 21
68.2558951152
  0
LINE
  5
28F
100
AcDbEntity
  8
0
100
AcDbLine
 62
7
  6
CONTINUOUS
 10
46.2929789831
 20
99.1440998342
 11
46.2929786483
 21
98.3275976103
  0
LINE
  5
290
100
AcDbEntity
  8
0
100
AcDbLine
 62
7
  6
CONTINUOUS
 10
46.5758208651
 20
99.1442061293
 11
46.5758208651
 21
98.9808046917
  0
LINE
  5
291
100
AcDbEntity
  8
0
100
AcDbLine
 62
7
  6
CONTINUOUS
 10
46.5741172638
 20
99.1432225605
 11
46.819056439
 21
104.8293815136
  0
LINE
  5
292
100
AcDbEntity
  8
0
100
AcDbLine
 62
7
  6
CONTINUOUS
 10
45.7167972414
 20
99.6279337626
 11
45.9634460055
 21
105.3151806956
  0
LINE
  5
293
100
AcDbEntity
  8
0
100
AcDbLine
 62
7
  6
CONTINUOUS
 10
72.1866701778
 20
87.6583456806
 11
72.3763872067
 21
87.8126849257
  0
LINE
  5
294
100
AcDbEntity
  8
0
100
AcDbLine
 62
7
  6
CONTINUOUS
 10
45.8901347487
 20
68.2558951152
 11
44.5382584957
 21
67.4753936556
  0
LINE
  5
295
100
AcDbEntity
  8
0
100
AcDbLine
 62
7
  6
CONTINUOUS
 10
44.6065698918
 20
67.5036899989
 11
44.5479087756
 21
67.4698221899
  0
LINE
  5
296
100
AcDbEntity
  8
0
100
AcDbLine
 62
7
  6
CONTINUOUS
 10
57.7238218652
 20
73.8781055582
 11
41.746551423
 21
64.6536792299
  0
LINE
  5
297
100
AcDbEntity
  8
0
100
AcDbLine
 62
7
  6
CONTINUOUS
 10
58.5582113409
 20
73.3963814678
 11
42.5809408987
 21
64.1719551396
  0
LINE
  5
298
100
AcDbEntity
  8
0
100
AcDbLine
 62
7
  6
CONTINUOUS
 10
58.6385316474
 20
71.6526663328
 11
65.8092937081
 21
75.7926830263
  0
LINE
  5
299
100
AcDbEntity
  8
0
100
AcDbLine
 62
7
  6
CONTINUOUS
 10
42.4668956563
 20
62.1562865625
 11
42.5809408987
 21
62.2221302209
  0
LINE
  5
29A
100
AcDbEntity
  8
0
100
AcDbLine
 62
7
  6
CONTINUOUS
 10
58.645858855
 20
71.4935961894
 11
65.8092937081
 21
75.6293825429
  0
LINE
  5
29B
100
AcDbEntity
  8
0
100
AcDbLine
 62
7
  6
CONTINUOUS
 10
76.4158512663
 20
81.7530448509
 11
76.5467812578
 21
81.8286368656
  0
LINE
  5
29C
100
AcDbEntity
  8
0
100
AcDbLine
 62
7
  6
CONTINUOUS
 10
11.7438857851
 20
81.9753344442
 11
10.7610032671
 21
82.542789093
  0
LINE
  5
29D
100
AcDbEntity
  8
0
100
AcDbLine
 62
7
  6
CONTINUOUS
 10
41.746551423
 20
64.6536792299
 11
42.5809408987
 21
64.1719551396
  0
LINE
  5
29E
100
AcDbEntity
  8
0
100
AcDbLine
 62
7
  6
CONTINUOUS
 10
17.280554933
 20
78.9421098197
 11
17.8533138103
 21
78.6114348086
  0
LINE
  5
29F
100
AcDbEntity
  8
0
100
AcDbLine
 62
7
  6
CONTINUOUS
 10
23.3899829582
 20
75.4149097007
 11
23.9768840301
 21
75.0760698744
  0
LINE
  5
2A0
100
AcDbEntity
  8
0
100
AcDbLine
 62
7
  6
CONTINUOUS
 10
29.513553178
 20
71.8795447665
 11
30.0863120554
 21
71.5488697554
  0
LINE
  5
2A1
100
AcDbEntity
  8
0
100
AcDbLine
 62
7
  6
CONTINUOUS
 10
35.6229812033
 20
68.3523446475
 11
36.2098822751
 21
68.0135048212
  0
LINE
  5
2A2
100
AcDbEntity
  8
0
100
AcDbLine
 62
7
  6
CONTINUOUS
 10
74.4857097485
 20
84.0132789152
 11
74.2959922338
 21
83.8589356204
  0
LINE
  5
2A3
100
AcDbEntity
  8
0
100
AcDbLine
 62
7
  6
CONTINUOUS
 10
76.6986951563
 20
81.5897485491
 11
66.0921375981
 21
75.466086241
  0
LINE
  5
2A4
100
AcDbEntity
  8
0
100
AcDbLine
 62
7
  6
CONTINUOUS
 10
58.6971484214
 20
70.3801244268
 11
77.536734873
 21
81.2570998092
  0
LINE
  5
2A5
100
AcDbEntity
  8
0
100
AcDbLine
 62
7
  6
CONTINUOUS
 10
17.3781275197
 20
83.1559478443
 11
20.9786837672
 21
81.0772127528
  0
LINE
  5
2A6
100
AcDbEntity
  8
0
100
AcDbLine
 62
7
  6
CONTINUOUS
 10
23.4896768741
 20
79.6275230029
 11
27.0881117924
 21
77.5500126337
  0
LINE
  5
2A7
100
AcDbEntity
  8
0
100
AcDbLine
 62
7
  6
CONTINUOUS
 10
29.6012262286
 20
76.0990981616
 11
33.2116820122
 21
74.0146476996
  0
LINE
  5
2A8
100
AcDbEntity
  8
0
100
AcDbLine
 62
7
  6
CONTINUOUS
 10
35.712775583
 20
72.5706733203
 11
39.3211100375
 21
70.4874475805
  0
LINE
  5
2A9
100
AcDbEntity
  8
0
100
AcDbLine
 62
7
  6
CONTINUOUS
 10
41.851195107
 20
69.0267353303
 11
45.5861046461
 21
66.8704330846
  0
LINE
  5
2AA
100
AcDbEntity
  8
0
100
AcDbLine
 62
7
  6
CONTINUOUS
 10
45.6447657623
 20
66.9043008936
 11
44.6065698918
 21
67.5036899989
  0
LINE
  5
2AB
100
AcDbEntity
  8
0
100
AcDbLine
 62
7
  6
CONTINUOUS
 10
39.3797711536
 20
70.5213153896
 11
38.4950205374
 21
71.0321148402
  0
LINE
  5
2AC
100
AcDbEntity
  8
0
100
AcDbLine
 62
7
  6
CONTINUOUS
 10
33.2703431284
 20
74.0485155086
 11
32.3834711829
 21
74.5605396816
  0
LINE
  5
2AD
100
AcDbEntity
  8
0
100
AcDbLine
 62
7
  6
CONTINUOUS
 10
27.1467729086
 20
77.5838804428
 11
26.2719218285
 21
78.0889645229
  0
LINE
  5
2AE
100
AcDbEntity
  8
0
100
AcDbLine
 62
7
  6
CONTINUOUS
 10
21.0373448833
 20
81.1110805618
 11
20.160372474
 21
81.6173893642
  0
LINE
  5
2AF
100
AcDbEntity
  8
0
100
AcDbLine
 62
7
  6
CONTINUOUS
 10
40.5271461241
 20
71.1837486834
 11
39.6058750582
 21
71.7156327484
  0
LINE
  5
2B0
100
AcDbEntity
  8
0
100
AcDbLine
 62
7
  6
CONTINUOUS
 10
34.4177180988
 20
74.7109488025
 11
33.4943257038
 21
75.2440575898
  0
LINE
  5
2B1
100
AcDbEntity
  8
0
100
AcDbLine
 62
7
  6
CONTINUOUS
 10
28.294147879
 20
78.2463137366
 11
27.3827763493
 21
78.7724824311
  0
LINE
  5
2B2
100
AcDbEntity
  8
0
100
AcDbLine
 62
7
  6
CONTINUOUS
 10
22.1847198537
 20
81.7735138557
 11
21.2712269949
 21
82.3009072724
  0
LINE
  5
2B3
100
AcDbEntity
  8
0
100
AcDbLine
 62
7
  6
CONTINUOUS
 10
46.9379808991
 20
67.6509345442
 11
45.8901347487
 21
68.2558951152
  0
LINE
  5
2B4
100
AcDbEntity
  8
0
100
AcDbLine
 62
7
  6
CONTINUOUS
 10
52.4162508013
 20
75.2570747984
 11
52.3214359664
 21
77.3154591567
  0
LINE
  5
2B5
100
AcDbEntity
  8
0
100
AcDbLine
 62
7
  6
CONTINUOUS
 10
13.1558273586
 20
40.8500137293
 11
11.5812505483
 21
39.9409368104
  0
LINE
  5
2B6
100
AcDbEntity
  8
0
100
AcDbLine
 62
7
  6
CONTINUOUS
 10
32.128967887
 20
51.2231526248
 11
32.3628875144
 21
51.3582053786
  0
LINE
  5
2B7
100
AcDbEntity
  8
0
100
AcDbLine
 62
7
  6
CONTINUOUS
 10
81.2314820059
 20
78.887323597
 11
82.5535208164
 21
79.6505985041
  0
LINE
  5
2B8
100
AcDbEntity
  8
0
100
AcDbLine
 62
7
  6
CONTINUOUS
 10
33.5502408446
 20
50.3944339165
 11
33.7912316247
 21
50.5335691778
  0
LINE
  5
2B9
100
AcDbEntity
  8
0
100
AcDbLine
 62
7
  6
CONTINUOUS
 10
33.5502408446
 20
49.3248157501
 11
34.7175613719
 21
49.9987645478
  0
LINE
  5
2BA
100
AcDbEntity
  8
0
100
AcDbLine
 62
7
  6
CONTINUOUS
 10
28.1479237221
 20
48.8276890004
 11
31.0470494547
 21
50.501299514
  0
LINE
  5
2BB
100
AcDbEntity
  8
0
100
AcDbLine
 62
7
  6
CONTINUOUS
 10
80.0839854136
 20
51.2926938218
 11
80.7949436738
 21
50.8822311648
  0
LINE
  5
2BC
100
AcDbEntity
  8
0
100
AcDbLine
 62
7
  6
CONTINUOUS
 10
43.2142095127
 20
72.7351161938
 11
39.6058750582
 21
74.8183419335
  0
LINE
  5
2BD
100
AcDbEntity
  8
0
100
AcDbLine
 62
7
  6
CONTINUOUS
 10
37.1047814874
 20
76.2623163128
 11
33.4943257038
 21
78.3467667749
  0
LINE
  5
2BE
100
AcDbEntity
  8
0
100
AcDbLine
 62
7
  6
CONTINUOUS
 10
30.9812112677
 20
79.797681247
 11
27.3827763493
 21
81.8751916162
  0
LINE
  5
2BF
100
AcDbEntity
  8
0
100
AcDbLine
 62
7
  6
CONTINUOUS
 10
24.8717832424
 20
83.324881366
 11
21.2712269949
 21
85.4036164575
  0
LINE
  5
2C0
100
AcDbEntity
  8
0
100
AcDbLine
 62
7
  6
CONTINUOUS
 10
49.6250442878
 20
69.2023020545
 11
45.8901347487
 21
71.3586043003
  0
LINE
  5
2C1
100
AcDbEntity
  8
0
100
AcDbLine
 62
7
  6
CONTINUOUS
 10
80.0839854136
 20
52.6752335898
 11
81.2812988854
 21
51.9839799728
  0
LINE
  5
2C2
100
AcDbEntity
  8
0
100
AcDbLine
 62
7
  6
CONTINUOUS
 10
80.0839854136
 20
53.0929430804
 11
81.6430510872
 21
52.1928364572
  0
LINE
  5
2C3
100
AcDbEntity
  8
0
100
AcDbLine
 62
7
  6
CONTINUOUS
 10
82.5535208164
 20
51.652674282
 11
81.6430510872
 21
52.1928364572
  0
LINE
  5
2C4
100
AcDbEntity
  8
0
100
AcDbLine
 62
7
  6
CONTINUOUS
 10
33.1896164452
 20
47.5754703113
 11
35.2826608488
 21
48.7838828479
  0
LINE
  5
2C5
100
AcDbEntity
  8
0
100
AcDbLine
 62
7
  6
CONTINUOUS
 10
33.5502215302
 20
47.3624021495
 11
35.2826608488
 21
48.362620486
  0
LINE
  5
2C6
100
AcDbEntity
  8
0
100
AcDbLine
 62
7
  6
CONTINUOUS
 10
33.5502408446
 20
46.2927729369
 11
35.2826608488
 21
47.2929801222
  0
LINE
  5
2C7
100
AcDbEntity
  8
0
100
AcDbLine
 62
7
  6
CONTINUOUS
 10
17.7118918653
 20
36.2381889853
 11
19.4278930645
 21
37.2289168258
  0
LINE
  5
2C8
100
AcDbEntity
  8
0
100
AcDbLine
 62
7
  6
CONTINUOUS
 10
27.8157149518
 20
89.29636415
 11
27.8086438546
 21
89.3004465575
  0
LINE
  5
2C9
100
AcDbEntity
  8
0
100
AcDbLine
 62
7
  6
CONTINUOUS
 10
58.6971484214
 20
70.3801244268
 11
58.5582113409
 21
73.3963814678
  0
LINE
  5
2CA
100
AcDbEntity
  8
0
100
AcDbLine
 62
7
  6
CONTINUOUS
 10
58.5582113409
 20
31.2680884605
 11
58.6971484214
 21
34.4447752657
  0
LINE
  5
2CB
100
AcDbEntity
  8
0
100
AcDbLine
 62
7
  6
CONTINUOUS
 10
27.9573254085
 20
89.3781224972
 11
31.6568770175
 21
87.2422337001
  0
LINE
  5
2CC
100
AcDbEntity
  8
0
100
AcDbLine
 62
7
  6
CONTINUOUS
 10
34.0596823365
 20
85.8550047857
 11
37.7663050428
 21
83.7150335811
  0
LINE
  5
2CD
100
AcDbEntity
  8
0
100
AcDbLine
 62
7
  6
CONTINUOUS
 10
40.1832525563
 20
82.3196398516
 11
43.8898752626
 21
80.1796686469
  0
LINE
  5
2CE
100
AcDbEntity
  8
0
100
AcDbLine
 62
7
  6
CONTINUOUS
 10
46.2926805816
 20
78.7924397325
 11
49.9993032878
 21
76.6524685279
  0
LINE
  5
2CF
100
AcDbEntity
  8
0
100
AcDbLine
 62
7
  6
CONTINUOUS
 10
52.4162508013
 20
75.2570747984
 11
56.2642978965
 21
73.0354540319
  0
LINE
  5
2D0
100
AcDbEntity
  8
0
100
AcDbLine
 62
7
  6
CONTINUOUS
 10
27.7211562272
 20
91.1997607725
 11
26.7382737092
 21
91.7672154213
  0
LINE
  5
2D1
100
AcDbEntity
  8
0
100
AcDbLine
 62
7
  6
CONTINUOUS
 10
57.7238218652
 20
73.8781055582
 11
58.5582113409
 21
73.3963814678
  0
LINE
  5
2D2
100
AcDbEntity
  8
0
100
AcDbLine
 62
7
  6
CONTINUOUS
 10
33.3921086242
 20
88.2440641552
 11
33.9648675016
 21
87.9133891441
  0
LINE
  5
2D3
100
AcDbEntity
  8
0
100
AcDbLine
 62
7
  6
CONTINUOUS
 10
39.5015366495
 20
84.7168640362
 11
40.0884377214
 21
84.3780242099
  0
LINE
  5
2D4
100
AcDbEntity
  8
0
100
AcDbLine
 62
7
  6
CONTINUOUS
 10
45.6251068693
 20
81.181499102
 11
46.1978657466
 21
80.8508240909
  0
LINE
  5
2D5
100
AcDbEntity
  8
0
100
AcDbLine
 62
7
  6
CONTINUOUS
 10
51.7345348945
 20
77.654298983
 11
52.3214359664
 21
77.3154591567
  0
LINE
  5
2D6
100
AcDbEntity
  8
0
100
AcDbLine
 62
7
  6
CONTINUOUS
 10
23.8283909878
 20
32.7069064587
 11
25.5443921871
 21
33.6976342991
  0
LINE
  5
2D7
100
AcDbEntity
  8
0
100
AcDbLine
 62
7
  6
CONTINUOUS
 10
35.827838918
 20
92.9387919454
 11
35.6864194168
 21
93.0204386854
  0
LINE
  5
2D8
100
AcDbEntity
  8
0
100
AcDbLine
 62
7
  6
CONTINUOUS
 10
65.8092937081
 20
75.6293825429
 11
66.0921375981
 21
75.466086241
  0
LINE
  5
2D9
100
AcDbEntity
  8
0
100
AcDbLine
 62
7
  6
CONTINUOUS
 10
35.9692633069
 20
93.020442867
 11
40.5526161108
 21
90.3743027556
  0
LINE
  5
2DA
100
AcDbEntity
  8
0
100
AcDbLine
 62
7
  6
CONTINUOUS
 10
61.2259409042
 20
78.4388231377
 11
65.8092937081
 21
75.7926830263
  0
LINE
  5
2DB
100
AcDbEntity
  8
0
100
AcDbLine
 62
7
  6
CONTINUOUS
 10
65.8092937081
 20
75.7926830263
 11
65.8092937081
 21
75.6293825429
  0
LINE
  5
2DC
100
AcDbEntity
  8
0
100
AcDbLine
 62
7
  6
CONTINUOUS
 10
29.9519612076
 20
29.1715415245
 11
31.6679624068
 21
30.162269365
  0
LINE
  5
2DD
100
AcDbEntity
  8
0
100
AcDbLine
 62
7
  6
CONTINUOUS
 10
71.8324984624
 20
84.5625106843
 11
71.8324984624
 21
83.5826825452
  0
LINE
  5
2DE
100
AcDbEntity
  8
0
100
AcDbLine
 62
7
  6
CONTINUOUS
 10
72.186670095
 20
87.6583492962
 11
72.0886078757
 21
85.3972104739
  0
LINE
  5
2DF
100
AcDbEntity
  8
0
100
AcDbLine
 62
7
  6
CONTINUOUS
 10
74.6058095251
 20
43.2414143497
 11
74.5885420696
 21
43.6196208998
  0
LINE
  5
2E0
100
AcDbEntity
  8
0
100
AcDbLine
 62
7
  6
CONTINUOUS
 10
76.793430022
 20
40.4908445322
 11
76.5976285155
 21
44.7795605763
  0
LINE
  5
2E1
100
AcDbEntity
  8
0
100
AcDbLine
 62
7
  6
CONTINUOUS
 10
77.536734873
 20
45.3217506482
 11
77.7833836372
 21
39.9193074758
  0
LINE
  5
2E2
100
AcDbEntity
  8
0
100
AcDbLine
 62
7
  6
CONTINUOUS
 10
76.4573210425
 20
44.6985545025
 11
76.6590940642
 21
40.2472356302
  0
LINE
  5
2E3
100
AcDbEntity
  8
0
100
AcDbLine
 62
7
  6
CONTINUOUS
 10
76.414147665
 20
81.9154627197
 11
76.4158512663
 21
81.7530448509
  0
LINE
  5
2E4
100
AcDbEntity
  8
0
100
AcDbLine
 62
7
  6
CONTINUOUS
 10
76.6590868402
 20
87.6016216728
 11
76.414147665
 21
81.9154627197
  0
LINE
  5
2E5
100
AcDbEntity
  8
0
100
AcDbLine
 62
7
  6
CONTINUOUS
 10
74.4857098439
 20
84.0132743163
 11
74.5837720633
 21
86.2744131386
  0
LINE
  5
2E6
100
AcDbEntity
  8
0
100
AcDbLine
 62
7
  6
CONTINUOUS
 10
76.5467812578
 20
81.8286368656
 11
76.793430022
 21
87.5158837986
  0
LINE
  5
2E7
100
AcDbEntity
  8
0
100
AcDbLine
 62
7
  6
CONTINUOUS
 10
77.7833836372
 20
86.9443467422
 11
77.536734873
 21
81.2570998092
  0
LINE
  5
2E8
100
AcDbEntity
  8
0
100
AcDbLine
 62
7
  6
CONTINUOUS
 10
81.6430510872
 20
52.1928364572
 11
81.2812988854
 21
51.9839799728
  0
LINE
  5
2E9
100
AcDbEntity
  8
0
100
AcDbLine
 62
7
  6
CONTINUOUS
 10
36.0613892329
 20
25.6443414055
 11
37.7773904321
 21
26.6350692459
  0
LINE
  5
2EA
100
AcDbEntity
  8
0
100
AcDbLine
 62
7
  6
CONTINUOUS
 10
80.7949436738
 20
50.8822311648
 11
80.0839854136
 21
50.4717616721
  0
LINE
  5
2EB
100
AcDbEntity
  8
0
100
AcDbLine
 62
7
  6
CONTINUOUS
 10
75.9912887794
 20
81.1813297249
 11
71.8322140299
 21
83.582518329
  0
LINE
  5
2EC
100
AcDbEntity
  8
0
100
AcDbLine
 62
7
  6
CONTINUOUS
 10
50.3103429032
 20
96.0078953178
 11
46.2926942158
 21
98.3274333941
  0
LINE
  5
2ED
100
AcDbEntity
  8
0
100
AcDbLine
 62
7
  6
CONTINUOUS
 10
79.6215094396
 20
79.8168206635
 11
81.2314820059
 21
78.887323597
  0
LINE
  5
2EE
100
AcDbEntity
  8
0
100
AcDbLine
 62
7
  6
CONTINUOUS
 10
46.5758208651
 20
98.9808046917
 11
46.2929789831
 21
99.1440998342
  0
LINE
  5
2EF
100
AcDbEntity
  8
0
100
AcDbLine
 62
7
  6
CONTINUOUS
 10
76.4158512663
 20
81.7530448509
 11
76.6986951563
 21
81.5897485491
  0
LINE
  5
2F0
100
AcDbEntity
  8
0
100
AcDbLine
 62
7
  6
CONTINUOUS
 10
46.5705300868
 20
99.1350420252
 11
45.7167972414
 21
99.6279337626
  0
LINE
  5
2F1
100
AcDbEntity
  8
0
100
AcDbLine
 62
7
  6
CONTINUOUS
 10
76.5467812578
 20
81.8286368656
 11
77.536734873
 21
81.2570998092
  0
LINE
  5
2F2
100
AcDbEntity
  8
0
100
AcDbLine
 62
7
  6
CONTINUOUS
 10
51.1557667126
 20
96.496136812
 11
71.8290914469
 21
84.5606572282
  0
LINE
  5
2F3
100
AcDbEntity
  8
0
100
AcDbLine
 62
7
  6
CONTINUOUS
 10
76.4158512663
 20
81.9164462885
 11
71.8324984624
 21
84.5625106843
  0
LINE
  5
2F4
100
AcDbEntity
  8
0
100
AcDbLine
 62
7
  6
CONTINUOUS
 10
51.159173669
 20
96.4979903022
 11
46.5758208651
 21
99.1442061293
  0
LINE
  5
2F5
100
AcDbEntity
  8
0
100
AcDbLine
 62
7
  6
CONTINUOUS
 10
50.0478946651
 20
98.066448136
 11
48.4285780458
 21
99.0013398757
  0
LINE
  5
2F6
100
AcDbEntity
  8
0
100
AcDbLine
 62
7
  6
CONTINUOUS
 10
80.0839854136
 20
50.4717616721
 11
80.0839854136
 21
76.9187692089
  0
LINE
  5
2F7
100
AcDbEntity
  8
0
100
AcDbLine
 62
7
  6
CONTINUOUS
 10
77.536734873
 20
45.3217506482
 11
58.6971484214
 21
34.4447752657
  0
LINE
  5
2F8
100
AcDbEntity
  8
0
100
AcDbLine
 62
7
  6
CONTINUOUS
 10
42.4668956563
 20
23.9276433925
 11
42.5809408987
 21
23.9934870509
  0
LINE
  5
2F9
100
AcDbEntity
  8
0
100
AcDbLine
 62
7
  6
CONTINUOUS
 10
80.4343849665
 20
80.8307825972
 11
80.9694858922
 21
80.5218489227
  0
LINE
  5
2FA
100
AcDbEntity
  8
0
100
AcDbLine
 62
7
  6
CONTINUOUS
 10
48.552792779
 20
101.8654931704
 11
50.1721094003
 21
100.9306014371
  0
LINE
  5
2FB
100
AcDbEntity
  8
0
100
AcDbLine
 62
7
  6
CONTINUOUS
 10
81.5635672012
 20
90.4332078272
 11
81.5635672012
 21
90.2699073438
  0
LINE
  5
2FC
100
AcDbEntity
  8
0
100
AcDbLine
 62
7
  6
CONTINUOUS
 10
82.5535208164
 20
42.6733310211
 11
82.5535208164
 21
51.652674282
  0
LINE
  5
2FD
100
AcDbEntity
  8
0
100
AcDbLine
 62
7
  6
CONTINUOUS
 10
82.5535208164
 20
79.6505985041
 11
82.5535208164
 21
89.6983702874
  0
LINE
  5
2FE
100
AcDbEntity
  8
0
100
AcDbLine
 62
7
  6
CONTINUOUS
 10
81.2812988854
 20
51.9839799728
 11
80.7949436738
 21
50.8822311648
  0
LINE
  5
2FF
100
AcDbEntity
  8
0
100
AcDbLine
 62
7
  6
CONTINUOUS
 10
74.6058096206
 20
43.2414190591
 11
74.4384211527
 21
43.099967362
  0
LINE
  5
300
100
AcDbEntity
  8
0
100
AcDbLine
 62
7
  6
CONTINUOUS
 10
58.5582113409
 20
31.2680884605
 11
42.5809408987
 21
22.0436621322
  0
LINE
  5
301
100
AcDbEntity
  8
0
100
AcDbLine
 62
7
  6
CONTINUOUS
 10
76.9372359975
 20
40.4078199917
 11
76.6590940642
 21
40.2472356302
  0
LINE
  5
302
100
AcDbEntity
  8
0
100
AcDbLine
 62
7
  6
CONTINUOUS
 10
77.7833836372
 20
39.9193074758
 11
82.5535208164
 21
42.6733310211
  0
LINE
  5
303
100
AcDbEntity
  8
0
100
AcDbLine
 62
7
  6
CONTINUOUS
 10
46.8155159261
 20
104.8232490266
 11
45.9634460055
 21
105.3151806956
  0
LINE
  5
304
100
AcDbEntity
  8
0
100
AcDbLine
 62
7
  6
CONTINUOUS
 10
76.793430022
 20
87.5158837986
 11
77.7833836372
 21
86.9443467422
  0
LINE
  5
305
100
AcDbEntity
  8
0
100
AcDbLine
 62
7
  6
CONTINUOUS
 10
46.819056439
 20
104.8293815136
 11
76.6590868402
 21
87.6016216728
  0
LINE
  5
306
100
AcDbEntity
  8
0
100
AcDbLine
 62
7
  6
CONTINUOUS
 10
80.0839854136
 20
76.9187692089
 11
79.5726602442
 21
79.3985196502
  0
LINE
  5
307
100
AcDbEntity
  8
0
100
AcDbLine
 62
7
  6
CONTINUOUS
 10
80.9694858922
 20
80.5218489227
 11
81.2314820059
 21
78.887323597
  0
LINE
  5
308
100
AcDbEntity
  8
0
100
AcDbLine
 62
7
  6
CONTINUOUS
 10
51.5821124111
 20
107.5793167464
 11
50.7335831848
 21
108.0692042409
  0
LINE
  5
309
100
AcDbEntity
  8
0
100
AcDbLine
 62
7
  6
CONTINUOUS
 10
81.5635672012
 20
90.2699073438
 11
82.5535208164
 21
89.6983702874
  0
LINE
  5
30A
100
AcDbEntity
  8
0
100
AcDbLine
 62
7
  6
CONTINUOUS
 10
51.7235368
 20
107.6609676679
 11
81.5635672012
 21
90.4332078272
  0
ARC
  5
30B
100
AcDbEntity
  8
0
100
AcDbCircle
 62
7
  6
CONTINUOUS
 10
56.8586022456
 20
96.5958604109
 40
1.1132272429
100
AcDbArc
 50
246.5705534
 51
249.647221481
  0
SPLINE
  5
30C
100
AcDbEntity
  8
0
100
AcDbSpline
 62
7
  6
CONTINUOUS
 70
0
 71
3
 72
17
 73
13
 74
0
 42
0.0000001
 43
0.0000001
 44
0.0000000001
 40
0.0
 40
0.0
 40
0.0
 40
0.0
 40
0.0428570169
 40
0.0874783987
 40
0.1353170009
 40
0.1872733753
 40
0.3045407835
 40
0.4382068211
 40
0.5825483434
 40
0.7296734068
 40
0.8713416545
 40
1.0
 40
1.0
 40
1.0
 40
1.0
 10
80.7472650591
 20
48.7766678403
 30
0.0
 10
80.7282909601
 20
48.7876401828
 30
0.0
 10
80.6923120837
 20
48.8151713471
 30
0.0
 10
80.6489693807
 20
48.8699006626
 30
0.0
 10
80.6166563907
 20
48.9368886856
 30
0.0
 10
80.5875339045
 20
49.044543605
 30
0.0
 10
80.583933659
 20
49.2015425837
 30
0.0
 10
80.6245526897
 20
49.400776857
 30
0.0
 10
80.7064503254
 20
49.6033950146
 30
0.0
 10
80.822969835
 20
49.7930280275
 30
0.0
 10
80.9646231135
 20
49.9541098091
 30
0.0
 10
81.0752581273
 20
50.0392901144
 30
0.0
 10
81.1322421036
 20
50.0721896321
 30
0.0
  0
SPLINE
  5
30D
100
AcDbEntity
  8
0
100
AcDbSpline
 62
7
  6
CONTINUOUS
 70
0
 71
3
 72
17
 73
13
 74
0
 42
0.0000001
 43
0.0000001
 44
0.0000000001
 40
0.0
 40
0.0
 40
0.0
 40
0.0
 40
0.0428570169
 40
0.0874783987
 40
0.1353170009
 40
0.1872733753
 40
0.3045407835
 40
0.4382068211
 40
0.5825483434
 40
0.7296734068
 40
0.8713416545
 40
1.0
 40
1.0
 40
1.0
 40
1.0
 10
80.7472650591
 20
81.8776758307
 30
0.0
 10
80.7282909601
 20
81.8886481732
 30
0.0
 10
80.6923120837
 20
81.9161793376
 30
0.0
 10
80.6489693807
 20
81.970908653
 30
0.0
 10
80.6166563907
 20
82.037896676
 30
0.0
 10
80.5875339045
 20
82.1455515954
 30
0.0
 10
80.583933659
 20
82.3025505741
 30
0.0
 10
80.6245526897
 20
82.5017848474
 30
0.0
 10
80.7064503254
 20
82.704403005
 30
0.0
 10
80.822969835
 20
82.894036018
 30
0.0
 10
80.9646231135
 20
83.0551177996
 30
0.0
 10
81.0752581273
 20
83.1402981049
 30
0.0
 10
81.1322421036
 20
83.1731976226
 30
0.0
  0
SPLINE
  5
30E
100
AcDbEntity
  8
0
100
AcDbSpline
 62
7
  6
CONTINUOUS
 70
0
 71
3
 72
12
 73
8
 74
0
 42
0.0000001
 43
0.0000001
 44
0.0000000001
 40
0.0
 40
0.0
 40
0.0
 40
0.0
 40
0.1081614689
 40
0.2183687405
 40
0.4513480154
 40
0.7104447573
 40
1.0
 40
1.0
 40
1.0
 40
1.0
 10
37.3606537995
 20
33.4904166855
 30
0.0
 10
37.4098382617
 20
33.5188131802
 30
0.0
 10
37.5142708695
 20
33.567735544
 30
0.0
 10
37.7436020622
 20
33.6311556288
 30
0.0
 10
38.0648086677
 20
33.6397690083
 30
0.0
 10
38.4670556783
 20
33.5424571107
 30
0.0
 10
38.728965524
 20
33.4178812449
 30
0.0
 10
38.8606360581
 20
33.3418629464
 30
0.0
  0
SPLINE
  5
30F
100
AcDbEntity
  8
0
100
AcDbSpline
 62
7
  6
CONTINUOUS
 70
0
 71
3
 72
20
 73
16
 74
0
 42
0.0000001
 43
0.0000001
 44
0.0000000001
 40
0.0
 40
0.0
 40
0.0
 40
0.0
 40
0.0428308781
 40
0.0874313055
 40
0.1352324479
 40
0.1871645451
 40
0.2436332745
 40
0.3046140537
 40
0.3697391471
 40
0.4383737618
 40
0.5826246901
 40
0.7296906131
 40
0.8711889232
 40
0.9376084375
 40
1.0
 40
1.0
 40
1.0
 40
1.0
 10
31.2229390419
 20
37.6789874055
 30
0.0
 10
31.2969047904
 20
37.7216745305
 30
0.0
 10
31.4599210712
 20
37.7894732132
 30
0.0
 10
31.7290501939
 20
37.8288539254
 30
0.0
 10
32.0180461026
 20
37.8076450101
 30
0.0
 10
32.3204921203
 20
37.7272523597
 30
0.0
 10
32.6304597967
 20
37.5902706998
 30
0.0
 10
32.9417846161
 20
37.3998377383
 30
0.0
 10
33.2481228665
 20
37.1599835264
 30
0.0
 10
33.6479325472
 20
36.7749145244
 30
0.0
 10
34.0921988659
 20
36.2059319488
 30
0.0
 10
34.5046142954
 20
35.4437983569
 30
0.0
 10
34.7328979041
 20
34.7690615399
 30
0.0
 10
34.8273325745
 20
34.2376165893
 30
0.0
 10
34.8442528192
 20
33.9806015971
 30
0.0
 10
34.8442528192
 20
33.8562000902
 30
0.0
  0
SPLINE
  5
310
100
AcDbEntity
  8
0
100
AcDbSpline
 62
7
  6
CONTINUOUS
 70
0
 71
3
 72
12
 73
8
 74
0
 42
0.0000001
 43
0.0000001
 44
0.0000000001
 40
0.0
 40
0.0
 40
0.0
 40
0.0
 40
0.1081614689
 40
0.2183687405
 40
0.4513480154
 40
0.7104447573
 40
1.0
 40
1.0
 40
1.0
 40
1.0
 10
25.11351336
 20
41.2061834634
 30
0.0
 10
25.1626978221
 20
41.234579958
 30
0.0
 10
25.2671304299
 20
41.2835023218
 30
0.0
 10
25.4964616226
 20
41.3469224066
 30
0.0
 10
25.8176682281
 20
41.3555357861
 30
0.0
 10
26.2199152387
 20
41.2582238885
 30
0.0
 10
26.4818250845
 20
41.1336480228
 30
0.0
 10
26.6134956185
 20
41.0576297242
 30
0.0
  0
SPLINE
  5
311
100
AcDbEntity
  8
0
100
AcDbSpline
 62
7
  6
CONTINUOUS
 70
0
 71
3
 72
11
 73
7
 74
0
 42
0.0000001
 43
0.0000001
 44
0.0000000001
 40
0.0
 40
0.0
 40
0.0
 40
0.0
 40
0.2873272806
 40
0.5459039832
 40
0.7799904197
 40
1.0
 40
1.0
 40
1.0
 40
1.0
 10
80.2710730681
 20
80.7955536252
 30
0.0
 10
80.3149807884
 20
80.8188728045
 30
0.0
 10
80.4021941126
 20
80.8567015948
 30
0.0
 10
80.5354391089
 20
80.8844848736
 30
0.0
 10
80.660174291
 20
80.8783240156
 30
0.0
 10
80.7352462661
 20
80.8502300734
 30
0.0
 10
80.768222673
 20
80.8312108774
 30
0.0
  0
SPLINE
  5
312
100
AcDbEntity
  8
0
100
AcDbSpline
 62
7
  6
CONTINUOUS
 70
0
 71
3
 72
13
 73
9
 74
0
 42
0.0000001
 43
0.0000001
 44
0.0000000001
 40
0.0
 40
0.0
 40
0.0
 40
0.0
 40
0.114085802
 40
0.2373501558
 40
0.4995401574
 40
0.7619814195
 40
0.8855400685
 40
1.0
 40
1.0
 40
1.0
 40
1.0
 10
79.5583488082
 20
79.5549696176
 30
0.0
 10
79.5583488082
 20
79.6114113806
 30
0.0
 10
79.5686995776
 20
79.7289463827
 30
0.0
 10
79.6245216232
 20
79.9703013532
 30
0.0
 10
79.7546914766
 20
80.2665090657
 30
0.0
 10
79.9451215496
 20
80.5282403274
 30
0.0
 10
80.1257241789
 20
80.6984587441
 30
0.0
 10
80.2222141754
 20
80.7669282961
 30
0.0
 10
80.2710730681
 20
80.7955536252
 30
0.0
  0
SPLINE
  5
313
100
AcDbEntity
  8
0
100
AcDbSpline
 62
7
  6
CONTINUOUS
 70
0
 71
3
 72
9
 73
5
 74
0
 42
0.0000001
 43
0.0000001
 44
0.0000000001
 40
0.0
 40
0.0
 40
0.0
 40
0.0
 40
0.2399401062
 40
1.0
 40
1.0
 40
1.0
 40
1.0
 10
79.5726602442
 20
79.3985196502
 30
0.0
 10
79.5702491671
 20
79.4108626957
 30
0.0
 10
79.5616042449
 20
79.4625762908
 30
0.0
 10
79.5583488082
 20
79.5151314934
 30
0.0
 10
79.5583488082
 20
79.5549696176
 30
0.0
  0
SPLINE
  5
314
100
AcDbEntity
  8
0
100
AcDbSpline
 62
7
  6
CONTINUOUS
 70
0
 71
3
 72
11
 73
7
 74
0
 42
0.0000001
 43
0.0000001
 44
0.0000000001
 40
0.0
 40
0.0
 40
0.0
 40
0.0
 40
0.2893960733
 40
0.5491270641
 40
0.7823131117
 40
1.0
 40
1.0
 40
1.0
 40
1.0
 10
81.1322421036
 20
83.1731976226
 30
0.0
 10
81.1659916281
 20
83.1926828033
 30
0.0
 10
81.2332318942
 20
83.2245879836
 30
0.0
 10
81.336518421
 20
83.2496565568
 30
0.0
 10
81.4334964572
 20
83.2471720474
 30
0.0
 10
81.4918426477
 20
83.2259804155
 30
0.0
 10
81.5172191481
 20
83.211305692
 30
0.0
  0
SPLINE
  5
315
100
AcDbEntity
  8
0
100
AcDbSpline
 62
7
  6
CONTINUOUS
 70
0
 71
3
 72
11
 73
7
 74
0
 42
0.0000001
 43
0.0000001
 44
0.0000000001
 40
0.0
 40
0.0
 40
0.0
 40
0.0
 40
0.2893960733
 40
0.5491270641
 40
0.7823131117
 40
1.0
 40
1.0
 40
1.0
 40
1.0
 10
81.1322421036
 20
50.0721896321
 30
0.0
 10
81.1659916281
 20
50.0916748128
 30
0.0
 10
81.2332318942
 20
50.1235799931
 30
0.0
 10
81.336518421
 20
50.1486485663
 30
0.0
 10
81.4334964572
 20
50.146164057
 30
0.0
 10
81.4918426477
 20
50.1249724251
 30
0.0
 10
81.5172191481
 20
50.1102977016
 30
0.0
  0
SPLINE
  5
316
100
AcDbEntity
  8
0
100
AcDbSpline
 62
7
  6
CONTINUOUS
 70
0
 71
3
 72
12
 73
8
 74
0
 42
0.0000001
 43
0.0000001
 44
0.0000000001
 40
0.0
 40
0.0
 40
0.0
 40
0.0
 40
0.1081614689
 40
0.2183687405
 40
0.4513480154
 40
0.7104447573
 40
1.0
 40
1.0
 40
1.0
 40
1.0
 10
18.9970142375
 20
44.73746599
 30
0.0
 10
19.0461986996
 20
44.7658624846
 30
0.0
 10
19.1506313074
 20
44.8147848484
 30
0.0
 10
19.3799625001
 20
44.8782049332
 30
0.0
 10
19.7011691056
 20
44.8868183127
 30
0.0
 10
20.1034161162
 20
44.7895064151
 30
0.0
 10
20.3653259619
 20
44.6649305494
 30
0.0
 10
20.496996496
 20
44.5889122508
 30
0.0
  0
SPLINE
  5
317
100
AcDbEntity
  8
0
100
AcDbSpline
 62
7
  6
CONTINUOUS
 70
0
 71
3
 72
20
 73
16
 74
0
 42
0.0000001
 43
0.0000001
 44
0.0000000001
 40
0.0
 40
0.0
 40
0.0
 40
0.0
 40
0.0428308781
 40
0.0874313055
 40
0.1352324479
 40
0.1871645451
 40
0.2436332745
 40
0.3046140537
 40
0.3697391471
 40
0.4383737618
 40
0.5826246901
 40
0.7296906131
 40
0.8711889232
 40
0.9376084375
 40
1.0
 40
1.0
 40
1.0
 40
1.0
 10
12.8875838688
 20
48.2646701702
 30
0.0
 10
12.9615496173
 20
48.3073572953
 30
0.0
 10
13.1245658981
 20
48.3751559779
 30
0.0
 10
13.3936950208
 20
48.4145366901
 30
0.0
 10
13.6826909295
 20
48.3933277748
 30
0.0
 10
13.9851369473
 20
48.3129351244
 30
0.0
 10
14.2951046236
 20
48.1759534646
 30
0.0
 10
14.606429443
 20
47.985520503
 30
0.0
 10
14.9127676934
 20
47.7456662911
 30
0.0
 10
15.3125773741
 20
47.3605972891
 30
0.0
 10
15.7568436928
 20
46.7916147135
 30
0.0
 10
16.1692591223
 20
46.0294811216
 30
0.0
 10
16.3975427311
 20
45.3547443046
 30
0.0
 10
16.4919774014
 20
44.823299354
 30
0.0
 10
16.5088976462
 20
44.5662843618
 30
0.0
 10
16.5088976462
 20
44.4418828549
 30
0.0
  0
SPLINE
  5
318
100
AcDbEntity
  8
0
100
AcDbSpline
 62
7
  6
CONTINUOUS
 70
0
 71
3
 72
12
 73
8
 74
0
 42
0.0000001
 43
0.0000001
 44
0.0000000001
 40
0.0
 40
0.0
 40
0.0
 40
0.0
 40
0.1081614689
 40
0.2183687405
 40
0.4513480154
 40
0.7104447573
 40
1.0
 40
1.0
 40
1.0
 40
1.0
 10
37.3606537995
 20
61.9536909467
 30
0.0
 10
37.4098382617
 20
61.9820874414
 30
0.0
 10
37.5142708695
 20
62.0310098051
 30
0.0
 10
37.7436020622
 20
62.09442989
 30
0.0
 10
38.0648086677
 20
62.1030432694
 30
0.0
 10
38.4670556783
 20
62.0057313719
 30
0.0
 10
38.728965524
 20
61.8811555061
 30
0.0
 10
38.8606360581
 20
61.8051372075
 30
0.0
  0
SPLINE
  5
319
100
AcDbEntity
  8
0
100
AcDbSpline
 62
7
  6
CONTINUOUS
 70
0
 71
3
 72
20
 73
16
 74
0
 42
0.0000001
 43
0.0000001
 44
0.0000000001
 40
0.0
 40
0.0
 40
0.0
 40
0.0
 40
0.0428308781
 40
0.0874313055
 40
0.1352324479
 40
0.1871645451
 40
0.2436332745
 40
0.3046140537
 40
0.3697391471
 40
0.4383737618
 40
0.5826246901
 40
0.7296906131
 40
0.8711889232
 40
0.9376084375
 40
1.0
 40
1.0
 40
1.0
 40
1.0
 10
31.2229390419
 20
64.8440228234
 30
0.0
 10
31.2969047904
 20
64.8867099484
 30
0.0
 10
31.4599210712
 20
64.9545086311
 30
0.0
 10
31.7290501939
 20
64.9938893433
 30
0.0
 10
32.0180461026
 20
64.972680428
 30
0.0
 10
32.3204921203
 20
64.8922877776
 30
0.0
 10
32.6304597967
 20
64.7553061177
 30
0.0
 10
32.9417846161
 20
64.5648731562
 30
0.0
 10
33.2481228665
 20
64.3250189443
 30
0.0
 10
33.6479325472
 20
63.9399499423
 30
0.0
 10
34.0921988659
 20
63.3709673667
 30
0.0
 10
34.5046142954
 20
62.6088337748
 30
0.0
 10
34.7328979041
 20
61.9340969578
 30
0.0
 10
34.8273325745
 20
61.4026520072
 30
0.0
 10
34.8442528192
 20
61.145637015
 30
0.0
 10
34.8442528192
 20
61.0212355081
 30
0.0
  0
SPLINE
  5
31A
100
AcDbEntity
  8
0
100
AcDbSpline
 62
7
  6
CONTINUOUS
 70
0
 71
3
 72
20
 73
16
 74
0
 42
0.0000001
 43
0.0000001
 44
0.0000000001
 40
0.0
 40
0.0
 40
0.0
 40
0.0
 40
0.0428308781
 40
0.0874313055
 40
0.1352324479
 40
0.1871645451
 40
0.2436332745
 40
0.3046140537
 40
0.3697391471
 40
0.4383737618
 40
0.5826246901
 40
0.7296906131
 40
0.8711889232
 40
0.9376084375
 40
1.0
 40
1.0
 40
1.0
 40
1.0
 10
25.1135110166
 20
68.3712229424
 30
0.0
 10
25.1874767651
 20
68.4139100675
 30
0.0
 10
25.3504930459
 20
68.4817087501
 30
0.0
 10
25.6196221686
 20
68.5210894624
 30
0.0
 10
25.9086180773
 20
68.4998805471
 30
0.0
 10
26.211064095
 20
68.4194878966
 30
0.0
 10
26.5210317714
 20
68.2825062368
 30
0.0
 10
26.8323565908
 20
68.0920732753
 30
0.0
 10
27.1386948412
 20
67.8522190633
 30
0.0
 10
27.5385045219
 20
67.4671500614
 30
0.0
 10
27.9827708406
 20
66.8981674857
 30
0.0
 10
28.3951862701
 20
66.1360338938
 30
0.0
 10
28.6234698788
 20
65.4612970769
 30
0.0
 10
28.7179045492
 20
64.9298521263
 30
0.0
 10
28.734824794
 20
64.672837134
 30
0.0
 10
28.734824794
 20
64.5484356272
 30
0.0
  0
SPLINE
  5
31B
100
AcDbEntity
  8
0
100
AcDbSpline
 62
7
  6
CONTINUOUS
 70
0
 71
3
 72
20
 73
16
 74
0
 42
0.0000001
 43
0.0000001
 44
0.0000000001
 40
0.0
 40
0.0
 40
0.0
 40
0.0
 40
0.0428308781
 40
0.0874313055
 40
0.1352324479
 40
0.1871645451
 40
0.2436332745
 40
0.3046140537
 40
0.3697391471
 40
0.4383737618
 40
0.5826246901
 40
0.7296906131
 40
0.8711889232
 40
0.9376084375
 40
1.0
 40
1.0
 40
1.0
 40
1.0
 10
18.9970118941
 20
71.902505469
 30
0.0
 10
19.0709776426
 20
71.9451925941
 30
0.0
 10
19.2339939234
 20
72.0129912767
 30
0.0
 10
19.5031230461
 20
72.052371989
 30
0.0
 10
19.7921189548
 20
72.0311630737
 30
0.0
 10
20.0945649725
 20
71.9507704232
 30
0.0
 10
20.4045326489
 20
71.8137887634
 30
0.0
 10
20.7158574683
 20
71.6233558019
 30
0.0
 10
21.0221957187
 20
71.3835015899
 30
0.0
 10
21.4220053994
 20
70.998432588
 30
0.0
 10
21.8662717181
 20
70.4294500123
 30
0.0
 10
22.2786871476
 20
69.6673164204
 30
0.0
 10
22.5069707563
 20
68.9925796035
 30
0.0
 10
22.6014054267
 20
68.4611346529
 30
0.0
 10
22.6183256715
 20
68.2041196606
 30
0.0
 10
22.6183256715
 20
68.0797181538
 30
0.0
  0
SPLINE
  5
31C
100
AcDbEntity
  8
0
100
AcDbSpline
 62
7
  6
CONTINUOUS
 70
0
 71
3
 72
20
 73
16
 74
0
 42
0.0000001
 43
0.0000001
 44
0.0000000001
 40
0.0
 40
0.0
 40
0.0
 40
0.0
 40
0.0428308781
 40
0.0874313055
 40
0.1352324479
 40
0.1871645451
 40
0.2436332745
 40
0.3046140537
 40
0.3697391471
 40
0.4383737618
 40
0.5826246901
 40
0.7296906131
 40
0.8711889232
 40
0.9376084375
 40
1.0
 40
1.0
 40
1.0
 40
1.0
 10
12.8875838688
 20
75.4297055881
 30
0.0
 10
12.9615496173
 20
75.4723927132
 30
0.0
 10
13.1245658981
 20
75.5401913958
 30
0.0
 10
13.3936950208
 20
75.579572108
 30
0.0
 10
13.6826909295
 20
75.5583631927
 30
0.0
 10
13.9851369473
 20
75.4779705423
 30
0.0
 10
14.2951046236
 20
75.3409888825
 30
0.0
 10
14.606429443
 20
75.1505559209
 30
0.0
 10
14.9127676934
 20
74.910701709
 30
0.0
 10
15.3125773741
 20
74.525632707
 30
0.0
 10
15.7568436928
 20
73.9566501314
 30
0.0
 10
16.1692591223
 20
73.1945165395
 30
0.0
 10
16.3975427311
 20
72.5197797225
 30
0.0
 10
16.4919774014
 20
71.9883347719
 30
0.0
 10
16.5088976462
 20
71.7313197797
 30
0.0
 10
16.5088976462
 20
71.6069182728
 30
0.0
  0
SPLINE
  5
31D
100
AcDbEntity
  8
0
100
AcDbSpline
 62
7
  6
CONTINUOUS
 70
0
 71
3
 72
16
 73
12
 74
0
 42
0.0000001
 43
0.0000001
 44
0.0000000001
 40
0.0
 40
0.0
 40
0.0
 40
0.0
 40
0.0457861354
 40
0.0922548488
 40
0.1903520326
 40
0.2996337752
 40
0.4218917603
 40
0.5562890931
 40
0.7001110995
 40
0.8495291518
 40
1.0
 40
1.0
 40
1.0
 40
1.0
 10
72.3763726929
 20
87.8127118096
 30
0.0
 10
72.4157987823
 20
87.8355146364
 30
0.0
 10
72.4996839893
 20
87.8742243303
 30
0.0
 10
72.6839892029
 20
87.9214004939
 30
0.0
 10
72.9412357742
 20
87.9178409075
 30
0.0
 10
73.2576557375
 20
87.8200147784
 30
0.0
 10
73.5751983213
 20
87.6371161213
 30
0.0
 10
73.8803721173
 20
87.3782569656
 30
0.0
 10
74.1598762304
 20
87.0555876275
 30
0.0
 10
74.4007123501
 20
86.6841911745
 30
0.0
 10
74.5289524414
 20
86.4136892185
 30
0.0
 10
74.5837721461
 20
86.2744095229
 30
0.0
  0
SPLINE
  5
31E
100
AcDbEntity
  8
0
100
AcDbSpline
 62
7
  6
CONTINUOUS
 70
0
 71
3
 72
11
 73
7
 74
0
 42
0.0000001
 43
0.0000001
 44
0.0000000001
 40
0.0
 40
0.0
 40
0.0
 40
0.0
 40
0.2229699265
 40
0.4578382976
 40
0.7152817333
 40
1.0
 40
1.0
 40
1.0
 40
1.0
 10
60.8825222069
 20
94.1895654333
 30
0.0
 10
60.9342285724
 20
94.2193733359
 30
0.0
 10
61.0514025668
 20
94.263164337
 30
0.0
 10
61.245301256
 20
94.2713362327
 30
0.0
 10
61.4500291165
 20
94.2248623139
 30
0.0
 10
61.5823956675
 20
94.1628209591
 30
0.0
 10
61.6483969994
 20
94.1247159344
 30
0.0
  0
SPLINE
  5
31F
100
AcDbEntity
  8
0
100
AcDbSpline
 62
7
  6
CONTINUOUS
 70
0
 71
3
 72
13
 73
9
 74
0
 42
0.0000001
 43
0.0000001
 44
0.0000000001
 40
0.0
 40
0.0
 40
0.0
 40
0.0
 40
0.1136321864
 40
0.2360927797
 40
0.4968892451
 40
0.7594025687
 40
0.883838973
 40
1.0
 40
1.0
 40
1.0
 40
1.0
 10
67.7763354518
 20
90.586829057
 30
0.0
 10
67.8488443103
 20
90.5449669951
 30
0.0
 10
67.9914930076
 20
90.4437526822
 30
0.0
 10
68.2561623537
 20
90.1893836977
 30
0.0
 10
68.5307194971
 20
89.7946016244
 30
0.0
 10
68.7093184501
 20
89.3467575683
 30
0.0
 10
68.7784926107
 20
88.9816203185
 30
0.0
 10
68.7863197667
 20
88.8036414012
 30
0.0
 10
68.7826113726
 20
88.7181329535
 30
0.0
  0
SPLINE
  5
320
100
AcDbEntity
  8
0
100
AcDbSpline
 62
7
  6
CONTINUOUS
 70
0
 71
3
 72
11
 73
7
 74
0
 42
0.0000001
 43
0.0000001
 44
0.0000000001
 40
0.0
 40
0.0
 40
0.0
 40
0.0
 40
0.2861203225
 40
0.5450967054
 40
0.780034207
 40
1.0
 40
1.0
 40
1.0
 40
1.0
 10
68.7826113726
 20
88.7181329535
 30
0.0
 10
68.7792138428
 20
88.6397924397
 30
0.0
 10
68.7607415383
 20
88.4905772133
 30
0.0
 10
68.6916745288
 20
88.2863727061
 30
0.0
 10
68.5835692704
 20
88.1204346535
 30
0.0
 10
68.4854702792
 20
88.0395264485
 30
0.0
 10
68.4332433685
 20
88.0094184604
 30
0.0
  0
SPLINE
  5
321
100
AcDbEntity
  8
0
100
AcDbSpline
 62
7
  6
CONTINUOUS
 70
0
 71
3
 72
13
 73
9
 74
0
 42
0.0000001
 43
0.0000001
 44
0.0000000001
 40
0.0
 40
0.0
 40
0.0
 40
0.0
 40
0.1136321864
 40
0.2360927797
 40
0.4968892451
 40
0.7594025687
 40
0.883838973
 40
1.0
 40
1.0
 40
1.0
 40
1.0
 10
61.6483969994
 20
94.1247159344
 30
0.0
 10
61.7209058579
 20
94.0828538724
 30
0.0
 10
61.8635545553
 20
93.9816395596
 30
0.0
 10
62.1282239014
 20
93.7272705751
 30
0.0
 10
62.4027810447
 20
93.3324885018
 30
0.0
 10
62.5813799977
 20
92.8846444456
 30
0.0
 10
62.6505541583
 20
92.5195071958
 30
0.0
 10
62.6583813143
 20
92.3415282786
 30
0.0
 10
62.6546729202
 20
92.2560198308
 30
0.0
  0
SPLINE
  5
322
100
AcDbEntity
  8
0
100
AcDbSpline
 62
7
  6
CONTINUOUS
 70
0
 71
3
 72
11
 73
7
 74
0
 42
0.0000001
 43
0.0000001
 44
0.0000000001
 40
0.0
 40
0.0
 40
0.0
 40
0.0
 40
0.2861203225
 40
0.5450967054
 40
0.780034207
 40
1.0
 40
1.0
 40
1.0
 40
1.0
 10
62.6546729202
 20
92.2560198308
 30
0.0
 10
62.6512753904
 20
92.177679317
 30
0.0
 10
62.6328030859
 20
92.0284640907
 30
0.0
 10
62.5637360765
 20
91.8242595835
 30
0.0
 10
62.455630818
 20
91.6583215308
 30
0.0
 10
62.3575318268
 20
91.5774133258
 30
0.0
 10
62.3053049161
 20
91.5473053377
 30
0.0
  0
SPLINE
  5
323
100
AcDbEntity
  8
0
100
AcDbSpline
 62
7
  6
CONTINUOUS
 70
0
 71
3
 72
13
 73
9
 74
0
 42
0.0000001
 43
0.0000001
 44
0.0000000001
 40
0.0
 40
0.0
 40
0.0
 40
0.0
 40
0.1136321864
 40
0.2360927797
 40
0.4968892451
 40
0.7594025687
 40
0.883838973
 40
1.0
 40
1.0
 40
1.0
 40
1.0
 10
55.5318978769
 20
97.655998461
 30
0.0
 10
55.6044067354
 20
97.614136399
 30
0.0
 10
55.7470554328
 20
97.5129220862
 30
0.0
 10
56.0117247789
 20
97.2585531017
 30
0.0
 10
56.2862819222
 20
96.8637710284
 30
0.0
 10
56.4648808752
 20
96.4159269722
 30
0.0
 10
56.5340550358
 20
96.0507897224
 30
0.0
 10
56.5418821918
 20
95.8728108052
 30
0.0
 10
56.5381737977
 20
95.7873023574
 30
0.0
  0
SPLINE
  5
324
100
AcDbEntity
  8
0
100
AcDbSpline
 62
7
  6
CONTINUOUS
 70
0
 71
3
 72
11
 73
7
 74
0
 42
0.0000001
 43
0.0000001
 44
0.0000000001
 40
0.0
 40
0.0
 40
0.0
 40
0.0
 40
0.2861203225
 40
0.5450967054
 40
0.780034207
 40
1.0
 40
1.0
 40
1.0
 40
1.0
 10
56.5381737977
 20
95.7873023574
 30
0.0
 10
56.5347762679
 20
95.7089618436
 30
0.0
 10
56.5163039634
 20
95.5597466173
 30
0.0
 10
56.4472369539
 20
95.3555421101
 30
0.0
 10
56.3391316955
 20
95.1896040574
 30
0.0
 10
56.2410327043
 20
95.1086958524
 30
0.0
 10
56.1888057936
 20
95.0785878643
 30
0.0
  0
SPLINE
  5
325
100
AcDbEntity
  8
0
100
AcDbSpline
 62
7
  6
CONTINUOUS
 70
0
 71
3
 72
11
 73
7
 74
0
 42
0.0000001
 43
0.0000001
 44
0.0000000001
 40
0.0
 40
0.0
 40
0.0
 40
0.0
 40
0.2861204461
 40
0.5450306744
 40
0.7799596721
 40
1.0
 40
1.0
 40
1.0
 40
1.0
 10
50.7434502031
 20
99.1328115884
 30
0.0
 10
50.7387388698
 20
99.0241772876
 30
0.0
 10
50.7131370813
 20
98.8172811278
 30
0.0
 10
50.6173389646
 20
98.5341593594
 30
0.0
 10
50.4675682417
 20
98.303978948
 30
0.0
 10
50.3315883679
 20
98.1916777424
 30
0.0
 10
50.2591697971
 20
98.1498633634
 30
0.0
  0
SPLINE
  5
326
100
AcDbEntity
  8
0
100
AcDbSpline
 62
7
  6
CONTINUOUS
 70
0
 71
3
 72
11
 73
7
 74
0
 42
0.0000001
 43
0.0000001
 44
0.0000000001
 40
0.0
 40
0.0
 40
0.0
 40
0.0
 40
0.2610180251
 40
0.5206353127
 40
0.7695850111
 40
1.0
 40
1.0
 40
1.0
 40
1.0
 10
50.1721094003
 20
100.9306014371
 30
0.0
 10
50.2667686305
 20
100.7934339827
 30
0.0
 10
50.4351358239
 20
100.5051816489
 30
0.0
 10
50.6201849763
 20
100.0481381801
 30
0.0
 10
50.7300380622
 20
99.5873970426
 30
0.0
 10
50.7498245879
 20
99.2797926624
 30
0.0
 10
50.7434502031
 20
99.1328115884
 30
0.0
  0
SPLINE
  5
327
100
AcDbEntity
  8
0
100
AcDbSpline
 62
7
  6
CONTINUOUS
 70
0
 71
3
 72
11
 73
7
 74
0
 42
0.0000001
 43
0.0000001
 44
0.0000000001
 40
0.0
 40
0.0
 40
0.0
 40
0.0
 40
0.2229699265
 40
0.4578382976
 40
0.7152817333
 40
1.0
 40
1.0
 40
1.0
 40
1.0
 10
54.7660230844
 20
97.7208479599
 30
0.0
 10
54.8177294499
 20
97.7506558625
 30
0.0
 10
54.9349034443
 20
97.7944468636
 30
0.0
 10
55.1288021335
 20
97.8026187593
 30
0.0
 10
55.333529994
 20
97.7561448405
 30
0.0
 10
55.465896545
 20
97.6941034857
 30
0.0
 10
55.5318978769
 20
97.655998461
 30
0.0
  0
SPLINE
  5
328
100
AcDbEntity
  8
0
100
AcDbSpline
 62
7
  6
CONTINUOUS
 70
0
 71
3
 72
9
 73
5
 74
0
 42
0.0000001
 43
0.0000001
 44
0.0000000001
 40
0.0
 40
0.0
 40
0.0
 40
0.0
 40
0.2392043365
 40
1.0
 40
1.0
 40
1.0
 40
1.0
 10
55.2497775732
 20
97.7324210342
 30
0.0
 10
55.2453974325
 20
97.712482236
 30
0.0
 10
55.2296722549
 20
97.628565341
 30
0.0
 10
55.2237652671
 20
97.5429348284
 30
0.0
 10
55.2237652671
 20
97.4780067943
 30
0.0
  0
SPLINE
  5
329
100
AcDbEntity
  8
0
100
AcDbSpline
 62
7
  6
CONTINUOUS
 70
0
 71
3
 72
13
 73
9
 74
0
 42
0.0000001
 43
0.0000001
 44
0.0000000001
 40
0.0
 40
0.0
 40
0.0
 40
0.0
 40
0.1142259181
 40
0.2375599982
 40
0.5000010158
 40
0.7624414734
 40
0.8857749255
 40
1.0
 40
1.0
 40
1.0
 40
1.0
 10
67.4682028419
 20
90.4088373904
 30
0.0
 10
67.4682028419
 20
90.3250166854
 30
0.0
 10
67.4835809204
 20
90.1505180267
 30
0.0
 10
67.5669385296
 20
89.7923015843
 30
0.0
 10
67.7606690091
 20
89.3529449281
 30
0.0
 10
68.0442992659
 20
88.9654926518
 30
0.0
 10
68.312845519
 20
88.7141973361
 30
0.0
 10
68.4562766953
 20
88.6136319648
 30
0.0
 10
68.5288674297
 20
88.5717226329
 30
0.0
  0
SPLINE
  5
32A
100
AcDbEntity
  8
0
100
AcDbSpline
 62
7
  6
CONTINUOUS
 70
0
 71
3
 72
11
 73
7
 74
0
 42
0.0000001
 43
0.0000001
 44
0.0000000001
 40
0.0
 40
0.0
 40
0.0
 40
0.0
 40
0.2229699265
 40
0.4578382976
 40
0.7152817333
 40
1.0
 40
1.0
 40
1.0
 40
1.0
 10
67.0104606592
 20
90.651678556
 30
0.0
 10
67.0621670247
 20
90.6814864585
 30
0.0
 10
67.1793410192
 20
90.7252774596
 30
0.0
 10
67.3732397083
 20
90.7334493553
 30
0.0
 10
67.5779675688
 20
90.6869754365
 30
0.0
 10
67.7103341198
 20
90.6249340817
 30
0.0
 10
67.7763354518
 20
90.586829057
 30
0.0
  0
SPLINE
  5
32B
100
AcDbEntity
  8
0
100
AcDbSpline
 62
7
  6
CONTINUOUS
 70
0
 71
3
 72
9
 73
5
 74
0
 42
0.0000001
 43
0.0000001
 44
0.0000000001
 40
0.0
 40
0.0
 40
0.0
 40
0.0
 40
0.2592150927
 40
1.0
 40
1.0
 40
1.0
 40
1.0
 10
68.5288674297
 20
88.5717226329
 30
0.0
 10
68.5452853071
 20
88.5622439814
 30
0.0
 10
68.6093523726
 20
88.5269741946
 30
0.0
 10
68.6764141251
 20
88.4970077495
 30
0.0
 10
68.7274280687
 20
88.4787667017
 30
0.0
  0
SPLINE
  5
32C
100
AcDbEntity
  8
0
100
AcDbSpline
 62
7
  6
CONTINUOUS
 70
0
 71
3
 72
9
 73
5
 74
0
 42
0.0000001
 43
0.0000001
 44
0.0000000001
 40
0.0
 40
0.0
 40
0.0
 40
0.0
 40
0.2392043365
 40
1.0
 40
1.0
 40
1.0
 40
1.0
 10
67.494215148
 20
90.6632516302
 30
0.0
 10
67.4898350074
 20
90.643312832
 30
0.0
 10
67.4741098298
 20
90.5593959371
 30
0.0
 10
67.4682028419
 20
90.4737654245
 30
0.0
 10
67.4682028419
 20
90.4088373904
 30
0.0
  0
SPLINE
  5
32D
100
AcDbEntity
  8
0
100
AcDbSpline
 62
7
  6
CONTINUOUS
 70
0
 71
3
 72
15
 73
11
 74
0
 42
0.0000001
 43
0.0000001
 44
0.0000000001
 40
0.0
 40
0.0
 40
0.0
 40
0.0
 40
0.1158204631
 40
0.2413909435
 40
0.3734282857
 40
0.5083165345
 40
0.6420210172
 40
0.7706515325
 40
0.890809366
 40
1.0
 40
1.0
 40
1.0
 40
1.0
 10
55.2237652671
 20
97.4780067943
 30
0.0
 10
55.2237652671
 20
97.3872665916
 30
0.0
 10
55.2418229276
 20
97.1979648668
 30
0.0
 10
55.3128142781
 20
96.9132622704
 30
0.0
 10
55.4261044586
 20
96.6264822768
 30
0.0
 10
55.5765642768
 20
96.3501515054
 30
0.0
 10
55.7578027847
 20
96.0962012841
 30
0.0
 10
55.9619786488
 20
95.8756156754
 30
0.0
 10
56.1801985633
 20
95.6979121926
 30
0.0
 10
56.3374618675
 20
95.6084175747
 30
0.0
 10
56.4159613757
 20
95.5744183153
 30
0.0
  0
SPLINE
  5
32E
100
AcDbEntity
  8
0
100
AcDbSpline
 62
7
  6
CONTINUOUS
 70
0
 71
3
 72
12
 73
8
 74
0
 42
0.0000001
 43
0.0000001
 44
0.0000000001
 40
0.0
 40
0.0
 40
0.0
 40
0.0
 40
0.289556229
 40
0.5486533222
 40
0.7816321932
 40
0.8918390364
 40
1.0
 40
1.0
 40
1.0
 40
1.0
 10
16.5088976462
 20
71.6069182728
 30
0.0
 10
16.5088976462
 20
71.4548745093
 30
0.0
 10
16.4858306625
 20
71.165757315
 30
0.0
 10
16.36898172
 20
70.7687331259
 30
0.0
 10
16.2009159715
 20
70.4948586201
 30
0.0
 10
16.0313229568
 20
70.3279579679
 30
0.0
 10
15.9367362779
 20
70.2619766679
 30
0.0
 10
15.8875507293
 20
70.2335795459
 30
0.0
  0
SPLINE
  5
32F
100
AcDbEntity
  8
0
100
AcDbSpline
 62
7
  6
CONTINUOUS
 70
0
 71
3
 72
12
 73
8
 74
0
 42
0.0000001
 43
0.0000001
 44
0.0000000001
 40
0.0
 40
0.0
 40
0.0
 40
0.0
 40
0.289556229
 40
0.5486533222
 40
0.7816321932
 40
0.8918390364
 40
1.0
 40
1.0
 40
1.0
 40
1.0
 10
22.6183256715
 20
68.0797181538
 30
0.0
 10
22.6183256715
 20
67.9276743903
 30
0.0
 10
22.5952586878
 20
67.6385571959
 30
0.0
 10
22.4784097453
 20
67.2415330069
 30
0.0
 10
22.3103439968
 20
66.967658501
 30
0.0
 10
22.1407509821
 20
66.8007578489
 30
0.0
 10
22.0461643032
 20
66.7347765488
 30
0.0
 10
21.9969787546
 20
66.7063794268
 30
0.0
  0
SPLINE
  5
330
100
AcDbEntity
  8
0
100
AcDbSpline
 62
7
  6
CONTINUOUS
 70
0
 71
3
 72
12
 73
8
 74
0
 42
0.0000001
 43
0.0000001
 44
0.0000000001
 40
0.0
 40
0.0
 40
0.0
 40
0.0
 40
0.289556229
 40
0.5486533222
 40
0.7816321932
 40
0.8918390364
 40
1.0
 40
1.0
 40
1.0
 40
1.0
 10
28.734824794
 20
64.5484356272
 30
0.0
 10
28.734824794
 20
64.3963918637
 30
0.0
 10
28.7117578103
 20
64.1072746693
 30
0.0
 10
28.5949088678
 20
63.7102504803
 30
0.0
 10
28.4268431193
 20
63.4363759744
 30
0.0
 10
28.2572501046
 20
63.2694753223
 30
0.0
 10
28.1626634257
 20
63.2034940222
 30
0.0
 10
28.1134778771
 20
63.1750969002
 30
0.0
  0
SPLINE
  5
331
100
AcDbEntity
  8
0
100
AcDbSpline
 62
7
  6
CONTINUOUS
 70
0
 71
3
 72
12
 73
8
 74
0
 42
0.0000001
 43
0.0000001
 44
0.0000000001
 40
0.0
 40
0.0
 40
0.0
 40
0.0
 40
0.289556229
 40
0.5486533222
 40
0.7816321932
 40
0.8918390364
 40
1.0
 40
1.0
 40
1.0
 40
1.0
 10
34.8442528192
 20
61.0212355081
 30
0.0
 10
34.8442528192
 20
60.8691917446
 30
0.0
 10
34.8211858355
 20
60.5800745502
 30
0.0
 10
34.7043368931
 20
60.1830503612
 30
0.0
 10
34.5362711446
 20
59.9091758554
 30
0.0
 10
34.3666781299
 20
59.7422752032
 30
0.0
 10
34.2720914509
 20
59.6762939031
 30
0.0
 10
34.2229059023
 20
59.6478967812
 30
0.0
  0
SPLINE
  5
332
100
AcDbEntity
  8
0
100
AcDbSpline
 62
7
  6
CONTINUOUS
 70
0
 71
3
 72
12
 73
8
 74
0
 42
0.0000001
 43
0.0000001
 44
0.0000000001
 40
0.0
 40
0.0
 40
0.0
 40
0.0
 40
0.2895262925
 40
0.5486619948
 40
0.781628212
 40
0.8918379021
 40
1.0
 40
1.0
 40
1.0
 40
1.0
 10
40.9819652335
 20
58.1309076926
 30
0.0
 10
40.9819652335
 20
57.9788802334
 30
0.0
 10
40.9588776276
 20
57.6897633308
 30
0.0
 10
40.8420643972
 20
57.2927328075
 30
0.0
 10
40.6739769185
 20
57.0188489352
 30
0.0
 10
40.5043798168
 20
56.8519666081
 30
0.0
 10
40.4098113631
 20
56.7859538512
 30
0.0
 10
40.36062066
 20
56.7575649045
 30
0.0
  0
SPLINE
  5
333
100
AcDbEntity
  8
0
100
AcDbSpline
 62
7
  6
CONTINUOUS
 70
0
 71
3
 72
15
 73
11
 74
0
 42
0.0000001
 43
0.0000001
 44
0.0000000001
 40
0.0
 40
0.0
 40
0.0
 40
0.0
 40
0.1141465952
 40
0.2373352439
 40
0.366975646
 40
0.4999989181
 40
0.6330223406
 40
0.7626631822
 40
0.8858525235
 40
1.0
 40
1.0
 40
1.0
 40
1.0
 10
38.8606360581
 20
61.8051372075
 30
0.0
 10
39.0058474788
 20
61.7213012513
 30
0.0
 10
39.2926856464
 20
61.5202096978
 30
0.0
 10
39.6873832689
 20
61.15098672
 30
0.0
 10
40.0510730118
 20
60.7144744882
 30
0.0
 10
40.3701423571
 20
60.2271683588
 30
0.0
 10
40.6326299272
 20
59.7071938072
 30
0.0
 10
40.8288191841
 20
59.1739724107
 30
0.0
 10
40.9512308579
 20
58.6475406708
 30
0.0
 10
40.9819652335
 20
58.2985837446
 30
0.0
 10
40.9819652335
 20
58.1309076926
 30
0.0
  0
SPLINE
  5
334
100
AcDbEntity
  8
0
100
AcDbSpline
 62
7
  6
CONTINUOUS
 70
0
 71
3
 72
12
 73
8
 74
0
 42
0.0000001
 43
0.0000001
 44
0.0000000001
 40
0.0
 40
0.0
 40
0.0
 40
0.0
 40
0.289556229
 40
0.5486533222
 40
0.7816321932
 40
0.8918390364
 40
1.0
 40
1.0
 40
1.0
 40
1.0
 10
16.5088976462
 20
44.4418828549
 30
0.0
 10
16.5088976462
 20
44.2898390914
 30
0.0
 10
16.4858306625
 20
44.0007218971
 30
0.0
 10
16.36898172
 20
43.603697708
 30
0.0
 10
16.2009159715
 20
43.3298232022
 30
0.0
 10
16.0313229568
 20
43.16292255
 30
0.0
 10
15.9367362779
 20
43.09694125
 30
0.0
 10
15.8875507293
 20
43.068544128
 30
0.0
  0
SPLINE
  5
335
100
AcDbEntity
  8
0
100
AcDbSpline
 62
7
  6
CONTINUOUS
 70
0
 71
3
 72
12
 73
8
 74
0
 42
0.0000001
 43
0.0000001
 44
0.0000000001
 40
0.0
 40
0.0
 40
0.0
 40
0.0
 40
0.2895262925
 40
0.5486619948
 40
0.781628212
 40
0.8918379021
 40
1.0
 40
1.0
 40
1.0
 40
1.0
 10
22.6183256715
 20
40.9146827359
 30
0.0
 10
22.6183256715
 20
40.7626552767
 30
0.0
 10
22.5952380656
 20
40.4735383741
 30
0.0
 10
22.4784248351
 20
40.0765078507
 30
0.0
 10
22.3103373564
 20
39.8026239785
 30
0.0
 10
22.1407402548
 20
39.6357416514
 30
0.0
 10
22.046171801
 20
39.5697288945
 30
0.0
 10
21.9969810979
 20
39.5413399478
 30
0.0
  0
SPLINE
  5
336
100
AcDbEntity
  8
0
100
AcDbSpline
 62
7
  6
CONTINUOUS
 70
0
 71
3
 72
15
 73
11
 74
0
 42
0.0000001
 43
0.0000001
 44
0.0000000001
 40
0.0
 40
0.0
 40
0.0
 40
0.0
 40
0.1141465952
 40
0.2373352439
 40
0.366975646
 40
0.4999989181
 40
0.6330223406
 40
0.7626631822
 40
0.8858525235
 40
1.0
 40
1.0
 40
1.0
 40
1.0
 10
20.496996496
 20
44.5889122508
 30
0.0
 10
20.6422079167
 20
44.5050762946
 30
0.0
 10
20.9290460843
 20
44.303984741
 30
0.0
 10
21.3237437068
 20
43.9347617633
 30
0.0
 10
21.6874334498
 20
43.4982495315
 30
0.0
 10
22.0065027951
 20
43.0109434021
 30
0.0
 10
22.2689903652
 20
42.4909688505
 30
0.0
 10
22.465179622
 20
41.957747454
 30
0.0
 10
22.5875912958
 20
41.4313157141
 30
0.0
 10
22.6183256715
 20
41.0823587878
 30
0.0
 10
22.6183256715
 20
40.9146827359
 30
0.0
  0
SPLINE
  5
337
100
AcDbEntity
  8
0
100
AcDbSpline
 62
7
  6
CONTINUOUS
 70
0
 71
3
 72
12
 73
8
 74
0
 42
0.0000001
 43
0.0000001
 44
0.0000000001
 40
0.0
 40
0.0
 40
0.0
 40
0.0
 40
0.2895262925
 40
0.5486619948
 40
0.781628212
 40
0.8918379021
 40
1.0
 40
1.0
 40
1.0
 40
1.0
 10
28.734824794
 20
37.3834002093
 30
0.0
 10
28.734824794
 20
37.2313727501
 30
0.0
 10
28.7117371881
 20
36.9422558475
 30
0.0
 10
28.5949239576
 20
36.5452253241
 30
0.0
 10
28.4268364789
 20
36.2713414519
 30
0.0
 10
28.2572393773
 20
36.1044591248
 30
0.0
 10
28.1626709235
 20
36.0384463679
 30
0.0
 10
28.1134802205
 20
36.0100574212
 30
0.0
  0
SPLINE
  5
338
100
AcDbEntity
  8
0
100
AcDbSpline
 62
7
  6
CONTINUOUS
 70
0
 71
3
 72
15
 73
11
 74
0
 42
0.0000001
 43
0.0000001
 44
0.0000000001
 40
0.0
 40
0.0
 40
0.0
 40
0.0
 40
0.1141465952
 40
0.2373352439
 40
0.366975646
 40
0.4999989181
 40
0.6330223406
 40
0.7626631822
 40
0.8858525235
 40
1.0
 40
1.0
 40
1.0
 40
1.0
 10
26.6134956185
 20
41.0576297242
 30
0.0
 10
26.7587070393
 20
40.973793768
 30
0.0
 10
27.0455452069
 20
40.7727022144
 30
0.0
 10
27.4402428294
 20
40.4034792367
 30
0.0
 10
27.8039325723
 20
39.9669670049
 30
0.0
 10
28.1230019176
 20
39.4796608755
 30
0.0
 10
28.3854894877
 20
38.9596863239
 30
0.0
 10
28.5816787445
 20
38.4264649274
 30
0.0
 10
28.7040904184
 20
37.9000331875
 30
0.0
 10
28.734824794
 20
37.5510762612
 30
0.0
 10
28.734824794
 20
37.3834002093
 30
0.0
  0
SPLINE
  5
339
100
AcDbEntity
  8
0
100
AcDbSpline
 62
7
  6
CONTINUOUS
 70
0
 71
3
 72
12
 73
8
 74
0
 42
0.0000001
 43
0.0000001
 44
0.0000000001
 40
0.0
 40
0.0
 40
0.0
 40
0.0
 40
0.289556229
 40
0.5486533222
 40
0.7816321932
 40
0.8918390364
 40
1.0
 40
1.0
 40
1.0
 40
1.0
 10
34.8442528192
 20
33.8562000902
 30
0.0
 10
34.8442528192
 20
33.7041563267
 30
0.0
 10
34.8211858355
 20
33.4150391323
 30
0.0
 10
34.7043368931
 20
33.0180149433
 30
0.0
 10
34.5362711446
 20
32.7441404375
 30
0.0
 10
34.3666781299
 20
32.5772397853
 30
0.0
 10
34.2720914509
 20
32.5112584852
 30
0.0
 10
34.2229059023
 20
32.4828613633
 30
0.0
  0
SPLINE
  5
33A
100
AcDbEntity
  8
0
100
AcDbSpline
 62
7
  6
CONTINUOUS
 70
0
 71
3
 72
12
 73
8
 74
0
 42
0.0000001
 43
0.0000001
 44
0.0000000001
 40
0.0
 40
0.0
 40
0.0
 40
0.0
 40
0.2895262925
 40
0.5486619948
 40
0.781628212
 40
0.8918379021
 40
1.0
 40
1.0
 40
1.0
 40
1.0
 10
40.9819652335
 20
29.6676334315
 30
0.0
 10
40.9819652335
 20
29.5156059722
 30
0.0
 10
40.9588776276
 20
29.2264890697
 30
0.0
 10
40.8420643972
 20
28.8294585463
 30
0.0
 10
40.6739769185
 20
28.5555746741
 30
0.0
 10
40.5043798168
 20
28.388692347
 30
0.0
 10
40.4098113631
 20
28.3226795901
 30
0.0
 10
40.36062066
 20
28.2942906433
 30
0.0
  0
SPLINE
  5
33B
100
AcDbEntity
  8
0
100
AcDbSpline
 62
7
  6
CONTINUOUS
 70
0
 71
3
 72
15
 73
11
 74
0
 42
0.0000001
 43
0.0000001
 44
0.0000000001
 40
0.0
 40
0.0
 40
0.0
 40
0.0
 40
0.1141465952
 40
0.2373352439
 40
0.366975646
 40
0.4999989181
 40
0.6330223406
 40
0.7626631822
 40
0.8858525235
 40
1.0
 40
1.0
 40
1.0
 40
1.0
 10
38.8606360581
 20
33.3418629464
 30
0.0
 10
39.0058474788
 20
33.2580269902
 30
0.0
 10
39.2926856464
 20
33.0569354366
 30
0.0
 10
39.6873832689
 20
32.6877124589
 30
0.0
 10
40.0510730118
 20
32.2512002271
 30
0.0
 10
40.3701423571
 20
31.7638940977
 30
0.0
 10
40.6326299272
 20
31.2439195461
 30
0.0
 10
40.8288191841
 20
30.7106981496
 30
0.0
 10
40.9512308579
 20
30.1842664097
 30
0.0
 10
40.9819652335
 20
29.8353094834
 30
0.0
 10
40.9819652335
 20
29.6676334315
 30
0.0
  0
SPLINE
  5
33C
100
AcDbEntity
  8
0
100
AcDbSpline
 62
7
  6
CONTINUOUS
 70
0
 71
3
 72
11
 73
7
 74
0
 42
0.0000001
 43
0.0000001
 44
0.0000000001
 40
0.0
 40
0.0
 40
0.0
 40
0.0
 40
0.2861203252
 40
0.5450966981
 40
0.7800341983
 40
1.0
 40
1.0
 40
1.0
 40
1.0
 10
54.4166551451
 20
97.0121338286
 30
0.0
 10
54.4200526734
 20
97.0904743081
 30
0.0
 10
54.438524979
 20
97.2396894662
 30
0.0
 10
54.5075919989
 20
97.4438938673
 30
0.0
 10
54.6156972439
 20
97.6098318203
 30
0.0
 10
54.7137961952
 20
97.6907399837
 30
0.0
 10
54.7660230844
 20
97.7208479599
 30
0.0
  0
SPLINE
  5
33D
100
AcDbEntity
  8
0
100
AcDbSpline
 62
7
  6
CONTINUOUS
 70
0
 71
3
 72
13
 73
9
 74
0
 42
0.0000001
 43
0.0000001
 44
0.0000000001
 40
0.0
 40
0.0
 40
0.0
 40
0.0
 40
0.113632189
 40
0.2360927851
 40
0.4968892545
 40
0.7594025747
 40
0.8838389745
 40
1.0
 40
1.0
 40
1.0
 40
1.0
 10
55.4229311529
 20
95.1434372955
 30
0.0
 10
55.3504222779
 20
95.1852993669
 30
0.0
 10
55.2077735523
 20
95.2865137091
 30
0.0
 10
54.9431041508
 20
95.5408827539
 30
0.0
 10
54.6685469634
 20
95.9356649224
 30
0.0
 10
54.4899480189
 20
96.3835090884
 30
0.0
 10
54.4207738981
 20
96.7486464158
 30
0.0
 10
54.4129467502
 20
96.9266253643
 30
0.0
 10
54.4166551451
 20
97.0121338286
 30
0.0
  0
SPLINE
  5
33E
100
AcDbEntity
  8
0
100
AcDbSpline
 62
7
  6
CONTINUOUS
 70
0
 71
3
 72
12
 73
8
 74
0
 42
0.0000001
 43
0.0000001
 44
0.0000000001
 40
0.0
 40
0.0
 40
0.0
 40
0.0
 40
0.1081614689
 40
0.2183687405
 40
0.4513480154
 40
0.7104447573
 40
1.0
 40
1.0
 40
1.0
 40
1.0
 10
34.2229059023
 20
32.4828613633
 30
0.0
 10
34.1737214402
 20
32.4544648686
 30
0.0
 10
34.0692888324
 20
32.4055425048
 30
0.0
 10
33.8399576397
 20
32.34212242
 30
0.0
 10
33.5187510342
 20
32.3335090405
 30
0.0
 10
33.1165040236
 20
32.4308209381
 30
0.0
 10
32.8545941779
 20
32.5553968039
 30
0.0
 10
32.7229236438
 20
32.6314151024
 30
0.0
  0
SPLINE
  5
33F
100
AcDbEntity
  8
0
100
AcDbSpline
 62
7
  6
CONTINUOUS
 70
0
 71
3
 72
12
 73
8
 74
0
 42
0.0000001
 43
0.0000001
 44
0.0000000001
 40
0.0
 40
0.0
 40
0.0
 40
0.0
 40
0.1081614689
 40
0.2183687405
 40
0.4513480154
 40
0.7104447573
 40
1.0
 40
1.0
 40
1.0
 40
1.0
 10
21.9969787546
 20
66.7063794268
 30
0.0
 10
21.9477942924
 20
66.6779829321
 30
0.0
 10
21.8433616846
 20
66.6290605684
 30
0.0
 10
21.6140304919
 20
66.5656404835
 30
0.0
 10
21.2928238864
 20
66.5570271041
 30
0.0
 10
20.8905768758
 20
66.6543390017
 30
0.0
 10
20.6286670301
 20
66.7789148674
 30
0.0
 10
20.496996496
 20
66.854933166
 30
0.0
  0
SPLINE
  5
340
100
AcDbEntity
  8
0
100
AcDbSpline
 62
7
  6
CONTINUOUS
 70
0
 71
3
 72
11
 73
7
 74
0
 42
0.0000001
 43
0.0000001
 44
0.0000000001
 40
0.0
 40
0.0
 40
0.0
 40
0.0
 40
0.2861155079
 40
0.5450426306
 40
0.7799706419
 40
1.0
 40
1.0
 40
1.0
 40
1.0
 10
47.8405938747
 20
100.8087385509
 30
0.0
 10
47.8452371615
 20
100.9158038311
 30
0.0
 10
47.8704756859
 20
101.1197184379
 30
0.0
 10
47.9648892195
 20
101.3987624415
 30
0.0
 10
48.1125118445
 20
101.6256150458
 30
0.0
 10
48.2465250471
 20
101.7362967951
 30
0.0
 10
48.3178995507
 20
101.7774986062
 30
0.0
  0
SPLINE
  5
341
100
AcDbEntity
  8
0
100
AcDbSpline
 62
7
  6
CONTINUOUS
 70
0
 71
3
 72
11
 73
7
 74
0
 42
0.0000001
 43
0.0000001
 44
0.0000000001
 40
0.0
 40
0.0
 40
0.0
 40
0.0
 40
0.2605242335
 40
0.5202698321
 40
0.7695219392
 40
1.0
 40
1.0
 40
1.0
 40
1.0
 10
48.4285780458
 20
99.0013398757
 30
0.0
 10
48.3314847655
 20
99.1380742742
 30
0.0
 10
48.158589541
 20
99.4266186277
 30
0.0
 10
47.9682684679
 20
99.8858735274
 30
0.0
 10
47.8548859155
 20
100.3501295083
 30
0.0
 10
47.8341657513
 20
100.6605183678
 30
0.0
 10
47.8405938747
 20
100.8087385509
 30
0.0
  0
SPLINE
  5
342
100
AcDbEntity
  8
0
100
AcDbSpline
 62
7
  6
CONTINUOUS
 70
0
 71
3
 72
20
 73
16
 74
0
 42
0.0000001
 43
0.0000001
 44
0.0000000001
 40
0.0
 40
0.0
 40
0.0
 40
0.0
 40
0.0428308781
 40
0.0874313055
 40
0.1352324479
 40
0.1871645451
 40
0.2436332745
 40
0.3046140537
 40
0.3697391471
 40
0.4383737618
 40
0.5826246901
 40
0.7296906131
 40
0.8711889232
 40
0.9376084375
 40
1.0
 40
1.0
 40
1.0
 40
1.0
 10
28.1134802205
 20
36.0100574212
 30
0.0
 10
28.0395144719
 20
35.9673702961
 30
0.0
 10
27.8764981912
 20
35.8995716135
 30
0.0
 10
27.6073690684
 20
35.8601909012
 30
0.0
 10
27.3183731598
 20
35.8813998165
 30
0.0
 10
27.015927142
 20
35.961792467
 30
0.0
 10
26.7059594656
 20
36.0987741268
 30
0.0
 10
26.3946346462
 20
36.2892070883
 30
0.0
 10
26.0882963958
 20
36.5290613003
 30
0.0
 10
25.6884867152
 20
36.9141303022
 30
0.0
 10
25.2442203965
 20
37.4831128779
 30
0.0
 10
24.831804967
 20
38.2452464697
 30
0.0
 10
24.6035213582
 20
38.9199832867
 30
0.0
 10
24.5090866879
 20
39.4514282373
 30
0.0
 10
24.4921664431
 20
39.7084432296
 30
0.0
 10
24.4921664431
 20
39.8328447364
 30
0.0
  0
SPLINE
  5
343
100
AcDbEntity
  8
0
100
AcDbSpline
 62
7
  6
CONTINUOUS
 70
0
 71
3
 72
11
 73
7
 74
0
 42
0.0000001
 43
0.0000001
 44
0.0000000001
 40
0.0
 40
0.0
 40
0.0
 40
0.0
 40
0.2229699316
 40
0.4578383032
 40
0.7152817345
 40
1.0
 40
1.0
 40
1.0
 40
1.0
 10
56.1888057936
 20
95.0785878643
 30
0.0
 10
56.1370994375
 20
95.0487799677
 30
0.0
 10
56.0199254682
 20
95.0049889719
 30
0.0
 10
55.8260268204
 20
94.9968170604
 30
0.0
 10
55.6212989983
 20
95.043290946
 30
0.0
 10
55.4889324709
 20
95.1053322788
 30
0.0
 10
55.4229311529
 20
95.1434372955
 30
0.0
  0
SPLINE
  5
344
100
AcDbEntity
  8
0
100
AcDbSpline
 62
7
  6
CONTINUOUS
 70
0
 71
3
 72
17
 73
13
 74
0
 42
0.0000001
 43
0.0000001
 44
0.0000000001
 40
0.0
 40
0.0
 40
0.0
 40
0.0
 40
0.0428570169
 40
0.0874783987
 40
0.1353170009
 40
0.1872733753
 40
0.3045407835
 40
0.4382068211
 40
0.5825483434
 40
0.7296734068
 40
0.8713416545
 40
1.0
 40
1.0
 40
1.0
 40
1.0
 10
81.5172191481
 20
50.1102977016
 30
0.0
 10
81.5361932471
 20
50.0993253591
 30
0.0
 10
81.5721721236
 20
50.0717941948
 30
0.0
 10
81.6155148265
 20
50.0170648793
 30
0.0
 10
81.6478278165
 20
49.9500768563
 30
0.0
 10
81.6769503028
 20
49.8424219369
 30
0.0
 10
81.6805505482
 20
49.6854229582
 30
0.0
 10
81.6399315176
 20
49.4861886849
 30
0.0
 10
81.5580338818
 20
49.2835705273
 30
0.0
 10
81.4415143722
 20
49.0939375144
 30
0.0
 10
81.2998610937
 20
48.9328557327
 30
0.0
 10
81.18922608
 20
48.8476754274
 30
0.0
 10
81.1322421036
 20
48.8147759097
 30
0.0
  0
SPLINE
  5
345
100
AcDbEntity
  8
0
100
AcDbSpline
 62
7
  6
CONTINUOUS
 70
0
 71
3
 72
11
 73
7
 74
0
 42
0.0000001
 43
0.0000001
 44
0.0000000001
 40
0.0
 40
0.0
 40
0.0
 40
0.0
 40
0.2229699316
 40
0.4578383032
 40
0.7152817345
 40
1.0
 40
1.0
 40
1.0
 40
1.0
 10
68.4332433685
 20
88.0094184604
 30
0.0
 10
68.3815370123
 20
87.9796105637
 30
0.0
 10
68.2643630431
 20
87.9358195679
 30
0.0
 10
68.0704643952
 20
87.9276476564
 30
0.0
 10
67.8657365732
 20
87.9741215421
 30
0.0
 10
67.7333700458
 20
88.0361628749
 30
0.0
 10
67.6673687278
 20
88.0742678915
 30
0.0
  0
SPLINE
  5
346
100
AcDbEntity
  8
0
100
AcDbSpline
 62
7
  6
CONTINUOUS
 70
0
 71
3
 72
12
 73
8
 74
0
 42
0.0000001
 43
0.0000001
 44
0.0000000001
 40
0.0
 40
0.0
 40
0.0
 40
0.0
 40
0.1081614689
 40
0.2183687405
 40
0.4513480154
 40
0.7104447573
 40
1.0
 40
1.0
 40
1.0
 40
1.0
 10
15.8875507293
 20
70.2335795459
 30
0.0
 10
15.8383662671
 20
70.2051830512
 30
0.0
 10
15.7339336593
 20
70.1562606874
 30
0.0
 10
15.5046024667
 20
70.0928406026
 30
0.0
 10
15.1833958611
 20
70.0842272231
 30
0.0
 10
14.7811488506
 20
70.1815391207
 30
0.0
 10
14.5192390048
 20
70.3061149865
 30
0.0
 10
14.3875684707
 20
70.382133285
 30
0.0
  0
SPLINE
  5
347
100
AcDbEntity
  8
0
100
AcDbSpline
 62
7
  6
CONTINUOUS
 70
0
 71
3
 72
11
 73
7
 74
0
 42
0.0000001
 43
0.0000001
 44
0.0000000001
 40
0.0
 40
0.0
 40
0.0
 40
0.0
 40
0.2254094027
 40
0.4624563285
 40
0.7190773017
 40
1.0
 40
1.0
 40
1.0
 40
1.0
 10
74.4384371041
 20
43.0999415895
 30
0.0
 10
74.3919320891
 20
43.0730384003
 30
0.0
 10
74.2886445318
 20
43.0305506893
 30
0.0
 10
74.1174757252
 20
43.0063509836
 30
0.0
 10
73.9321990618
 20
43.020226381
 30
0.0
 10
73.8075467085
 20
43.0525679953
 30
0.0
 10
73.7441029264
 20
43.0739740268
 30
0.0
  0
SPLINE
  5
348
100
AcDbEntity
  8
0
100
AcDbSpline
 62
7
  6
CONTINUOUS
 70
0
 71
3
 72
9
 73
5
 74
0
 42
0.0000001
 43
0.0000001
 44
0.0000000001
 40
0.0
 40
0.0
 40
0.0
 40
0.0
 40
0.4994281846
 40
1.0
 40
1.0
 40
1.0
 40
1.0
 10
39.8150502073
 20
32.4594252138
 30
0.0
 10
39.911378355
 20
32.1941695866
 30
0.0
 10
40.1512078505
 20
31.6792984229
 30
0.0
 10
40.4706388469
 20
31.2096847423
 30
0.0
 10
40.6493763022
 20
30.9904640086
 30
0.0
  0
SPLINE
  5
349
100
AcDbEntity
  8
0
100
AcDbSpline
 62
7
  6
CONTINUOUS
 70
0
 71
3
 72
9
 73
5
 74
0
 42
0.0000001
 43
0.0000001
 44
0.0000000001
 40
0.0
 40
0.0
 40
0.0
 40
0.0
 40
0.5007367882
 40
1.0
 40
1.0
 40
1.0
 40
1.0
 10
33.6992364958
 20
36.5889342416
 30
0.0
 10
33.8013123003
 20
36.3189863414
 30
0.0
 10
34.0532890306
 20
35.7972156958
 30
0.0
 10
34.387411756
 20
35.3237618823
 30
0.0
 10
34.5737113956
 20
35.1044577966
 30
0.0
  0
SPLINE
  5
34A
100
AcDbEntity
  8
0
100
AcDbSpline
 62
7
  6
CONTINUOUS
 70
0
 71
3
 72
11
 73
7
 74
0
 42
0.0000001
 43
0.0000001
 44
0.0000000001
 40
0.0
 40
0.0
 40
0.0
 40
0.0
 40
0.2893960733
 40
0.5491270641
 40
0.7823131117
 40
1.0
 40
1.0
 40
1.0
 40
1.0
 10
81.1322421036
 20
81.9157839002
 30
0.0
 10
81.0984925792
 20
81.8962987195
 30
0.0
 10
81.0312523131
 20
81.8643935392
 30
0.0
 10
80.9279657863
 20
81.839324966
 30
0.0
 10
80.83098775
 20
81.8418094753
 30
0.0
 10
80.7726415596
 20
81.8630011072
 30
0.0
 10
80.7472650591
 20
81.8776758307
 30
0.0
  0
SPLINE
  5
34B
100
AcDbEntity
  8
0
100
AcDbSpline
 62
7
  6
CONTINUOUS
 70
0
 71
3
 72
9
 73
5
 74
0
 42
0.0000001
 43
0.0000001
 44
0.0000000001
 40
0.0
 40
0.0
 40
0.0
 40
0.0
 40
0.4994281846
 40
1.0
 40
1.0
 40
1.0
 40
1.0
 10
27.5679097677
 20
40.1751919916
 30
0.0
 10
27.6642379155
 20
39.9099363644
 30
0.0
 10
27.9040674109
 20
39.3950652008
 30
0.0
 10
28.2234984074
 20
38.9254515201
 30
0.0
 10
28.4022358626
 20
38.7062307864
 30
0.0
  0
SPLINE
  5
34C
100
AcDbEntity
  8
0
100
AcDbSpline
 62
7
  6
CONTINUOUS
 70
0
 71
3
 72
9
 73
5
 74
0
 42
0.0000001
 43
0.0000001
 44
0.0000000001
 40
0.0
 40
0.0
 40
0.0
 40
0.0
 40
0.4994281846
 40
1.0
 40
1.0
 40
1.0
 40
1.0
 10
21.4514106452
 20
43.7064745182
 30
0.0
 10
21.547738793
 20
43.441218891
 30
0.0
 10
21.7875682884
 20
42.9263477274
 30
0.0
 10
22.1069992849
 20
42.4567340467
 30
0.0
 10
22.2857367401
 20
42.237513313
 30
0.0
  0
SPLINE
  5
34D
100
AcDbEntity
  8
0
100
AcDbSpline
 62
7
  6
CONTINUOUS
 70
0
 71
3
 72
11
 73
7
 74
0
 42
0.0000001
 43
0.0000001
 44
0.0000000001
 40
0.0
 40
0.0
 40
0.0
 40
0.0
 40
0.2893960733
 40
0.5491270641
 40
0.7823131117
 40
1.0
 40
1.0
 40
1.0
 40
1.0
 10
81.1322421036
 20
48.8147759097
 30
0.0
 10
81.0984925792
 20
48.795290729
 30
0.0
 10
81.0312523131
 20
48.7633855487
 30
0.0
 10
80.9279657863
 20
48.7383169755
 30
0.0
 10
80.83098775
 20
48.7408014849
 30
0.0
 10
80.7726415596
 20
48.7619931168
 30
0.0
 10
80.7472650591
 20
48.7766678403
 30
0.0
  0
SPLINE
  5
34E
100
AcDbEntity
  8
0
100
AcDbSpline
 62
7
  6
CONTINUOUS
 70
0
 71
3
 72
11
 73
7
 74
0
 42
0.0000001
 43
0.0000001
 44
0.0000000001
 40
0.0
 40
0.0
 40
0.0
 40
0.0
 40
0.2298050591
 40
0.4686191874
 40
0.7239735461
 40
1.0
 40
1.0
 40
1.0
 40
1.0
 10
80.768222673
 20
80.8312108774
 30
0.0
 10
80.7934134922
 20
80.8166820317
 30
0.0
 10
80.8412155846
 20
80.7803995119
 30
0.0
 10
80.8993438936
 20
80.7085980665
 30
0.0
 10
80.9433642489
 20
80.6209351348
 30
0.0
 10
80.9622606477
 20
80.5560227985
 30
0.0
 10
80.9694858922
 20
80.5218489227
 30
0.0
  0
SPLINE
  5
34F
100
AcDbEntity
  8
0
100
AcDbSpline
 62
7
  6
CONTINUOUS
 70
0
 71
3
 72
9
 73
5
 74
0
 42
0.0000001
 43
0.0000001
 44
0.0000000001
 40
0.0
 40
0.0
 40
0.0
 40
0.0
 40
0.5007367882
 40
1.0
 40
1.0
 40
1.0
 40
1.0
 10
15.3638813227
 20
47.1746170063
 30
0.0
 10
15.4659571272
 20
46.9046691062
 30
0.0
 10
15.7179338575
 20
46.3828984605
 30
0.0
 10
16.0520565829
 20
45.909444647
 30
0.0
 10
16.2383562226
 20
45.6901405613
 30
0.0
  0
SPLINE
  5
350
100
AcDbEntity
  8
0
100
AcDbSpline
 62
7
  6
CONTINUOUS
 70
0
 71
3
 72
12
 73
8
 74
0
 42
0.0000001
 43
0.0000001
 44
0.0000000001
 40
0.0
 40
0.0
 40
0.0
 40
0.0
 40
0.1081614689
 40
0.2183687405
 40
0.4513480154
 40
0.7104447573
 40
1.0
 40
1.0
 40
1.0
 40
1.0
 10
15.8875507293
 20
43.068544128
 30
0.0
 10
15.8383662671
 20
43.0401476333
 30
0.0
 10
15.7339336593
 20
42.9912252695
 30
0.0
 10
15.5046024667
 20
42.9278051847
 30
0.0
 10
15.1833958611
 20
42.9191918052
 30
0.0
 10
14.7811488506
 20
43.0165037028
 30
0.0
 10
14.5192390048
 20
43.1410795686
 30
0.0
 10
14.3875684707
 20
43.2170978671
 30
0.0
  0
SPLINE
  5
351
100
AcDbEntity
  8
0
100
AcDbSpline
 62
7
  6
CONTINUOUS
 70
0
 71
3
 72
20
 73
16
 74
0
 42
0.0000001
 43
0.0000001
 44
0.0000000001
 40
0.0
 40
0.0
 40
0.0
 40
0.0
 40
0.0428308781
 40
0.0874313055
 40
0.1352324479
 40
0.1871645451
 40
0.2436332745
 40
0.3046140537
 40
0.3697391471
 40
0.4383737618
 40
0.5826246901
 40
0.7296906131
 40
0.8711889232
 40
0.9376084375
 40
1.0
 40
1.0
 40
1.0
 40
1.0
 10
40.36062066
 20
56.7575649045
 30
0.0
 10
40.2866549115
 20
56.7148777794
 30
0.0
 10
40.1236386307
 20
56.6470790968
 30
0.0
 10
39.854509508
 20
56.6076983845
 30
0.0
 10
39.5655135993
 20
56.6289072998
 30
0.0
 10
39.2630675816
 20
56.7092999503
 30
0.0
 10
38.9530999052
 20
56.8462816101
 30
0.0
 10
38.6417750858
 20
57.0367145716
 30
0.0
 10
38.3354368354
 20
57.2765687836
 30
0.0
 10
37.9356271547
 20
57.6616377855
 30
0.0
 10
37.491360836
 20
58.2306203612
 30
0.0
 10
37.0789454065
 20
58.9927539531
 30
0.0
 10
36.8506617978
 20
59.66749077
 30
0.0
 10
36.7562271274
 20
60.1989357206
 30
0.0
 10
36.7393068826
 20
60.4559507129
 30
0.0
 10
36.7393068826
 20
60.5803522197
 30
0.0
  0
SPLINE
  5
352
100
AcDbEntity
  8
0
100
AcDbSpline
 62
7
  6
CONTINUOUS
 70
0
 71
3
 72
12
 73
8
 74
0
 42
0.0000001
 43
0.0000001
 44
0.0000000001
 40
0.0
 40
0.0
 40
0.0
 40
0.0
 40
0.2895262925
 40
0.5486619948
 40
0.781628212
 40
0.8918379021
 40
1.0
 40
1.0
 40
1.0
 40
1.0
 10
12.2662392953
 20
74.0563628
 30
0.0
 10
12.2662392953
 20
74.2083902592
 30
0.0
 10
12.2893269012
 20
74.4975071617
 30
0.0
 10
12.4061401316
 20
74.8945376851
 30
0.0
 10
12.5742276103
 20
75.1684215573
 30
0.0
 10
12.743824712
 20
75.3353038844
 30
0.0
 10
12.8383931658
 20
75.4013166414
 30
0.0
 10
12.8875838688
 20
75.4297055881
 30
0.0
  0
SPLINE
  5
353
100
AcDbEntity
  8
0
100
AcDbSpline
 62
7
  6
CONTINUOUS
 70
0
 71
3
 72
15
 73
11
 74
0
 42
0.0000001
 43
0.0000001
 44
0.0000000001
 40
0.0
 40
0.0
 40
0.0
 40
0.0
 40
0.1141465952
 40
0.2373352439
 40
0.366975646
 40
0.4999989181
 40
0.6330223406
 40
0.7626631822
 40
0.8858525235
 40
1.0
 40
1.0
 40
1.0
 40
1.0
 10
14.3875684707
 20
70.382133285
 30
0.0
 10
14.24235705
 20
70.4659692412
 30
0.0
 10
13.9555188824
 20
70.6670607948
 30
0.0
 10
13.5608212599
 20
71.0362837726
 30
0.0
 10
13.197131517
 20
71.4727960043
 30
0.0
 10
12.8780621717
 20
71.9601021337
 30
0.0
 10
12.6155746016
 20
72.4800766853
 30
0.0
 10
12.4193853448
 20
73.0132980818
 30
0.0
 10
12.2969736709
 20
73.5397298218
 30
0.0
 10
12.2662392953
 20
73.888686748
 30
0.0
 10
12.2662392953
 20
74.0563628
 30
0.0
  0
SPLINE
  5
354
100
AcDbEntity
  8
0
100
AcDbSpline
 62
7
  6
CONTINUOUS
 70
0
 71
3
 72
12
 73
8
 74
0
 42
0.0000001
 43
0.0000001
 44
0.0000000001
 40
0.0
 40
0.0
 40
0.0
 40
0.0
 40
0.2895262925
 40
0.5486619948
 40
0.781628212
 40
0.8918379021
 40
1.0
 40
1.0
 40
1.0
 40
1.0
 10
18.3756673206
 20
70.5291626809
 30
0.0
 10
18.3756673206
 20
70.6811901401
 30
0.0
 10
18.3987549264
 20
70.9703070427
 30
0.0
 10
18.5155681569
 20
71.367337566
 30
0.0
 10
18.6836556356
 20
71.6412214383
 30
0.0
 10
18.8532527373
 20
71.8081037654
 30
0.0
 10
18.947821191
 20
71.8741165223
 30
0.0
 10
18.9970118941
 20
71.902505469
 30
0.0
  0
SPLINE
  5
355
100
AcDbEntity
  8
0
100
AcDbSpline
 62
7
  6
CONTINUOUS
 70
0
 71
3
 72
15
 73
11
 74
0
 42
0.0000001
 43
0.0000001
 44
0.0000000001
 40
0.0
 40
0.0
 40
0.0
 40
0.0
 40
0.1141465952
 40
0.2373352439
 40
0.366975646
 40
0.4999989181
 40
0.6330223406
 40
0.7626631822
 40
0.8858525235
 40
1.0
 40
1.0
 40
1.0
 40
1.0
 10
20.496996496
 20
66.854933166
 30
0.0
 10
20.3517850753
 20
66.9387691222
 30
0.0
 10
20.0649469077
 20
67.1398606757
 30
0.0
 10
19.6702492852
 20
67.5090836535
 30
0.0
 10
19.3065595422
 20
67.9455958853
 30
0.0
 10
18.987490197
 20
68.4329020147
 30
0.0
 10
18.7250026268
 20
68.9528765663
 30
0.0
 10
18.52881337
 20
69.4860979628
 30
0.0
 10
18.4064016962
 20
70.0125297027
 30
0.0
 10
18.3756673206
 20
70.3614866289
 30
0.0
 10
18.3756673206
 20
70.5291626809
 30
0.0
  0
SPLINE
  5
356
100
AcDbEntity
  8
0
100
AcDbSpline
 62
7
  6
CONTINUOUS
 70
0
 71
3
 72
12
 73
8
 74
0
 42
0.0000001
 43
0.0000001
 44
0.0000000001
 40
0.0
 40
0.0
 40
0.0
 40
0.0
 40
0.1081614689
 40
0.2183687405
 40
0.4513480154
 40
0.7104447573
 40
1.0
 40
1.0
 40
1.0
 40
1.0
 10
34.2229059023
 20
59.6478967812
 30
0.0
 10
34.1737214402
 20
59.6195002865
 30
0.0
 10
34.0692888324
 20
59.5705779227
 30
0.0
 10
33.8399576397
 20
59.5071578379
 30
0.0
 10
33.5187510342
 20
59.4985444584
 30
0.0
 10
33.1165040236
 20
59.595856356
 30
0.0
 10
32.8545941779
 20
59.7204322218
 30
0.0
 10
32.7229236438
 20
59.7964505203
 30
0.0
  0
SPLINE
  5
357
100
AcDbEntity
  8
0
100
AcDbSpline
 62
7
  6
CONTINUOUS
 70
0
 71
3
 72
12
 73
8
 74
0
 42
0.0000001
 43
0.0000001
 44
0.0000000001
 40
0.0
 40
0.0
 40
0.0
 40
0.0
 40
0.2895262925
 40
0.5486619948
 40
0.781628212
 40
0.8918379021
 40
1.0
 40
1.0
 40
1.0
 40
1.0
 10
24.4921664431
 20
66.9978801543
 30
0.0
 10
24.4921664431
 20
67.1499076135
 30
0.0
 10
24.515254049
 20
67.4390245161
 30
0.0
 10
24.6320672794
 20
67.8360550394
 30
0.0
 10
24.8001547581
 20
68.1099389117
 30
0.0
 10
24.9697518598
 20
68.2768212388
 30
0.0
 10
25.0643203135
 20
68.3428339957
 30
0.0
 10
25.1135110166
 20
68.3712229424
 30
0.0
  0
SPLINE
  5
358
100
AcDbEntity
  8
0
100
AcDbSpline
 62
7
  6
CONTINUOUS
 70
0
 71
3
 72
15
 73
11
 74
0
 42
0.0000001
 43
0.0000001
 44
0.0000000001
 40
0.0
 40
0.0
 40
0.0
 40
0.0
 40
0.1141465952
 40
0.2373352439
 40
0.366975646
 40
0.4999989181
 40
0.6330223406
 40
0.7626631822
 40
0.8858525235
 40
1.0
 40
1.0
 40
1.0
 40
1.0
 10
26.6134956185
 20
63.3236506394
 30
0.0
 10
26.4682841978
 20
63.4074865956
 30
0.0
 10
26.1814460302
 20
63.6085781491
 30
0.0
 10
25.7867484077
 20
63.9778011269
 30
0.0
 10
25.4230586648
 20
64.4143133587
 30
0.0
 10
25.1039893195
 20
64.9016194881
 30
0.0
 10
24.8415017494
 20
65.4215940397
 30
0.0
 10
24.6453124926
 20
65.9548154362
 30
0.0
 10
24.5229008187
 20
66.4812471761
 30
0.0
 10
24.4921664431
 20
66.8302041023
 30
0.0
 10
24.4921664431
 20
66.9978801543
 30
0.0
  0
SPLINE
  5
359
100
AcDbEntity
  8
0
100
AcDbSpline
 62
7
  6
CONTINUOUS
 70
0
 71
3
 72
9
 73
5
 74
0
 42
0.0000001
 43
0.0000001
 44
0.0000000001
 40
0.0
 40
0.0
 40
0.0
 40
0.0
 40
0.4994281846
 40
1.0
 40
1.0
 40
1.0
 40
1.0
 10
39.8150502073
 20
60.9226994749
 30
0.0
 10
39.911378355
 20
60.6574438477
 30
0.0
 10
40.1512078505
 20
60.1425726841
 30
0.0
 10
40.4706388469
 20
59.6729590035
 30
0.0
 10
40.6493763022
 20
59.4537382697
 30
0.0
  0
SPLINE
  5
35A
100
AcDbEntity
  8
0
100
AcDbSpline
 62
7
  6
CONTINUOUS
 70
0
 71
3
 72
12
 73
8
 74
0
 42
0.0000001
 43
0.0000001
 44
0.0000000001
 40
0.0
 40
0.0
 40
0.0
 40
0.0
 40
0.2895262925
 40
0.5486619948
 40
0.781628212
 40
0.8918379021
 40
1.0
 40
1.0
 40
1.0
 40
1.0
 10
30.6015944684
 20
63.4706800353
 30
0.0
 10
30.6015944684
 20
63.6227074945
 30
0.0
 10
30.6246820742
 20
63.911824397
 30
0.0
 10
30.7414953047
 20
64.3088549204
 30
0.0
 10
30.9095827834
 20
64.5827387926
 30
0.0
 10
31.079179885
 20
64.7496211197
 30
0.0
 10
31.1737483388
 20
64.8156338767
 30
0.0
 10
31.2229390419
 20
64.8440228234
 30
0.0
  0
SPLINE
  5
35B
100
AcDbEntity
  8
0
100
AcDbSpline
 62
7
  6
CONTINUOUS
 70
0
 71
3
 72
15
 73
11
 74
0
 42
0.0000001
 43
0.0000001
 44
0.0000000001
 40
0.0
 40
0.0
 40
0.0
 40
0.0
 40
0.1141465952
 40
0.2373352439
 40
0.366975646
 40
0.4999989181
 40
0.6330223406
 40
0.7626631822
 40
0.8858525235
 40
1.0
 40
1.0
 40
1.0
 40
1.0
 10
32.7229236438
 20
59.7964505203
 30
0.0
 10
32.5777122231
 20
59.8802864765
 30
0.0
 10
32.2908740555
 20
60.0813780301
 30
0.0
 10
31.896176433
 20
60.4506010079
 30
0.0
 10
31.53248669
 20
60.8871132396
 30
0.0
 10
31.2134173447
 20
61.374419369
 30
0.0
 10
30.9509297746
 20
61.8943939206
 30
0.0
 10
30.7547405178
 20
62.4276153171
 30
0.0
 10
30.632328844
 20
62.954047057
 30
0.0
 10
30.6015944684
 20
63.3030039833
 30
0.0
 10
30.6015944684
 20
63.4706800353
 30
0.0
  0
SPLINE
  5
35C
100
AcDbEntity
  8
0
100
AcDbSpline
 62
7
  6
CONTINUOUS
 70
0
 71
3
 72
12
 73
8
 74
0
 42
0.0000001
 43
0.0000001
 44
0.0000000001
 40
0.0
 40
0.0
 40
0.0
 40
0.0
 40
0.289556229
 40
0.5486533222
 40
0.7816321932
 40
0.8918390364
 40
1.0
 40
1.0
 40
1.0
 40
1.0
 10
36.7393068826
 20
60.5803522197
 30
0.0
 10
36.7393068826
 20
60.7323959832
 30
0.0
 10
36.7623738663
 20
61.0215131776
 30
0.0
 10
36.8792228088
 20
61.4185373666
 30
0.0
 10
37.0472885573
 20
61.6924118725
 30
0.0
 10
37.216881572
 20
61.8593125246
 30
0.0
 10
37.3114682509
 20
61.9252938247
 30
0.0
 10
37.3606537995
 20
61.9536909467
 30
0.0
  0
SPLINE
  5
35D
100
AcDbEntity
  8
0
100
AcDbSpline
 62
7
  6
CONTINUOUS
 70
0
 71
3
 72
20
 73
16
 74
0
 42
0.0000001
 43
0.0000001
 44
0.0000000001
 40
0.0
 40
0.0
 40
0.0
 40
0.0
 40
0.0428308781
 40
0.0874313055
 40
0.1352324479
 40
0.1871645451
 40
0.2436332745
 40
0.3046140537
 40
0.3697391471
 40
0.4383737618
 40
0.5826246901
 40
0.7296906131
 40
0.8711889232
 40
0.9376084375
 40
1.0
 40
1.0
 40
1.0
 40
1.0
 10
21.9969810979
 20
39.5413399478
 30
0.0
 10
21.9230153494
 20
39.4986528227
 30
0.0
 10
21.7599990686
 20
39.4308541401
 30
0.0
 10
21.4908699459
 20
39.3914734278
 30
0.0
 10
21.2018740372
 20
39.4126823431
 30
0.0
 10
20.8994280195
 20
39.4930749936
 30
0.0
 10
20.5894603431
 20
39.6300566534
 30
0.0
 10
20.2781355237
 20
39.8204896149
 30
0.0
 10
19.9717972733
 20
40.0603438269
 30
0.0
 10
19.5719875926
 20
40.4454128288
 30
0.0
 10
19.1277212739
 20
41.0143954045
 30
0.0
 10
18.7153058444
 20
41.7765289963
 30
0.0
 10
18.4870222357
 20
42.4512658133
 30
0.0
 10
18.3925875653
 20
42.9827107639
 30
0.0
 10
18.3756673206
 20
43.2397257562
 30
0.0
 10
18.3756673206
 20
43.364127263
 30
0.0
  0
SPLINE
  5
35E
100
AcDbEntity
  8
0
100
AcDbSpline
 62
7
  6
CONTINUOUS
 70
0
 71
3
 72
12
 73
8
 74
0
 42
0.0000001
 43
0.0000001
 44
0.0000000001
 40
0.0
 40
0.0
 40
0.0
 40
0.0
 40
0.1081614689
 40
0.2183687405
 40
0.4513480154
 40
0.7104447573
 40
1.0
 40
1.0
 40
1.0
 40
1.0
 10
28.1134778771
 20
63.1750969002
 30
0.0
 10
28.0642934149
 20
63.1467004055
 30
0.0
 10
27.9598608071
 20
63.0977780418
 30
0.0
 10
27.7305296145
 20
63.0343579569
 30
0.0
 10
27.4093230089
 20
63.0257445775
 30
0.0
 10
27.0070759983
 20
63.1230564751
 30
0.0
 10
26.7451661526
 20
63.2476323408
 30
0.0
 10
26.6134956185
 20
63.3236506394
 30
0.0
  0
SPLINE
  5
35F
100
AcDbEntity
  8
0
100
AcDbSpline
 62
7
  6
CONTINUOUS
 70
0
 71
3
 72
12
 73
8
 74
0
 42
0.0000001
 43
0.0000001
 44
0.0000000001
 40
0.0
 40
0.0
 40
0.0
 40
0.0
 40
0.2895262925
 40
0.5486619948
 40
0.781628212
 40
0.8918379021
 40
1.0
 40
1.0
 40
1.0
 40
1.0
 10
12.2662392953
 20
46.8913273821
 30
0.0
 10
12.2662392953
 20
47.0433548413
 30
0.0
 10
12.2893269012
 20
47.3324717438
 30
0.0
 10
12.4061401316
 20
47.7295022672
 30
0.0
 10
12.5742276103
 20
48.0033861394
 30
0.0
 10
12.743824712
 20
48.1702684665
 30
0.0
 10
12.8383931658
 20
48.2362812235
 30
0.0
 10
12.8875838688
 20
48.2646701702
 30
0.0
  0
SPLINE
  5
360
100
AcDbEntity
  8
0
100
AcDbSpline
 62
7
  6
CONTINUOUS
 70
0
 71
3
 72
15
 73
11
 74
0
 42
0.0000001
 43
0.0000001
 44
0.0000000001
 40
0.0
 40
0.0
 40
0.0
 40
0.0
 40
0.1141465952
 40
0.2373352439
 40
0.366975646
 40
0.4999989181
 40
0.6330223406
 40
0.7626631822
 40
0.8858525235
 40
1.0
 40
1.0
 40
1.0
 40
1.0
 10
14.3875684707
 20
43.2170978671
 30
0.0
 10
14.24235705
 20
43.3009338233
 30
0.0
 10
13.9555188824
 20
43.5020253769
 30
0.0
 10
13.5608212599
 20
43.8712483547
 30
0.0
 10
13.197131517
 20
44.3077605864
 30
0.0
 10
12.8780621717
 20
44.7950667158
 30
0.0
 10
12.6155746016
 20
45.3150412674
 30
0.0
 10
12.4193853448
 20
45.8482626639
 30
0.0
 10
12.2969736709
 20
46.3746944039
 30
0.0
 10
12.2662392953
 20
46.7236513301
 30
0.0
 10
12.2662392953
 20
46.8913273821
 30
0.0
  0
SPLINE
  5
361
100
AcDbEntity
  8
0
100
AcDbSpline
 62
7
  6
CONTINUOUS
 70
0
 71
3
 72
12
 73
8
 74
0
 42
0.0000001
 43
0.0000001
 44
0.0000000001
 40
0.0
 40
0.0
 40
0.0
 40
0.0
 40
0.289556229
 40
0.5486533222
 40
0.7816321932
 40
0.8918390364
 40
1.0
 40
1.0
 40
1.0
 40
1.0
 10
18.3756673206
 20
43.364127263
 30
0.0
 10
18.3756673206
 20
43.5161710265
 30
0.0
 10
18.3987343043
 20
43.8052882209
 30
0.0
 10
18.5155832467
 20
44.2023124099
 30
0.0
 10
18.6836489952
 20
44.4761869158
 30
0.0
 10
18.8532420099
 20
44.6430875679
 30
0.0
 10
18.9478286889
 20
44.709068868
 30
0.0
 10
18.9970142375
 20
44.73746599
 30
0.0
  0
SPLINE
  5
362
100
AcDbEntity
  8
0
100
AcDbSpline
 62
7
  6
CONTINUOUS
 70
0
 71
3
 72
16
 73
12
 74
0
 42
0.0000001
 43
0.0000001
 44
0.0000000001
 40
0.0
 40
0.0
 40
0.0
 40
0.0
 40
0.0457860944
 40
0.0922547614
 40
0.1903518315
 40
0.2996334791
 40
0.4218914959
 40
0.556288935
 40
0.700111089
 40
0.849529207
 40
1.0
 40
1.0
 40
1.0
 40
1.0
 10
74.2960066323
 20
83.8589089504
 30
0.0
 10
74.2565808058
 20
83.8361055283
 30
0.0
 10
74.1726959146
 20
83.7973947285
 30
0.0
 10
73.9883906948
 20
83.7502173665
 30
0.0
 10
73.7311436726
 20
83.7537759353
 30
0.0
 10
73.4147229098
 20
83.8516018531
 30
0.0
 10
73.0971796311
 20
84.0345012637
 30
0.0
 10
72.7920054027
 20
84.2933618999
 30
0.0
 10
72.5125013196
 20
84.6160330561
 30
0.0
 10
72.2716657998
 20
84.9874314922
 30
0.0
 10
72.1434275242
 20
85.2579350589
 30
0.0
 10
72.0886077802
 20
85.3972150729
 30
0.0
  0
SPLINE
  5
363
100
AcDbEntity
  8
0
100
AcDbSpline
 62
7
  6
CONTINUOUS
 70
0
 71
3
 72
12
 73
8
 74
0
 42
0.0000001
 43
0.0000001
 44
0.0000000001
 40
0.0
 40
0.0
 40
0.0
 40
0.0
 40
0.289556229
 40
0.5486533222
 40
0.7816321932
 40
0.8918390364
 40
1.0
 40
1.0
 40
1.0
 40
1.0
 10
24.4921664431
 20
39.8328447364
 30
0.0
 10
24.4921664431
 20
39.9848884999
 30
0.0
 10
24.5152334268
 20
40.2740056943
 30
0.0
 10
24.6320823692
 20
40.6710298833
 30
0.0
 10
24.8001481177
 20
40.9449043892
 30
0.0
 10
24.9697411324
 20
41.1118050413
 30
0.0
 10
25.0643278114
 20
41.1777863414
 30
0.0
 10
25.11351336
 20
41.2061834634
 30
0.0
  0
SPLINE
  5
364
100
AcDbEntity
  8
0
100
AcDbSpline
 62
7
  6
CONTINUOUS
 70
0
 71
3
 72
11
 73
7
 74
0
 42
0.0000001
 43
0.0000001
 44
0.0000000001
 40
0.0
 40
0.0
 40
0.0
 40
0.0
 40
0.2229699316
 40
0.4578383032
 40
0.7152817345
 40
1.0
 40
1.0
 40
1.0
 40
1.0
 10
62.3053049161
 20
91.5473053377
 30
0.0
 10
62.25359856
 20
91.5174974411
 30
0.0
 10
62.1364245907
 20
91.4737064453
 30
0.0
 10
61.9425259429
 20
91.4655345338
 30
0.0
 10
61.7377981208
 20
91.5120084194
 30
0.0
 10
61.6054315934
 20
91.5740497522
 30
0.0
 10
61.5394302754
 20
91.6121547689
 30
0.0
  0
SPLINE
  5
365
100
AcDbEntity
  8
0
100
AcDbSpline
 62
7
  6
CONTINUOUS
 70
0
 71
3
 72
12
 73
8
 74
0
 42
0.0000001
 43
0.0000001
 44
0.0000000001
 40
0.0
 40
0.0
 40
0.0
 40
0.0
 40
0.2895262925
 40
0.5486619948
 40
0.781628212
 40
0.8918379021
 40
1.0
 40
1.0
 40
1.0
 40
1.0
 10
30.6015944684
 20
36.3056446173
 30
0.0
 10
30.6015944684
 20
36.4576720766
 30
0.0
 10
30.6246820742
 20
36.7467889791
 30
0.0
 10
30.7414953047
 20
37.1438195025
 30
0.0
 10
30.9095827834
 20
37.4177033747
 30
0.0
 10
31.079179885
 20
37.5845857018
 30
0.0
 10
31.1737483388
 20
37.6505984588
 30
0.0
 10
31.2229390419
 20
37.6789874055
 30
0.0
  0
SPLINE
  5
366
100
AcDbEntity
  8
0
100
AcDbSpline
 62
7
  6
CONTINUOUS
 70
0
 71
3
 72
15
 73
11
 74
0
 42
0.0000001
 43
0.0000001
 44
0.0000000001
 40
0.0
 40
0.0
 40
0.0
 40
0.0
 40
0.1141465952
 40
0.2373352439
 40
0.366975646
 40
0.4999989181
 40
0.6330223406
 40
0.7626631822
 40
0.8858525235
 40
1.0
 40
1.0
 40
1.0
 40
1.0
 10
32.7229236438
 20
32.6314151024
 30
0.0
 10
32.5777122231
 20
32.7152510586
 30
0.0
 10
32.2908740555
 20
32.9163426122
 30
0.0
 10
31.896176433
 20
33.2855655899
 30
0.0
 10
31.53248669
 20
33.7220778217
 30
0.0
 10
31.2134173447
 20
34.2093839511
 30
0.0
 10
30.9509297746
 20
34.7293585027
 30
0.0
 10
30.7547405178
 20
35.2625798992
 30
0.0
 10
30.632328844
 20
35.7890116391
 30
0.0
 10
30.6015944684
 20
36.1379685654
 30
0.0
 10
30.6015944684
 20
36.3056446173
 30
0.0
  0
SPLINE
  5
367
100
AcDbEntity
  8
0
100
AcDbSpline
 62
7
  6
CONTINUOUS
 70
0
 71
3
 72
12
 73
8
 74
0
 42
0.0000001
 43
0.0000001
 44
0.0000000001
 40
0.0
 40
0.0
 40
0.0
 40
0.0
 40
0.289556229
 40
0.5486533222
 40
0.7816321932
 40
0.8918390364
 40
1.0
 40
1.0
 40
1.0
 40
1.0
 10
36.7393068826
 20
32.1170779586
 30
0.0
 10
36.7393068826
 20
32.2691217221
 30
0.0
 10
36.7623738663
 20
32.5582389165
 30
0.0
 10
36.8792228088
 20
32.9552631055
 30
0.0
 10
37.0472885573
 20
33.2291376113
 30
0.0
 10
37.216881572
 20
33.3960382635
 30
0.0
 10
37.3114682509
 20
33.4620195636
 30
0.0
 10
37.3606537995
 20
33.4904166855
 30
0.0
  0
SPLINE
  5
368
100
AcDbEntity
  8
0
100
AcDbSpline
 62
7
  6
CONTINUOUS
 70
0
 71
3
 72
9
 73
5
 74
0
 42
0.0000001
 43
0.0000001
 44
0.0000000001
 40
0.0
 40
0.0
 40
0.0
 40
0.0
 40
0.5007367882
 40
1.0
 40
1.0
 40
1.0
 40
1.0
 10
33.6992364958
 20
63.7539696595
 30
0.0
 10
33.8013123003
 20
63.4840217593
 30
0.0
 10
34.0532890306
 20
62.9622511137
 30
0.0
 10
34.387411756
 20
62.4887973002
 30
0.0
 10
34.5737113956
 20
62.2694932145
 30
0.0
  0
SPLINE
  5
369
100
AcDbEntity
  8
0
100
AcDbSpline
 62
7
  6
CONTINUOUS
 70
0
 71
3
 72
17
 73
13
 74
0
 42
0.0000001
 43
0.0000001
 44
0.0000000001
 40
0.0
 40
0.0
 40
0.0
 40
0.0
 40
0.0428570169
 40
0.0874783987
 40
0.1353170009
 40
0.1872733753
 40
0.3045407835
 40
0.4382068211
 40
0.5825483434
 40
0.7296734068
 40
0.8713416545
 40
1.0
 40
1.0
 40
1.0
 40
1.0
 10
81.5172191481
 20
83.211305692
 30
0.0
 10
81.5361932471
 20
83.2003333495
 30
0.0
 10
81.5721721236
 20
83.1728021852
 30
0.0
 10
81.6155148265
 20
83.1180728697
 30
0.0
 10
81.6478278165
 20
83.0510848467
 30
0.0
 10
81.6769503028
 20
82.9434299274
 30
0.0
 10
81.6805505482
 20
82.7864309486
 30
0.0
 10
81.6399315176
 20
82.5871966754
 30
0.0
 10
81.5580338818
 20
82.3845785177
 30
0.0
 10
81.4415143722
 20
82.1949455048
 30
0.0
 10
81.2998610937
 20
82.0338637232
 30
0.0
 10
81.18922608
 20
81.9486834179
 30
0.0
 10
81.1322421036
 20
81.9157839002
 30
0.0
  0
SPLINE
  5
36A
100
AcDbEntity
  8
0
100
AcDbSpline
 62
7
  6
CONTINUOUS
 70
0
 71
3
 72
9
 73
5
 74
0
 42
0.0000001
 43
0.0000001
 44
0.0000000001
 40
0.0
 40
0.0
 40
0.0
 40
0.0
 40
0.5007367882
 40
1.0
 40
1.0
 40
1.0
 40
1.0
 10
15.3638813227
 20
74.3396524242
 30
0.0
 10
15.4659571272
 20
74.0697045241
 30
0.0
 10
15.7179338575
 20
73.5479338784
 30
0.0
 10
16.0520565829
 20
73.0744800649
 30
0.0
 10
16.2383562226
 20
72.8551759792
 30
0.0
  0
SPLINE
  5
36B
100
AcDbEntity
  8
0
100
AcDbSpline
 62
7
  6
CONTINUOUS
 70
0
 71
3
 72
11
 73
7
 74
0
 42
0.0000001
 43
0.0000001
 44
0.0000000001
 40
0.0
 40
0.0
 40
0.0
 40
0.0
 40
0.2861203252
 40
0.5450966981
 40
0.7800341983
 40
1.0
 40
1.0
 40
1.0
 40
1.0
 10
66.6610927199
 20
89.9429644246
 30
0.0
 10
66.6644902482
 20
90.0213049041
 30
0.0
 10
66.6829625538
 20
90.1705200623
 30
0.0
 10
66.7520295738
 20
90.3747244634
 30
0.0
 10
66.8601348188
 20
90.5406624163
 30
0.0
 10
66.95823377
 20
90.6215705798
 30
0.0
 10
67.0104606592
 20
90.651678556
 30
0.0
  0
SPLINE
  5
36C
100
AcDbEntity
  8
0
100
AcDbSpline
 62
7
  6
CONTINUOUS
 70
0
 71
3
 72
13
 73
9
 74
0
 42
0.0000001
 43
0.0000001
 44
0.0000000001
 40
0.0
 40
0.0
 40
0.0
 40
0.0
 40
0.113632189
 40
0.2360927851
 40
0.4968892545
 40
0.7594025747
 40
0.8838389745
 40
1.0
 40
1.0
 40
1.0
 40
1.0
 10
67.6673687278
 20
88.0742678915
 30
0.0
 10
67.5948598528
 20
88.116129963
 30
0.0
 10
67.4522111271
 20
88.2173443052
 30
0.0
 10
67.1875417257
 20
88.47171335
 30
0.0
 10
66.9129845382
 20
88.8664955185
 30
0.0
 10
66.7343855937
 20
89.3143396845
 30
0.0
 10
66.6652114729
 20
89.6794770119
 30
0.0
 10
66.6573843251
 20
89.8574559604
 30
0.0
 10
66.6610927199
 20
89.9429644246
 30
0.0
  0
SPLINE
  5
36D
100
AcDbEntity
  8
0
100
AcDbSpline
 62
7
  6
CONTINUOUS
 70
0
 71
3
 72
9
 73
5
 74
0
 42
0.0000001
 43
0.0000001
 44
0.0000000001
 40
0.0
 40
0.0
 40
0.0
 40
0.0
 40
0.5007367882
 40
1.0
 40
1.0
 40
1.0
 40
1.0
 10
27.5898084705
 20
67.2811697785
 30
0.0
 10
27.691884275
 20
67.0112218784
 30
0.0
 10
27.9438610053
 20
66.4894512327
 30
0.0
 10
28.2779837307
 20
66.0159974192
 30
0.0
 10
28.4642833704
 20
65.7966933336
 30
0.0
  0
SPLINE
  5
36E
100
AcDbEntity
  8
0
100
AcDbSpline
 62
7
  6
CONTINUOUS
 70
0
 71
3
 72
9
 73
5
 74
0
 42
0.0000001
 43
0.0000001
 44
0.0000000001
 40
0.0
 40
0.0
 40
0.0
 40
0.0
 40
0.5007367882
 40
1.0
 40
1.0
 40
1.0
 40
1.0
 10
21.473309348
 20
70.8124523051
 30
0.0
 10
21.5753851525
 20
70.542504405
 30
0.0
 10
21.8273618828
 20
70.0207337593
 30
0.0
 10
22.1614846082
 20
69.5472799458
 30
0.0
 10
22.3477842478
 20
69.3279758602
 30
0.0
  0
SPLINE
  5
36F
100
AcDbEntity
  8
0
100
AcDbSpline
 62
7
  6
CONTINUOUS
 70
0
 71
3
 72
11
 73
7
 74
0
 42
0.0000001
 43
0.0000001
 44
0.0000000001
 40
0.0
 40
0.0
 40
0.0
 40
0.0
 40
0.2861203252
 40
0.5450966981
 40
0.7800341983
 40
1.0
 40
1.0
 40
1.0
 40
1.0
 10
60.5331542676
 20
93.480851302
 30
0.0
 10
60.5365517959
 20
93.5591917815
 30
0.0
 10
60.5550241015
 20
93.7084069396
 30
0.0
 10
60.6240911214
 20
93.9126113407
 30
0.0
 10
60.7321963664
 20
94.0785492937
 30
0.0
 10
60.8302953177
 20
94.1594574571
 30
0.0
 10
60.8825222069
 20
94.1895654333
 30
0.0
  0
SPLINE
  5
370
100
AcDbEntity
  8
0
100
AcDbSpline
 62
7
  6
CONTINUOUS
 70
0
 71
3
 72
13
 73
9
 74
0
 42
0.0000001
 43
0.0000001
 44
0.0000000001
 40
0.0
 40
0.0
 40
0.0
 40
0.0
 40
0.113632189
 40
0.2360927851
 40
0.4968892545
 40
0.7594025747
 40
0.8838389745
 40
1.0
 40
1.0
 40
1.0
 40
1.0
 10
61.5394302754
 20
91.6121547689
 30
0.0
 10
61.4669214004
 20
91.6540168404
 30
0.0
 10
61.3242726748
 20
91.7552311826
 30
0.0
 10
61.0596032733
 20
92.0096002273
 30
0.0
 10
60.7850460859
 20
92.4043823958
 30
0.0
 10
60.6064471414
 20
92.8522265618
 30
0.0
 10
60.5372730206
 20
93.2173638892
 30
0.0
 10
60.5294458728
 20
93.3953428377
 30
0.0
 10
60.5331542676
 20
93.480851302
 30
0.0
  0
SPLINE
  5
371
100
AcDbEntity
  8
0
100
AcDbSpline
 62
7
  6
CONTINUOUS
 70
0
 71
3
 72
20
 73
16
 74
0
 42
0.0000001
 43
0.0000001
 44
0.0000000001
 40
0.0
 40
0.0
 40
0.0
 40
0.0
 40
0.0428308781
 40
0.0874313055
 40
0.1352324479
 40
0.1871645451
 40
0.2436332745
 40
0.3046140537
 40
0.3697391471
 40
0.4383737618
 40
0.5826246901
 40
0.7296906131
 40
0.8711889232
 40
0.9376084375
 40
1.0
 40
1.0
 40
1.0
 40
1.0
 10
40.36062066
 20
28.2942906433
 30
0.0
 10
40.2866549115
 20
28.2516035183
 30
0.0
 10
40.1236386307
 20
28.1838048356
 30
0.0
 10
39.854509508
 20
28.1444241234
 30
0.0
 10
39.5655135993
 20
28.1656330387
 30
0.0
 10
39.2630675816
 20
28.2460256892
 30
0.0
 10
38.9530999052
 20
28.383007349
 30
0.0
 10
38.6417750858
 20
28.5734403105
 30
0.0
 10
38.3354368354
 20
28.8132945224
 30
0.0
 10
37.9356271547
 20
29.1983635244
 30
0.0
 10
37.491360836
 20
29.7673461001
 30
0.0
 10
37.0789454065
 20
30.5294796919
 30
0.0
 10
36.8506617978
 20
31.2042165089
 30
0.0
 10
36.7562271274
 20
31.7356614595
 30
0.0
 10
36.7393068826
 20
31.9926764518
 30
0.0
 10
36.7393068826
 20
32.1170779586
 30
0.0
  0
ENDSEC
  0
SECTION
  2
OBJECTS
  0
DICTIONARY
  5
C
100
AcDbDictionary
280
0
281
1
  3
ACAD_GROUP
350
D
  3
ACAD_MLINESTYLE
350
17
  3
ACAD_LAYOUT
350
1A
  3
ACAD_PLOTSETTINGS
350
19
  3
ACAD_PLOTSTYLENAME
350
E
  0
DICTIONARY
  5
D
102
{ACAD_REACTORS
330
C
102
}
100
AcDbDictionary
280
0
281
1
  0
ACDBDICTIONARYWDFLT
  5
E
102
{ACAD_REACTORS
330
C
102
}
100
AcDbDictionary
281
1
  3
Normal
350
F
100
AcDbDictionaryWithDefault
340
F
  0
DICTIONARY
  5
17
102
{ACAD_REACTORS
330
C
102
}
100
AcDbDictionary
280
0
281
1
  3
Standard
350
18
  0
DICTIONARY
  5
19
102
{ACAD_REACTORS
330
C
102
}
100
AcDbDictionary
281
1
  0
DICTIONARY
  5
1A
102
{ACAD_REACTORS
330
C
102
}
100
AcDbDictionary
281
1
  3
Model
350
372
  3
Layout1
350
373
  0
ACDBPLACEHOLDER
  5
F
102
{ACAD_REACTORS
330
E
102
}
  0
MLINESTYLE
  5
18
102
{ACAD_REACTORS
330
17
102
}
100
AcDbMlineStyle
  2
STANDARD
 70
0
  3

 62
256
 51
90.0
 52
90.0
 71
2
 49
0.5
 62
256
  6
BYLAYER
 49
-0.5
 62
256
  6
BYLAYER
  0
LAYOUT
  5
372
102
{ACAD_REACTORS
330
1A
102
}
100
AcDbPlotSettings
  1

  2
none_device
  4

  6

 40
0.0
 41
0.0
 42
0.0
 43
0.0
 44
210.0
 45
297.0
 46
0.0
 47
0.0
 48
0.0
 49
0.0
140
0.0
141
0.0
142
1.0
143
1.0
 70
1024
 72
1
 73
0
 74
0
  7

 75
0
147
1.0
148
0.0
149
0.0
100
AcDbLayout
  1
Model
 70
0
 71
0
 10
0.0
 20
0.0
 11
210.0
 21
297.0
 12
0.0
 22
0.0
 32
0.0
 14
0.0
 24
0.0
 34
0.0
 15
0.0
 25
0.0
 35
0.0
146
0.0
 13
0.0
 23
0.0
 33
0.0
 16
1.0
 26
0.0
 36
0.0
 17
0.0
 27
1.0
 37
0.0
 76
0
330
210
345
0
346
0
  0
LAYOUT
  5
373
102
{ACAD_REACTORS
330
1A
102
}
100
AcDbPlotSettings
  1

  2
none_device
  4

  6

 40
0.0
 41
0.0
 42
0.0
 43
0.0
 44
210.0
 45
297.0
 46
0.0
 47
0.0
 48
0.0
 49
0.0
140
0.0
141
0.0
142
1.0
143
1.0
 70
0
 72
1
 73
0
 74
0
  7

 75
0
147
1.0
148
0.0
149
0.0
100
AcDbLayout
  1
Layout1
 70
0
 71
1
 10
0.0
 20
0.0
 11
210.0
 21
297.0
 12
0.0
 22
0.0
 32
0.0
 14
0.0
 24
0.0
 34
0.0
 15
0.0
 25
0.0
 35
0.0
146
0.0
 13
0.0
 23
0.0
 33
0.0
 16
1.0
 26
0.0
 36
0.0
 17
0.0
 27
1.0
 37
0.0
 76
0
330
211
345
0
346
0
  0
ENDSEC
  0
EOF
