999
DXF file: C:\Users\sesa63760\Dev\_Creo\CAD\MCADPD0004367_3D-CAD\drw0001_5.dxf
999
Pro/ENGINEER 2019471 by Parametric Technology Corporation
  0
SECTION
  2
HEADER
  9
$ACADVER
  1
AC1024
  9
$DWGCODEPAGE
  3
ANSI_1252
  9
$EXTMAX
 10
51.8524680355
 20
73.334204793
 30
0.0
  9
$EXTMIN
 10
0.0
 20
0.0
 30
0.0
  9
$LIMMIN
 10
0.0
 20
0.0
  9
$LIMMAX
 10
51.8524680355
 20
73.334204793
  9
$VIEWCTR
 10
25.9262340177
 20
36.6671023965
  9
$VIEWSIZE
 40
73.334204793
  9
$CLAYER
  8
0
  9
$LTSCALE
 40
4.7803037198
  9
$CELTYPE
  6
BYLAYER
  9
$DIMSCALE
 40
1.0
  9
$DIMASZ
 40
0.6172912861
  9
$DIMEXO
 40
1.0
  9
$DIMDLI
 40
3.3027552973
  9
$DIMEXE
 40
1.0
  9
$DIMCEN
 40
0.7822315178
  9
$DIMLFAC
 40
1.0
  9
$DIMBLK
  1
_FILLED
  9
$DIMALT
 70
0
  9
$DIMALTF
 40
0.0393700787
  9
$DIMTXT
 40
0.8642078006
  9
$DIMTOL
 70
1
  9
$DIMLIM
 70
0
  9
$DIMTFAC
 40
1.0
  9
$DIMTP
 40
0.01
  9
$DIMTM
 40
0.01
  9
$DIMGAP
 40
0.625
  9
$DIMDSEP
 70
46
  9
$AUNITS
 70
0
  9
$PDMODE
 70
3
  9
$PDSIZE
 40
0.3125
  9
$HANDSEED
  5
245
  9
$TILEMODE
 70
1
  9
$MEASUREMENT
 70
1
  9
$INSUNITS
 70
4
  0
ENDSEC
  0
SECTION
  2
CLASSES
  0
CLASS
  1
ACDBDICTIONARYWDFLT
  2
AcDbDictionaryWithDefault
  3
AutoCAD 2000
 90
0
 91
1
280
0
281
0
  0
CLASS
  1
ACDBPLACEHOLDER
  2
AcDbPlaceHolder
  3
AutoCAD 2000
 90
0
 91
1
280
0
281
0
  0
CLASS
  1
LAYOUT
  2
AcDbLayout
  3
AutoCAD 2000
 90
0
 91
0
280
0
281
0
  0
ENDSEC
  0
SECTION
  2
TABLES
  0
TABLE
  2
VPORT
  5
8
100
AcDbSymbolTable
 70
2
  0
VPORT
  5
1F4
100
AcDbSymbolTableRecord
100
AcDbViewportTableRecord
  2
*ACTIVE
 70
0
 10
0.0
 20
0.0
 11
1.0
 21
1.0
 12
25.9262340177
 22
36.6671023965
 13
0.0
 23
0.0
 14
1.0
 24
1.0
 15
0.0
 25
0.0
 16
0.0
 26
0.0
 36
1.0
 17
0.0
 27
0.0
 37
0.0
 40
73.334204793
 41
0.7070707071
 42
50.0
 43
0.0
 44
0.0
 50
0.0
 51
0.0
 71
0
 72
100
 73
1
 74
1
 75
0
 76
0
 77
0
 78
0
  0
ENDTAB
  0
TABLE
  2
LTYPE
  5
5
100
AcDbSymbolTable
 70
6
  0
LTYPE
  5
14
100
AcDbSymbolTableRecord
100
AcDbLinetypeTableRecord
  2
BYBLOCK
 70
0
  3

 72
65
 73
0
 40
0.0
  0
LTYPE
  5
15
100
AcDbSymbolTableRecord
100
AcDbLinetypeTableRecord
  2
BYLAYER
 70
0
  3

 72
65
 73
0
 40
0.0
  0
LTYPE
  5
16
100
AcDbSymbolTableRecord
100
AcDbLinetypeTableRecord
  2
CONTINUOUS
 70
64
  3
Solid line
 72
65
 73
0
 40
0.0
  0
LTYPE
  5
1F5
100
AcDbSymbolTableRecord
100
AcDbLinetypeTableRecord
  2
CENTER
 70
64
  3
____ _ ____ _ ____ _ ____ _ ____ _ ____ _ ____
 72
65
 73
4
 40
0.6
 49
0.375
 74
0
 49
-0.075
 74
0
 49
0.075
 74
0
 49
-0.075
 74
0
  0
LTYPE
  5
1F6
100
AcDbSymbolTableRecord
100
AcDbLinetypeTableRecord
  2
HIDDEN
 70
64
  3
- - - - - - - - - - - - - - - - - - - -
 72
65
 73
2
 40
0.2
 49
0.1
 74
0
 49
-0.1
 74
0
  0
LTYPE
  5
1F7
100
AcDbSymbolTableRecord
100
AcDbLinetypeTableRecord
  2
PHANTOM
 70
64
  3
_____ _ _ _____ _ _ _____ _ _ _____
 72
65
 73
6
 40
0.8
 49
0.45
 74
0
 49
-0.05
 74
0
 49
0.1
 74
0
 49
-0.05
 74
0
 49
0.1
 74
0
 49
-0.05
 74
0
  0
LTYPE
  5
1F8
100
AcDbSymbolTableRecord
100
AcDbLinetypeTableRecord
  2
DOT
 70
64
  3
. . . . . . . . . . . . . . . . . . . .
 72
65
 73
2
 40
0.2
 49
0.1
 74
0
 49
-0.1
 74
0
  0
LTYPE
  5
1F9
100
AcDbSymbolTableRecord
100
AcDbLinetypeTableRecord
  2
DASHED
 70
64
  3
- - - - - - - - - - - - - - - - - - - -
 72
65
 73
2
 40
0.2
 49
0.1
 74
0
 49
-0.1
 74
0
  0
ENDTAB
  0
TABLE
  2
LAYER
  5
2
100
AcDbSymbolTable
 70
36
  0
LAYER
  5
10
100
AcDbSymbolTableRecord
100
AcDbLayerTableRecord
  2
0
 70
0
 62
7
  6
CONTINUOUS
370
-3
390
F
  0
LAYER
  5
1FA
100
AcDbSymbolTableRecord
100
AcDbLayerTableRecord
  2
DEFAULT_1
 70
0
 62
7
  6
CENTER
370
-3
390
F
  0
LAYER
  5
1FB
100
AcDbSymbolTableRecord
100
AcDbLayerTableRecord
  2
DEFAULT_2
 70
0
 62
7
  6
HIDDEN
370
-3
390
F
  0
LAYER
  5
1FC
100
AcDbSymbolTableRecord
100
AcDbLayerTableRecord
  2
DEFAULT_3
 70
0
 62
7
  6
PHANTOM
370
-3
390
F
  0
LAYER
  5
1FD
100
AcDbSymbolTableRecord
100
AcDbLayerTableRecord
  2
00_COMPONENTS
 70
0
 62
7
  6
CONTINUOUS
370
-3
390
F
  0
LAYER
  5
1FE
100
AcDbSymbolTableRecord
100
AcDbLayerTableRecord
  2
01_1_DEFAULT_DATUMS
 70
0
 62
7
  6
CONTINUOUS
370
-3
390
F
  0
LAYER
  5
1FF
100
AcDbSymbolTableRecord
100
AcDbLayerTableRecord
  2
01_PLANES
 70
0
 62
7
  6
CONTINUOUS
370
-3
390
F
  0
LAYER
  5
200
100
AcDbSymbolTableRecord
100
AcDbLayerTableRecord
  2
02_COORD_SYS
 70
0
 62
7
  6
CONTINUOUS
370
-3
390
F
  0
LAYER
  5
201
100
AcDbSymbolTableRecord
100
AcDbLayerTableRecord
  2
03_AXES
 70
0
 62
7
  6
CONTINUOUS
370
-3
390
F
  0
LAYER
  5
202
100
AcDbSymbolTableRecord
100
AcDbLayerTableRecord
  2
04_POINTS
 70
0
 62
7
  6
CONTINUOUS
370
-3
390
F
  0
LAYER
  5
203
100
AcDbSymbolTableRecord
100
AcDbLayerTableRecord
  2
05_CURVES
 70
0
 62
7
  6
CONTINUOUS
370
-3
390
F
  0
LAYER
  5
204
100
AcDbSymbolTableRecord
100
AcDbLayerTableRecord
  2
06_SURFS
 70
0
 62
7
  6
CONTINUOUS
370
-3
390
F
  0
LAYER
  5
205
100
AcDbSymbolTableRecord
100
AcDbLayerTableRecord
  2
07_COSMETICS
 70
0
 62
7
  6
CONTINUOUS
370
-3
390
F
  0
LAYER
  5
206
100
AcDbSymbolTableRecord
100
AcDbLayerTableRecord
  2
10_NOTES
 70
0
 62
7
  6
CONTINUOUS
370
-3
390
F
  0
LAYER
  5
207
100
AcDbSymbolTableRecord
100
AcDbLayerTableRecord
  2
11_NOTES_PUB
 70
0
 62
7
  6
CONTINUOUS
370
-3
390
F
  0
LAYER
  5
208
100
AcDbSymbolTableRecord
100
AcDbLayerTableRecord
  2
13_REF_GTOL
 70
0
 62
7
  6
CONTINUOUS
370
-3
390
F
  0
LAYER
  5
209
100
AcDbSymbolTableRecord
100
AcDbLayerTableRecord
  2
16_MISC
 70
0
 62
7
  6
CONTINUOUS
370
-3
390
F
  0
LAYER
  5
20A
100
AcDbSymbolTableRecord
100
AcDbLayerTableRecord
  2
17_NO_PRINT
 70
0
 62
7
  6
CONTINUOUS
370
-3
390
F
  0
LAYER
  5
20B
100
AcDbSymbolTableRecord
100
AcDbLayerTableRecord
  2
18_DATUM_CAMS_JOINTS
 70
0
 62
7
  6
CONTINUOUS
370
-3
390
F
  0
LAYER
  5
20C
100
AcDbSymbolTableRecord
100
AcDbLayerTableRecord
  2
19_DATUM_FUNCTIONAL
 70
0
 62
7
  6
CONTINUOUS
370
-3
390
F
  0
LAYER
  5
20D
100
AcDbSymbolTableRecord
100
AcDbLayerTableRecord
  2
20_DATUM_KINEMATIC_SCHEME
 70
0
 62
7
  6
CONTINUOUS
370
-3
390
F
  0
ENDTAB
  0
TABLE
  2
STYLE
  5
3
100
AcDbSymbolTable
 70
1
  0
STYLE
  5
11
100
AcDbSymbolTableRecord
100
AcDbTextStyleTableRecord
  2
STANDARD
 70
0
 40
0.0
 41
1.0
 50
0.0
 71
0
 42
0.2
  3
ARIAL.TTF
  4

  0
STYLE
  5
20E
100
AcDbSymbolTableRecord
100
AcDbTextStyleTableRecord
  2
TEXTSTYLE_1
 70
0
 40
0.0
 41
0.8
 50
0.0
 71
0
 42
0.2
  3
gdt
  4

  0
ENDTAB
  0
TABLE
  2
VIEW
  5
6
100
AcDbSymbolTable
 70
0
  0
ENDTAB
  0
TABLE
  2
UCS
  5
7
100
AcDbSymbolTable
 70
0
  0
ENDTAB
  0
TABLE
  2
APPID
  5
9
100
AcDbSymbolTable
 70
1
  0
APPID
  5
20F
100
AcDbSymbolTableRecord
100
AcDbRegAppTableRecord
  2
ACAD
 70
0
  0
ENDTAB
  0
TABLE
  2
BLOCK_RECORD
  5
1
100
AcDbSymbolTable
 70
0
  0
BLOCK_RECORD
  5
210
100
AcDbSymbolTableRecord
100
AcDbBlockTableRecord
  2
*Model_Space
  0
BLOCK_RECORD
  5
211
100
AcDbSymbolTableRecord
100
AcDbBlockTableRecord
  2
*Paper_Space
  0
BLOCK_RECORD
  5
212
100
AcDbSymbolTableRecord
100
AcDbBlockTableRecord
  2
_FILLED
  0
ENDTAB
  0
TABLE
  2
DIMSTYLE
  5
A
100
AcDbSymbolTable
 70
1
100
AcDbDimStyleTable
 71
0
  0
DIMSTYLE
105
213
100
AcDbSymbolTableRecord
100
AcDbDimStyleTableRecord
  2
STANDARD
 70
0
  3

  4

 40
1.0
 41
0.6172912861
 42
1.0
 43
0.38
 44
1.0
 45
0.0
 46
0.0
 47
0.01
 48
0.01
140
0.8642078006
141
0.09
142
0.0
143
25.4
144
1.0
145
0.0
146
1.0
147
0.625
 71
1
 72
0
 73
0
 74
0
 75
0
 76
0
 77
1
 78
8
 79
2
170
0
171
1
172
0
173
0
174
0
175
0
176
0
177
0
178
0
270
2
179
2
271
2
272
2
273
2
274
2
275
0
280
0
281
0
282
0
283
1
284
8
285
0
286
0
287
3
288
0
340
11
278
46
341
212
342
212
343
212
344
212
  0
ENDTAB
  0
ENDSEC
  0
SECTION
  2
BLOCKS
  0
BLOCK
  5
20
100
AcDbEntity
  8
0
100
AcDbBlockBegin
  2
*Model_Space
 70
0
 10
0.0
 20
0.0
 30
0.0
  3
*Model_Space
  1

  0
ENDBLK
  5
21
100
AcDbEntity
  8
0
100
AcDbBlockEnd
  0
BLOCK
  5
1C
100
AcDbEntity
  8
0
100
AcDbBlockBegin
  2
*Paper_Space
 70
0
 10
0.0
 20
0.0
 30
0.0
  3
*Paper_Space
  1

  0
ENDBLK
  5
1D
100
AcDbEntity
  8
0
100
AcDbBlockEnd
  0
BLOCK
  5
214
100
AcDbEntity
  8
0
100
AcDbBlockBegin
  2
_FILLED
 70
64
 10
0.0
 20
0.0
  3
_FILLED
  1

  0
SOLID
  5
215
100
AcDbEntity
  8
0
  6
BYBLOCK
 62
0
100
AcDbTrace
 10
0.0
 20
0.0
 11
-1.0
 21
0.25
 12
-1.0
 22
-0.25
 13
-1.0
 23
-0.25
  0
ENDBLK
  5
216
100
AcDbEntity
  8
0
  6
BYBLOCK
 62
0
100
AcDbBlockEnd
  0
ENDSEC
  0
SECTION
  2
ENTITIES
  0
LINE
  5
217
100
AcDbEntity
  8
0
100
AcDbLine
 62
7
  6
BYLAYER
 10
8.6443168064
 20
57.5568627451
 11
9.8443168064
 21
58.7568627451
  0
LINE
  5
218
100
AcDbEntity
  8
0
100
AcDbLine
 62
7
  6
BYLAYER
 10
14.5443168064
 20
13.2568627451
 11
43.0443168064
 21
13.2568627451
  0
LINE
  5
219
100
AcDbEntity
  8
0
100
AcDbLine
 62
7
  6
BYLAYER
 10
6.0443168064
 20
48.0568627451
 11
8.0443168064
 21
49.5568627451
  0
LINE
  5
21A
100
AcDbEntity
  8
0
100
AcDbLine
 62
7
  6
BYLAYER
 10
8.0443168064
 20
20.7568627451
 11
8.0443168064
 21
57.5568627451
  0
LINE
  5
21B
100
AcDbEntity
  8
0
100
AcDbLine
 62
7
  6
BYLAYER
 10
43.0443168064
 20
16.5068627451
 11
47.0442576672
 21
16.5068627451
  0
LINE
  5
21C
100
AcDbEntity
  8
0
100
AcDbLine
 62
7
  6
BYLAYER
 10
10.0443168064
 20
53.2568627451
 11
10.0443168064
 21
52.7568627451
  0
LINE
  5
21D
100
AcDbEntity
  8
0
100
AcDbLine
 62
7
  6
BYLAYER
 10
11.8443168064
 20
52.7568627451
 11
11.8443168064
 21
58.7568627451
  0
LINE
  5
21E
100
AcDbEntity
  8
0
100
AcDbLine
 62
7
  6
BYLAYER
 10
8.0443168064
 20
20.7568627451
 11
14.5443168064
 21
20.7568627451
  0
LINE
  5
21F
100
AcDbEntity
  8
0
100
AcDbLine
 62
7
  6
BYLAYER
 10
14.5443168064
 20
60.2568627451
 11
14.5443168064
 21
52.7568627451
  0
LINE
  5
220
100
AcDbEntity
  8
0
100
AcDbLine
 62
7
  6
BYLAYER
 10
14.5443168064
 20
20.7568627451
 11
14.5443168064
 21
13.2568627451
  0
LINE
  5
221
100
AcDbEntity
  8
0
100
AcDbLine
 62
7
  6
BYLAYER
 10
8.0443168064
 20
45.2568627451
 11
6.0443168064
 21
48.0568627451
  0
LINE
  5
222
100
AcDbEntity
  8
0
100
AcDbLine
 62
7
  6
BYLAYER
 10
47.0442639852
 20
32.9068627451
 11
46.57161501
 21
32.9068627451
  0
LINE
  5
223
100
AcDbEntity
  8
0
100
AcDbLine
 62
7
  6
BYLAYER
 10
47.2443168064
 20
33.0068627451
 11
46.57161501
 21
33.0068627451
  0
LINE
  5
224
100
AcDbEntity
  8
0
100
AcDbLine
 62
7
  6
BYLAYER
 10
47.2443168064
 20
40.8068627451
 11
46.57161501
 21
40.8068627451
  0
LINE
  5
225
100
AcDbEntity
  8
0
100
AcDbLine
 62
7
  6
BYLAYER
 10
46.57161501
 20
40.9068627451
 11
47.0442639852
 21
40.9068627451
  0
LINE
  5
226
100
AcDbEntity
  8
0
100
AcDbLine
 62
7
  6
BYLAYER
 10
43.0443168064
 20
13.2568627451
 11
43.0443168064
 21
16.5068627451
  0
LINE
  5
227
100
AcDbEntity
  8
0
100
AcDbLine
 62
7
  6
BYLAYER
 10
43.0443168064
 20
57.0068627451
 11
43.0443168064
 21
60.2568627451
  0
LINE
  5
228
100
AcDbEntity
  8
0
100
AcDbLine
 62
7
  6
BYLAYER
 10
14.5443168064
 20
52.7568627451
 11
8.0443168064
 21
52.7568627451
  0
LINE
  5
229
100
AcDbEntity
  8
0
100
AcDbLine
 62
7
  6
BYLAYER
 10
8.0443168064
 20
53.2568627451
 11
11.8443168064
 21
53.2568627451
  0
LINE
  5
22A
100
AcDbEntity
  8
0
100
AcDbLine
 62
7
  6
BYLAYER
 10
44.2443168064
 20
16.5068627451
 11
44.2443168064
 21
57.0068627451
  0
LINE
  5
22B
100
AcDbEntity
  8
0
100
AcDbLine
 62
7
  6
BYLAYER
 10
46.57161501
 20
40.9068627451
 11
46.57161501
 21
32.9068627451
  0
LINE
  5
22C
100
AcDbEntity
  8
0
100
AcDbLine
 62
7
  6
BYLAYER
 10
47.0443168064
 20
16.5068627451
 11
47.0443168064
 21
32.9068627451
  0
LINE
  5
22D
100
AcDbEntity
  8
0
100
AcDbLine
 62
7
  6
BYLAYER
 10
47.0443168064
 20
40.9068627451
 11
47.0443168064
 21
57.0068627451
  0
LINE
  5
22E
100
AcDbEntity
  8
0
100
AcDbLine
 62
7
  6
BYLAYER
 10
47.2443168064
 20
33.0068627451
 11
47.2443168064
 21
40.8068627451
  0
LINE
  5
22F
100
AcDbEntity
  8
0
100
AcDbLine
 62
7
  6
BYLAYER
 10
47.0442576672
 20
57.0068627451
 11
43.0443168064
 21
57.0068627451
  0
LINE
  5
230
100
AcDbEntity
  8
0
100
AcDbLine
 62
7
  6
BYLAYER
 10
8.6443168064
 20
57.5568627451
 11
8.0443168064
 21
57.5568627451
  0
LINE
  5
231
100
AcDbEntity
  8
0
100
AcDbLine
 62
7
  6
BYLAYER
 10
11.8443168064
 20
58.7568627451
 11
9.8443168064
 21
58.7568627451
  0
LINE
  5
232
100
AcDbEntity
  8
0
100
AcDbLine
 62
7
  6
BYLAYER
 10
43.0443168064
 20
60.2568627451
 11
14.5443168064
 21
60.2568627451
  0
SPLINE
  5
233
100
AcDbEntity
  8
0
100
AcDbSpline
 62
7
  6
BYLAYER
 70
0
 71
3
 72
25
 73
21
 74
0
 42
0.0000001
 43
0.0000001
 44
0.0000000001
 40
0.0
 40
0.0
 40
0.0
 40
0.0
 40
0.0031905206
 40
0.0053139677
 40
0.0079014706
 40
0.0146165064
 40
0.0235099089
 40
0.0346387801
 40
0.04801264
 40
0.0636132773
 40
0.0814141986
 40
0.1234875548
 40
0.1738790365
 40
0.232120467
 40
0.2976904935
 40
0.3699637156
 40
0.4482802612
 40
0.6199606818
 40
0.8062762858
 40
1.0
 40
1.0
 40
1.0
 40
1.0
 10
46.8872655996
 20
26.306868692
 30
0.0
 10
46.883780171
 20
26.306868075
 30
0.0
 10
46.8781063381
 20
26.3039882127
 30
0.0
 10
46.8721696699
 20
26.2977918733
 30
0.0
 10
46.8648628909
 20
26.2875917447
 30
0.0
 10
46.8560721086
 20
26.2696788115
 30
0.0
 10
46.8458918233
 20
26.242280985
 30
0.0
 10
46.8355012099
 20
26.2072859586
 30
0.0
 10
46.8249097681
 20
26.164766763
 30
0.0
 10
46.814182542
 20
26.1147988341
 30
0.0
 10
46.7988951763
 20
26.0337708833
 30
0.0
 10
46.7801995583
 20
25.9147469738
 30
0.0
 10
46.7589297132
 20
25.7514788515
 30
0.0
 10
46.7381779084
 20
25.5622973228
 30
0.0
 10
46.7183286479
 20
25.349001903
 30
0.0
 10
46.6997442802
 20
25.1135872202
 30
0.0
 10
46.6764482915
 20
24.7622929323
 30
0.0
 10
46.6532067883
 20
24.2861765121
 30
0.0
 10
46.6359593874
 20
23.6836719628
 30
0.0
 10
46.6320365322
 20
23.2684928371
 30
0.0
 10
46.6320365322
 20
23.0568627451
 30
0.0
  0
SPLINE
  5
234
100
AcDbEntity
  8
0
100
AcDbSpline
 62
7
  6
BYLAYER
 70
0
 71
3
 72
22
 73
18
 74
0
 42
0.0000001
 43
0.0000001
 44
0.0000000001
 40
0.0
 40
0.0
 40
0.0
 40
0.0
 40
0.0085975089
 40
0.0178337773
 40
0.0281513709
 40
0.0398635777
 40
0.0681916888
 40
0.1037071066
 40
0.1466440881
 40
0.1969352132
 40
0.2543195379
 40
0.3184379687
 40
0.3888001
 40
0.4648633061
 40
0.6313642902
 40
0.8120478246
 40
1.0
 40
1.0
 40
1.0
 40
1.0
 10
45.6205800177
 20
26.3068681027
 30
0.0
 10
45.610819626
 20
26.3068667206
 30
0.0
 10
45.590493601
 20
26.3040319742
 30
0.0
 10
45.560680024
 20
26.2918245354
 30
0.0
 10
45.5310394995
 20
26.2719506907
 30
0.0
 10
45.4890381734
 20
26.2329044708
 30
0.0
 10
45.4379076479
 20
26.1632632803
 30
0.0
 10
45.3806503288
 20
26.0562086568
 30
0.0
 10
45.324486977
 20
25.9210680324
 30
0.0
 10
45.2700797812
 20
25.7588719439
 30
0.0
 10
45.2180919413
 20
25.5708169578
 30
0.0
 10
45.1692661517
 20
25.358486599
 30
0.0
 10
45.124225019
 20
25.1236992783
 30
0.0
 10
45.068492004
 20
24.7727970332
 30
0.0
 10
45.01375279
 20
24.2951798029
 30
0.0
 10
44.9736224998
 20
23.6887976836
 30
0.0
 10
44.9645527117
 20
23.2702369755
 30
0.0
 10
44.9645527117
 20
23.0568627451
 30
0.0
  0
SPLINE
  5
235
100
AcDbEntity
  8
0
100
AcDbSpline
 62
7
  6
BYLAYER
 70
0
 71
3
 72
25
 73
21
 74
0
 42
0.0000001
 43
0.0000001
 44
0.0000000001
 40
0.0
 40
0.0
 40
0.0
 40
0.0
 40
0.0031905206
 40
0.0053139677
 40
0.0079014706
 40
0.0146165064
 40
0.0235099089
 40
0.0346387801
 40
0.04801264
 40
0.0636132773
 40
0.0814141986
 40
0.1234875548
 40
0.1738790365
 40
0.232120467
 40
0.2976904935
 40
0.3699637156
 40
0.4482802612
 40
0.6199606818
 40
0.8062762858
 40
1.0
 40
1.0
 40
1.0
 40
1.0
 10
46.8872655996
 20
53.706868692
 30
0.0
 10
46.883780171
 20
53.706868075
 30
0.0
 10
46.8781063381
 20
53.7039882127
 30
0.0
 10
46.8721696699
 20
53.6977918733
 30
0.0
 10
46.8648628909
 20
53.6875917447
 30
0.0
 10
46.8560721086
 20
53.6696788115
 30
0.0
 10
46.8458918233
 20
53.642280985
 30
0.0
 10
46.8355012099
 20
53.6072859586
 30
0.0
 10
46.8249097681
 20
53.564766763
 30
0.0
 10
46.814182542
 20
53.5147988341
 30
0.0
 10
46.7988951763
 20
53.4337708833
 30
0.0
 10
46.7801995583
 20
53.3147469738
 30
0.0
 10
46.7589297132
 20
53.1514788515
 30
0.0
 10
46.7381779084
 20
52.9622973228
 30
0.0
 10
46.7183286479
 20
52.749001903
 30
0.0
 10
46.6997442802
 20
52.5135872202
 30
0.0
 10
46.6764482915
 20
52.1622929323
 30
0.0
 10
46.6532067883
 20
51.6861765121
 30
0.0
 10
46.6359593874
 20
51.0836719628
 30
0.0
 10
46.6320365322
 20
50.6684928371
 30
0.0
 10
46.6320365322
 20
50.4568627451
 30
0.0
  0
SPLINE
  5
236
100
AcDbEntity
  8
0
100
AcDbSpline
 62
7
  6
BYLAYER
 70
0
 71
3
 72
22
 73
18
 74
0
 42
0.0000001
 43
0.0000001
 44
0.0000000001
 40
0.0
 40
0.0
 40
0.0
 40
0.0
 40
0.0085975089
 40
0.0178337773
 40
0.0281513709
 40
0.0398635777
 40
0.0681916888
 40
0.1037071066
 40
0.1466440881
 40
0.1969352132
 40
0.2543195379
 40
0.3184379687
 40
0.3888001
 40
0.4648633061
 40
0.6313642902
 40
0.8120478246
 40
1.0
 40
1.0
 40
1.0
 40
1.0
 10
45.6205800177
 20
53.7068681027
 30
0.0
 10
45.610819626
 20
53.7068667206
 30
0.0
 10
45.590493601
 20
53.7040319742
 30
0.0
 10
45.560680024
 20
53.6918245354
 30
0.0
 10
45.5310394995
 20
53.6719506907
 30
0.0
 10
45.4890381734
 20
53.6329044708
 30
0.0
 10
45.4379076479
 20
53.5632632803
 30
0.0
 10
45.3806503288
 20
53.4562086568
 30
0.0
 10
45.324486977
 20
53.3210680324
 30
0.0
 10
45.2700797812
 20
53.1588719439
 30
0.0
 10
45.2180919413
 20
52.9708169578
 30
0.0
 10
45.1692661517
 20
52.758486599
 30
0.0
 10
45.124225019
 20
52.5236992783
 30
0.0
 10
45.068492004
 20
52.1727970332
 30
0.0
 10
45.01375279
 20
51.6951798029
 30
0.0
 10
44.9736224998
 20
51.0887976836
 30
0.0
 10
44.9645527117
 20
50.6702369755
 30
0.0
 10
44.9645527117
 20
50.4568627451
 30
0.0
  0
SPLINE
  5
237
100
AcDbEntity
  8
0
100
AcDbSpline
 62
7
  6
BYLAYER
 70
0
 71
3
 72
22
 73
18
 74
0
 42
0.0000001
 43
0.0000001
 44
0.0000000001
 40
0.0
 40
0.0
 40
0.0
 40
0.0
 40
0.1879576908
 40
0.3686340807
 40
0.5351291499
 40
0.6111874321
 40
0.6815479298
 40
0.745664994
 40
0.8030498145
 40
0.8533445035
 40
0.8962823269
 40
0.9318032724
 40
0.9601321682
 40
0.9718456771
 40
0.9821650163
 40
0.9914023307
 40
1.0
 40
1.0
 40
1.0
 40
1.0
 10
44.9645527117
 20
50.4568627451
 30
0.0
 10
44.9645527117
 20
50.2434822004
 30
0.0
 10
44.9736222205
 20
49.8249231935
 30
0.0
 10
45.0137531828
 20
49.218549646
 30
0.0
 10
45.0684863979
 20
48.7409521148
 30
0.0
 10
45.1242189583
 20
48.3900640458
 30
0.0
 10
45.1692555541
 20
48.1552850264
 30
0.0
 10
45.2180784837
 20
47.9429567309
 30
0.0
 10
45.2700689163
 20
47.7548994905
 30
0.0
 10
45.324470225
 20
47.592695153
 30
0.0
 10
45.3806431075
 20
47.4575467402
 30
0.0
 10
45.4378926914
 20
47.3504784235
 30
0.0
 10
45.4890313638
 20
47.2808321785
 30
0.0
 10
45.5310342944
 20
47.2417816661
 30
0.0
 10
45.5606756586
 20
47.2219010168
 30
0.0
 10
45.5904909089
 20
47.2096878882
 30
0.0
 10
45.610819422
 20
47.2068556758
 30
0.0
 10
45.620579998
 20
47.2068574817
 30
0.0
  0
SPLINE
  5
238
100
AcDbEntity
  8
0
100
AcDbSpline
 62
7
  6
BYLAYER
 70
0
 71
3
 72
25
 73
21
 74
0
 42
0.0000001
 43
0.0000001
 44
0.0000000001
 40
0.0
 40
0.0
 40
0.0
 40
0.0
 40
0.1937240627
 40
0.3800343312
 40
0.5517117678
 40
0.630026432
 40
0.7022993384
 40
0.7678696984
 40
0.8261119786
 40
0.8765060837
 40
0.9185803859
 40
0.9363828267
 40
0.9519850268
 40
0.9653597167
 40
0.9764884625
 40
0.9853824105
 40
0.9920982674
 40
0.9946860796
 40
0.9968096768
 40
1.0
 40
1.0
 40
1.0
 40
1.0
 10
46.6320365322
 20
50.4568627451
 30
0.0
 10
46.6320365322
 20
50.2452322281
 30
0.0
 10
46.6359591512
 20
49.8300584602
 30
0.0
 10
46.6532063223
 20
49.2275624951
 30
0.0
 10
46.6764465244
 20
48.7514570695
 30
0.0
 10
46.6997420792
 20
48.4001683496
 30
0.0
 10
46.7183259471
 20
48.164755626
 30
0.0
 10
46.7381743527
 20
47.9514591221
 30
0.0
 10
46.7589270522
 20
47.7622734763
 30
0.0
 10
46.7801962198
 20
47.5990003568
 30
0.0
 10
46.798892919
 20
47.4799709664
 30
0.0
 10
46.8141804998
 20
47.3989385626
 30
0.0
 10
46.8249080469
 20
47.3489663256
 30
0.0
 10
46.8354994757
 20
47.3064445521
 30
0.0
 10
46.8458907986
 20
47.2714483028
 30
0.0
 10
46.8560714084
 20
47.2440491515
 30
0.0
 10
46.8648623225
 20
47.2261342913
 30
0.0
 10
46.872169433
 20
47.2159326193
 30
0.0
 10
46.8781058069
 20
47.2097357684
 30
0.0
 10
46.8837803838
 20
47.2068560177
 30
0.0
 10
46.8872655974
 20
47.2068568087
 30
0.0
  0
SPLINE
  5
239
100
AcDbEntity
  8
0
100
AcDbSpline
 62
7
  6
BYLAYER
 70
0
 71
3
 72
22
 73
18
 74
0
 42
0.0000001
 43
0.0000001
 44
0.0000000001
 40
0.0
 40
0.0
 40
0.0
 40
0.0
 40
0.1879576908
 40
0.3686340807
 40
0.5351291499
 40
0.6111874321
 40
0.6815479298
 40
0.745664994
 40
0.8030498145
 40
0.8533445035
 40
0.8962823269
 40
0.9318032724
 40
0.9601321682
 40
0.9718456771
 40
0.9821650163
 40
0.9914023307
 40
1.0
 40
1.0
 40
1.0
 40
1.0
 10
44.9645527117
 20
23.0568627451
 30
0.0
 10
44.9645527117
 20
22.8434822004
 30
0.0
 10
44.9736222205
 20
22.4249231935
 30
0.0
 10
45.0137531828
 20
21.818549646
 30
0.0
 10
45.0684863979
 20
21.3409521148
 30
0.0
 10
45.1242189583
 20
20.9900640458
 30
0.0
 10
45.1692555541
 20
20.7552850264
 30
0.0
 10
45.2180784837
 20
20.5429567309
 30
0.0
 10
45.2700689163
 20
20.3548994905
 30
0.0
 10
45.324470225
 20
20.192695153
 30
0.0
 10
45.3806431075
 20
20.0575467402
 30
0.0
 10
45.4378926914
 20
19.9504784235
 30
0.0
 10
45.4890313638
 20
19.8808321785
 30
0.0
 10
45.5310342944
 20
19.8417816661
 30
0.0
 10
45.5606756586
 20
19.8219010168
 30
0.0
 10
45.5904909089
 20
19.8096878882
 30
0.0
 10
45.610819422
 20
19.8068556758
 30
0.0
 10
45.620579998
 20
19.8068574817
 30
0.0
  0
SPLINE
  5
23A
100
AcDbEntity
  8
0
100
AcDbSpline
 62
7
  6
BYLAYER
 70
0
 71
3
 72
25
 73
21
 74
0
 42
0.0000001
 43
0.0000001
 44
0.0000000001
 40
0.0
 40
0.0
 40
0.0
 40
0.0
 40
0.1937240627
 40
0.3800343312
 40
0.5517117678
 40
0.630026432
 40
0.7022993384
 40
0.7678696984
 40
0.8261119787
 40
0.8765060837
 40
0.9185803859
 40
0.9363828267
 40
0.9519850268
 40
0.9653597167
 40
0.9764884625
 40
0.9853824105
 40
0.9920982674
 40
0.9946860796
 40
0.9968096768
 40
1.0
 40
1.0
 40
1.0
 40
1.0
 10
46.6320365322
 20
23.0568627451
 30
0.0
 10
46.6320365322
 20
22.8452322281
 30
0.0
 10
46.6359591512
 20
22.4300584602
 30
0.0
 10
46.6532063223
 20
21.8275624951
 30
0.0
 10
46.6764465244
 20
21.3514570695
 30
0.0
 10
46.6997420792
 20
21.0001683496
 30
0.0
 10
46.7183259471
 20
20.764755626
 30
0.0
 10
46.7381743527
 20
20.5514591221
 30
0.0
 10
46.7589270522
 20
20.3622734763
 30
0.0
 10
46.7801962198
 20
20.1990003568
 30
0.0
 10
46.798892919
 20
20.0799709664
 30
0.0
 10
46.8141804998
 20
19.9989385626
 30
0.0
 10
46.8249080469
 20
19.9489663256
 30
0.0
 10
46.8354994757
 20
19.9064445521
 30
0.0
 10
46.8458907986
 20
19.8714483028
 30
0.0
 10
46.8560714084
 20
19.8440491515
 30
0.0
 10
46.8648623225
 20
19.8261342913
 30
0.0
 10
46.872169433
 20
19.8159326193
 30
0.0
 10
46.8781058069
 20
19.8097357684
 30
0.0
 10
46.8837803838
 20
19.8068560177
 30
0.0
 10
46.8872655974
 20
19.8068568088
 30
0.0
  0
SPLINE
  5
23B
100
AcDbEntity
  8
0
100
AcDbSpline
 62
7
  6
BYLAYER
 70
0
 71
3
 72
22
 73
18
 74
0
 42
0.0000001
 43
0.0000001
 44
0.0000000001
 40
0.0
 40
0.0
 40
0.0
 40
0.0
 40
0.0085602901
 40
0.0176089947
 40
0.0276318788
 40
0.0389862078
 40
0.0665356747
 40
0.1013313848
 40
0.1436965301
 40
0.193605148
 40
0.2508067734
 40
0.3149349515
 40
0.3854738178
 40
0.4618471881
 40
0.629236613
 40
0.8109700013
 40
1.0
 40
1.0
 40
1.0
 40
1.0
 10
45.620579998
 20
19.8068574817
 30
0.0
 10
45.6302147629
 20
19.8068592643
 30
0.0
 10
45.6501265651
 20
19.8096063754
 30
0.0
 10
45.6790609876
 20
19.8217592506
 30
0.0
 10
45.707226557
 20
19.841611722
 30
0.0
 10
45.7463281232
 20
19.8806722725
 30
0.0
 10
45.7923337778
 20
19.9505222571
 30
0.0
 10
45.8417914438
 20
20.0576967189
 30
0.0
 10
45.8885095957
 20
20.1930758666
 30
0.0
 10
45.9321405681
 20
20.3556461245
 30
0.0
 10
45.9724208625
 20
20.5441925686
 30
0.0
 10
46.0090081031
 20
20.7570672232
 30
0.0
 10
46.0417463998
 20
20.9923643298
 30
0.0
 10
46.0811389101
 20
21.3439493511
 30
0.0
 10
46.1181844305
 20
21.8215597943
 30
0.0
 10
46.1444267105
 20
22.426776628
 30
0.0
 10
46.1502492252
 20
22.8441059798
 30
0.0
 10
46.1502492252
 20
23.0568627451
 30
0.0
  0
SPLINE
  5
23C
100
AcDbEntity
  8
0
100
AcDbSpline
 62
7
  6
BYLAYER
 70
0
 71
3
 72
22
 73
18
 74
0
 42
0.0000001
 43
0.0000001
 44
0.0000000001
 40
0.0
 40
0.0
 40
0.0
 40
0.0
 40
0.007410044
 40
0.0139498663
 40
0.0226690884
 40
0.0336324298
 40
0.0468535891
 40
0.0623170663
 40
0.0799982518
 40
0.1218900201
 40
0.1721802272
 40
0.2303990229
 40
0.296019149
 40
0.4468805497
 40
0.6189811074
 40
0.8057794745
 40
1.0
 40
1.0
 40
1.0
 40
1.0
 10
46.8872655974
 20
47.2068568087
 30
0.0
 10
46.8953323837
 20
47.2068586396
 30
0.0
 10
46.9067030635
 20
47.2220648362
 30
0.0
 10
46.915529146
 20
47.2437768165
 30
0.0
 10
46.9239491485
 20
47.2715655804
 30
0.0
 10
46.9317001824
 20
47.3063829003
 30
0.0
 10
46.9392718954
 20
47.3489449624
 30
0.0
 10
46.9464576479
 20
47.3988929991
 30
0.0
 10
46.9561398071
 20
47.4800181185
 30
0.0
 10
46.9668415412
 20
47.5991554437
 30
0.0
 10
46.9776987656
 20
47.7625350034
 30
0.0
 10
46.987159099
 20
47.9518670876
 30
0.0
 10
46.9984777115
 20
48.2507045599
 30
0.0
 10
47.0086874452
 20
48.6736193198
 30
0.0
 10
47.0163869287
 20
49.2285097644
 30
0.0
 10
47.0206418383
 20
49.8306400937
 30
0.0
 10
47.0215422205
 20
50.2454287073
 30
0.0
 10
47.0215422205
 20
50.4568627451
 30
0.0
  0
SPLINE
  5
23D
100
AcDbEntity
  8
0
100
AcDbSpline
 62
7
  6
BYLAYER
 70
0
 71
3
 72
22
 73
18
 74
0
 42
0.0000001
 43
0.0000001
 44
0.0000000001
 40
0.0
 40
0.0
 40
0.0
 40
0.0
 40
0.0085602901
 40
0.0176089947
 40
0.0276318788
 40
0.0389862078
 40
0.0665356747
 40
0.1013313848
 40
0.1436965301
 40
0.193605148
 40
0.2508067734
 40
0.3149349515
 40
0.3854738178
 40
0.4618471881
 40
0.629236613
 40
0.8109700013
 40
1.0
 40
1.0
 40
1.0
 40
1.0
 10
45.620579998
 20
47.2068574817
 30
0.0
 10
45.6302147629
 20
47.2068592643
 30
0.0
 10
45.6501265651
 20
47.2096063755
 30
0.0
 10
45.6790609876
 20
47.2217592506
 30
0.0
 10
45.707226557
 20
47.241611722
 30
0.0
 10
45.7463281232
 20
47.2806722725
 30
0.0
 10
45.7923337778
 20
47.3505222571
 30
0.0
 10
45.8417914438
 20
47.4576967189
 30
0.0
 10
45.8885095957
 20
47.5930758666
 30
0.0
 10
45.9321405681
 20
47.7556461245
 30
0.0
 10
45.9724208625
 20
47.9441925686
 30
0.0
 10
46.0090081031
 20
48.1570672232
 30
0.0
 10
46.0417463998
 20
48.3923643298
 30
0.0
 10
46.0811389101
 20
48.7439493511
 30
0.0
 10
46.1181844305
 20
49.2215597943
 30
0.0
 10
46.1444267105
 20
49.826776628
 30
0.0
 10
46.1502492252
 20
50.2441059798
 30
0.0
 10
46.1502492252
 20
50.4568627451
 30
0.0
  0
SPLINE
  5
23E
100
AcDbEntity
  8
0
100
AcDbSpline
 62
7
  6
BYLAYER
 70
0
 71
3
 72
22
 73
18
 74
0
 42
0.0000001
 43
0.0000001
 44
0.0000000001
 40
0.0
 40
0.0
 40
0.0
 40
0.0
 40
0.007410044
 40
0.0139498663
 40
0.0226690884
 40
0.0336324298
 40
0.0468535891
 40
0.0623170663
 40
0.0799982518
 40
0.1218900201
 40
0.1721802272
 40
0.2303990229
 40
0.296019149
 40
0.4468805497
 40
0.6189811074
 40
0.8057794745
 40
1.0
 40
1.0
 40
1.0
 40
1.0
 10
46.8872655974
 20
19.8068568088
 30
0.0
 10
46.8953323837
 20
19.8068586396
 30
0.0
 10
46.9067030635
 20
19.8220648362
 30
0.0
 10
46.915529146
 20
19.8437768165
 30
0.0
 10
46.9239491485
 20
19.8715655804
 30
0.0
 10
46.9317001824
 20
19.9063829003
 30
0.0
 10
46.9392718954
 20
19.9489449624
 30
0.0
 10
46.9464576479
 20
19.9988929991
 30
0.0
 10
46.9561398071
 20
20.0800181185
 30
0.0
 10
46.9668415412
 20
20.1991554437
 30
0.0
 10
46.9776987656
 20
20.3625350034
 30
0.0
 10
46.987159099
 20
20.5518670876
 30
0.0
 10
46.9984777115
 20
20.8507045599
 30
0.0
 10
47.0086874452
 20
21.2736193198
 30
0.0
 10
47.0163869287
 20
21.8285097644
 30
0.0
 10
47.0206418383
 20
22.4306400937
 30
0.0
 10
47.0215422205
 20
22.8454287073
 30
0.0
 10
47.0215422205
 20
23.0568627451
 30
0.0
  0
SPLINE
  5
23F
100
AcDbEntity
  8
0
100
AcDbSpline
 62
7
  6
BYLAYER
 70
0
 71
3
 72
22
 73
18
 74
0
 42
0.0000001
 43
0.0000001
 44
0.0000000001
 40
0.0
 40
0.0
 40
0.0
 40
0.0
 40
0.1890347498
 40
0.3707650103
 40
0.5381530758
 40
0.6145239583
 40
0.6850621117
 40
0.7491891799
 40
0.8063902645
 40
0.8563003875
 40
0.8986644975
 40
0.9334632801
 40
0.961011999
 40
0.9723667616
 40
0.9823904461
 40
0.9914395088
 40
1.0
 40
1.0
 40
1.0
 40
1.0
 10
46.1502492252
 20
50.4568627451
 30
0.0
 10
46.1502492252
 20
50.669624931
 30
0.0
 10
46.144427049
 20
51.0869562809
 30
0.0
 10
46.1181831121
 20
51.6921735074
 30
0.0
 10
46.0811402784
 20
52.16977648
 30
0.0
 10
46.0417464035
 20
52.5213563088
 30
0.0
 10
46.0090105441
 20
52.7566488881
 30
0.0
 10
45.9724239371
 20
52.9695211705
 30
0.0
 10
45.9321411487
 20
53.1580666807
 30
0.0
 10
45.8885168237
 20
53.3206392177
 30
0.0
 10
45.8417878508
 20
53.4560181746
 30
0.0
 10
45.7923426835
 20
53.5632005707
 30
0.0
 10
45.7463281044
 20
53.6330487727
 30
0.0
 10
45.7072269381
 20
53.6721099324
 30
0.0
 10
45.6790631188
 20
53.6919676636
 30
0.0
 10
45.650128587
 20
53.704125266
 30
0.0
 10
45.6302150122
 20
53.706869467
 30
0.0
 10
45.6205800177
 20
53.7068681027
 30
0.0
  0
SPLINE
  5
240
100
AcDbEntity
  8
0
100
AcDbSpline
 62
7
  6
BYLAYER
 70
0
 71
3
 72
22
 73
18
 74
0
 42
0.0000001
 43
0.0000001
 44
0.0000000001
 40
0.0
 40
0.0
 40
0.0
 40
0.0
 40
0.1942206666
 40
0.3810149847
 40
0.5531141085
 40
0.7039743954
 40
0.7695949163
 40
0.8278142988
 40
0.878106415
 40
0.9199985829
 40
0.9376808383
 40
0.9531454195
 40
0.9663670664
 40
0.9773301027
 40
0.9860496401
 40
0.9925900309
 40
1.0
 40
1.0
 40
1.0
 40
1.0
 10
47.0215422205
 20
50.4568627451
 30
0.0
 10
47.0215422205
 20
50.6682969495
 30
0.0
 10
47.0206418814
 20
51.083081335
 30
0.0
 10
47.0163868411
 20
51.6852058838
 30
0.0
 10
47.0086878018
 20
52.2400891883
 30
0.0
 10
46.9984783658
 20
52.6630016309
 30
0.0
 10
46.9871600978
 20
52.9618389993
 30
0.0
 10
46.9776992394
 20
53.1511742049
 30
0.0
 10
46.9668433206
 20
53.3145570422
 30
0.0
 10
46.956139898
 20
53.4336979003
 30
0.0
 10
46.946458271
 20
53.5148259139
 30
0.0
 10
46.939272814
 20
53.5647768949
 30
0.0
 10
46.9317013042
 20
53.6073405073
 30
0.0
 10
46.9239490369
 20
53.6421579344
 30
0.0
 10
46.9155287168
 20
53.6699477366
 30
0.0
 10
46.9067042849
 20
53.6916597254
 30
0.0
 10
46.895332305
 20
53.70687012
 30
0.0
 10
46.8872655996
 20
53.706868692
 30
0.0
  0
SPLINE
  5
241
100
AcDbEntity
  8
0
100
AcDbSpline
 62
7
  6
BYLAYER
 70
0
 71
3
 72
22
 73
18
 74
0
 42
0.0000001
 43
0.0000001
 44
0.0000000001
 40
0.0
 40
0.0
 40
0.0
 40
0.0
 40
0.1890347498
 40
0.3707650103
 40
0.5381530758
 40
0.6145239583
 40
0.6850621117
 40
0.7491891799
 40
0.8063902645
 40
0.8563003875
 40
0.8986644975
 40
0.9334632801
 40
0.961011999
 40
0.9723667616
 40
0.9823904461
 40
0.9914395088
 40
1.0
 40
1.0
 40
1.0
 40
1.0
 10
46.1502492252
 20
23.0568627451
 30
0.0
 10
46.1502492252
 20
23.269624931
 30
0.0
 10
46.144427049
 20
23.6869562809
 30
0.0
 10
46.1181831121
 20
24.2921735074
 30
0.0
 10
46.0811402784
 20
24.76977648
 30
0.0
 10
46.0417464035
 20
25.1213563088
 30
0.0
 10
46.0090105441
 20
25.3566488881
 30
0.0
 10
45.9724239371
 20
25.5695211705
 30
0.0
 10
45.9321411487
 20
25.7580666807
 30
0.0
 10
45.8885168237
 20
25.9206392177
 30
0.0
 10
45.8417878508
 20
26.0560181746
 30
0.0
 10
45.7923426835
 20
26.1632005707
 30
0.0
 10
45.7463281044
 20
26.2330487727
 30
0.0
 10
45.7072269381
 20
26.2721099324
 30
0.0
 10
45.6790631188
 20
26.2919676636
 30
0.0
 10
45.650128587
 20
26.304125266
 30
0.0
 10
45.6302150122
 20
26.306869467
 30
0.0
 10
45.6205800177
 20
26.3068681027
 30
0.0
  0
SPLINE
  5
242
100
AcDbEntity
  8
0
100
AcDbSpline
 62
7
  6
BYLAYER
 70
0
 71
3
 72
22
 73
18
 74
0
 42
0.0000001
 43
0.0000001
 44
0.0000000001
 40
0.0
 40
0.0
 40
0.0
 40
0.0
 40
0.1942206666
 40
0.3810149847
 40
0.5531141085
 40
0.7039743954
 40
0.7695949163
 40
0.8278142988
 40
0.878106415
 40
0.9199985829
 40
0.9376808383
 40
0.9531454195
 40
0.9663670664
 40
0.9773301027
 40
0.9860496401
 40
0.9925900309
 40
1.0
 40
1.0
 40
1.0
 40
1.0
 10
47.0215422205
 20
23.0568627451
 30
0.0
 10
47.0215422205
 20
23.2682969495
 30
0.0
 10
47.0206418814
 20
23.683081335
 30
0.0
 10
47.0163868411
 20
24.2852058838
 30
0.0
 10
47.0086878018
 20
24.8400891883
 30
0.0
 10
46.9984783658
 20
25.2630016309
 30
0.0
 10
46.9871600978
 20
25.5618389993
 30
0.0
 10
46.9776992394
 20
25.7511742049
 30
0.0
 10
46.9668433206
 20
25.9145570422
 30
0.0
 10
46.956139898
 20
26.0336979003
 30
0.0
 10
46.946458271
 20
26.1148259139
 30
0.0
 10
46.939272814
 20
26.1647768949
 30
0.0
 10
46.9317013042
 20
26.2073405073
 30
0.0
 10
46.9239490369
 20
26.2421579344
 30
0.0
 10
46.9155287168
 20
26.2699477366
 30
0.0
 10
46.9067042849
 20
26.2916597254
 30
0.0
 10
46.895332305
 20
26.30687012
 30
0.0
 10
46.8872655996
 20
26.306868692
 30
0.0
  0
ENDSEC
  0
SECTION
  2
OBJECTS
  0
DICTIONARY
  5
C
100
AcDbDictionary
280
0
281
1
  3
ACAD_GROUP
350
D
  3
ACAD_MLINESTYLE
350
17
  3
ACAD_LAYOUT
350
1A
  3
ACAD_PLOTSETTINGS
350
19
  3
ACAD_PLOTSTYLENAME
350
E
  0
DICTIONARY
  5
D
102
{ACAD_REACTORS
330
C
102
}
100
AcDbDictionary
280
0
281
1
  0
ACDBDICTIONARYWDFLT
  5
E
102
{ACAD_REACTORS
330
C
102
}
100
AcDbDictionary
281
1
  3
Normal
350
F
100
AcDbDictionaryWithDefault
340
F
  0
DICTIONARY
  5
17
102
{ACAD_REACTORS
330
C
102
}
100
AcDbDictionary
280
0
281
1
  3
Standard
350
18
  0
DICTIONARY
  5
19
102
{ACAD_REACTORS
330
C
102
}
100
AcDbDictionary
281
1
  0
DICTIONARY
  5
1A
102
{ACAD_REACTORS
330
C
102
}
100
AcDbDictionary
281
1
  3
Model
350
243
  3
Layout1
350
244
  0
ACDBPLACEHOLDER
  5
F
102
{ACAD_REACTORS
330
E
102
}
  0
MLINESTYLE
  5
18
102
{ACAD_REACTORS
330
17
102
}
100
AcDbMlineStyle
  2
STANDARD
 70
0
  3

 62
256
 51
90.0
 52
90.0
 71
2
 49
0.5
 62
256
  6
BYLAYER
 49
-0.5
 62
256
  6
BYLAYER
  0
LAYOUT
  5
243
102
{ACAD_REACTORS
330
1A
102
}
100
AcDbPlotSettings
  1

  2
none_device
  4

  6

 40
0.0
 41
0.0
 42
0.0
 43
0.0
 44
210.0
 45
297.0
 46
0.0
 47
0.0
 48
0.0
 49
0.0
140
0.0
141
0.0
142
1.0
143
1.0
 70
1024
 72
1
 73
0
 74
0
  7

 75
0
147
1.0
148
0.0
149
0.0
100
AcDbLayout
  1
Model
 70
0
 71
0
 10
0.0
 20
0.0
 11
210.0
 21
297.0
 12
0.0
 22
0.0
 32
0.0
 14
0.0
 24
0.0
 34
0.0
 15
0.0
 25
0.0
 35
0.0
146
0.0
 13
0.0
 23
0.0
 33
0.0
 16
1.0
 26
0.0
 36
0.0
 17
0.0
 27
1.0
 37
0.0
 76
0
330
210
345
0
346
0
  0
LAYOUT
  5
244
102
{ACAD_REACTORS
330
1A
102
}
100
AcDbPlotSettings
  1

  2
none_device
  4

  6

 40
0.0
 41
0.0
 42
0.0
 43
0.0
 44
210.0
 45
297.0
 46
0.0
 47
0.0
 48
0.0
 49
0.0
140
0.0
141
0.0
142
1.0
143
1.0
 70
0
 72
1
 73
0
 74
0
  7

 75
0
147
1.0
148
0.0
149
0.0
100
AcDbLayout
  1
Layout1
 70
0
 71
1
 10
0.0
 20
0.0
 11
210.0
 21
297.0
 12
0.0
 22
0.0
 32
0.0
 14
0.0
 24
0.0
 34
0.0
 15
0.0
 25
0.0
 35
0.0
146
0.0
 13
0.0
 23
0.0
 33
0.0
 16
1.0
 26
0.0
 36
0.0
 17
0.0
 27
1.0
 37
0.0
 76
0
330
211
345
0
346
0
  0
ENDSEC
  0
EOF
