999
DXF file: C:\Users\sesa63760\Dev\_Creo\CAD\MCADPD0004367_3D-CAD\drw0001_6.dxf
999
Pro/ENGINEER 2019471 by Parametric Technology Corporation
  0
SECTION
  2
HEADER
  9
$ACADVER
  1
AC1024
  9
$DWGCODEPAGE
  3
ANSI_1252
  9
$EXTMAX
 10
52.0793934973
 20
73.6551422319
 30
0.0
  9
$EXTMIN
 10
0.0
 20
0.0
 30
0.0
  9
$LIMMIN
 10
0.0
 20
0.0
  9
$LIMMAX
 10
52.0793934973
 20
73.6551422319
  9
$VIEWCTR
 10
26.0396967487
 20
36.827571116
  9
$VIEWSIZE
 40
73.6551422319
  9
$CLAYER
  8
0
  9
$LTSCALE
 40
4.8012240862
  9
$CELTYPE
  6
BYLAYER
  9
$DIMSCALE
 40
1.0
  9
$DIMASZ
 40
0.6199927797
  9
$DIMEXO
 40
1.0
  9
$DIMDLI
 40
3.3172093687
  9
$DIMEXE
 40
1.0
  9
$DIMCEN
 40
0.7856548505
  9
$DIMLFAC
 40
1.0
  9
$DIMBLK
  1
_FILLED
  9
$DIMALT
 70
0
  9
$DIMALTF
 40
0.0393700787
  9
$DIMTXT
 40
0.8679898916
  9
$DIMTOL
 70
1
  9
$DIMLIM
 70
0
  9
$DIMTFAC
 40
1.0
  9
$DIMTP
 40
0.01
  9
$DIMTM
 40
0.01
  9
$DIMGAP
 40
0.625
  9
$DIMDSEP
 70
46
  9
$AUNITS
 70
0
  9
$PDMODE
 70
3
  9
$PDSIZE
 40
0.3125
  9
$HANDSEED
  5
250
  9
$TILEMODE
 70
1
  9
$MEASUREMENT
 70
1
  9
$INSUNITS
 70
4
  0
ENDSEC
  0
SECTION
  2
CLASSES
  0
CLASS
  1
ACDBDICTIONARYWDFLT
  2
AcDbDictionaryWithDefault
  3
AutoCAD 2000
 90
0
 91
1
280
0
281
0
  0
CLASS
  1
ACDBPLACEHOLDER
  2
AcDbPlaceHolder
  3
AutoCAD 2000
 90
0
 91
1
280
0
281
0
  0
CLASS
  1
LAYOUT
  2
AcDbLayout
  3
AutoCAD 2000
 90
0
 91
0
280
0
281
0
  0
ENDSEC
  0
SECTION
  2
TABLES
  0
TABLE
  2
VPORT
  5
8
100
AcDbSymbolTable
 70
2
  0
VPORT
  5
1F4
100
AcDbSymbolTableRecord
100
AcDbViewportTableRecord
  2
*ACTIVE
 70
0
 10
0.0
 20
0.0
 11
1.0
 21
1.0
 12
26.0396967487
 22
36.827571116
 13
0.0
 23
0.0
 14
1.0
 24
1.0
 15
0.0
 25
0.0
 16
0.0
 26
0.0
 36
1.0
 17
0.0
 27
0.0
 37
0.0
 40
73.6551422319
 41
0.7070707071
 42
50.0
 43
0.0
 44
0.0
 50
0.0
 51
0.0
 71
0
 72
100
 73
1
 74
1
 75
0
 76
0
 77
0
 78
0
  0
ENDTAB
  0
TABLE
  2
LTYPE
  5
5
100
AcDbSymbolTable
 70
6
  0
LTYPE
  5
14
100
AcDbSymbolTableRecord
100
AcDbLinetypeTableRecord
  2
BYBLOCK
 70
0
  3

 72
65
 73
0
 40
0.0
  0
LTYPE
  5
15
100
AcDbSymbolTableRecord
100
AcDbLinetypeTableRecord
  2
BYLAYER
 70
0
  3

 72
65
 73
0
 40
0.0
  0
LTYPE
  5
16
100
AcDbSymbolTableRecord
100
AcDbLinetypeTableRecord
  2
CONTINUOUS
 70
64
  3
Solid line
 72
65
 73
0
 40
0.0
  0
LTYPE
  5
1F5
100
AcDbSymbolTableRecord
100
AcDbLinetypeTableRecord
  2
CENTER
 70
64
  3
____ _ ____ _ ____ _ ____ _ ____ _ ____ _ ____
 72
65
 73
4
 40
0.6
 49
0.375
 74
0
 49
-0.075
 74
0
 49
0.075
 74
0
 49
-0.075
 74
0
  0
LTYPE
  5
1F6
100
AcDbSymbolTableRecord
100
AcDbLinetypeTableRecord
  2
HIDDEN
 70
64
  3
- - - - - - - - - - - - - - - - - - - -
 72
65
 73
2
 40
0.2
 49
0.1
 74
0
 49
-0.1
 74
0
  0
LTYPE
  5
1F7
100
AcDbSymbolTableRecord
100
AcDbLinetypeTableRecord
  2
PHANTOM
 70
64
  3
_____ _ _ _____ _ _ _____ _ _ _____
 72
65
 73
6
 40
0.8
 49
0.45
 74
0
 49
-0.05
 74
0
 49
0.1
 74
0
 49
-0.05
 74
0
 49
0.1
 74
0
 49
-0.05
 74
0
  0
LTYPE
  5
1F8
100
AcDbSymbolTableRecord
100
AcDbLinetypeTableRecord
  2
DOT
 70
64
  3
. . . . . . . . . . . . . . . . . . . .
 72
65
 73
2
 40
0.2
 49
0.1
 74
0
 49
-0.1
 74
0
  0
LTYPE
  5
1F9
100
AcDbSymbolTableRecord
100
AcDbLinetypeTableRecord
  2
DASHED
 70
64
  3
- - - - - - - - - - - - - - - - - - - -
 72
65
 73
2
 40
0.2
 49
0.1
 74
0
 49
-0.1
 74
0
  0
ENDTAB
  0
TABLE
  2
LAYER
  5
2
100
AcDbSymbolTable
 70
36
  0
LAYER
  5
10
100
AcDbSymbolTableRecord
100
AcDbLayerTableRecord
  2
0
 70
0
 62
7
  6
CONTINUOUS
370
-3
390
F
  0
LAYER
  5
1FA
100
AcDbSymbolTableRecord
100
AcDbLayerTableRecord
  2
DEFAULT_1
 70
0
 62
7
  6
CENTER
370
-3
390
F
  0
LAYER
  5
1FB
100
AcDbSymbolTableRecord
100
AcDbLayerTableRecord
  2
DEFAULT_2
 70
0
 62
7
  6
HIDDEN
370
-3
390
F
  0
LAYER
  5
1FC
100
AcDbSymbolTableRecord
100
AcDbLayerTableRecord
  2
DEFAULT_3
 70
0
 62
7
  6
PHANTOM
370
-3
390
F
  0
LAYER
  5
1FD
100
AcDbSymbolTableRecord
100
AcDbLayerTableRecord
  2
00_COMPONENTS
 70
0
 62
7
  6
CONTINUOUS
370
-3
390
F
  0
LAYER
  5
1FE
100
AcDbSymbolTableRecord
100
AcDbLayerTableRecord
  2
01_1_DEFAULT_DATUMS
 70
0
 62
7
  6
CONTINUOUS
370
-3
390
F
  0
LAYER
  5
1FF
100
AcDbSymbolTableRecord
100
AcDbLayerTableRecord
  2
01_PLANES
 70
0
 62
7
  6
CONTINUOUS
370
-3
390
F
  0
LAYER
  5
200
100
AcDbSymbolTableRecord
100
AcDbLayerTableRecord
  2
02_COORD_SYS
 70
0
 62
7
  6
CONTINUOUS
370
-3
390
F
  0
LAYER
  5
201
100
AcDbSymbolTableRecord
100
AcDbLayerTableRecord
  2
03_AXES
 70
0
 62
7
  6
CONTINUOUS
370
-3
390
F
  0
LAYER
  5
202
100
AcDbSymbolTableRecord
100
AcDbLayerTableRecord
  2
04_POINTS
 70
0
 62
7
  6
CONTINUOUS
370
-3
390
F
  0
LAYER
  5
203
100
AcDbSymbolTableRecord
100
AcDbLayerTableRecord
  2
05_CURVES
 70
0
 62
7
  6
CONTINUOUS
370
-3
390
F
  0
LAYER
  5
204
100
AcDbSymbolTableRecord
100
AcDbLayerTableRecord
  2
06_SURFS
 70
0
 62
7
  6
CONTINUOUS
370
-3
390
F
  0
LAYER
  5
205
100
AcDbSymbolTableRecord
100
AcDbLayerTableRecord
  2
07_COSMETICS
 70
0
 62
7
  6
CONTINUOUS
370
-3
390
F
  0
LAYER
  5
206
100
AcDbSymbolTableRecord
100
AcDbLayerTableRecord
  2
10_NOTES
 70
0
 62
7
  6
CONTINUOUS
370
-3
390
F
  0
LAYER
  5
207
100
AcDbSymbolTableRecord
100
AcDbLayerTableRecord
  2
11_NOTES_PUB
 70
0
 62
7
  6
CONTINUOUS
370
-3
390
F
  0
LAYER
  5
208
100
AcDbSymbolTableRecord
100
AcDbLayerTableRecord
  2
13_REF_GTOL
 70
0
 62
7
  6
CONTINUOUS
370
-3
390
F
  0
LAYER
  5
209
100
AcDbSymbolTableRecord
100
AcDbLayerTableRecord
  2
16_MISC
 70
0
 62
7
  6
CONTINUOUS
370
-3
390
F
  0
LAYER
  5
20A
100
AcDbSymbolTableRecord
100
AcDbLayerTableRecord
  2
17_NO_PRINT
 70
0
 62
7
  6
CONTINUOUS
370
-3
390
F
  0
LAYER
  5
20B
100
AcDbSymbolTableRecord
100
AcDbLayerTableRecord
  2
18_DATUM_CAMS_JOINTS
 70
0
 62
7
  6
CONTINUOUS
370
-3
390
F
  0
LAYER
  5
20C
100
AcDbSymbolTableRecord
100
AcDbLayerTableRecord
  2
19_DATUM_FUNCTIONAL
 70
0
 62
7
  6
CONTINUOUS
370
-3
390
F
  0
LAYER
  5
20D
100
AcDbSymbolTableRecord
100
AcDbLayerTableRecord
  2
20_DATUM_KINEMATIC_SCHEME
 70
0
 62
7
  6
CONTINUOUS
370
-3
390
F
  0
ENDTAB
  0
TABLE
  2
STYLE
  5
3
100
AcDbSymbolTable
 70
1
  0
STYLE
  5
11
100
AcDbSymbolTableRecord
100
AcDbTextStyleTableRecord
  2
STANDARD
 70
0
 40
0.0
 41
1.0
 50
0.0
 71
0
 42
0.2
  3
ARIAL.TTF
  4

  0
STYLE
  5
20E
100
AcDbSymbolTableRecord
100
AcDbTextStyleTableRecord
  2
TEXTSTYLE_1
 70
0
 40
0.0
 41
0.8
 50
0.0
 71
0
 42
0.2
  3
gdt
  4

  0
ENDTAB
  0
TABLE
  2
VIEW
  5
6
100
AcDbSymbolTable
 70
0
  0
ENDTAB
  0
TABLE
  2
UCS
  5
7
100
AcDbSymbolTable
 70
0
  0
ENDTAB
  0
TABLE
  2
APPID
  5
9
100
AcDbSymbolTable
 70
1
  0
APPID
  5
20F
100
AcDbSymbolTableRecord
100
AcDbRegAppTableRecord
  2
ACAD
 70
0
  0
ENDTAB
  0
TABLE
  2
BLOCK_RECORD
  5
1
100
AcDbSymbolTable
 70
0
  0
BLOCK_RECORD
  5
210
100
AcDbSymbolTableRecord
100
AcDbBlockTableRecord
  2
*Model_Space
  0
BLOCK_RECORD
  5
211
100
AcDbSymbolTableRecord
100
AcDbBlockTableRecord
  2
*Paper_Space
  0
BLOCK_RECORD
  5
212
100
AcDbSymbolTableRecord
100
AcDbBlockTableRecord
  2
_FILLED
  0
ENDTAB
  0
TABLE
  2
DIMSTYLE
  5
A
100
AcDbSymbolTable
 70
1
100
AcDbDimStyleTable
 71
0
  0
DIMSTYLE
105
213
100
AcDbSymbolTableRecord
100
AcDbDimStyleTableRecord
  2
STANDARD
 70
0
  3

  4

 40
1.0
 41
0.6199927797
 42
1.0
 43
0.38
 44
1.0
 45
0.0
 46
0.0
 47
0.01
 48
0.01
140
0.8679898916
141
0.09
142
0.0
143
25.4
144
1.0
145
0.0
146
1.0
147
0.625
 71
1
 72
0
 73
0
 74
0
 75
0
 76
0
 77
1
 78
8
 79
2
170
0
171
1
172
0
173
0
174
0
175
0
176
0
177
0
178
0
270
2
179
2
271
2
272
2
273
2
274
2
275
0
280
0
281
0
282
0
283
1
284
8
285
0
286
0
287
3
288
0
340
11
278
46
341
212
342
212
343
212
344
212
  0
ENDTAB
  0
ENDSEC
  0
SECTION
  2
BLOCKS
  0
BLOCK
  5
20
100
AcDbEntity
  8
0
100
AcDbBlockBegin
  2
*Model_Space
 70
0
 10
0.0
 20
0.0
 30
0.0
  3
*Model_Space
  1

  0
ENDBLK
  5
21
100
AcDbEntity
  8
0
100
AcDbBlockEnd
  0
BLOCK
  5
1C
100
AcDbEntity
  8
0
100
AcDbBlockBegin
  2
*Paper_Space
 70
0
 10
0.0
 20
0.0
 30
0.0
  3
*Paper_Space
  1

  0
ENDBLK
  5
1D
100
AcDbEntity
  8
0
100
AcDbBlockEnd
  0
BLOCK
  5
214
100
AcDbEntity
  8
0
100
AcDbBlockBegin
  2
_FILLED
 70
64
 10
0.0
 20
0.0
  3
_FILLED
  1

  0
SOLID
  5
215
100
AcDbEntity
  8
0
  6
BYBLOCK
 62
0
100
AcDbTrace
 10
0.0
 20
0.0
 11
-1.0
 21
0.25
 12
-1.0
 22
-0.25
 13
-1.0
 23
-0.25
  0
ENDBLK
  5
216
100
AcDbEntity
  8
0
  6
BYBLOCK
 62
0
100
AcDbBlockEnd
  0
ENDSEC
  0
SECTION
  2
ENTITIES
  0
LINE
  5
217
100
AcDbEntity
  8
0
100
AcDbLine
 62
7
  6
BYLAYER
 10
38.590462613
 20
13.327571116
 11
10.090462613
 21
13.327571116
  0
LINE
  5
218
100
AcDbEntity
  8
0
100
AcDbLine
 62
7
  6
BYLAYER
 10
5.890462613
 20
33.077571116
 11
5.890462613
 21
40.877571116
  0
LINE
  5
219
100
AcDbEntity
  8
0
100
AcDbLine
 62
7
  6
BYLAYER
 10
6.090462613
 20
16.577571116
 11
6.090462613
 21
32.977571116
  0
LINE
  5
21A
100
AcDbEntity
  8
0
100
AcDbLine
 62
7
  6
BYLAYER
 10
6.090462613
 20
40.977571116
 11
6.090462613
 21
57.077571116
  0
LINE
  5
21B
100
AcDbEntity
  8
0
100
AcDbLine
 62
7
  6
BYLAYER
 10
6.3141171021
 20
40.677571116
 11
6.3141171021
 21
33.177571116
  0
LINE
  5
21C
100
AcDbEntity
  8
0
100
AcDbLine
 62
7
  6
BYLAYER
 10
6.5631644095
 20
40.977571116
 11
6.5631644095
 21
40.877571116
  0
LINE
  5
21D
100
AcDbEntity
  8
0
100
AcDbLine
 62
7
  6
BYLAYER
 10
6.5631644095
 20
33.077571116
 11
6.5631644095
 21
32.977571116
  0
LINE
  5
21E
100
AcDbEntity
  8
0
100
AcDbLine
 62
7
  6
BYLAYER
 10
6.5949367993
 20
32.977571116
 11
6.5949367993
 21
33.177571116
  0
LINE
  5
21F
100
AcDbEntity
  8
0
100
AcDbLine
 62
7
  6
BYLAYER
 10
6.5949367993
 20
40.677571116
 11
6.5949367993
 21
40.977571116
  0
LINE
  5
220
100
AcDbEntity
  8
0
100
AcDbLine
 62
7
  6
BYLAYER
 10
7.1973645513
 20
41.177571116
 11
7.1973645513
 21
40.677571116
  0
LINE
  5
221
100
AcDbEntity
  8
0
100
AcDbLine
 62
7
  6
BYLAYER
 10
7.1973645513
 20
33.177571116
 11
7.1973645513
 21
32.677571116
  0
LINE
  5
222
100
AcDbEntity
  8
0
100
AcDbLine
 62
7
  6
BYLAYER
 10
6.0905217522
 20
16.577571116
 11
10.090462613
 21
16.577571116
  0
LINE
  5
223
100
AcDbEntity
  8
0
100
AcDbLine
 62
7
  6
BYLAYER
 10
8.0394790871
 20
32.677571116
 11
8.0394790871
 21
41.177571116
  0
LINE
  5
224
100
AcDbEntity
  8
0
100
AcDbLine
 62
7
  6
BYLAYER
 10
8.890462613
 20
57.077571116
 11
8.890462613
 21
16.577571116
  0
LINE
  5
225
100
AcDbEntity
  8
0
100
AcDbLine
 62
7
  6
BYLAYER
 10
10.090462613
 20
13.327571116
 11
10.090462613
 21
16.577571116
  0
LINE
  5
226
100
AcDbEntity
  8
0
100
AcDbLine
 62
7
  6
BYLAYER
 10
10.090462613
 20
57.077571116
 11
10.090462613
 21
60.327571116
  0
LINE
  5
227
100
AcDbEntity
  8
0
100
AcDbLine
 62
7
  6
BYLAYER
 10
45.090462613
 20
20.827571116
 11
38.590462613
 21
20.827571116
  0
LINE
  5
228
100
AcDbEntity
  8
0
100
AcDbLine
 62
7
  6
BYLAYER
 10
8.0394790871
 20
32.677571116
 11
7.1973645513
 21
32.677571116
  0
LINE
  5
229
100
AcDbEntity
  8
0
100
AcDbLine
 62
7
  6
BYLAYER
 10
6.5949367993
 20
32.977571116
 11
6.0905154342
 21
32.977571116
  0
LINE
  5
22A
100
AcDbEntity
  8
0
100
AcDbLine
 62
7
  6
BYLAYER
 10
5.890462613
 20
33.077571116
 11
6.5949367993
 21
33.077571116
  0
LINE
  5
22B
100
AcDbEntity
  8
0
100
AcDbLine
 62
7
  6
BYLAYER
 10
5.8904926661
 20
33.177571116
 11
8.0394790871
 21
33.177571116
  0
LINE
  5
22C
100
AcDbEntity
  8
0
100
AcDbLine
 62
7
  6
BYLAYER
 10
5.8904926661
 20
40.677571116
 11
8.0394790871
 21
40.677571116
  0
LINE
  5
22D
100
AcDbEntity
  8
0
100
AcDbLine
 62
7
  6
BYLAYER
 10
5.890462613
 20
40.877571116
 11
6.5949367993
 21
40.877571116
  0
LINE
  5
22E
100
AcDbEntity
  8
0
100
AcDbLine
 62
7
  6
BYLAYER
 10
6.0905154342
 20
40.977571116
 11
6.5949367993
 21
40.977571116
  0
LINE
  5
22F
100
AcDbEntity
  8
0
100
AcDbLine
 62
7
  6
BYLAYER
 10
7.1973645513
 20
41.177571116
 11
8.0394790871
 21
41.177571116
  0
LINE
  5
230
100
AcDbEntity
  8
0
100
AcDbLine
 62
7
  6
BYLAYER
 10
47.090462613
 20
48.127571116
 11
45.090462613
 21
45.327571116
  0
LINE
  5
231
100
AcDbEntity
  8
0
100
AcDbLine
 62
7
  6
BYLAYER
 10
38.590462613
 20
60.327571116
 11
38.590462613
 21
52.827571116
  0
LINE
  5
232
100
AcDbEntity
  8
0
100
AcDbLine
 62
7
  6
BYLAYER
 10
38.590462613
 20
20.827571116
 11
38.590462613
 21
13.327571116
  0
LINE
  5
233
100
AcDbEntity
  8
0
100
AcDbLine
 62
7
  6
BYLAYER
 10
41.290462613
 20
52.827571116
 11
41.290462613
 21
58.827571116
  0
LINE
  5
234
100
AcDbEntity
  8
0
100
AcDbLine
 62
7
  6
BYLAYER
 10
43.090462613
 20
53.327571116
 11
43.090462613
 21
52.827571116
  0
LINE
  5
235
100
AcDbEntity
  8
0
100
AcDbLine
 62
7
  6
BYLAYER
 10
38.590462613
 20
52.827571116
 11
45.090462613
 21
52.827571116
  0
LINE
  5
236
100
AcDbEntity
  8
0
100
AcDbLine
 62
7
  6
BYLAYER
 10
41.290462613
 20
53.327571116
 11
45.090462613
 21
53.327571116
  0
LINE
  5
237
100
AcDbEntity
  8
0
100
AcDbLine
 62
7
  6
BYLAYER
 10
45.090462613
 20
20.827571116
 11
45.090462613
 21
57.627571116
  0
LINE
  5
238
100
AcDbEntity
  8
0
100
AcDbLine
 62
7
  6
BYLAYER
 10
10.090462613
 20
57.077571116
 11
6.0905217522
 21
57.077571116
  0
LINE
  5
239
100
AcDbEntity
  8
0
100
AcDbLine
 62
7
  6
BYLAYER
 10
44.490462613
 20
57.627571116
 11
45.090462613
 21
57.627571116
  0
LINE
  5
23A
100
AcDbEntity
  8
0
100
AcDbLine
 62
7
  6
BYLAYER
 10
41.290462613
 20
58.827571116
 11
43.290462613
 21
58.827571116
  0
LINE
  5
23B
100
AcDbEntity
  8
0
100
AcDbLine
 62
7
  6
BYLAYER
 10
45.090462613
 20
49.627571116
 11
47.090462613
 21
48.127571116
  0
LINE
  5
23C
100
AcDbEntity
  8
0
100
AcDbLine
 62
7
  6
BYLAYER
 10
10.090462613
 20
60.327571116
 11
38.590462613
 21
60.327571116
  0
LINE
  5
23D
100
AcDbEntity
  8
0
100
AcDbLine
 62
7
  6
BYLAYER
 10
43.290462613
 20
58.827571116
 11
44.490462613
 21
57.627571116
  0
SPLINE
  5
23E
100
AcDbEntity
  8
0
100
AcDbSpline
 62
7
  6
BYLAYER
 70
0
 71
3
 72
22
 73
18
 74
0
 42
0.0000001
 43
0.0000001
 44
0.0000000001
 40
0.0
 40
0.0
 40
0.0
 40
0.0
 40
0.0085975089
 40
0.0178337773
 40
0.0281513709
 40
0.0398635777
 40
0.0681916888
 40
0.1037071066
 40
0.1466440881
 40
0.1969352132
 40
0.2543195379
 40
0.3184379687
 40
0.3888001
 40
0.4648633061
 40
0.6313642902
 40
0.8120478246
 40
1.0
 40
1.0
 40
1.0
 40
1.0
 10
7.5141994018
 20
19.8775657584
 30
0.0
 10
7.5239597934
 20
19.8775671405
 30
0.0
 10
7.5442858184
 20
19.8804018869
 30
0.0
 10
7.5740993954
 20
19.8926093257
 30
0.0
 10
7.6037399199
 20
19.9124831704
 30
0.0
 10
7.645741246
 20
19.9515293902
 30
0.0
 10
7.6968717715
 20
20.0211705808
 30
0.0
 10
7.7541290906
 20
20.1282252043
 30
0.0
 10
7.8102924424
 20
20.2633658287
 30
0.0
 10
7.8646996382
 20
20.4255619172
 30
0.0
 10
7.9166874782
 20
20.6136169033
 30
0.0
 10
7.9655132677
 20
20.8259472621
 30
0.0
 10
8.0105544004
 20
21.0607345827
 30
0.0
 10
8.0662874155
 20
21.4116368279
 30
0.0
 10
8.1210266294
 20
21.8892540581
 30
0.0
 10
8.1611569196
 20
22.4956361774
 30
0.0
 10
8.1702267077
 20
22.9141968855
 30
0.0
 10
8.1702267077
 20
23.127571116
 30
0.0
  0
SPLINE
  5
23F
100
AcDbEntity
  8
0
100
AcDbSpline
 62
7
  6
BYLAYER
 70
0
 71
3
 72
25
 73
21
 74
0
 42
0.0000001
 43
0.0000001
 44
0.0000000001
 40
0.0
 40
0.0
 40
0.0
 40
0.0
 40
0.0031905206
 40
0.0053139677
 40
0.0079014706
 40
0.0146165064
 40
0.0235099089
 40
0.0346387801
 40
0.04801264
 40
0.0636132773
 40
0.0814141986
 40
0.1234875548
 40
0.1738790365
 40
0.232120467
 40
0.2976904935
 40
0.3699637156
 40
0.4482802612
 40
0.6199606818
 40
0.8062762858
 40
1.0
 40
1.0
 40
1.0
 40
1.0
 10
6.2475138198
 20
19.8775651691
 30
0.0
 10
6.2509992484
 20
19.8775657861
 30
0.0
 10
6.2566730813
 20
19.8804456484
 30
0.0
 10
6.2626097495
 20
19.8866419878
 30
0.0
 10
6.2699165285
 20
19.8968421164
 30
0.0
 10
6.2787073108
 20
19.9147550496
 30
0.0
 10
6.2888875961
 20
19.9421528761
 30
0.0
 10
6.2992782095
 20
19.9771479025
 30
0.0
 10
6.3098696514
 20
20.0196670981
 30
0.0
 10
6.3205968774
 20
20.069635027
 30
0.0
 10
6.3358842431
 20
20.1506629778
 30
0.0
 10
6.3545798611
 20
20.2696868873
 30
0.0
 10
6.3758497062
 20
20.4329550096
 30
0.0
 10
6.396601511
 20
20.6221365383
 30
0.0
 10
6.4164507715
 20
20.8354319581
 30
0.0
 10
6.4350351392
 20
21.0708466409
 30
0.0
 10
6.4583311279
 20
21.4221409288
 30
0.0
 10
6.4815726311
 20
21.898257349
 30
0.0
 10
6.498820032
 20
22.5007618982
 30
0.0
 10
6.5027428872
 20
22.9159410239
 30
0.0
 10
6.5027428872
 20
23.127571116
 30
0.0
  0
SPLINE
  5
240
100
AcDbEntity
  8
0
100
AcDbSpline
 62
7
  6
BYLAYER
 70
0
 71
3
 72
22
 73
18
 74
0
 42
0.0000001
 43
0.0000001
 44
0.0000000001
 40
0.0
 40
0.0
 40
0.0
 40
0.0
 40
0.0085975089
 40
0.0178337773
 40
0.0281513709
 40
0.0398635777
 40
0.0681916888
 40
0.1037071066
 40
0.1466440881
 40
0.1969352132
 40
0.2543195379
 40
0.3184379687
 40
0.3888001
 40
0.4648633061
 40
0.6313642902
 40
0.8120478246
 40
1.0
 40
1.0
 40
1.0
 40
1.0
 10
7.5141994018
 20
47.2775657584
 30
0.0
 10
7.5239597934
 20
47.2775671405
 30
0.0
 10
7.5442858184
 20
47.2804018869
 30
0.0
 10
7.5740993954
 20
47.2926093257
 30
0.0
 10
7.6037399199
 20
47.3124831704
 30
0.0
 10
7.645741246
 20
47.3515293902
 30
0.0
 10
7.6968717715
 20
47.4211705808
 30
0.0
 10
7.7541290906
 20
47.5282252043
 30
0.0
 10
7.8102924424
 20
47.6633658287
 30
0.0
 10
7.8646996382
 20
47.8255619172
 30
0.0
 10
7.9166874782
 20
48.0136169033
 30
0.0
 10
7.9655132677
 20
48.2259472621
 30
0.0
 10
8.0105544004
 20
48.4607345827
 30
0.0
 10
8.0662874155
 20
48.8116368279
 30
0.0
 10
8.1210266294
 20
49.2892540581
 30
0.0
 10
8.1611569196
 20
49.8956361774
 30
0.0
 10
8.1702267077
 20
50.3141968856
 30
0.0
 10
8.1702267077
 20
50.527571116
 30
0.0
  0
SPLINE
  5
241
100
AcDbEntity
  8
0
100
AcDbSpline
 62
7
  6
BYLAYER
 70
0
 71
3
 72
25
 73
21
 74
0
 42
0.0000001
 43
0.0000001
 44
0.0000000001
 40
0.0
 40
0.0
 40
0.0
 40
0.0
 40
0.0031905206
 40
0.0053139677
 40
0.0079014706
 40
0.0146165064
 40
0.0235099089
 40
0.0346387801
 40
0.04801264
 40
0.0636132773
 40
0.0814141986
 40
0.1234875548
 40
0.1738790365
 40
0.232120467
 40
0.2976904935
 40
0.3699637156
 40
0.4482802612
 40
0.6199606818
 40
0.8062762858
 40
1.0
 40
1.0
 40
1.0
 40
1.0
 10
6.2475138198
 20
47.2775651691
 30
0.0
 10
6.2509992484
 20
47.2775657861
 30
0.0
 10
6.2566730813
 20
47.2804456484
 30
0.0
 10
6.2626097495
 20
47.2866419878
 30
0.0
 10
6.2699165285
 20
47.2968421164
 30
0.0
 10
6.2787073108
 20
47.3147550496
 30
0.0
 10
6.2888875961
 20
47.3421528761
 30
0.0
 10
6.2992782095
 20
47.3771479025
 30
0.0
 10
6.3098696514
 20
47.4196670981
 30
0.0
 10
6.3205968774
 20
47.469635027
 30
0.0
 10
6.3358842431
 20
47.5506629778
 30
0.0
 10
6.3545798611
 20
47.6696868873
 30
0.0
 10
6.3758497062
 20
47.8329550096
 30
0.0
 10
6.396601511
 20
48.0221365383
 30
0.0
 10
6.4164507715
 20
48.2354319581
 30
0.0
 10
6.4350351392
 20
48.4708466409
 30
0.0
 10
6.4583311279
 20
48.8221409288
 30
0.0
 10
6.4815726311
 20
49.298257349
 30
0.0
 10
6.498820032
 20
49.9007618982
 30
0.0
 10
6.5027428872
 20
50.3159410239
 30
0.0
 10
6.5027428872
 20
50.527571116
 30
0.0
  0
SPLINE
  5
242
100
AcDbEntity
  8
0
100
AcDbSpline
 62
7
  6
BYLAYER
 70
0
 71
3
 72
25
 73
21
 74
0
 42
0.0000001
 43
0.0000001
 44
0.0000000001
 40
0.0
 40
0.0
 40
0.0
 40
0.0
 40
0.1937240627
 40
0.3800343312
 40
0.5517117678
 40
0.630026432
 40
0.7022993384
 40
0.7678696984
 40
0.8261119786
 40
0.8765060837
 40
0.9185803859
 40
0.9363828267
 40
0.9519850268
 40
0.9653597167
 40
0.9764884625
 40
0.9853824105
 40
0.9920982674
 40
0.9946860796
 40
0.9968096768
 40
1.0
 40
1.0
 40
1.0
 40
1.0
 10
6.5027428872
 20
50.527571116
 30
0.0
 10
6.5027428872
 20
50.739201633
 30
0.0
 10
6.4988202682
 20
51.1543754009
 30
0.0
 10
6.4815730971
 20
51.756871366
 30
0.0
 10
6.458332895
 20
52.2329767916
 30
0.0
 10
6.4350373402
 20
52.5842655115
 30
0.0
 10
6.4164534723
 20
52.8196782351
 30
0.0
 10
6.3966050667
 20
53.0329747389
 30
0.0
 10
6.3758523672
 20
53.2221603848
 30
0.0
 10
6.3545831996
 20
53.3854335042
 30
0.0
 10
6.3358865004
 20
53.5044628946
 30
0.0
 10
6.3205989196
 20
53.5854952985
 30
0.0
 10
6.3098713725
 20
53.6354675355
 30
0.0
 10
6.2992799437
 20
53.677989309
 30
0.0
 10
6.2888886208
 20
53.7129855582
 30
0.0
 10
6.2787080111
 20
53.7403847096
 30
0.0
 10
6.269917097
 20
53.7582995698
 30
0.0
 10
6.2626099864
 20
53.7685012418
 30
0.0
 10
6.2566736125
 20
53.7746980927
 30
0.0
 10
6.2509990356
 20
53.7775778434
 30
0.0
 10
6.247513822
 20
53.7775770523
 30
0.0
  0
SPLINE
  5
243
100
AcDbEntity
  8
0
100
AcDbSpline
 62
7
  6
BYLAYER
 70
0
 71
3
 72
22
 73
18
 74
0
 42
0.0000001
 43
0.0000001
 44
0.0000000001
 40
0.0
 40
0.0
 40
0.0
 40
0.0
 40
0.1879576908
 40
0.3686340807
 40
0.5351291499
 40
0.6111874321
 40
0.6815479298
 40
0.745664994
 40
0.8030498145
 40
0.8533445035
 40
0.8962823269
 40
0.9318032724
 40
0.9601321682
 40
0.9718456771
 40
0.9821650163
 40
0.9914023307
 40
1.0
 40
1.0
 40
1.0
 40
1.0
 10
8.1702267077
 20
50.527571116
 30
0.0
 10
8.1702267077
 20
50.7409516607
 30
0.0
 10
8.161157199
 20
51.1595106675
 30
0.0
 10
8.1210262366
 20
51.765884215
 30
0.0
 10
8.0662930215
 20
52.2434817463
 30
0.0
 10
8.0105604611
 20
52.5943698152
 30
0.0
 10
7.9655238653
 20
52.8291488347
 30
0.0
 10
7.9167009357
 20
53.0414771302
 30
0.0
 10
7.8647105031
 20
53.2295343706
 30
0.0
 10
7.8103091944
 20
53.3917387081
 30
0.0
 10
7.7541363119
 20
53.5268871209
 30
0.0
 10
7.6968867281
 20
53.6339554376
 30
0.0
 10
7.6457480556
 20
53.7036016826
 30
0.0
 10
7.6037451251
 20
53.742652195
 30
0.0
 10
7.5741037608
 20
53.7625328443
 30
0.0
 10
7.5442885106
 20
53.7747459729
 30
0.0
 10
7.5239599974
 20
53.7775781853
 30
0.0
 10
7.5141994214
 20
53.7775763794
 30
0.0
  0
SPLINE
  5
244
100
AcDbEntity
  8
0
100
AcDbSpline
 62
7
  6
BYLAYER
 70
0
 71
3
 72
25
 73
21
 74
0
 42
0.0000001
 43
0.0000001
 44
0.0000000001
 40
0.0
 40
0.0
 40
0.0
 40
0.0
 40
0.1937240627
 40
0.3800343312
 40
0.5517117678
 40
0.630026432
 40
0.7022993384
 40
0.7678696984
 40
0.8261119786
 40
0.8765060837
 40
0.9185803859
 40
0.9363828267
 40
0.9519850268
 40
0.9653597167
 40
0.9764884625
 40
0.9853824105
 40
0.9920982674
 40
0.9946860796
 40
0.9968096768
 40
1.0
 40
1.0
 40
1.0
 40
1.0
 10
6.5027428872
 20
23.127571116
 30
0.0
 10
6.5027428872
 20
23.339201633
 30
0.0
 10
6.4988202682
 20
23.7543754009
 30
0.0
 10
6.4815730971
 20
24.356871366
 30
0.0
 10
6.458332895
 20
24.8329767916
 30
0.0
 10
6.4350373402
 20
25.1842655115
 30
0.0
 10
6.4164534723
 20
25.4196782351
 30
0.0
 10
6.3966050667
 20
25.6329747389
 30
0.0
 10
6.3758523672
 20
25.8221603848
 30
0.0
 10
6.3545831996
 20
25.9854335042
 30
0.0
 10
6.3358865004
 20
26.1044628946
 30
0.0
 10
6.3205989196
 20
26.1854952985
 30
0.0
 10
6.3098713725
 20
26.2354675355
 30
0.0
 10
6.2992799437
 20
26.277989309
 30
0.0
 10
6.2888886208
 20
26.3129855582
 30
0.0
 10
6.2787080111
 20
26.3403847096
 30
0.0
 10
6.269917097
 20
26.3582995698
 30
0.0
 10
6.2626099864
 20
26.3685012418
 30
0.0
 10
6.2566736125
 20
26.3746980927
 30
0.0
 10
6.2509990356
 20
26.3775778434
 30
0.0
 10
6.247513822
 20
26.3775770523
 30
0.0
  0
SPLINE
  5
245
100
AcDbEntity
  8
0
100
AcDbSpline
 62
7
  6
BYLAYER
 70
0
 71
3
 72
22
 73
18
 74
0
 42
0.0000001
 43
0.0000001
 44
0.0000000001
 40
0.0
 40
0.0
 40
0.0
 40
0.0
 40
0.1879576908
 40
0.3686340807
 40
0.5351291499
 40
0.6111874321
 40
0.6815479298
 40
0.745664994
 40
0.8030498145
 40
0.8533445035
 40
0.8962823269
 40
0.9318032724
 40
0.9601321682
 40
0.9718456771
 40
0.9821650163
 40
0.9914023307
 40
1.0
 40
1.0
 40
1.0
 40
1.0
 10
8.1702267077
 20
23.127571116
 30
0.0
 10
8.1702267077
 20
23.3409516607
 30
0.0
 10
8.161157199
 20
23.7595106675
 30
0.0
 10
8.1210262366
 20
24.365884215
 30
0.0
 10
8.0662930215
 20
24.8434817463
 30
0.0
 10
8.0105604611
 20
25.1943698152
 30
0.0
 10
7.9655238653
 20
25.4291488347
 30
0.0
 10
7.9167009357
 20
25.6414771302
 30
0.0
 10
7.8647105031
 20
25.8295343706
 30
0.0
 10
7.8103091944
 20
25.9917387081
 30
0.0
 10
7.7541363119
 20
26.1268871209
 30
0.0
 10
7.6968867281
 20
26.2339554376
 30
0.0
 10
7.6457480556
 20
26.3036016826
 30
0.0
 10
7.6037451251
 20
26.342652195
 30
0.0
 10
7.5741037608
 20
26.3625328443
 30
0.0
 10
7.5442885106
 20
26.3747459729
 30
0.0
 10
7.5239599974
 20
26.3775781853
 30
0.0
 10
7.5141994214
 20
26.3775763794
 30
0.0
  0
SPLINE
  5
246
100
AcDbEntity
  8
0
100
AcDbSpline
 62
7
  6
BYLAYER
 70
0
 71
3
 72
22
 73
18
 74
0
 42
0.0000001
 43
0.0000001
 44
0.0000000001
 40
0.0
 40
0.0
 40
0.0
 40
0.0
 40
0.0085602901
 40
0.0176089947
 40
0.0276318788
 40
0.0389862078
 40
0.0665356747
 40
0.1013313848
 40
0.1436965301
 40
0.193605148
 40
0.2508067734
 40
0.3149349515
 40
0.3854738178
 40
0.4618471881
 40
0.629236613
 40
0.8109700013
 40
1.0
 40
1.0
 40
1.0
 40
1.0
 10
7.5141994214
 20
26.3775763794
 30
0.0
 10
7.5045646565
 20
26.3775745968
 30
0.0
 10
7.4846528543
 20
26.3748274856
 30
0.0
 10
7.4557184318
 20
26.3626746104
 30
0.0
 10
7.4275528624
 20
26.3428221391
 30
0.0
 10
7.3884512962
 20
26.3037615886
 30
0.0
 10
7.3424456416
 20
26.233911604
 30
0.0
 10
7.2929879756
 20
26.1267371422
 30
0.0
 10
7.2462698237
 20
25.9913579944
 30
0.0
 10
7.2026388513
 20
25.8287877365
 30
0.0
 10
7.1623585569
 20
25.6402412925
 30
0.0
 10
7.1257713163
 20
25.4273666379
 30
0.0
 10
7.0930330196
 20
25.1920695313
 30
0.0
 10
7.0536405093
 20
24.8404845099
 30
0.0
 10
7.016594989
 20
24.3628740668
 30
0.0
 10
6.9903527089
 20
23.7576572331
 30
0.0
 10
6.9845301942
 20
23.3403278813
 30
0.0
 10
6.9845301942
 20
23.127571116
 30
0.0
  0
SPLINE
  5
247
100
AcDbEntity
  8
0
100
AcDbSpline
 62
7
  6
BYLAYER
 70
0
 71
3
 72
22
 73
18
 74
0
 42
0.0000001
 43
0.0000001
 44
0.0000000001
 40
0.0
 40
0.0
 40
0.0
 40
0.0
 40
0.0085602901
 40
0.0176089947
 40
0.0276318788
 40
0.0389862078
 40
0.0665356747
 40
0.1013313848
 40
0.1436965301
 40
0.193605148
 40
0.2508067734
 40
0.3149349515
 40
0.3854738178
 40
0.4618471881
 40
0.629236613
 40
0.8109700013
 40
1.0
 40
1.0
 40
1.0
 40
1.0
 10
7.5141994214
 20
53.7775763794
 30
0.0
 10
7.5045646565
 20
53.7775745968
 30
0.0
 10
7.4846528543
 20
53.7748274856
 30
0.0
 10
7.4557184318
 20
53.7626746104
 30
0.0
 10
7.4275528624
 20
53.7428221391
 30
0.0
 10
7.3884512962
 20
53.7037615886
 30
0.0
 10
7.3424456416
 20
53.633911604
 30
0.0
 10
7.2929879756
 20
53.5267371422
 30
0.0
 10
7.2462698237
 20
53.3913579944
 30
0.0
 10
7.2026388513
 20
53.2287877365
 30
0.0
 10
7.1623585569
 20
53.0402412925
 30
0.0
 10
7.1257713163
 20
52.8273666379
 30
0.0
 10
7.0930330196
 20
52.5920695313
 30
0.0
 10
7.0536405093
 20
52.2404845099
 30
0.0
 10
7.016594989
 20
51.7628740668
 30
0.0
 10
6.9903527089
 20
51.1576572331
 30
0.0
 10
6.9845301942
 20
50.7403278813
 30
0.0
 10
6.9845301942
 20
50.527571116
 30
0.0
  0
SPLINE
  5
248
100
AcDbEntity
  8
0
100
AcDbSpline
 62
7
  6
BYLAYER
 70
0
 71
3
 72
22
 73
18
 74
0
 42
0.0000001
 43
0.0000001
 44
0.0000000001
 40
0.0
 40
0.0
 40
0.0
 40
0.0
 40
0.007410044
 40
0.0139498663
 40
0.0226690884
 40
0.0336324298
 40
0.0468535891
 40
0.0623170663
 40
0.0799982518
 40
0.1218900201
 40
0.1721802272
 40
0.2303990229
 40
0.296019149
 40
0.4468805497
 40
0.6189811074
 40
0.8057794745
 40
1.0
 40
1.0
 40
1.0
 40
1.0
 10
6.247513822
 20
53.7775770523
 30
0.0
 10
6.2394470357
 20
53.7775752214
 30
0.0
 10
6.2280763559
 20
53.7623690249
 30
0.0
 10
6.2192502734
 20
53.7406570446
 30
0.0
 10
6.2108302709
 20
53.7128682807
 30
0.0
 10
6.203079237
 20
53.6780509607
 30
0.0
 10
6.195507524
 20
53.6354888986
 30
0.0
 10
6.1883217715
 20
53.585540862
 30
0.0
 10
6.1786396123
 20
53.5044157425
 30
0.0
 10
6.1679378782
 20
53.3852784174
 30
0.0
 10
6.1570806538
 20
53.2218988577
 30
0.0
 10
6.1476203204
 20
53.0325667735
 30
0.0
 10
6.1363017079
 20
52.7337293012
 30
0.0
 10
6.1260919742
 20
52.3108145413
 30
0.0
 10
6.1183924907
 20
51.7559240967
 30
0.0
 10
6.1141375812
 20
51.1537937673
 30
0.0
 10
6.1132371989
 20
50.7390051538
 30
0.0
 10
6.1132371989
 20
50.527571116
 30
0.0
  0
SPLINE
  5
249
100
AcDbEntity
  8
0
100
AcDbSpline
 62
7
  6
BYLAYER
 70
0
 71
3
 72
22
 73
18
 74
0
 42
0.0000001
 43
0.0000001
 44
0.0000000001
 40
0.0
 40
0.0
 40
0.0
 40
0.0
 40
0.007410044
 40
0.0139498663
 40
0.0226690884
 40
0.0336324298
 40
0.0468535891
 40
0.0623170663
 40
0.0799982518
 40
0.1218900201
 40
0.1721802272
 40
0.2303990229
 40
0.296019149
 40
0.4468805497
 40
0.6189811074
 40
0.8057794745
 40
1.0
 40
1.0
 40
1.0
 40
1.0
 10
6.247513822
 20
26.3775770523
 30
0.0
 10
6.2394470357
 20
26.3775752214
 30
0.0
 10
6.2280763559
 20
26.3623690249
 30
0.0
 10
6.2192502734
 20
26.3406570446
 30
0.0
 10
6.2108302709
 20
26.3128682807
 30
0.0
 10
6.203079237
 20
26.2780509607
 30
0.0
 10
6.195507524
 20
26.2354888986
 30
0.0
 10
6.1883217715
 20
26.185540862
 30
0.0
 10
6.1786396123
 20
26.1044157425
 30
0.0
 10
6.1679378782
 20
25.9852784174
 30
0.0
 10
6.1570806538
 20
25.8218988577
 30
0.0
 10
6.1476203204
 20
25.6325667735
 30
0.0
 10
6.1363017079
 20
25.3337293012
 30
0.0
 10
6.1260919742
 20
24.9108145413
 30
0.0
 10
6.1183924907
 20
24.3559240967
 30
0.0
 10
6.1141375812
 20
23.7537937673
 30
0.0
 10
6.1132371989
 20
23.3390051538
 30
0.0
 10
6.1132371989
 20
23.127571116
 30
0.0
  0
SPLINE
  5
24A
100
AcDbEntity
  8
0
100
AcDbSpline
 62
7
  6
BYLAYER
 70
0
 71
3
 72
22
 73
18
 74
0
 42
0.0000001
 43
0.0000001
 44
0.0000000001
 40
0.0
 40
0.0
 40
0.0
 40
0.0
 40
0.1942206666
 40
0.3810149847
 40
0.5531141085
 40
0.7039743954
 40
0.7695949163
 40
0.8278142988
 40
0.878106415
 40
0.9199985829
 40
0.9376808383
 40
0.9531454195
 40
0.9663670664
 40
0.9773301027
 40
0.9860496401
 40
0.9925900309
 40
1.0
 40
1.0
 40
1.0
 40
1.0
 10
6.1132371989
 20
50.527571116
 30
0.0
 10
6.1132371989
 20
50.3161369115
 30
0.0
 10
6.114137538
 20
49.9013525261
 30
0.0
 10
6.1183925783
 20
49.2992279773
 30
0.0
 10
6.1260916176
 20
48.7443446728
 30
0.0
 10
6.1363010536
 20
48.3214322301
 30
0.0
 10
6.1476193216
 20
48.0225948617
 30
0.0
 10
6.15708018
 20
47.8332596562
 30
0.0
 10
6.1679360988
 20
47.6698768189
 30
0.0
 10
6.1786395214
 20
47.5507359607
 30
0.0
 10
6.1883211484
 20
47.4696079472
 30
0.0
 10
6.1955066054
 20
47.4196569661
 30
0.0
 10
6.2030781153
 20
47.3770933538
 30
0.0
 10
6.2108303825
 20
47.3422759266
 30
0.0
 10
6.2192507026
 20
47.3144861245
 30
0.0
 10
6.2280751345
 20
47.2927741357
 30
0.0
 10
6.2394471144
 20
47.277563741
 30
0.0
 10
6.2475138198
 20
47.2775651691
 30
0.0
  0
SPLINE
  5
24B
100
AcDbEntity
  8
0
100
AcDbSpline
 62
7
  6
BYLAYER
 70
0
 71
3
 72
22
 73
18
 74
0
 42
0.0000001
 43
0.0000001
 44
0.0000000001
 40
0.0
 40
0.0
 40
0.0
 40
0.0
 40
0.1890347498
 40
0.3707650103
 40
0.5381530758
 40
0.6145239583
 40
0.6850621117
 40
0.7491891799
 40
0.8063902645
 40
0.8563003875
 40
0.8986644975
 40
0.9334632801
 40
0.961011999
 40
0.9723667616
 40
0.9823904461
 40
0.9914395088
 40
1.0
 40
1.0
 40
1.0
 40
1.0
 10
6.9845301942
 20
50.527571116
 30
0.0
 10
6.9845301942
 20
50.3148089301
 30
0.0
 10
6.9903523704
 20
49.8974775802
 30
0.0
 10
7.0165963073
 20
49.2922603537
 30
0.0
 10
7.053639141
 20
48.8146573811
 30
0.0
 10
7.0930330159
 20
48.4630775523
 30
0.0
 10
7.1257688753
 20
48.227784973
 30
0.0
 10
7.1623554823
 20
48.0149126905
 30
0.0
 10
7.2026382707
 20
47.8263671803
 30
0.0
 10
7.2462625957
 20
47.6637946433
 30
0.0
 10
7.2929915686
 20
47.5284156865
 30
0.0
 10
7.3424367359
 20
47.4212332904
 30
0.0
 10
7.388451315
 20
47.3513850883
 30
0.0
 10
7.4275524813
 20
47.3123239287
 30
0.0
 10
7.4557163006
 20
47.2924661975
 30
0.0
 10
7.4846508324
 20
47.2803085951
 30
0.0
 10
7.5045644072
 20
47.277564394
 30
0.0
 10
7.5141994018
 20
47.2775657584
 30
0.0
  0
SPLINE
  5
24C
100
AcDbEntity
  8
0
100
AcDbSpline
 62
7
  6
BYLAYER
 70
0
 71
3
 72
22
 73
18
 74
0
 42
0.0000001
 43
0.0000001
 44
0.0000000001
 40
0.0
 40
0.0
 40
0.0
 40
0.0
 40
0.1942206666
 40
0.3810149847
 40
0.5531141085
 40
0.7039743954
 40
0.7695949163
 40
0.8278142988
 40
0.878106415
 40
0.9199985829
 40
0.9376808383
 40
0.9531454195
 40
0.9663670664
 40
0.9773301027
 40
0.9860496401
 40
0.9925900309
 40
1.0
 40
1.0
 40
1.0
 40
1.0
 10
6.1132371989
 20
23.127571116
 30
0.0
 10
6.1132371989
 20
22.9161369115
 30
0.0
 10
6.114137538
 20
22.5013525261
 30
0.0
 10
6.1183925783
 20
21.8992279773
 30
0.0
 10
6.1260916176
 20
21.3443446728
 30
0.0
 10
6.1363010536
 20
20.9214322301
 30
0.0
 10
6.1476193216
 20
20.6225948617
 30
0.0
 10
6.15708018
 20
20.4332596562
 30
0.0
 10
6.1679360988
 20
20.2698768189
 30
0.0
 10
6.1786395214
 20
20.1507359607
 30
0.0
 10
6.1883211484
 20
20.0696079472
 30
0.0
 10
6.1955066054
 20
20.0196569661
 30
0.0
 10
6.2030781153
 20
19.9770933538
 30
0.0
 10
6.2108303825
 20
19.9422759266
 30
0.0
 10
6.2192507026
 20
19.9144861245
 30
0.0
 10
6.2280751345
 20
19.8927741357
 30
0.0
 10
6.2394471144
 20
19.877563741
 30
0.0
 10
6.2475138198
 20
19.8775651691
 30
0.0
  0
SPLINE
  5
24D
100
AcDbEntity
  8
0
100
AcDbSpline
 62
7
  6
BYLAYER
 70
0
 71
3
 72
22
 73
18
 74
0
 42
0.0000001
 43
0.0000001
 44
0.0000000001
 40
0.0
 40
0.0
 40
0.0
 40
0.0
 40
0.1890347498
 40
0.3707650103
 40
0.5381530758
 40
0.6145239583
 40
0.6850621117
 40
0.7491891799
 40
0.8063902645
 40
0.8563003875
 40
0.8986644975
 40
0.9334632801
 40
0.961011999
 40
0.9723667616
 40
0.9823904461
 40
0.9914395088
 40
1.0
 40
1.0
 40
1.0
 40
1.0
 10
6.9845301942
 20
23.127571116
 30
0.0
 10
6.9845301942
 20
22.9148089301
 30
0.0
 10
6.9903523704
 20
22.4974775802
 30
0.0
 10
7.0165963073
 20
21.8922603537
 30
0.0
 10
7.053639141
 20
21.4146573811
 30
0.0
 10
7.0930330159
 20
21.0630775523
 30
0.0
 10
7.1257688753
 20
20.827784973
 30
0.0
 10
7.1623554823
 20
20.6149126905
 30
0.0
 10
7.2026382707
 20
20.4263671803
 30
0.0
 10
7.2462625957
 20
20.2637946433
 30
0.0
 10
7.2929915686
 20
20.1284156865
 30
0.0
 10
7.3424367359
 20
20.0212332904
 30
0.0
 10
7.388451315
 20
19.9513850883
 30
0.0
 10
7.4275524813
 20
19.9123239287
 30
0.0
 10
7.4557163006
 20
19.8924661975
 30
0.0
 10
7.4846508324
 20
19.8803085951
 30
0.0
 10
7.5045644072
 20
19.877564394
 30
0.0
 10
7.5141994018
 20
19.8775657584
 30
0.0
  0
ENDSEC
  0
SECTION
  2
OBJECTS
  0
DICTIONARY
  5
C
100
AcDbDictionary
280
0
281
1
  3
ACAD_GROUP
350
D
  3
ACAD_MLINESTYLE
350
17
  3
ACAD_LAYOUT
350
1A
  3
ACAD_PLOTSETTINGS
350
19
  3
ACAD_PLOTSTYLENAME
350
E
  0
DICTIONARY
  5
D
102
{ACAD_REACTORS
330
C
102
}
100
AcDbDictionary
280
0
281
1
  0
ACDBDICTIONARYWDFLT
  5
E
102
{ACAD_REACTORS
330
C
102
}
100
AcDbDictionary
281
1
  3
Normal
350
F
100
AcDbDictionaryWithDefault
340
F
  0
DICTIONARY
  5
17
102
{ACAD_REACTORS
330
C
102
}
100
AcDbDictionary
280
0
281
1
  3
Standard
350
18
  0
DICTIONARY
  5
19
102
{ACAD_REACTORS
330
C
102
}
100
AcDbDictionary
281
1
  0
DICTIONARY
  5
1A
102
{ACAD_REACTORS
330
C
102
}
100
AcDbDictionary
281
1
  3
Model
350
24E
  3
Layout1
350
24F
  0
ACDBPLACEHOLDER
  5
F
102
{ACAD_REACTORS
330
E
102
}
  0
MLINESTYLE
  5
18
102
{ACAD_REACTORS
330
17
102
}
100
AcDbMlineStyle
  2
STANDARD
 70
0
  3

 62
256
 51
90.0
 52
90.0
 71
2
 49
0.5
 62
256
  6
BYLAYER
 49
-0.5
 62
256
  6
BYLAYER
  0
LAYOUT
  5
24E
102
{ACAD_REACTORS
330
1A
102
}
100
AcDbPlotSettings
  1

  2
none_device
  4

  6

 40
0.0
 41
0.0
 42
0.0
 43
0.0
 44
210.0
 45
297.0
 46
0.0
 47
0.0
 48
0.0
 49
0.0
140
0.0
141
0.0
142
1.0
143
1.0
 70
1024
 72
1
 73
0
 74
0
  7

 75
0
147
1.0
148
0.0
149
0.0
100
AcDbLayout
  1
Model
 70
0
 71
0
 10
0.0
 20
0.0
 11
210.0
 21
297.0
 12
0.0
 22
0.0
 32
0.0
 14
0.0
 24
0.0
 34
0.0
 15
0.0
 25
0.0
 35
0.0
146
0.0
 13
0.0
 23
0.0
 33
0.0
 16
1.0
 26
0.0
 36
0.0
 17
0.0
 27
1.0
 37
0.0
 76
0
330
210
345
0
346
0
  0
LAYOUT
  5
24F
102
{ACAD_REACTORS
330
1A
102
}
100
AcDbPlotSettings
  1

  2
none_device
  4

  6

 40
0.0
 41
0.0
 42
0.0
 43
0.0
 44
210.0
 45
297.0
 46
0.0
 47
0.0
 48
0.0
 49
0.0
140
0.0
141
0.0
142
1.0
143
1.0
 70
0
 72
1
 73
0
 74
0
  7

 75
0
147
1.0
148
0.0
149
0.0
100
AcDbLayout
  1
Layout1
 70
0
 71
1
 10
0.0
 20
0.0
 11
210.0
 21
297.0
 12
0.0
 22
0.0
 32
0.0
 14
0.0
 24
0.0
 34
0.0
 15
0.0
 25
0.0
 35
0.0
146
0.0
 13
0.0
 23
0.0
 33
0.0
 16
1.0
 26
0.0
 36
0.0
 17
0.0
 27
1.0
 37
0.0
 76
0
330
211
345
0
346
0
  0
ENDSEC
  0
EOF
