999
DXF file: C:\Users\sesa63760\Dev\_Creo\CAD\MCADID0005837_3D-CAD\mcadid0005837_3d-simplified_2.dxf
999
Pro/ENGINEER 2019471 by Parametric Technology Corporation
  0
SECTION
  2
HEADER
  9
$ACADVER
  1
AC1024
  9
$DWGCODEPAGE
  3
ANSI_1252
  9
$EXTMAX
 10
37.7063092802
 20
53.3274945534
 30
0.0
  9
$EXTMIN
 10
0.0
 20
0.0
 30
0.0
  9
$LIMMIN
 10
0.0
 20
0.0
  9
$LIMMAX
 10
37.7063092802
 20
53.3274945534
  9
$VIEWCTR
 10
18.8531546401
 20
26.6637472767
  9
$VIEWSIZE
 40
53.3274945534
  9
$CLAYER
  8
0
  9
$LTSCALE
 40
3.4761626079
  9
$CELTYPE
  6
BYLAYER
  9
$DIMSCALE
 40
1.0
  9
$DIMASZ
 40
0.4488846343
  9
$DIMEXO
 40
1.0
  9
$DIMDLI
 40
2.4017123473
  9
$DIMEXE
 40
1.0
  9
$DIMCEN
 40
0.5688266086
  9
$DIMLFAC
 40
1.0
  9
$DIMBLK
  1
_FILLED
  9
$DIMALT
 70
0
  9
$DIMALTF
 40
0.0393700787
  9
$DIMTXT
 40
0.628438488
  9
$DIMTOL
 70
1
  9
$DIMLIM
 70
0
  9
$DIMTFAC
 40
1.0
  9
$DIMTP
 40
0.01
  9
$DIMTM
 40
0.01
  9
$DIMGAP
 40
0.625
  9
$DIMDSEP
 70
46
  9
$AUNITS
 70
0
  9
$PDMODE
 70
3
  9
$PDSIZE
 40
0.3125
  9
$HANDSEED
  5
289
  9
$TILEMODE
 70
1
  9
$MEASUREMENT
 70
1
  9
$INSUNITS
 70
4
  0
ENDSEC
  0
SECTION
  2
CLASSES
  0
CLASS
  1
ACDBDICTIONARYWDFLT
  2
AcDbDictionaryWithDefault
  3
AutoCAD 2000
 90
0
 91
1
280
0
281
0
  0
CLASS
  1
ACDBPLACEHOLDER
  2
AcDbPlaceHolder
  3
AutoCAD 2000
 90
0
 91
1
280
0
281
0
  0
CLASS
  1
LAYOUT
  2
AcDbLayout
  3
AutoCAD 2000
 90
0
 91
0
280
0
281
0
  0
ENDSEC
  0
SECTION
  2
TABLES
  0
TABLE
  2
VPORT
  5
8
100
AcDbSymbolTable
 70
2
  0
VPORT
  5
1F4
100
AcDbSymbolTableRecord
100
AcDbViewportTableRecord
  2
*ACTIVE
 70
0
 10
0.0
 20
0.0
 11
1.0
 21
1.0
 12
18.8531546401
 22
26.6637472767
 13
0.0
 23
0.0
 14
1.0
 24
1.0
 15
0.0
 25
0.0
 16
0.0
 26
0.0
 36
1.0
 17
0.0
 27
0.0
 37
0.0
 40
53.3274945534
 41
0.7070707071
 42
50.0
 43
0.0
 44
0.0
 50
0.0
 51
0.0
 71
0
 72
100
 73
1
 74
1
 75
0
 76
0
 77
0
 78
0
  0
ENDTAB
  0
TABLE
  2
LTYPE
  5
5
100
AcDbSymbolTable
 70
6
  0
LTYPE
  5
14
100
AcDbSymbolTableRecord
100
AcDbLinetypeTableRecord
  2
BYBLOCK
 70
0
  3

 72
65
 73
0
 40
0.0
  0
LTYPE
  5
15
100
AcDbSymbolTableRecord
100
AcDbLinetypeTableRecord
  2
BYLAYER
 70
0
  3

 72
65
 73
0
 40
0.0
  0
LTYPE
  5
16
100
AcDbSymbolTableRecord
100
AcDbLinetypeTableRecord
  2
CONTINUOUS
 70
64
  3
Solid line
 72
65
 73
0
 40
0.0
  0
LTYPE
  5
1F5
100
AcDbSymbolTableRecord
100
AcDbLinetypeTableRecord
  2
CENTER
 70
64
  3
____ _ ____ _ ____ _ ____ _ ____ _ ____ _ ____
 72
65
 73
4
 40
0.6
 49
0.375
 74
0
 49
-0.075
 74
0
 49
0.075
 74
0
 49
-0.075
 74
0
  0
LTYPE
  5
1F6
100
AcDbSymbolTableRecord
100
AcDbLinetypeTableRecord
  2
HIDDEN
 70
64
  3
- - - - - - - - - - - - - - - - - - - -
 72
65
 73
2
 40
0.2
 49
0.1
 74
0
 49
-0.1
 74
0
  0
LTYPE
  5
1F7
100
AcDbSymbolTableRecord
100
AcDbLinetypeTableRecord
  2
PHANTOM
 70
64
  3
_____ _ _ _____ _ _ _____ _ _ _____
 72
65
 73
6
 40
0.8
 49
0.45
 74
0
 49
-0.05
 74
0
 49
0.1
 74
0
 49
-0.05
 74
0
 49
0.1
 74
0
 49
-0.05
 74
0
  0
LTYPE
  5
1F8
100
AcDbSymbolTableRecord
100
AcDbLinetypeTableRecord
  2
DOT
 70
64
  3
. . . . . . . . . . . . . . . . . . . .
 72
65
 73
2
 40
0.2
 49
0.1
 74
0
 49
-0.1
 74
0
  0
LTYPE
  5
1F9
100
AcDbSymbolTableRecord
100
AcDbLinetypeTableRecord
  2
DASHED
 70
64
  3
- - - - - - - - - - - - - - - - - - - -
 72
65
 73
2
 40
0.2
 49
0.1
 74
0
 49
-0.1
 74
0
  0
ENDTAB
  0
TABLE
  2
LAYER
  5
2
100
AcDbSymbolTable
 70
36
  0
LAYER
  5
10
100
AcDbSymbolTableRecord
100
AcDbLayerTableRecord
  2
0
 70
0
 62
7
  6
CONTINUOUS
370
-3
390
F
  0
LAYER
  5
1FA
100
AcDbSymbolTableRecord
100
AcDbLayerTableRecord
  2
DEFAULT_1
 70
0
 62
7
  6
CENTER
370
-3
390
F
  0
LAYER
  5
1FB
100
AcDbSymbolTableRecord
100
AcDbLayerTableRecord
  2
DEFAULT_2
 70
0
 62
7
  6
HIDDEN
370
-3
390
F
  0
LAYER
  5
1FC
100
AcDbSymbolTableRecord
100
AcDbLayerTableRecord
  2
DEFAULT_3
 70
0
 62
7
  6
PHANTOM
370
-3
390
F
  0
LAYER
  5
1FD
100
AcDbSymbolTableRecord
100
AcDbLayerTableRecord
  2
00_COMPONENTS
 70
0
 62
7
  6
CONTINUOUS
370
-3
390
F
  0
LAYER
  5
1FE
100
AcDbSymbolTableRecord
100
AcDbLayerTableRecord
  2
01_1_DEFAULT_DATUMS
 70
0
 62
7
  6
CONTINUOUS
370
-3
390
F
  0
LAYER
  5
1FF
100
AcDbSymbolTableRecord
100
AcDbLayerTableRecord
  2
01_PLANES
 70
0
 62
7
  6
CONTINUOUS
370
-3
390
F
  0
LAYER
  5
200
100
AcDbSymbolTableRecord
100
AcDbLayerTableRecord
  2
02_COORD_SYS
 70
0
 62
7
  6
CONTINUOUS
370
-3
390
F
  0
LAYER
  5
201
100
AcDbSymbolTableRecord
100
AcDbLayerTableRecord
  2
03_AXES
 70
0
 62
7
  6
CONTINUOUS
370
-3
390
F
  0
LAYER
  5
202
100
AcDbSymbolTableRecord
100
AcDbLayerTableRecord
  2
04_POINTS
 70
0
 62
7
  6
CONTINUOUS
370
-3
390
F
  0
LAYER
  5
203
100
AcDbSymbolTableRecord
100
AcDbLayerTableRecord
  2
05_CURVES
 70
0
 62
7
  6
CONTINUOUS
370
-3
390
F
  0
LAYER
  5
204
100
AcDbSymbolTableRecord
100
AcDbLayerTableRecord
  2
06_SURFS
 70
0
 62
7
  6
CONTINUOUS
370
-3
390
F
  0
LAYER
  5
205
100
AcDbSymbolTableRecord
100
AcDbLayerTableRecord
  2
07_COSMETICS
 70
0
 62
7
  6
CONTINUOUS
370
-3
390
F
  0
LAYER
  5
206
100
AcDbSymbolTableRecord
100
AcDbLayerTableRecord
  2
10_NOTES
 70
0
 62
7
  6
CONTINUOUS
370
-3
390
F
  0
LAYER
  5
207
100
AcDbSymbolTableRecord
100
AcDbLayerTableRecord
  2
11_NOTES_PUB
 70
0
 62
7
  6
CONTINUOUS
370
-3
390
F
  0
LAYER
  5
208
100
AcDbSymbolTableRecord
100
AcDbLayerTableRecord
  2
13_REF_GTOL
 70
0
 62
7
  6
CONTINUOUS
370
-3
390
F
  0
LAYER
  5
209
100
AcDbSymbolTableRecord
100
AcDbLayerTableRecord
  2
16_MISC
 70
0
 62
7
  6
CONTINUOUS
370
-3
390
F
  0
LAYER
  5
20A
100
AcDbSymbolTableRecord
100
AcDbLayerTableRecord
  2
17_NO_PRINT
 70
0
 62
7
  6
CONTINUOUS
370
-3
390
F
  0
LAYER
  5
20B
100
AcDbSymbolTableRecord
100
AcDbLayerTableRecord
  2
18_DATUM_CAMS_JOINTS
 70
0
 62
7
  6
CONTINUOUS
370
-3
390
F
  0
LAYER
  5
20C
100
AcDbSymbolTableRecord
100
AcDbLayerTableRecord
  2
19_DATUM_FUNCTIONAL
 70
0
 62
7
  6
CONTINUOUS
370
-3
390
F
  0
LAYER
  5
20D
100
AcDbSymbolTableRecord
100
AcDbLayerTableRecord
  2
20_DATUM_KINEMATIC_SCHEME
 70
0
 62
7
  6
CONTINUOUS
370
-3
390
F
  0
ENDTAB
  0
TABLE
  2
STYLE
  5
3
100
AcDbSymbolTable
 70
1
  0
STYLE
  5
11
100
AcDbSymbolTableRecord
100
AcDbTextStyleTableRecord
  2
STANDARD
 70
0
 40
0.0
 41
1.0
 50
0.0
 71
0
 42
0.2
  3
ARIAL.TTF
  4

  0
STYLE
  5
20E
100
AcDbSymbolTableRecord
100
AcDbTextStyleTableRecord
  2
TEXTSTYLE_1
 70
0
 40
0.0
 41
0.8
 50
0.0
 71
0
 42
0.2
  3
gdt
  4

  0
ENDTAB
  0
TABLE
  2
VIEW
  5
6
100
AcDbSymbolTable
 70
0
  0
ENDTAB
  0
TABLE
  2
UCS
  5
7
100
AcDbSymbolTable
 70
0
  0
ENDTAB
  0
TABLE
  2
APPID
  5
9
100
AcDbSymbolTable
 70
1
  0
APPID
  5
20F
100
AcDbSymbolTableRecord
100
AcDbRegAppTableRecord
  2
ACAD
 70
0
  0
ENDTAB
  0
TABLE
  2
BLOCK_RECORD
  5
1
100
AcDbSymbolTable
 70
0
  0
BLOCK_RECORD
  5
210
100
AcDbSymbolTableRecord
100
AcDbBlockTableRecord
  2
*Model_Space
  0
BLOCK_RECORD
  5
211
100
AcDbSymbolTableRecord
100
AcDbBlockTableRecord
  2
*Paper_Space
  0
BLOCK_RECORD
  5
212
100
AcDbSymbolTableRecord
100
AcDbBlockTableRecord
  2
_FILLED
  0
ENDTAB
  0
TABLE
  2
DIMSTYLE
  5
A
100
AcDbSymbolTable
 70
1
100
AcDbDimStyleTable
 71
0
  0
DIMSTYLE
105
213
100
AcDbSymbolTableRecord
100
AcDbDimStyleTableRecord
  2
STANDARD
 70
0
  3

  4

 40
1.0
 41
0.4488846343
 42
1.0
 43
0.38
 44
1.0
 45
0.0
 46
0.0
 47
0.01
 48
0.01
140
0.628438488
141
0.09
142
0.0
143
25.4
144
1.0
145
0.0
146
1.0
147
0.625
 71
1
 72
0
 73
0
 74
0
 75
0
 76
0
 77
1
 78
8
 79
2
170
0
171
1
172
0
173
0
174
0
175
0
176
0
177
0
178
0
270
2
179
2
271
2
272
2
273
2
274
2
275
0
280
0
281
0
282
0
283
1
284
8
285
0
286
0
287
3
288
0
340
11
278
46
341
212
342
212
343
212
344
212
  0
ENDTAB
  0
ENDSEC
  0
SECTION
  2
BLOCKS
  0
BLOCK
  5
20
100
AcDbEntity
  8
0
100
AcDbBlockBegin
  2
*Model_Space
 70
0
 10
0.0
 20
0.0
 30
0.0
  3
*Model_Space
  1

  0
ENDBLK
  5
21
100
AcDbEntity
  8
0
100
AcDbBlockEnd
  0
BLOCK
  5
1C
100
AcDbEntity
  8
0
100
AcDbBlockBegin
  2
*Paper_Space
 70
0
 10
0.0
 20
0.0
 30
0.0
  3
*Paper_Space
  1

  0
ENDBLK
  5
1D
100
AcDbEntity
  8
0
100
AcDbBlockEnd
  0
BLOCK
  5
214
100
AcDbEntity
  8
0
100
AcDbBlockBegin
  2
_FILLED
 70
64
 10
0.0
 20
0.0
  3
_FILLED
  1

  0
SOLID
  5
215
100
AcDbEntity
  8
0
  6
BYBLOCK
 62
0
100
AcDbTrace
 10
0.0
 20
0.0
 11
-1.0
 21
0.25
 12
-1.0
 22
-0.25
 13
-1.0
 23
-0.25
  0
ENDBLK
  5
216
100
AcDbEntity
  8
0
  6
BYBLOCK
 62
0
100
AcDbBlockEnd
  0
ENDSEC
  0
SECTION
  2
ENTITIES
  0
LINE
  5
217
100
AcDbEntity
  8
0
100
AcDbLine
 62
7
  6
BYLAYER
 10
16.1592439647
 20
3.8237335168
 11
22.0592439647
 21
3.8237335168
  0
LINE
  5
218
100
AcDbEntity
  8
0
100
AcDbLine
 62
7
  6
BYLAYER
 10
22.8592439647
 20
5.6079440431
 11
20.0749848589
 21
5.6079440431
  0
LINE
  5
219
100
AcDbEntity
  8
0
100
AcDbLine
 62
7
  6
BYLAYER
 10
17.3424893683
 20
5.6079440431
 11
15.3592439647
 21
5.6079440431
  0
LINE
  5
21A
100
AcDbEntity
  8
0
100
AcDbLine
 62
7
  6
BYLAYER
 10
21.0615695428
 20
6.6578170242
 11
21.3358411291
 21
6.6578170242
  0
LINE
  5
21B
100
AcDbEntity
  8
0
100
AcDbLine
 62
7
  6
BYLAYER
 10
12.4592439647
 20
8.7079440431
 11
16.1998956234
 21
6.9742536678
  0
LINE
  5
21C
100
AcDbEntity
  8
0
100
AcDbLine
 62
7
  6
BYLAYER
 10
10.4592439647
 20
8.7079440431
 11
12.4592439647
 21
8.7079440431
  0
LINE
  5
21D
100
AcDbEntity
  8
0
100
AcDbLine
 62
7
  6
BYLAYER
 10
25.7592439647
 20
9.7079440431
 11
27.7592439647
 21
9.7079440431
  0
LINE
  5
21E
100
AcDbEntity
  8
0
100
AcDbLine
 62
7
  6
BYLAYER
 10
4.1592439647
 20
10.2079440431
 11
10.4592439647
 21
10.2079440431
  0
LINE
  5
21F
100
AcDbEntity
  8
0
100
AcDbLine
 62
7
  6
BYLAYER
 10
27.7592439647
 20
10.2079440431
 11
34.0592439647
 21
10.2079440431
  0
LINE
  5
220
100
AcDbEntity
  8
0
100
AcDbLine
 62
7
  6
BYLAYER
 10
4.1342439647
 20
10.4079440431
 11
13.9342439647
 21
10.4079440431
  0
LINE
  5
221
100
AcDbEntity
  8
0
100
AcDbLine
 62
7
  6
BYLAYER
 10
24.2942439647
 20
10.4079440431
 11
34.0942439647
 21
10.4079440431
  0
LINE
  5
222
100
AcDbEntity
  8
0
100
AcDbLine
 62
7
  6
BYLAYER
 10
4.1342439647
 20
10.4079440431
 11
4.1342439647
 21
42.4079440431
  0
LINE
  5
223
100
AcDbEntity
  8
0
100
AcDbLine
 62
7
  6
BYLAYER
 10
4.1592439647
 20
10.4079440431
 11
4.1592439647
 21
10.2079440431
  0
LINE
  5
224
100
AcDbEntity
  8
0
100
AcDbLine
 62
7
  6
BYLAYER
 10
4.1592439647
 20
42.4079440431
 11
4.1592439647
 21
42.9079440431
  0
LINE
  5
225
100
AcDbEntity
  8
0
100
AcDbLine
 62
7
  6
BYLAYER
 10
4.4442439647
 20
42.9079440431
 11
4.4442439647
 21
49.3079440431
  0
LINE
  5
226
100
AcDbEntity
  8
0
100
AcDbLine
 62
7
  6
BYLAYER
 10
13.9342439647
 20
10.9879440431
 11
17.7172397324
 21
10.9879440431
  0
LINE
  5
227
100
AcDbEntity
  8
0
100
AcDbLine
 62
7
  6
BYLAYER
 10
20.3739653747
 20
10.9879440431
 11
24.2942439647
 21
10.9879440431
  0
LINE
  5
228
100
AcDbEntity
  8
0
100
AcDbLine
 62
7
  6
BYLAYER
 10
4.1342439647
 20
11.9079440431
 11
13.9342439647
 21
11.9079440431
  0
LINE
  5
229
100
AcDbEntity
  8
0
100
AcDbLine
 62
7
  6
BYLAYER
 10
24.2942439647
 20
11.9079440431
 11
34.0942439647
 21
11.9079440431
  0
LINE
  5
22A
100
AcDbEntity
  8
0
100
AcDbLine
 62
7
  6
BYLAYER
 10
24.2942439647
 20
13.1079440431
 11
13.9342439647
 21
13.1079440431
  0
LINE
  5
22B
100
AcDbEntity
  8
0
100
AcDbLine
 62
7
  6
BYLAYER
 10
19.5656742514
 20
11.3958798089
 11
20.3739653747
 21
10.9879440431
  0
LINE
  5
22C
100
AcDbEntity
  8
0
100
AcDbLine
 62
7
  6
BYLAYER
 10
6.9442439647
 20
42.9079440431
 11
6.9442439647
 21
49.3079440431
  0
LINE
  5
22D
100
AcDbEntity
  8
0
100
AcDbLine
 62
7
  6
BYLAYER
 10
24.2942439647
 20
14.3079440431
 11
13.9342439647
 21
14.3079440431
  0
LINE
  5
22E
100
AcDbEntity
  8
0
100
AcDbLine
 62
7
  6
BYLAYER
 10
10.4592439647
 20
10.2079440431
 11
10.4592439647
 21
8.7079440431
  0
LINE
  5
22F
100
AcDbEntity
  8
0
100
AcDbLine
 62
7
  6
BYLAYER
 10
12.3592439647
 20
8.7079440431
 11
12.3592439647
 21
7.6237335168
  0
LWPOLYLINE
  5
230
100
AcDbEntity
  8
0
100
AcDbPolyline
 62
7
  6
BYLAYER
 90
4
 70
0
 10
21.3722468404
 20
8.915688699
 10
20.8490123438
 20
9.9937505638
 10
19.9008466996
 20
10.7433436923
 10
18.7082179249
 20
11.0133572772
  0
LINE
  5
231
100
AcDbEntity
  8
0
100
AcDbLine
 62
7
  6
BYLAYER
 10
13.9342439647
 20
10.4079440431
 11
13.9342439647
 21
42.4079440431
  0
LINE
  5
232
100
AcDbEntity
  8
0
100
AcDbLine
 62
7
  6
BYLAYER
 10
14.8592439647
 20
6.1079440431
 11
14.8592439647
 21
7.5956092736
  0
LINE
  5
233
100
AcDbEntity
  8
0
100
AcDbLine
 62
7
  6
BYLAYER
 10
15.9772406878
 20
8.3238697208
 11
15.9772406878
 21
7.8897492766
  0
LINE
  5
234
100
AcDbEntity
  8
0
100
AcDbLine
 62
7
  6
BYLAYER
 10
20.7082179249
 20
10.5646062428
 11
20.7082179249
 21
10.1050586771
  0
LINE
  5
235
100
AcDbEntity
  8
0
100
AcDbLine
 62
7
  6
BYLAYER
 10
21.439186859
 20
8.323869721
 11
21.3722468404
 21
8.915688699
  0
LINE
  5
236
100
AcDbEntity
  8
0
100
AcDbLine
 62
7
  6
BYLAYER
 10
21.439195162
 20
8.3238697208
 11
21.439195162
 21
7.8897492766
  0
LINE
  5
237
100
AcDbEntity
  8
0
100
AcDbLine
 62
7
  6
BYLAYER
 10
23.3592439647
 20
7.5956092574
 11
23.3592439647
 21
6.1079440431
  0
LINE
  5
238
100
AcDbEntity
  8
0
100
AcDbLine
 62
7
  6
BYLAYER
 10
24.2942439647
 20
10.4079440431
 11
24.2942439647
 21
42.4079440431
  0
LINE
  5
239
100
AcDbEntity
  8
0
100
AcDbLine
 62
7
  6
BYLAYER
 10
25.7592439647
 20
8.7079440431
 11
25.7592439647
 21
9.7079440431
  0
LINE
  5
23A
100
AcDbEntity
  8
0
100
AcDbLine
 62
7
  6
BYLAYER
 10
25.8592439647
 20
7.6237335168
 11
25.8592439647
 21
9.7079440431
  0
LINE
  5
23B
100
AcDbEntity
  8
0
100
AcDbLine
 62
7
  6
BYLAYER
 10
27.7592439647
 20
9.7079440431
 11
27.7592439647
 21
10.2079440431
  0
LINE
  5
23C
100
AcDbEntity
  8
0
100
AcDbLine
 62
7
  6
BYLAYER
 10
13.9342439647
 20
36.6079440431
 11
14.4832305622
 21
36.6079440431
  0
LINE
  5
23D
100
AcDbEntity
  8
0
100
AcDbLine
 62
7
  6
BYLAYER
 10
23.7352573672
 20
36.6079440431
 11
24.2942439647
 21
36.6079440431
  0
LINE
  5
23E
100
AcDbEntity
  8
0
100
AcDbLine
 62
7
  6
BYLAYER
 10
31.2742439647
 20
42.9079440431
 11
31.2742439647
 21
49.3079440431
  0
LINE
  5
23F
100
AcDbEntity
  8
0
100
AcDbLine
 62
7
  6
BYLAYER
 10
33.7742439647
 20
42.9079440431
 11
33.7742439647
 21
49.3079440431
  0
LINE
  5
240
100
AcDbEntity
  8
0
100
AcDbLine
 62
7
  6
BYLAYER
 10
34.0942439647
 20
40.9079440431
 11
24.2942439647
 21
40.9079440431
  0
LINE
  5
241
100
AcDbEntity
  8
0
100
AcDbLine
 62
7
  6
BYLAYER
 10
13.9342439647
 20
40.9079440431
 11
4.1342439647
 21
40.9079440431
  0
LINE
  5
242
100
AcDbEntity
  8
0
100
AcDbLine
 62
7
  6
BYLAYER
 10
34.0592439647
 20
42.9079440431
 11
34.0592439647
 21
42.4079440431
  0
LINE
  5
243
100
AcDbEntity
  8
0
100
AcDbLine
 62
7
  6
BYLAYER
 10
34.0592439647
 20
10.2079440431
 11
34.0592439647
 21
10.4079440431
  0
LINE
  5
244
100
AcDbEntity
  8
0
100
AcDbLine
 62
7
  6
BYLAYER
 10
34.0942439647
 20
10.4079440431
 11
34.0942439647
 21
42.4079440431
  0
LINE
  5
245
100
AcDbEntity
  8
0
100
AcDbLine
 62
7
  6
BYLAYER
 10
4.1342439647
 20
42.4079440431
 11
13.9342439647
 21
42.4079440431
  0
LINE
  5
246
100
AcDbEntity
  8
0
100
AcDbLine
 62
7
  6
BYLAYER
 10
24.2942439647
 20
42.4079440431
 11
34.0942439647
 21
42.4079440431
  0
LINE
  5
247
100
AcDbEntity
  8
0
100
AcDbLine
 62
7
  6
BYLAYER
 10
34.0592439647
 20
42.9079440431
 11
4.1592439647
 21
42.9079440431
  0
LINE
  5
248
100
AcDbEntity
  8
0
100
AcDbLine
 62
7
  6
BYLAYER
 10
33.7742439647
 20
44.3079440431
 11
31.2742439647
 21
44.3079440431
  0
LINE
  5
249
100
AcDbEntity
  8
0
100
AcDbLine
 62
7
  6
BYLAYER
 10
6.9442439647
 20
44.3079440431
 11
4.4442439647
 21
44.3079440431
  0
LINE
  5
24A
100
AcDbEntity
  8
0
100
AcDbLine
 62
7
  6
BYLAYER
 10
20.9819672754
 20
6.4938061087
 11
25.7592439647
 21
8.7079440431
  0
LINE
  5
24B
100
AcDbEntity
  8
0
100
AcDbLine
 62
7
  6
BYLAYER
 10
4.4442439647
 20
49.3079440431
 11
6.9442439647
 21
49.3079440431
  0
LINE
  5
24C
100
AcDbEntity
  8
0
100
AcDbLine
 62
7
  6
BYLAYER
 10
31.2742439647
 20
49.3079440431
 11
33.7742439647
 21
49.3079440431
  0
ARC
  5
24D
100
AcDbEntity
  8
0
100
AcDbCircle
 62
7
  6
BYLAYER
 10
19.1092439647
 20
26.4079440431
 40
11.2
100
AcDbArc
 50
62.4226008059
 51
117.5197003024
  0
ARC
  5
24E
100
AcDbEntity
  8
0
100
AcDbCircle
 62
7
  6
BYLAYER
 10
19.1092439647
 20
26.4079440431
 40
11.2
100
AcDbArc
 50
244.7208064486
 51
295.3357697036
  0
ARC
  5
24F
100
AcDbEntity
  8
0
100
AcDbCircle
 62
7
  6
BYLAYER
 10
19.0842439647
 20
26.4079440431
 40
10.875
100
AcDbArc
 50
60.8581517312
 51
118.7875562751
  0
ARC
  5
250
100
AcDbEntity
  8
0
100
AcDbCircle
 62
7
  6
BYLAYER
 10
19.0842439647
 20
26.4079440431
 40
10.875
100
AcDbArc
 50
241.2245029945
 51
299.1544703484
  0
ARC
  5
251
100
AcDbEntity
  8
0
100
AcDbCircle
 62
7
  6
BYLAYER
 10
19.0842439647
 20
26.4079440431
 40
10.5
100
AcDbArc
 50
59.7241126448
 51
119.9116592911
  0
ARC
  5
252
100
AcDbEntity
  8
0
100
AcDbCircle
 62
7
  6
BYLAYER
 10
19.0842439647
 20
26.4079440431
 40
10.5
100
AcDbArc
 50
240.102126046
 51
300.2900689139
  0
ARC
  5
253
100
AcDbEntity
  8
0
100
AcDbCircle
 62
7
  6
BYLAYER
 10
19.0842439647
 20
26.4079440431
 40
9.5
100
AcDbArc
 50
57.9947374073
 51
121.6259089614
  0
ARC
  5
254
100
AcDbEntity
  8
0
100
AcDbCircle
 62
7
  6
BYLAYER
 10
19.0842439647
 20
26.4079440431
 40
9.5
100
AcDbArc
 50
238.3966490959
 51
302.0283248295
  0
ARC
  5
255
100
AcDbEntity
  8
0
100
AcDbCircle
 62
7
  6
BYLAYER
 10
16.1592439647
 20
7.6237335168
 40
3.8
100
AcDbArc
 50
180.0
 51
270.0
  0
ARC
  5
256
100
AcDbEntity
  8
0
100
AcDbCircle
 62
7
  6
BYLAYER
 10
22.0592439647
 20
7.6237335168
 40
3.8
100
AcDbArc
 50
270.0
 51
360.0
  0
ARC
  5
257
100
AcDbEntity
  8
0
100
AcDbCircle
 62
7
  6
BYLAYER
 10
8.9446965959
 20
17.1543495329
 40
2.9103734366
100
AcDbArc
 50
163.9308856604
 51
171.2973901598
  0
ARC
  5
258
100
AcDbEntity
  8
0
100
AcDbCircle
 62
7
  6
BYLAYER
 10
29.1046964444
 20
17.1543495808
 40
2.9103732786
100
AcDbArc
 50
163.9308927246
 51
171.2974795351
  0
ARC
  5
259
100
AcDbEntity
  8
0
100
AcDbCircle
 62
7
  6
BYLAYER
 10
29.2838651764
 20
17.1543761764
 40
2.9102966867
100
AcDbArc
 50
8.3154480112
 51
16.061912945
  0
ARC
  5
25A
100
AcDbEntity
  8
0
100
AcDbCircle
 62
7
  6
BYLAYER
 10
9.1238651865
 20
17.1543761838
 40
2.9102966753
100
AcDbArc
 50
8.3154023251
 51
16.0619096756
  0
ARC
  5
25B
100
AcDbEntity
  8
0
100
AcDbCircle
 62
7
  6
BYLAYER
 10
29.3037026797
 20
35.2466632249
 40
2.8905377132
100
AcDbArc
 50
354.7764738291
 51
1.5046505793
  0
ARC
  5
25C
100
AcDbEntity
  8
0
100
AcDbCircle
 62
7
  6
BYLAYER
 10
8.924350968
 20
35.2466477347
 40
2.8901045143
100
AcDbArc
 50
178.7430945103
 51
185.2206874337
  0
ARC
  5
25D
100
AcDbEntity
  8
0
100
AcDbCircle
 62
7
  6
BYLAYER
 10
9.1509156282
 20
35.2276168223
 40
2.8833279417
100
AcDbArc
 50
345.9996721511
 51
348.9492020855
  0
ARC
  5
25E
100
AcDbEntity
  8
0
100
AcDbCircle
 62
7
  6
BYLAYER
 10
29.0769963064
 20
35.2274346689
 40
2.8827261085
100
AcDbArc
 50
191.1168531521
 51
194.0065600549
  0
ARC
  5
25F
100
AcDbEntity
  8
0
100
AcDbCircle
 62
7
  6
BYLAYER
 10
18.7078691065
 20
8.2448909437
 40
2.7684663555
100
AcDbArc
 50
89.9927809043
 51
109.6902358373
  0
ARC
  5
260
100
AcDbEntity
  8
0
100
AcDbCircle
 62
7
  6
BYLAYER
 10
18.7049148778
 20
8.2550495619
 40
2.7579064243
100
AcDbArc
 50
109.7035589747
 51
117.4717672612
  0
ARC
  5
261
100
AcDbEntity
  8
0
100
AcDbCircle
 62
7
  6
BYLAYER
 10
19.1007051698
 20
9.255069363
 40
2.208142168
100
AcDbArc
 50
139.0608667034
 51
140.3236174854
  0
ARC
  5
262
100
AcDbEntity
  8
0
100
AcDbCircle
 62
7
  6
BYLAYER
 10
19.1126762927
 20
9.299398714
 40
2.1440790562
100
AcDbArc
 50
110.440992072
 51
137.585052297
  0
ARC
  5
263
100
AcDbEntity
  8
0
100
AcDbCircle
 62
7
  6
BYLAYER
 10
19.0384581837
 20
9.3452521011
 40
2.1171717905
100
AcDbArc
 50
0.357080081
 51
50.8889177094
  0
ARC
  5
264
100
AcDbEntity
  8
0
100
AcDbCircle
 62
7
  6
BYLAYER
 10
19.1091031177
 20
9.3447382368
 40
2.1003319186
100
AcDbArc
 50
77.4003238458
 51
110.7816141345
  0
ARC
  5
265
100
AcDbEntity
  8
0
100
AcDbCircle
 62
7
  6
BYLAYER
 10
15.3592439647
 20
6.1079440431
 40
0.5
100
AcDbArc
 50
180.0
 51
270.0
  0
ARC
  5
266
100
AcDbEntity
  8
0
100
AcDbCircle
 62
7
  6
BYLAYER
 10
22.8592439647
 20
6.1079440431
 40
0.5
100
AcDbArc
 50
270.0
 51
360.0
  0
SPLINE
  5
267
100
AcDbEntity
  8
0
100
AcDbSpline
 62
7
  6
BYLAYER
 70
0
 71
3
 72
15
 73
11
 74
0
 42
0.0000001
 43
0.0000001
 44
0.0000000001
 40
0.0
 40
0.0
 40
0.0
 40
0.0
 40
0.125002348
 40
0.2500067882
 40
0.375009345
 40
0.5000077649
 40
0.6250106692
 40
0.7500045406
 40
0.8750182301
 40
1.0
 40
1.0
 40
1.0
 40
1.0
 10
12.0342436425
 20
18.0215981643
 30
0.0
 10
12.0342385119
 20
17.8240460074
 30
0.0
 10
11.9961731057
 20
17.4278905516
 30
0.0
 10
11.8267355833
 20
16.8563108088
 30
0.0
 10
11.550700458
 20
16.3276199526
 30
0.0
 10
11.1776465663
 20
15.8622617059
 30
0.0
 10
10.7209435242
 20
15.4785819475
 30
0.0
 10
10.1975716094
 20
15.1921450587
 30
0.0
 10
9.6279919082
 20
15.0152456661
 30
0.0
 10
9.2317636005
 20
14.9753183271
 30
0.0
 10
9.0342439647
 20
14.9753183271
 30
0.0
  0
SPLINE
  5
268
100
AcDbEntity
  8
0
100
AcDbSpline
 62
7
  6
BYLAYER
 70
0
 71
3
 72
15
 73
11
 74
0
 42
0.0000001
 43
0.0000001
 44
0.0000000001
 40
0.0
 40
0.0
 40
0.0
 40
0.0
 40
0.125002766
 40
0.2500073064
 40
0.3750107874
 40
0.5000090646
 40
0.625009699
 40
0.750006414
 40
0.8750133487
 40
1.0
 40
1.0
 40
1.0
 40
1.0
 10
11.9865624786
 20
34.5088144852
 30
0.0
 10
12.0029029014
 20
34.7157435678
 30
0.0
 10
11.9940205515
 20
35.1340858581
 30
0.0
 10
11.8560686322
 20
35.7454529413
 30
0.0
 10
11.5982805596
 20
36.3170580479
 30
0.0
 10
11.2300551985
 20
36.8246418469
 30
0.0
 10
10.7656017901
 20
37.2461012921
 30
0.0
 10
10.2237692104
 20
37.5623033509
 30
0.0
 10
9.6280179058
 20
37.7581919458
 30
0.0
 10
9.2115504463
 20
37.8023935167
 30
0.0
 10
9.0040039553
 20
37.8023720324
 30
0.0
  0
SPLINE
  5
269
100
AcDbEntity
  8
0
100
AcDbSpline
 62
7
  6
BYLAYER
 70
0
 71
3
 72
15
 73
11
 74
0
 42
0.0000001
 43
0.0000001
 44
0.0000000001
 40
0.0
 40
0.0
 40
0.0
 40
0.0
 40
0.1240596463
 40
0.2482623243
 40
0.3727297926
 40
0.4975401336
 40
0.6227297565
 40
0.748255612
 40
0.8740726202
 40
1.0
 40
1.0
 40
1.0
 40
1.0
 10
21.4391863557
 20
7.8897492765
 30
0.0
 10
21.4391844824
 20
7.7139804938
 30
0.0
 10
21.4039273168
 20
7.3612377191
 30
0.0
 10
21.2473500697
 20
6.8534087901
 30
0.0
 10
20.9931509536
 20
6.3853184192
 30
0.0
 10
20.6511883833
 20
5.9751968372
 30
0.0
 10
20.2346396842
 20
5.6387596314
 30
0.0
 10
19.7595093899
 20
5.3887522882
 30
0.0
 10
19.2442616939
 20
5.2349170863
 30
0.0
 10
18.8866329287
 20
5.2002617202
 30
0.0
 10
18.7082179249
 20
5.2002617202
 30
0.0
  0
SPLINE
  5
26A
100
AcDbEntity
  8
0
100
AcDbSpline
 62
7
  6
BYLAYER
 70
0
 71
3
 72
15
 73
11
 74
0
 42
0.0000001
 43
0.0000001
 44
0.0000000001
 40
0.0
 40
0.0
 40
0.0
 40
0.0
 40
0.125002348
 40
0.2500067881
 40
0.3750093449
 40
0.5000077648
 40
0.6250106691
 40
0.7500045407
 40
0.87501823
 40
1.0
 40
1.0
 40
1.0
 40
1.0
 10
32.1942436425
 20
18.0215981643
 30
0.0
 10
32.1942385123
 20
17.8240460074
 30
0.0
 10
32.1561731054
 20
17.4278905518
 30
0.0
 10
31.9867355834
 20
16.856310809
 30
0.0
 10
31.7107004581
 20
16.3276199529
 30
0.0
 10
31.3376465666
 20
15.862261706
 30
0.0
 10
30.8809435242
 20
15.4785819475
 30
0.0
 10
30.3575716094
 20
15.1921450587
 30
0.0
 10
29.7879919081
 20
15.015245666
 30
0.0
 10
29.3917636005
 20
14.9753183271
 30
0.0
 10
29.1942439647
 20
14.9753183271
 30
0.0
  0
SPLINE
  5
26B
100
AcDbEntity
  8
0
100
AcDbSpline
 62
7
  6
BYLAYER
 70
0
 71
3
 72
15
 73
11
 74
0
 42
0.0000001
 43
0.0000001
 44
0.0000000001
 40
0.0
 40
0.0
 40
0.0
 40
0.0
 40
0.1250004492
 40
0.2500028546
 40
0.3750039108
 40
0.5000025298
 40
0.6250084989
 40
0.7499996887
 40
0.8750227097
 40
1.0
 40
1.0
 40
1.0
 40
1.0
 10
32.224183728
 20
34.9808135118
 30
0.0
 10
32.2093643208
 20
35.1685452822
 30
0.0
 10
32.1454801066
 20
35.542206904
 30
0.0
 10
31.9500143843
 20
36.0754538292
 30
0.0
 10
31.6607824297
 20
36.5644877739
 30
0.0
 10
31.2867757266
 20
36.9922268686
 30
0.0
 10
30.8399624889
 20
37.3433024841
 30
0.0
 10
30.3352388687
 20
37.6047034144
 30
0.0
 10
29.7903716409
 20
37.7659077993
 30
0.0
 10
29.412758989
 20
37.8023450987
 30
0.0
 10
29.2244781008
 20
37.8023649061
 30
0.0
  0
SPLINE
  5
26C
100
AcDbEntity
  8
0
100
AcDbSpline
 62
7
  6
BYLAYER
 70
0
 71
3
 72
15
 73
11
 74
0
 42
0.0000001
 43
0.0000001
 44
0.0000000001
 40
0.0
 40
0.0
 40
0.0
 40
0.0
 40
0.1249849713
 40
0.2499955877
 40
0.3749865282
 40
0.4999850676
 40
0.6249817016
 40
0.7499854755
 40
0.8749929291
 40
1.0
 40
1.0
 40
1.0
 40
1.0
 10
9.0342439647
 20
14.9753183271
 30
0.0
 10
8.8367192796
 20
14.9753183271
 30
0.0
 10
8.4404904506
 20
15.0152454371
 30
0.0
 10
7.8709164104
 20
15.1921463947
 30
0.0
 10
7.3475559356
 20
15.4785694195
 30
0.0
 10
6.8908627985
 20
15.862238843
 30
0.0
 10
6.5178107576
 20
16.3275877599
 30
0.0
 10
6.2417670245
 20
16.8562794825
 30
0.0
 10
6.0723268215
 20
17.4278711435
 30
0.0
 10
6.0342391562
 20
17.8240385502
 30
0.0
 10
6.0342442869
 20
18.0215981613
 30
0.0
  0
SPLINE
  5
26D
100
AcDbEntity
  8
0
100
AcDbSpline
 62
7
  6
BYLAYER
 70
0
 71
3
 72
15
 73
11
 74
0
 42
0.0000001
 43
0.0000001
 44
0.0000000001
 40
0.0
 40
0.0
 40
0.0
 40
0.0
 40
0.124981568
 40
0.250001206
 40
0.3749887993
 40
0.4999892299
 40
0.6249844847
 40
0.7499867907
 40
0.8749933111
 40
1.0
 40
1.0
 40
1.0
 40
1.0
 10
9.0040039553
 20
37.8023720324
 30
0.0
 10
8.8157167984
 20
37.8023525417
 30
0.0
 10
8.4381035946
 20
37.7659049591
 30
0.0
 10
7.8932429595
 20
37.6046989921
 30
0.0
 10
7.3885344889
 20
37.3433107528
 30
0.0
 10
6.9417371922
 20
36.9922463964
 30
0.0
 10
6.5677347022
 20
36.5645204011
 30
0.0
 10
6.2784906174
 20
36.0754914517
 30
0.0
 10
6.0830050487
 20
35.5422320908
 30
0.0
 10
6.0191268521
 20
35.1685542078
 30
0.0
 10
6.0043016801
 20
34.9808136392
 30
0.0
  0
SPLINE
  5
26E
100
AcDbEntity
  8
0
100
AcDbSpline
 62
7
  6
BYLAYER
 70
0
 71
3
 72
15
 73
11
 74
0
 42
0.0000001
 43
0.0000001
 44
0.0000000001
 40
0.0
 40
0.0
 40
0.0
 40
0.0
 40
0.1249903927
 40
0.2499944217
 40
0.374988041
 40
0.499984036
 40
0.6249808244
 40
0.7499852954
 40
0.8749924857
 40
1.0
 40
1.0
 40
1.0
 40
1.0
 10
29.2244781008
 20
37.8023649061
 30
0.0
 10
29.0169255865
 20
37.802386741
 30
0.0
 10
28.6004558208
 20
37.7581924173
 30
0.0
 10
28.0047112125
 20
37.5622968824
 30
0.0
 10
27.4628920564
 20
37.2461094719
 30
0.0
 10
26.9984486429
 20
36.8246629351
 30
0.0
 10
26.6302212521
 20
36.3170919601
 30
0.0
 10
26.3724285885
 20
35.7454855704
 30
0.0
 10
26.2344690525
 20
35.1341055149
 30
0.0
 10
26.2255925148
 20
34.7157518065
 30
0.0
 10
26.2419279766
 20
34.5088146128
 30
0.0
  0
SPLINE
  5
26F
100
AcDbEntity
  8
0
100
AcDbSpline
 62
7
  6
BYLAYER
 70
0
 71
3
 72
15
 73
11
 74
0
 42
0.0000001
 43
0.0000001
 44
0.0000000001
 40
0.0
 40
0.0
 40
0.0
 40
0.0
 40
0.1259275286
 40
0.2517416912
 40
0.3772655575
 40
0.5024531099
 40
0.6272633907
 40
0.7517327928
 40
0.8759382389
 40
1.0
 40
1.0
 40
1.0
 40
1.0
 10
18.7082179249
 20
5.2002617202
 30
0.0
 10
18.5298026774
 20
5.2002617202
 30
0.0
 10
18.1721774949
 20
5.2349156707
 30
0.0
 10
17.6569363257
 20
5.3887488698
 30
0.0
 10
17.1818119926
 20
5.6387463511
 30
0.0
 10
16.765265562
 20
5.9751773662
 30
0.0
 10
16.4232997712
 20
6.3852957925
 30
0.0
 10
16.1690933246
 20
6.8533902681
 30
0.0
 10
16.0125125381
 20
7.3612277248
 30
0.0
 10
15.9772476208
 20
7.7139774654
 30
0.0
 10
15.9772494942
 20
7.8897492768
 30
0.0
  0
SPLINE
  5
270
100
AcDbEntity
  8
0
100
AcDbSpline
 62
7
  6
BYLAYER
 70
0
 71
3
 72
11
 73
7
 74
0
 42
0.0000001
 43
0.0000001
 44
0.0000000001
 40
0.0
 40
0.0
 40
0.0
 40
0.0
 40
0.2509929013
 40
0.5012016233
 40
0.7507725796
 40
1.0
 40
1.0
 40
1.0
 40
1.0
 10
16.9314320948
 20
10.3663118031
 30
0.0
 10
16.7829156407
 20
10.2410084129
 30
0.0
 10
16.5123628401
 20
9.957929616
 30
0.0
 10
16.2082712374
 20
9.4573944512
 30
0.0
 10
16.0197867992
 20
8.9042948173
 30
0.0
 10
15.9772599768
 20
8.5168172746
 30
0.0
 10
15.9772492895
 20
8.3238697038
 30
0.0
  0
SPLINE
  5
271
100
AcDbEntity
  8
0
100
AcDbSpline
 62
7
  6
BYLAYER
 70
0
 71
3
 72
15
 73
11
 74
0
 42
0.0000001
 43
0.0000001
 44
0.0000000001
 40
0.0
 40
0.0
 40
0.0
 40
0.0
 40
0.1249849712
 40
0.2499955877
 40
0.3749865282
 40
0.4999850675
 40
0.6249817016
 40
0.7499854755
 40
0.8749929291
 40
1.0
 40
1.0
 40
1.0
 40
1.0
 10
29.1942439647
 20
14.9753183271
 30
0.0
 10
28.9967192797
 20
14.9753183271
 30
0.0
 10
28.6004904507
 20
15.0152454373
 30
0.0
 10
28.0309164106
 20
15.1921463946
 30
0.0
 10
27.5075559358
 20
15.4785694196
 30
0.0
 10
27.0508627988
 20
15.8622388429
 30
0.0
 10
26.6778107575
 20
16.3275877598
 30
0.0
 10
26.4017670245
 20
16.8562794825
 30
0.0
 10
26.2323268209
 20
17.4278711435
 30
0.0
 10
26.1942391567
 20
17.8240385502
 30
0.0
 10
26.1942442868
 20
18.0215981613
 30
0.0
  0
SPLINE
  5
272
100
AcDbEntity
  8
0
100
AcDbSpline
 62
7
  6
BYLAYER
 70
0
 71
3
 72
15
 73
11
 74
0
 42
0.0000001
 43
0.0000001
 44
0.0000000001
 40
0.0
 40
0.0
 40
0.0
 40
0.0
 40
0.1259275286
 40
0.2517416912
 40
0.3772655575
 40
0.5024531099
 40
0.6272633907
 40
0.7517327928
 40
0.8759382389
 40
1.0
 40
1.0
 40
1.0
 40
1.0
 10
18.7082179249
 20
10.5792368331
 30
0.0
 10
18.8866331724
 20
10.5792368331
 30
0.0
 10
19.2442583549
 20
10.5445828825
 30
0.0
 10
19.7594995242
 20
10.3907496835
 30
0.0
 10
20.2346238572
 20
10.1407522022
 30
0.0
 10
20.6511702878
 20
9.804321187
 30
0.0
 10
20.9931360786
 20
9.3942027608
 30
0.0
 10
21.2473425253
 20
8.9261082851
 30
0.0
 10
21.4039233117
 20
8.4182708285
 30
0.0
 10
21.439188229
 20
8.0655210879
 30
0.0
 10
21.4391863557
 20
7.8897492765
 30
0.0
  0
SPLINE
  5
273
100
AcDbEntity
  8
0
100
AcDbSpline
 62
7
  6
BYLAYER
 70
0
 71
3
 72
15
 73
11
 74
0
 42
0.0000001
 43
0.0000001
 44
0.0000000001
 40
0.0
 40
0.0
 40
0.0
 40
0.0
 40
0.1238782785
 40
0.2479977534
 40
0.37244462
 40
0.497275321
 40
0.6225034343
 40
0.7480685085
 40
0.8739820133
 40
1.0
 40
1.0
 40
1.0
 40
1.0
 10
11.9485924161
 20
34.5300606526
 30
0.0
 10
11.9090927731
 20
34.3716380361
 30
0.0
 10
11.80290196
 20
34.0605525959
 30
0.0
 10
11.5673054713
 20
33.6273699434
 30
0.0
 10
11.2617642987
 20
33.2385888152
 30
0.0
 10
10.8947465849
 20
32.9051165182
 30
0.0
 10
10.4764101258
 20
32.6361628314
 30
0.0
 10
10.0182759246
 20
32.438952157
 30
0.0
 10
9.5331764877
 20
32.3191645964
 30
0.0
 10
9.2004187769
 20
32.2928984367
 30
0.0
 10
9.0343267155
 20
32.2933834539
 30
0.0
  0
SPLINE
  5
274
100
AcDbEntity
  8
0
100
AcDbSpline
 62
7
  6
BYLAYER
 70
0
 71
3
 72
17
 73
13
 74
0
 42
0.0000001
 43
0.0000001
 44
0.0000000001
 40
0.0
 40
0.0
 40
0.0
 40
0.0
 40
0.1259372717
 40
0.1889843894
 40
0.251957359
 40
0.3775668655
 40
0.5028361916
 40
0.5653786888
 40
0.627811382
 40
0.7522253737
 40
0.8762553006
 40
1.0
 40
1.0
 40
1.0
 40
1.0
 10
9.0343267155
 20
32.2933834539
 30
0.0
 10
8.8494142379
 20
32.2939234299
 30
0.0
 10
8.5711533965
 20
32.3201378387
 30
0.0
 10
8.2105940642
 20
32.4045667521
 30
0.0
 10
7.8595586363
 20
32.5212950655
 30
0.0
 10
7.4437094075
 20
32.7260825504
 30
0.0
 10
7.0725824523
 20
33.002840107
 30
0.0
 10
6.8108152716
 20
33.2613459461
 30
0.0
 10
6.5747941784
 20
33.5418891023
 30
0.0
 10
6.33067432
 20
33.931017112
 30
0.0
 10
6.1302512063
 20
34.4426339052
 30
0.0
 10
6.0627638982
 20
34.8027303063
 30
0.0
 10
6.0462357356
 20
34.9836709051
 30
0.0
  0
SPLINE
  5
275
100
AcDbEntity
  8
0
100
AcDbSpline
 62
7
  6
BYLAYER
 70
0
 71
3
 72
15
 73
11
 74
0
 42
0.0000001
 43
0.0000001
 44
0.0000000001
 40
0.0
 40
0.0
 40
0.0
 40
0.0
 40
0.1260183665
 40
0.2519293464
 40
0.3774925061
 40
0.5027189089
 40
0.6275486968
 40
0.7519966707
 40
0.8761186009
 40
1.0
 40
1.0
 40
1.0
 40
1.0
 10
29.1941611961
 20
32.2933834571
 30
0.0
 10
29.0280832801
 20
32.2928984812
 30
0.0
 10
28.6953577796
 20
32.3191585635
 30
0.0
 10
28.210303992
 20
32.4389235216
 30
0.0
 10
27.7522108157
 20
32.6360960583
 30
0.0
 10
27.3338996149
 20
32.9049957771
 30
0.0
 10
26.9668904332
 20
33.2384089967
 30
0.0
 10
26.6613404902
 20
33.6271320893
 30
0.0
 10
26.4257189867
 20
34.0602606755
 30
0.0
 10
26.3194939324
 20
34.3713115656
 30
0.0
 10
26.2799793495
 20
34.5297198564
 30
0.0
  0
SPLINE
  5
276
100
AcDbEntity
  8
0
100
AcDbSpline
 62
7
  6
BYLAYER
 70
0
 71
3
 72
15
 73
11
 74
0
 42
0.0000001
 43
0.0000001
 44
0.0000000001
 40
0.0
 40
0.0
 40
0.0
 40
0.0
 40
0.1240821126
 40
0.2484019967
 40
0.3730059032
 40
0.4979210268
 40
0.6231369005
 40
0.7485860004
 40
0.8742871383
 40
1.0
 40
1.0
 40
1.0
 40
1.0
 10
6.1480358069
 20
17.9599312924
 30
0.0
 10
6.1921734029
 20
18.1131841235
 30
0.0
 10
6.305890715
 20
18.413321776
 30
0.0
 10
6.547592082
 20
18.8297095406
 30
0.0
 10
6.8542335096
 20
19.2024056445
 30
0.0
 10
7.2177871045
 20
19.5215205067
 30
0.0
 10
7.6287384461
 20
19.7787304985
 30
0.0
 10
8.07642148
 20
19.9674623274
 30
0.0
 10
8.5489476771
 20
20.0825668149
 30
0.0
 10
8.8726718819
 20
20.1084451927
 30
0.0
 10
9.0342500305
 20
20.1084450498
 30
0.0
  0
SPLINE
  5
277
100
AcDbEntity
  8
0
100
AcDbSpline
 62
7
  6
BYLAYER
 70
0
 71
3
 72
15
 73
11
 74
0
 42
0.0000001
 43
0.0000001
 44
0.0000000001
 40
0.0
 40
0.0
 40
0.0
 40
0.0
 40
0.1249849715
 40
0.2499955859
 40
0.3749865304
 40
0.4999850677
 40
0.6249817018
 40
0.7499854754
 40
0.8749929291
 40
1.0
 40
1.0
 40
1.0
 40
1.0
 10
29.1942485658
 20
21.0678779984
 30
0.0
 10
29.3917730603
 20
21.0678773833
 30
0.0
 10
29.7880014268
 20
21.027950114
 30
0.0
 10
30.3575747245
 20
20.8510485468
 30
0.0
 10
30.8809343513
 20
20.5646252261
 30
0.0
 10
31.3376267318
 20
20.1809558013
 30
0.0
 10
31.7106780878
 20
19.7156070877
 30
0.0
 10
31.9867213057
 20
19.186915756
 30
0.0
 10
32.156161182
 20
18.6153246062
 30
0.0
 10
32.194248773
 20
18.2191575845
 30
0.0
 10
32.1942436425
 20
18.0215981643
 30
0.0
  0
SPLINE
  5
278
100
AcDbEntity
  8
0
100
AcDbSpline
 62
7
  6
BYLAYER
 70
0
 71
3
 72
15
 73
11
 74
0
 42
0.0000001
 43
0.0000001
 44
0.0000000001
 40
0.0
 40
0.0
 40
0.0
 40
0.0
 40
0.1257135886
 40
0.2514124665
 40
0.3768597036
 40
0.5020739996
 40
0.6269880167
 40
0.7515925964
 40
0.8759146726
 40
1.0
 40
1.0
 40
1.0
 40
1.0
 10
29.1942646737
 20
20.1084445072
 30
0.0
 10
29.3558577456
 20
20.1084440192
 30
0.0
 10
29.6796080596
 20
20.0825594769
 30
0.0
 10
30.1521677957
 20
19.9674314505
 30
0.0
 10
30.5998745389
 20
19.778666355
 30
0.0
 10
31.0108456688
 20
19.5214194659
 30
0.0
 10
31.3744080346
 20
19.2022539819
 30
0.0
 10
31.6810454966
 20
18.8294971914
 30
0.0
 10
31.9227329185
 20
18.4130437824
 30
0.0
 10
32.0364295358
 20
18.1128606295
 30
0.0
 10
32.0805534415
 20
17.9595851879
 30
0.0
  0
SPLINE
  5
279
100
AcDbEntity
  8
0
100
AcDbSpline
 62
7
  6
BYLAYER
 70
0
 71
3
 72
15
 73
11
 74
0
 42
0.0000001
 43
0.0000001
 44
0.0000000001
 40
0.0
 40
0.0
 40
0.0
 40
0.0
 40
0.1240596463
 40
0.2482623243
 40
0.3727297926
 40
0.4975401336
 40
0.6227297565
 40
0.748255612
 40
0.8740726202
 40
1.0
 40
1.0
 40
1.0
 40
1.0
 10
15.9772494942
 20
7.8897492768
 30
0.0
 10
15.9772513675
 20
8.0655180595
 30
0.0
 10
16.012508533
 20
8.4182608342
 30
0.0
 10
16.1690857801
 20
8.9260897632
 30
0.0
 10
16.4232848963
 20
9.3941801341
 30
0.0
 10
16.7652474666
 20
9.804301716
 30
0.0
 10
17.1817961657
 20
10.1407389219
 30
0.0
 10
17.6569264599
 20
10.3907462651
 30
0.0
 10
18.172174156
 20
10.544581467
 30
0.0
 10
18.5298029211
 20
10.5792368331
 30
0.0
 10
18.7082179249
 20
10.5792368331
 30
0.0
  0
SPLINE
  5
27A
100
AcDbEntity
  8
0
100
AcDbSpline
 62
7
  6
BYLAYER
 70
0
 71
3
 72
15
 73
11
 74
0
 42
0.0000001
 43
0.0000001
 44
0.0000000001
 40
0.0
 40
0.0
 40
0.0
 40
0.0
 40
0.1250023484
 40
0.250006789
 40
0.3750093465
 40
0.5000077663
 40
0.6250106722
 40
0.750004539
 40
0.8750182302
 40
1.0
 40
1.0
 40
1.0
 40
1.0
 10
26.1942442868
 20
18.0215981613
 30
0.0
 10
26.1942494167
 20
18.2191505099
 30
0.0
 10
26.2323148984
 20
18.6153063522
 30
0.0
 10
26.4017527487
 20
19.1868866079
 30
0.0
 10
26.6777883905
 20
19.7155778559
 30
0.0
 10
27.0508429684
 20
20.1809363043
 30
0.0
 10
27.5075467643
 20
20.5646160626
 30
0.0
 10
28.0309195289
 20
20.8510526471
 30
0.0
 10
28.6004999684
 20
21.0279514387
 30
0.0
 10
28.9967287392
 20
21.0678786134
 30
0.0
 10
29.1942485658
 20
21.0678779984
 30
0.0
  0
SPLINE
  5
27B
100
AcDbEntity
  8
0
100
AcDbSpline
 62
7
  6
BYLAYER
 70
0
 71
3
 72
15
 73
11
 74
0
 42
0.0000001
 43
0.0000001
 44
0.0000000001
 40
0.0
 40
0.0
 40
0.0
 40
0.0
 40
0.1240821112
 40
0.2484019944
 40
0.3730059044
 40
0.4979210271
 40
0.6231369017
 40
0.7485860212
 40
0.8742871343
 40
1.0
 40
1.0
 40
1.0
 40
1.0
 10
26.3080357078
 20
17.9599309518
 30
0.0
 10
26.3521734551
 20
18.1131843776
 30
0.0
 10
26.4658912677
 20
18.4133231752
 30
0.0
 10
26.7075939246
 20
18.8297123582
 30
0.0
 10
27.0142370721
 20
19.2024094767
 30
0.0
 10
27.3777927447
 20
19.5215248489
 30
0.0
 10
27.7887464484
 20
19.7787346305
 30
0.0
 10
28.2364316665
 20
19.9674661283
 30
0.0
 10
28.7089603696
 20
20.0825686978
 30
0.0
 10
29.0326858968
 20
20.1084449951
 30
0.0
 10
29.1942646737
 20
20.1084445072
 30
0.0
  0
SPLINE
  5
27C
100
AcDbEntity
  8
0
100
AcDbSpline
 62
7
  6
BYLAYER
 70
0
 71
3
 72
17
 73
13
 74
0
 42
0.0000001
 43
0.0000001
 44
0.0000000001
 40
0.0
 40
0.0
 40
0.0
 40
0.0
 40
0.1249657937
 40
0.2499335344
 40
0.3748999236
 40
0.4374481637
 40
0.4999980767
 40
0.6249693985
 40
0.7499260631
 40
0.8124770277
 40
0.8750572551
 40
1.0
 40
1.0
 40
1.0
 40
1.0
 10
26.2419279766
 20
34.5088146128
 30
0.0
 10
26.2567485412
 20
34.3210680955
 30
0.0
 10
26.3206516494
 20
33.94736374
 30
0.0
 10
26.516094243
 20
33.4141393392
 30
0.0
 10
26.7573597843
 20
33.0063143339
 30
0.0
 10
26.9924268826
 20
32.711160905
 30
0.0
 10
27.2537502706
 20
32.4389517219
 30
0.0
 10
27.6263266771
 20
32.1461716982
 30
0.0
 10
28.047196865
 20
31.9283176182
 30
0.0
 10
28.4036299635
 20
31.8042072437
 30
0.0
 10
28.770127337
 20
31.7146405793
 30
0.0
 10
29.0536962316
 20
31.6872639537
 30
0.0
 10
29.2419920665
 20
31.6872639537
 30
0.0
  0
SPLINE
  5
27D
100
AcDbEntity
  8
0
100
AcDbSpline
 62
7
  6
BYLAYER
 70
0
 71
3
 72
17
 73
13
 74
0
 42
0.0000001
 43
0.0000001
 44
0.0000000001
 40
0.0
 40
0.0
 40
0.0
 40
0.0
 40
0.1237422271
 40
0.2477693184
 40
0.3721816167
 40
0.4346142277
 40
0.4971572062
 40
0.6224284981
 40
0.7480398648
 40
0.8110142822
 40
0.8740627911
 40
1.0
 40
1.0
 40
1.0
 40
1.0
 10
32.1822362792
 20
34.9835043595
 30
0.0
 10
32.1657000024
 20
34.8025751098
 30
0.0
 10
32.098194969
 20
34.4425041533
 30
0.0
 10
31.8977623143
 20
33.9309260584
 30
0.0
 10
31.6536484562
 20
33.5418226195
 30
0.0
 10
31.4176257593
 20
33.2613017332
 30
0.0
 10
31.1558652988
 20
33.0028043275
 30
0.0
 10
30.7847398986
 20
32.7260630033
 30
0.0
 10
30.3688983582
 20
32.5212837082
 30
0.0
 10
30.0178689546
 20
32.4045597637
 30
0.0
 10
29.6573184224
 20
32.3201375297
 30
0.0
 10
29.3790665249
 20
32.2939234122
 30
0.0
 10
29.1941611961
 20
32.2933834571
 30
0.0
  0
SPLINE
  5
27E
100
AcDbEntity
  8
0
100
AcDbSpline
 62
7
  6
BYLAYER
 70
0
 71
3
 72
15
 73
11
 74
0
 42
0.0000001
 43
0.0000001
 44
0.0000000001
 40
0.0
 40
0.0
 40
0.0
 40
0.0
 40
0.1249903295
 40
0.2499942703
 40
0.3749878668
 40
0.4999839159
 40
0.6249807526
 40
0.7499852585
 40
0.8749924708
 40
1.0
 40
1.0
 40
1.0
 40
1.0
 10
29.2419920665
 20
31.6872639537
 30
0.0
 10
29.4495296312
 20
31.6872639537
 30
0.0
 10
29.8659640987
 20
31.7315049881
 30
0.0
 10
30.4616454812
 20
31.9274447641
 30
0.0
 10
31.0033991128
 20
32.2436540723
 30
0.0
 10
31.4677806508
 20
32.6651011725
 30
0.0
 10
31.8359554577
 20
33.1726543641
 30
0.0
 10
32.0937087385
 20
33.744228811
 30
0.0
 10
32.2316451172
 20
34.3555676552
 30
0.0
 10
32.2405180307
 20
34.7738910958
 30
0.0
 10
32.224183728
 20
34.9808135118
 30
0.0
  0
SPLINE
  5
27F
100
AcDbEntity
  8
0
100
AcDbSpline
 62
7
  6
BYLAYER
 70
0
 71
3
 72
15
 73
11
 74
0
 42
0.0000001
 43
0.0000001
 44
0.0000000001
 40
0.0
 40
0.0
 40
0.0
 40
0.0
 40
0.125002793
 40
0.2500073682
 40
0.3750108915
 40
0.5000092127
 40
0.6250098798
 40
0.7500065585
 40
0.8750133986
 40
1.0
 40
1.0
 40
1.0
 40
1.0
 10
6.0043016801
 20
34.9808136392
 30
0.0
 10
5.987962423
 20
34.773899249
 30
0.0
 10
5.9968411546
 20
34.3555870547
 30
0.0
 10
6.1347700424
 20
33.7442609518
 30
0.0
 10
6.3925189368
 20
33.1726876342
 30
0.0
 10
6.7606919547
 20
32.6651215946
 30
0.0
 10
7.225083719
 20
32.2436616349
 30
0.0
 10
7.7668510258
 20
31.9274379069
 30
0.0
 10
8.3625393415
 20
31.7315050637
 30
0.0
 10
8.7789717728
 20
31.6872576514
 30
0.0
 10
8.9865034005
 20
31.6872576514
 30
0.0
  0
SPLINE
  5
280
100
AcDbEntity
  8
0
100
AcDbSpline
 62
7
  6
BYLAYER
 70
0
 71
3
 72
15
 73
11
 74
0
 42
0.0000001
 43
0.0000001
 44
0.0000000001
 40
0.0
 40
0.0
 40
0.0
 40
0.0
 40
0.1249816393
 40
0.2500013262
 40
0.3749889971
 40
0.4999893742
 40
0.6249845781
 40
0.7499868419
 40
0.8749933321
 40
1.0
 40
1.0
 40
1.0
 40
1.0
 10
8.9865034005
 20
31.6872576514
 30
0.0
 10
9.1748054453
 20
31.6872576514
 30
0.0
 10
9.552452907
 20
31.7236607297
 30
0.0
 10
10.0973735908
 20
31.8848260813
 30
0.0
 10
10.6021431718
 20
32.1461944789
 30
0.0
 10
11.0489995445
 20
32.4972566694
 30
0.0
 10
11.4230531609
 20
32.9249976468
 30
0.0
 10
11.7123377709
 20
33.4140547978
 30
0.0
 10
11.9078502275
 20
33.9473521512
 30
0.0
 10
11.9717361404
 20
34.3210592122
 30
0.0
 10
11.9865624786
 20
34.5088144852
 30
0.0
  0
SPLINE
  5
281
100
AcDbEntity
  8
0
100
AcDbSpline
 62
7
  6
BYLAYER
 70
0
 71
3
 72
15
 73
11
 74
0
 42
0.0000001
 43
0.0000001
 44
0.0000000001
 40
0.0
 40
0.0
 40
0.0
 40
0.0
 40
0.1257135904
 40
0.2514124639
 40
0.3768597053
 40
0.5020740028
 40
0.6269880207
 40
0.7515926005
 40
0.8759146752
 40
1.0
 40
1.0
 40
1.0
 40
1.0
 10
9.0342500305
 20
20.1084450498
 30
0.0
 10
9.1958437249
 20
20.1084449069
 30
0.0
 10
9.5195953422
 20
20.0825615566
 30
0.0
 10
9.9921573899
 20
19.9674350195
 30
0.0
 10
10.4398664806
 20
19.778670643
 30
0.0
 10
10.8508399098
 20
19.5214238781
 30
0.0
 10
11.2144043574
 20
19.202257921
 30
0.0
 10
11.5210435643
 20
18.8295001476
 30
0.0
 10
11.7627322863
 20
18.4130453443
 30
0.0
 10
11.8764294209
 20
18.1128610617
 30
0.0
 10
11.9205534866
 20
17.9595850326
 30
0.0
  0
SPLINE
  5
282
100
AcDbEntity
  8
0
100
AcDbSpline
 62
7
  6
BYLAYER
 70
0
 71
3
 72
15
 73
11
 74
0
 42
0.0000001
 43
0.0000001
 44
0.0000000001
 40
0.0
 40
0.0
 40
0.0
 40
0.0
 40
0.1249849714
 40
0.2499955871
 40
0.3749865289
 40
0.4999850676
 40
0.6249817017
 40
0.7499854755
 40
0.8749929291
 40
1.0
 40
1.0
 40
1.0
 40
1.0
 10
9.034245311
 20
21.0678779984
 30
0.0
 10
9.2317699404
 20
21.0678778184
 30
0.0
 10
9.627998634
 20
21.0279506619
 30
0.0
 10
10.1975724569
 20
20.8510495259
 30
0.0
 10
10.7209326837
 20
20.5646264146
 30
0.0
 10
11.1776255994
 20
20.1809569906
 30
0.0
 10
11.5506774398
 20
19.7156081332
 30
0.0
 10
11.8267210222
 20
19.186916525
 30
0.0
 10
11.9961611294
 20
18.6153250136
 30
0.0
 10
12.0342487733
 20
18.2191577196
 30
0.0
 10
12.0342436425
 20
18.0215981643
 30
0.0
  0
SPLINE
  5
283
100
AcDbEntity
  8
0
100
AcDbSpline
 62
7
  6
BYLAYER
 70
0
 71
3
 72
15
 73
11
 74
0
 42
0.0000001
 43
0.0000001
 44
0.0000000001
 40
0.0
 40
0.0
 40
0.0
 40
0.0
 40
0.1250023481
 40
0.2500067884
 40
0.3750093454
 40
0.5000077653
 40
0.6250106701
 40
0.7500045401
 40
0.8750182301
 40
1.0
 40
1.0
 40
1.0
 40
1.0
 10
6.0342442869
 20
18.0215981613
 30
0.0
 10
6.0342494174
 20
18.2191503743
 30
0.0
 10
6.0723148455
 20
18.6153059432
 30
0.0
 10
6.2417524639
 20
19.1868858361
 30
0.0
 10
6.5177877403
 20
19.7155768069
 30
0.0
 10
6.8908418329
 20
20.1809351126
 30
0.0
 10
7.3475450955
 20
20.564614871
 30
0.0
 10
7.8709172589
 20
20.8510516707
 30
0.0
 10
8.4404971761
 20
21.0279508874
 30
0.0
 10
8.8367256194
 20
21.0678781785
 30
0.0
 10
9.034245311
 20
21.0678779984
 30
0.0
  0
ELLIPSE
  5
284
100
AcDbEntity
  8
0
100
AcDbEllipse
 62
7
  6
BYLAYER
 10
18.7082179249
 20
8.4549491041
 30
0.0
 11
2.7309772371
 21
-0.0
 31
0.0
 40
0.9216049851
 41
2.0698525711
 42
2.2791763776
  0
ELLIPSE
  5
285
100
AcDbEntity
  8
0
100
AcDbEllipse
 62
7
  6
BYLAYER
 10
19.0456447223
 20
9.3609224053
 30
0.0
 11
2.0350831014
 21
-0.5200616614
 31
0.0
 40
0.9999459822
 41
1.5707963317
 42
2.5056638837
  0
ELLIPSE
  5
286
100
AcDbEntity
  8
0
100
AcDbEllipse
 62
7
  6
BYLAYER
 10
19.0551189217
 20
9.3585012915
 30
0.0
 11
-1.3027959965
 21
1.6576343163
 31
0.0
 40
0.9939989427
 41
0.0214763812
 42
0.2375434203
  0
ENDSEC
  0
SECTION
  2
OBJECTS
  0
DICTIONARY
  5
C
100
AcDbDictionary
280
0
281
1
  3
ACAD_GROUP
350
D
  3
ACAD_MLINESTYLE
350
17
  3
ACAD_LAYOUT
350
1A
  3
ACAD_PLOTSETTINGS
350
19
  3
ACAD_PLOTSTYLENAME
350
E
  0
DICTIONARY
  5
D
102
{ACAD_REACTORS
330
C
102
}
100
AcDbDictionary
280
0
281
1
  0
ACDBDICTIONARYWDFLT
  5
E
102
{ACAD_REACTORS
330
C
102
}
100
AcDbDictionary
281
1
  3
Normal
350
F
100
AcDbDictionaryWithDefault
340
F
  0
DICTIONARY
  5
17
102
{ACAD_REACTORS
330
C
102
}
100
AcDbDictionary
280
0
281
1
  3
Standard
350
18
  0
DICTIONARY
  5
19
102
{ACAD_REACTORS
330
C
102
}
100
AcDbDictionary
281
1
  0
DICTIONARY
  5
1A
102
{ACAD_REACTORS
330
C
102
}
100
AcDbDictionary
281
1
  3
Model
350
287
  3
Layout1
350
288
  0
ACDBPLACEHOLDER
  5
F
102
{ACAD_REACTORS
330
E
102
}
  0
MLINESTYLE
  5
18
102
{ACAD_REACTORS
330
17
102
}
100
AcDbMlineStyle
  2
STANDARD
 70
0
  3

 62
256
 51
90.0
 52
90.0
 71
2
 49
0.5
 62
256
  6
BYLAYER
 49
-0.5
 62
256
  6
BYLAYER
  0
LAYOUT
  5
287
102
{ACAD_REACTORS
330
1A
102
}
100
AcDbPlotSettings
  1

  2
none_device
  4

  6

 40
0.0
 41
0.0
 42
0.0
 43
0.0
 44
210.0
 45
297.0
 46
0.0
 47
0.0
 48
0.0
 49
0.0
140
0.0
141
0.0
142
1.0
143
1.0
 70
1024
 72
1
 73
0
 74
0
  7

 75
0
147
1.0
148
0.0
149
0.0
100
AcDbLayout
  1
Model
 70
0
 71
0
 10
0.0
 20
0.0
 11
210.0
 21
297.0
 12
0.0
 22
0.0
 32
0.0
 14
0.0
 24
0.0
 34
0.0
 15
0.0
 25
0.0
 35
0.0
146
0.0
 13
0.0
 23
0.0
 33
0.0
 16
1.0
 26
0.0
 36
0.0
 17
0.0
 27
1.0
 37
0.0
 76
0
330
210
345
0
346
0
  0
LAYOUT
  5
288
102
{ACAD_REACTORS
330
1A
102
}
100
AcDbPlotSettings
  1

  2
none_device
  4

  6

 40
0.0
 41
0.0
 42
0.0
 43
0.0
 44
210.0
 45
297.0
 46
0.0
 47
0.0
 48
0.0
 49
0.0
140
0.0
141
0.0
142
1.0
143
1.0
 70
0
 72
1
 73
0
 74
0
  7

 75
0
147
1.0
148
0.0
149
0.0
100
AcDbLayout
  1
Layout1
 70
0
 71
1
 10
0.0
 20
0.0
 11
210.0
 21
297.0
 12
0.0
 22
0.0
 32
0.0
 14
0.0
 24
0.0
 34
0.0
 15
0.0
 25
0.0
 35
0.0
146
0.0
 13
0.0
 23
0.0
 33
0.0
 16
1.0
 26
0.0
 36
0.0
 17
0.0
 27
1.0
 37
0.0
 76
0
330
211
345
0
346
0
  0
ENDSEC
  0
EOF
