999
DXF file: C:\Users\sesa63760\Dev\_Creo\CAD\MCADID0004250_3D-CAD\drw0001_5.dxf
999
Pro/ENGINEER 2019471 by Parametric Technology Corporation
  0
SECTION
  2
HEADER
  9
$ACADVER
  1
AC1024
  9
$DWGCODEPAGE
  3
ANSI_1252
  9
$EXTMAX
 10
1468.6968678165
 20
2077.156998769
 30
0.0
  9
$EXTMIN
 10
0.0
 20
0.0
 30
0.0
  9
$LIMMIN
 10
0.0
 20
0.0
  9
$LIMMAX
 10
1468.6968678165
 20
2077.156998769
  9
$VIEWCTR
 10
734.3484339082
 20
1038.5784993845
  9
$VIEWSIZE
 40
2077.156998769
  9
$CLAYER
  8
0
  9
$LTSCALE
 40
135.3998636235
  9
$CELTYPE
  6
BYLAYER
  9
$DIMSCALE
 40
1.0
  9
$DIMASZ
 40
17.4844865216
  9
$DIMEXO
 40
1.0
  9
$DIMDLI
 40
93.5489966853
  9
$DIMEXE
 40
1.0
  9
$DIMCEN
 40
22.1563413202
  9
$DIMLFAC
 40
1.0
  9
$DIMBLK
  1
_FILLED
  9
$DIMALT
 70
0
  9
$DIMALTF
 40
0.0393700787
  9
$DIMTXT
 40
24.4782811303
  9
$DIMTOL
 70
1
  9
$DIMLIM
 70
0
  9
$DIMTFAC
 40
1.0
  9
$DIMTP
 40
0.01
  9
$DIMTM
 40
0.01
  9
$DIMGAP
 40
0.625
  9
$DIMDSEP
 70
46
  9
$AUNITS
 70
0
  9
$PDMODE
 70
3
  9
$PDSIZE
 40
0.3125
  9
$HANDSEED
  5
3A0
  9
$TILEMODE
 70
1
  9
$MEASUREMENT
 70
1
  9
$INSUNITS
 70
4
  0
ENDSEC
  0
SECTION
  2
CLASSES
  0
CLASS
  1
ACDBDICTIONARYWDFLT
  2
AcDbDictionaryWithDefault
  3
AutoCAD 2000
 90
0
 91
1
280
0
281
0
  0
CLASS
  1
ACDBPLACEHOLDER
  2
AcDbPlaceHolder
  3
AutoCAD 2000
 90
0
 91
1
280
0
281
0
  0
CLASS
  1
LAYOUT
  2
AcDbLayout
  3
AutoCAD 2000
 90
0
 91
0
280
0
281
0
  0
ENDSEC
  0
SECTION
  2
TABLES
  0
TABLE
  2
VPORT
  5
8
100
AcDbSymbolTable
 70
2
  0
VPORT
  5
1F4
100
AcDbSymbolTableRecord
100
AcDbViewportTableRecord
  2
*ACTIVE
 70
0
 10
0.0
 20
0.0
 11
1.0
 21
1.0
 12
734.3484339082
 22
1038.5784993845
 13
0.0
 23
0.0
 14
1.0
 24
1.0
 15
0.0
 25
0.0
 16
0.0
 26
0.0
 36
1.0
 17
0.0
 27
0.0
 37
0.0
 40
2077.156998769
 41
0.7070707071
 42
50.0
 43
0.0
 44
0.0
 50
0.0
 51
0.0
 71
0
 72
100
 73
1
 74
1
 75
0
 76
0
 77
0
 78
0
  0
ENDTAB
  0
TABLE
  2
LTYPE
  5
5
100
AcDbSymbolTable
 70
6
  0
LTYPE
  5
14
100
AcDbSymbolTableRecord
100
AcDbLinetypeTableRecord
  2
BYBLOCK
 70
0
  3

 72
65
 73
0
 40
0.0
  0
LTYPE
  5
15
100
AcDbSymbolTableRecord
100
AcDbLinetypeTableRecord
  2
BYLAYER
 70
0
  3

 72
65
 73
0
 40
0.0
  0
LTYPE
  5
16
100
AcDbSymbolTableRecord
100
AcDbLinetypeTableRecord
  2
CONTINUOUS
 70
64
  3
Solid line
 72
65
 73
0
 40
0.0
  0
LTYPE
  5
1F5
100
AcDbSymbolTableRecord
100
AcDbLinetypeTableRecord
  2
CENTER
 70
64
  3
____ _ ____ _ ____ _ ____ _ ____ _ ____ _ ____
 72
65
 73
4
 40
0.6
 49
0.375
 74
0
 49
-0.075
 74
0
 49
0.075
 74
0
 49
-0.075
 74
0
  0
LTYPE
  5
1F6
100
AcDbSymbolTableRecord
100
AcDbLinetypeTableRecord
  2
HIDDEN
 70
64
  3
- - - - - - - - - - - - - - - - - - - -
 72
65
 73
2
 40
0.2
 49
0.1
 74
0
 49
-0.1
 74
0
  0
LTYPE
  5
1F7
100
AcDbSymbolTableRecord
100
AcDbLinetypeTableRecord
  2
PHANTOM
 70
64
  3
_____ _ _ _____ _ _ _____ _ _ _____
 72
65
 73
6
 40
0.8
 49
0.45
 74
0
 49
-0.05
 74
0
 49
0.1
 74
0
 49
-0.05
 74
0
 49
0.1
 74
0
 49
-0.05
 74
0
  0
LTYPE
  5
1F8
100
AcDbSymbolTableRecord
100
AcDbLinetypeTableRecord
  2
DOT
 70
64
  3
. . . . . . . . . . . . . . . . . . . .
 72
65
 73
2
 40
0.2
 49
0.1
 74
0
 49
-0.1
 74
0
  0
LTYPE
  5
1F9
100
AcDbSymbolTableRecord
100
AcDbLinetypeTableRecord
  2
DASHED
 70
64
  3
- - - - - - - - - - - - - - - - - - - -
 72
65
 73
2
 40
0.2
 49
0.1
 74
0
 49
-0.1
 74
0
  0
ENDTAB
  0
TABLE
  2
LAYER
  5
2
100
AcDbSymbolTable
 70
36
  0
LAYER
  5
10
100
AcDbSymbolTableRecord
100
AcDbLayerTableRecord
  2
0
 70
0
 62
7
  6
CONTINUOUS
370
-3
390
F
  0
LAYER
  5
1FA
100
AcDbSymbolTableRecord
100
AcDbLayerTableRecord
  2
DEFAULT_1
 70
0
 62
7
  6
CENTER
370
-3
390
F
  0
LAYER
  5
1FB
100
AcDbSymbolTableRecord
100
AcDbLayerTableRecord
  2
DEFAULT_2
 70
0
 62
7
  6
HIDDEN
370
-3
390
F
  0
LAYER
  5
1FC
100
AcDbSymbolTableRecord
100
AcDbLayerTableRecord
  2
DEFAULT_3
 70
0
 62
7
  6
PHANTOM
370
-3
390
F
  0
LAYER
  5
1FD
100
AcDbSymbolTableRecord
100
AcDbLayerTableRecord
  2
00_COMPONENTS
 70
0
 62
7
  6
CONTINUOUS
370
-3
390
F
  0
LAYER
  5
1FE
100
AcDbSymbolTableRecord
100
AcDbLayerTableRecord
  2
01_1_DEFAULT_DATUMS
 70
0
 62
7
  6
CONTINUOUS
370
-3
390
F
  0
LAYER
  5
1FF
100
AcDbSymbolTableRecord
100
AcDbLayerTableRecord
  2
01_PLANES
 70
0
 62
7
  6
CONTINUOUS
370
-3
390
F
  0
LAYER
  5
200
100
AcDbSymbolTableRecord
100
AcDbLayerTableRecord
  2
02_COORD_SYS
 70
0
 62
7
  6
CONTINUOUS
370
-3
390
F
  0
LAYER
  5
201
100
AcDbSymbolTableRecord
100
AcDbLayerTableRecord
  2
03_AXES
 70
0
 62
7
  6
CONTINUOUS
370
-3
390
F
  0
LAYER
  5
202
100
AcDbSymbolTableRecord
100
AcDbLayerTableRecord
  2
04_POINTS
 70
0
 62
7
  6
CONTINUOUS
370
-3
390
F
  0
LAYER
  5
203
100
AcDbSymbolTableRecord
100
AcDbLayerTableRecord
  2
05_CURVES
 70
0
 62
7
  6
CONTINUOUS
370
-3
390
F
  0
LAYER
  5
204
100
AcDbSymbolTableRecord
100
AcDbLayerTableRecord
  2
06_SURFS
 70
0
 62
7
  6
CONTINUOUS
370
-3
390
F
  0
LAYER
  5
205
100
AcDbSymbolTableRecord
100
AcDbLayerTableRecord
  2
07_COSMETICS
 70
0
 62
7
  6
CONTINUOUS
370
-3
390
F
  0
LAYER
  5
206
100
AcDbSymbolTableRecord
100
AcDbLayerTableRecord
  2
10_NOTES
 70
0
 62
7
  6
CONTINUOUS
370
-3
390
F
  0
LAYER
  5
207
100
AcDbSymbolTableRecord
100
AcDbLayerTableRecord
  2
11_NOTES_PUB
 70
0
 62
7
  6
CONTINUOUS
370
-3
390
F
  0
LAYER
  5
208
100
AcDbSymbolTableRecord
100
AcDbLayerTableRecord
  2
13_REF_GTOL
 70
0
 62
7
  6
CONTINUOUS
370
-3
390
F
  0
LAYER
  5
209
100
AcDbSymbolTableRecord
100
AcDbLayerTableRecord
  2
16_MISC
 70
0
 62
7
  6
CONTINUOUS
370
-3
390
F
  0
LAYER
  5
20A
100
AcDbSymbolTableRecord
100
AcDbLayerTableRecord
  2
17_NO_PRINT
 70
0
 62
7
  6
CONTINUOUS
370
-3
390
F
  0
LAYER
  5
20B
100
AcDbSymbolTableRecord
100
AcDbLayerTableRecord
  2
18_DATUM_CAMS_JOINTS
 70
0
 62
7
  6
CONTINUOUS
370
-3
390
F
  0
LAYER
  5
20C
100
AcDbSymbolTableRecord
100
AcDbLayerTableRecord
  2
19_DATUM_FUNCTIONAL
 70
0
 62
7
  6
CONTINUOUS
370
-3
390
F
  0
LAYER
  5
20D
100
AcDbSymbolTableRecord
100
AcDbLayerTableRecord
  2
20_DATUM_KINEMATIC_SCHEME
 70
0
 62
7
  6
CONTINUOUS
370
-3
390
F
  0
LAYER
  5
20E
100
AcDbSymbolTableRecord
100
AcDbLayerTableRecord
  2
3
 70
0
 62
7
  6
CONTINUOUS
370
-3
390
F
  0
LAYER
  5
20F
100
AcDbSymbolTableRecord
100
AcDbLayerTableRecord
  2
4
 70
0
 62
7
  6
CONTINUOUS
370
-3
390
F
  0
ENDTAB
  0
TABLE
  2
STYLE
  5
3
100
AcDbSymbolTable
 70
1
  0
STYLE
  5
11
100
AcDbSymbolTableRecord
100
AcDbTextStyleTableRecord
  2
STANDARD
 70
0
 40
0.0
 41
1.0
 50
0.0
 71
0
 42
0.2
  3
ARIAL.TTF
  4

  0
STYLE
  5
210
100
AcDbSymbolTableRecord
100
AcDbTextStyleTableRecord
  2
TEXTSTYLE_1
 70
0
 40
0.0
 41
0.8
 50
0.0
 71
0
 42
0.2
  3
gdt
  4

  0
ENDTAB
  0
TABLE
  2
VIEW
  5
6
100
AcDbSymbolTable
 70
0
  0
ENDTAB
  0
TABLE
  2
UCS
  5
7
100
AcDbSymbolTable
 70
0
  0
ENDTAB
  0
TABLE
  2
APPID
  5
9
100
AcDbSymbolTable
 70
1
  0
APPID
  5
211
100
AcDbSymbolTableRecord
100
AcDbRegAppTableRecord
  2
ACAD
 70
0
  0
ENDTAB
  0
TABLE
  2
BLOCK_RECORD
  5
1
100
AcDbSymbolTable
 70
0
  0
BLOCK_RECORD
  5
212
100
AcDbSymbolTableRecord
100
AcDbBlockTableRecord
  2
*Model_Space
  0
BLOCK_RECORD
  5
213
100
AcDbSymbolTableRecord
100
AcDbBlockTableRecord
  2
*Paper_Space
  0
BLOCK_RECORD
  5
214
100
AcDbSymbolTableRecord
100
AcDbBlockTableRecord
  2
_FILLED
  0
ENDTAB
  0
TABLE
  2
DIMSTYLE
  5
A
100
AcDbSymbolTable
 70
1
100
AcDbDimStyleTable
 71
0
  0
DIMSTYLE
105
215
100
AcDbSymbolTableRecord
100
AcDbDimStyleTableRecord
  2
STANDARD
 70
0
  3

  4

 40
1.0
 41
17.4844865216
 42
1.0
 43
0.38
 44
1.0
 45
0.0
 46
0.0
 47
0.01
 48
0.01
140
24.4782811303
141
0.09
142
0.0
143
25.4
144
1.0
145
0.0
146
1.0
147
0.625
 71
1
 72
0
 73
0
 74
0
 75
0
 76
0
 77
1
 78
8
 79
2
170
0
171
1
172
0
173
0
174
0
175
0
176
0
177
0
178
0
270
2
179
2
271
2
272
2
273
2
274
2
275
0
280
0
281
0
282
0
283
1
284
8
285
0
286
0
287
3
288
0
340
11
278
46
341
214
342
214
343
214
344
214
  0
ENDTAB
  0
ENDSEC
  0
SECTION
  2
BLOCKS
  0
BLOCK
  5
20
100
AcDbEntity
  8
0
100
AcDbBlockBegin
  2
*Model_Space
 70
0
 10
0.0
 20
0.0
 30
0.0
  3
*Model_Space
  1

  0
ENDBLK
  5
21
100
AcDbEntity
  8
0
100
AcDbBlockEnd
  0
BLOCK
  5
1C
100
AcDbEntity
  8
0
100
AcDbBlockBegin
  2
*Paper_Space
 70
0
 10
0.0
 20
0.0
 30
0.0
  3
*Paper_Space
  1

  0
ENDBLK
  5
1D
100
AcDbEntity
  8
0
100
AcDbBlockEnd
  0
BLOCK
  5
216
100
AcDbEntity
  8
0
100
AcDbBlockBegin
  2
_FILLED
 70
64
 10
0.0
 20
0.0
  3
_FILLED
  1

  0
SOLID
  5
217
100
AcDbEntity
  8
0
  6
BYBLOCK
 62
0
100
AcDbTrace
 10
0.0
 20
0.0
 11
-1.0
 21
0.25
 12
-1.0
 22
-0.25
 13
-1.0
 23
-0.25
  0
ENDBLK
  5
218
100
AcDbEntity
  8
0
  6
BYBLOCK
 62
0
100
AcDbBlockEnd
  0
ENDSEC
  0
SECTION
  2
ENTITIES
  0
LINE
  5
219
100
AcDbEntity
  8
0
100
AcDbLine
 62
7
  6
BYLAYER
 10
799.1041612952
 20
169.0709185045
 11
794.5043379929
 21
169.0709185045
  0
LINE
  5
21A
100
AcDbEntity
  8
0
100
AcDbLine
 62
7
  6
BYLAYER
 10
759.104149422
 20
169.0709185045
 11
754.5043261197
 21
169.0709185045
  0
LINE
  5
21B
100
AcDbEntity
  8
0
100
AcDbLine
 62
7
  6
BYLAYER
 10
806.3037466046
 20
169.170808366
 11
799.4770395548
 21
169.170808366
  0
LINE
  5
21C
100
AcDbEntity
  8
0
100
AcDbLine
 62
7
  6
BYLAYER
 10
753.3037466046
 20
169.170808366
 11
754.1314393597
 21
169.170808366
  0
LINE
  5
21D
100
AcDbEntity
  8
0
100
AcDbLine
 62
7
  6
BYLAYER
 10
759.4770276816
 20
169.170808366
 11
794.1314512329
 21
169.170808366
  0
LINE
  5
21E
100
AcDbEntity
  8
0
100
AcDbLine
 62
7
  6
BYLAYER
 10
783.9451947847
 20
169.670808366
 11
775.6632629505
 21
169.670808366
  0
LINE
  5
21F
100
AcDbEntity
  8
0
100
AcDbLine
 62
7
  6
BYLAYER
 10
800.1042453938
 20
170.0709185045
 11
793.5042453938
 21
170.0709185045
  0
LINE
  5
220
100
AcDbEntity
  8
0
100
AcDbLine
 62
7
  6
BYLAYER
 10
760.1042335206
 20
170.0709185045
 11
753.5042335206
 21
170.0709185045
  0
LINE
  5
221
100
AcDbEntity
  8
0
100
AcDbLine
 62
7
  6
BYLAYER
 10
807.3037466046
 20
170.170808366
 11
800.1042453938
 21
170.170808366
  0
LINE
  5
222
100
AcDbEntity
  8
0
100
AcDbLine
 62
7
  6
BYLAYER
 10
793.5042453938
 20
170.170808366
 11
783.8037466046
 21
170.1708083726
  0
LINE
  5
223
100
AcDbEntity
  8
0
100
AcDbLine
 62
7
  6
BYLAYER
 10
775.8037466046
 20
170.170808366
 11
760.1042335206
 21
170.170808366
  0
LINE
  5
224
100
AcDbEntity
  8
0
100
AcDbLine
 62
7
  6
BYLAYER
 10
753.5042335206
 20
170.170808366
 11
752.3037466046
 21
170.170808366
  0
LINE
  5
225
100
AcDbEntity
  8
0
100
AcDbLine
 62
7
  6
BYLAYER
 10
752.3037466046
 20
171.1708082971
 11
753.5042335206
 21
171.170808366
  0
LINE
  5
226
100
AcDbEntity
  8
0
100
AcDbLine
 62
7
  6
BYLAYER
 10
760.1042335206
 20
171.170808366
 11
761.3037466046
 21
171.170808297
  0
LINE
  5
227
100
AcDbEntity
  8
0
100
AcDbLine
 62
7
  6
BYLAYER
 10
792.3037466046
 20
171.1708082971
 11
793.5042453938
 21
171.170808366
  0
LINE
  5
228
100
AcDbEntity
  8
0
100
AcDbLine
 62
7
  6
BYLAYER
 10
800.1042453938
 20
171.170808366
 11
800.7160618134
 21
171.170808366
  0
LINE
  5
229
100
AcDbEntity
  8
0
100
AcDbLine
 62
7
  6
BYLAYER
 10
752.8037466046
 20
171.670808366
 11
759.8037466046
 21
171.670808366
  0
LINE
  5
22A
100
AcDbEntity
  8
0
100
AcDbLine
 62
7
  6
BYLAYER
 10
793.8037466046
 20
171.670808366
 11
800.3535000971
 21
171.670808366
  0
LINE
  5
22B
100
AcDbEntity
  8
0
100
AcDbLine
 62
7
  6
BYLAYER
 10
802.2158282964
 20
172.170808366
 11
793.8037466046
 21
172.170808366
  0
LINE
  5
22C
100
AcDbEntity
  8
0
100
AcDbLine
 62
7
  6
BYLAYER
 10
759.8037466046
 20
172.170808366
 11
752.3037466046
 21
172.170808366
  0
LINE
  5
22D
100
AcDbEntity
  8
0
100
AcDbLine
 62
7
  6
BYLAYER
 10
752.3037466046
 20
186.670808366
 11
775.8037466046
 21
186.670808366
  0
LINE
  5
22E
100
AcDbEntity
  8
0
100
AcDbLine
 62
7
  6
BYLAYER
 10
775.8042453938
 20
186.670808366
 11
807.3037466046
 21
186.670808366
  0
LINE
  5
22F
100
AcDbEntity
  8
3
100
AcDbLine
 62
7
  6
BYLAYER
 10
752.3042280789
 20
186.670931313
 11
807.3101285366
 21
186.670931313
  0
LINE
  5
230
100
AcDbEntity
  8
3
100
AcDbLine
 62
7
  6
BYLAYER
 10
707.0623265268
 20
214.0190936277
 11
752.0623265268
 21
214.0190936277
  0
LINE
  5
231
100
AcDbEntity
  8
3
100
AcDbLine
 62
7
  6
BYLAYER
 10
747.7256118429
 20
217.6665936277
 11
748.9702111047
 21
217.6665936277
  0
LINE
  5
232
100
AcDbEntity
  8
3
100
AcDbLine
 62
7
  6
BYLAYER
 10
752.0623265268
 20
219.0190936277
 11
749.0623265268
 21
219.0190936277
  0
LINE
  5
233
100
AcDbEntity
  8
3
100
AcDbLine
 62
7
  6
BYLAYER
 10
747.6221269089
 20
219.3425564473
 11
744.6221269089
 21
219.3425564473
  0
LINE
  5
234
100
AcDbEntity
  8
3
100
AcDbLine
 62
7
  6
BYLAYER
 10
710.2623265268
 20
220.7690936277
 11
723.7623265268
 21
220.7690936277
  0
LINE
  5
235
100
AcDbEntity
  8
3
100
AcDbLine
 62
7
  6
BYLAYER
 10
740.3516715015
 20
221.0190936277
 11
744.6221269089
 21
221.0190936277
  0
LINE
  5
236
100
AcDbEntity
  8
3
100
AcDbLine
 62
7
  6
BYLAYER
 10
747.6221269089
 20
221.0190936277
 11
747.7256118429
 21
221.0190936277
  0
LINE
  5
237
100
AcDbEntity
  8
3
100
AcDbLine
 62
7
  6
BYLAYER
 10
748.9702111047
 20
221.0190936277
 11
749.0623265268
 21
221.0190936277
  0
LINE
  5
238
100
AcDbEntity
  8
3
100
AcDbLine
 62
7
  6
BYLAYER
 10
752.0623265268
 20
221.0190936277
 11
752.3042280789
 21
221.0190936277
  0
LINE
  5
239
100
AcDbEntity
  8
3
100
AcDbLine
 62
7
  6
BYLAYER
 10
747.6221269089
 20
224.0190936277
 11
744.6221269089
 21
224.0190936277
  0
LINE
  5
23A
100
AcDbEntity
  8
3
100
AcDbLine
 62
7
  6
BYLAYER
 10
740.3516715015
 20
227.0190936277
 11
744.6221269089
 21
227.0190936277
  0
LINE
  5
23B
100
AcDbEntity
  8
3
100
AcDbLine
 62
7
  6
BYLAYER
 10
747.6221269089
 20
227.0190936277
 11
747.7256118429
 21
227.0190936277
  0
LINE
  5
23C
100
AcDbEntity
  8
3
100
AcDbLine
 62
7
  6
BYLAYER
 10
748.9702111047
 20
227.0190936277
 11
749.0623265268
 21
227.0190936277
  0
LINE
  5
23D
100
AcDbEntity
  8
3
100
AcDbLine
 62
7
  6
BYLAYER
 10
752.0623265268
 20
227.0190936277
 11
752.3042280789
 21
227.0190936277
  0
LINE
  5
23E
100
AcDbEntity
  8
3
100
AcDbLine
 62
7
  6
BYLAYER
 10
723.7623265268
 20
227.2690936277
 11
710.2623265268
 21
227.2690936277
  0
LINE
  5
23F
100
AcDbEntity
  8
3
100
AcDbLine
 62
7
  6
BYLAYER
 10
747.6221269089
 20
228.6956308081
 11
744.6221269089
 21
228.6956308081
  0
LINE
  5
240
100
AcDbEntity
  8
3
100
AcDbLine
 62
7
  6
BYLAYER
 10
748.9702111047
 20
230.3715936277
 11
747.7256118429
 21
230.3715936277
  0
LINE
  5
241
100
AcDbEntity
  8
3
100
AcDbLine
 62
7
  6
BYLAYER
 10
747.7256118429
 20
247.6665936277
 11
748.9702111047
 21
247.6665936277
  0
LINE
  5
242
100
AcDbEntity
  8
3
100
AcDbLine
 62
7
  6
BYLAYER
 10
747.6221269089
 20
249.3425564473
 11
744.6221269089
 21
249.3425564473
  0
LINE
  5
243
100
AcDbEntity
  8
3
100
AcDbLine
 62
7
  6
BYLAYER
 10
710.2623265268
 20
250.7690936277
 11
723.7623265268
 21
250.7690936277
  0
LINE
  5
244
100
AcDbEntity
  8
3
100
AcDbLine
 62
7
  6
BYLAYER
 10
740.3516715015
 20
251.0190936277
 11
744.6221269089
 21
251.0190936277
  0
LINE
  5
245
100
AcDbEntity
  8
3
100
AcDbLine
 62
7
  6
BYLAYER
 10
747.6221269089
 20
251.0190936277
 11
747.7256118429
 21
251.0190936277
  0
LINE
  5
246
100
AcDbEntity
  8
3
100
AcDbLine
 62
7
  6
BYLAYER
 10
748.9702111047
 20
251.0190936277
 11
749.0623265268
 21
251.0190936277
  0
LINE
  5
247
100
AcDbEntity
  8
3
100
AcDbLine
 62
7
  6
BYLAYER
 10
752.0623265268
 20
251.0190936277
 11
752.3042280789
 21
251.0190936277
  0
LINE
  5
248
100
AcDbEntity
  8
3
100
AcDbLine
 62
7
  6
BYLAYER
 10
747.6221269089
 20
254.0190936277
 11
744.6221269089
 21
254.0190936277
  0
LINE
  5
249
100
AcDbEntity
  8
3
100
AcDbLine
 62
7
  6
BYLAYER
 10
740.3516715015
 20
257.0190936277
 11
744.6221269089
 21
257.0190936277
  0
LINE
  5
24A
100
AcDbEntity
  8
3
100
AcDbLine
 62
7
  6
BYLAYER
 10
747.6221269089
 20
257.0190936277
 11
747.7256118429
 21
257.0190936277
  0
LINE
  5
24B
100
AcDbEntity
  8
3
100
AcDbLine
 62
7
  6
BYLAYER
 10
748.9702111047
 20
257.0190936277
 11
749.0623265268
 21
257.0190936277
  0
LINE
  5
24C
100
AcDbEntity
  8
3
100
AcDbLine
 62
7
  6
BYLAYER
 10
752.0623265268
 20
257.0190936277
 11
752.3042280789
 21
257.0190936277
  0
LINE
  5
24D
100
AcDbEntity
  8
3
100
AcDbLine
 62
7
  6
BYLAYER
 10
723.7623265268
 20
257.2690936277
 11
710.2623265268
 21
257.2690936277
  0
LINE
  5
24E
100
AcDbEntity
  8
3
100
AcDbLine
 62
7
  6
BYLAYER
 10
747.6221269089
 20
258.6956308081
 11
744.6221269089
 21
258.6956308081
  0
LINE
  5
24F
100
AcDbEntity
  8
3
100
AcDbLine
 62
7
  6
BYLAYER
 10
749.0623265268
 20
259.0190936277
 11
752.0623265268
 21
259.0190936277
  0
LINE
  5
250
100
AcDbEntity
  8
3
100
AcDbLine
 62
7
  6
BYLAYER
 10
748.9702111047
 20
260.3715936277
 11
747.7256118429
 21
260.3715936277
  0
LINE
  5
251
100
AcDbEntity
  8
3
100
AcDbLine
 62
7
  6
BYLAYER
 10
707.0623265268
 20
264.0190936277
 11
752.0623265268
 21
264.0190936277
  0
LINE
  5
252
100
AcDbEntity
  8
0
100
AcDbLine
 62
7
  6
BYLAYER
 10
760.0539873418
 20
1908.6709185045
 11
760.5539873418
 21
1909.1709185045
  0
LINE
  5
253
100
AcDbEntity
  8
0
100
AcDbLine
 62
7
  6
BYLAYER
 10
784.3039857938
 20
1912.670919115
 11
784.8039867775
 21
1913.1709199188
  0
LINE
  5
254
100
AcDbEntity
  8
0
100
AcDbLine
 62
7
  6
BYLAYER
 10
782.5539873418
 20
1908.6709185045
 11
783.0539873418
 21
1909.1709185045
  0
LINE
  5
255
100
AcDbEntity
  8
3
100
AcDbLine
 62
7
  6
BYLAYER
 10
702.0623265268
 20
1855.3539960885
 11
702.0623265268
 21
1815.3539960885
  0
LINE
  5
256
100
AcDbEntity
  8
3
100
AcDbLine
 62
7
  6
BYLAYER
 10
702.0623265268
 20
1056.3032344675
 11
702.0623265268
 21
1016.3032344675
  0
LINE
  5
257
100
AcDbEntity
  8
3
100
AcDbLine
 62
7
  6
BYLAYER
 10
702.0623265268
 20
259.0190936277
 11
702.0623265268
 21
219.0190936277
  0
LINE
  5
258
100
AcDbEntity
  8
3
100
AcDbLine
 62
7
  6
BYLAYER
 10
740.3516715015
 20
221.0192166036
 11
740.3516715015
 21
227.0189706517
  0
LINE
  5
259
100
AcDbEntity
  8
3
100
AcDbLine
 62
7
  6
BYLAYER
 10
740.3516715015
 20
251.0192166036
 11
740.3516715015
 21
257.0189706517
  0
LINE
  5
25A
100
AcDbEntity
  8
3
100
AcDbLine
 62
7
  6
BYLAYER
 10
740.3516715015
 20
1018.3033574434
 11
740.3516715015
 21
1024.3031114915
  0
LINE
  5
25B
100
AcDbEntity
  8
3
100
AcDbLine
 62
7
  6
BYLAYER
 10
740.3516715015
 20
1048.3033574434
 11
740.3516715015
 21
1054.3031114915
  0
LINE
  5
25C
100
AcDbEntity
  8
3
100
AcDbLine
 62
7
  6
BYLAYER
 10
740.3516715015
 20
1817.3541190645
 11
740.3516715015
 21
1823.3538731126
  0
LINE
  5
25D
100
AcDbEntity
  8
3
100
AcDbLine
 62
7
  6
BYLAYER
 10
740.3516715015
 20
1847.3541190645
 11
740.3516715015
 21
1853.3538731126
  0
LINE
  5
25E
100
AcDbEntity
  8
3
100
AcDbLine
 62
7
  6
BYLAYER
 10
744.6221269089
 20
219.3425564473
 11
744.6221269089
 21
228.6956308081
  0
LINE
  5
25F
100
AcDbEntity
  8
3
100
AcDbLine
 62
7
  6
BYLAYER
 10
744.6221269089
 20
249.3425564473
 11
744.6221269089
 21
258.6956308081
  0
LINE
  5
260
100
AcDbEntity
  8
3
100
AcDbLine
 62
7
  6
BYLAYER
 10
744.6221269089
 20
1016.626697287
 11
744.6221269089
 21
1025.9797716479
  0
LINE
  5
261
100
AcDbEntity
  8
3
100
AcDbLine
 62
7
  6
BYLAYER
 10
744.6221269089
 20
1046.626697287
 11
744.6221269089
 21
1055.9797716479
  0
LINE
  5
262
100
AcDbEntity
  8
3
100
AcDbLine
 62
7
  6
BYLAYER
 10
744.6221269089
 20
1815.6774589081
 11
744.6221269089
 21
1825.030533269
  0
LINE
  5
263
100
AcDbEntity
  8
3
100
AcDbLine
 62
7
  6
BYLAYER
 10
744.6221269089
 20
1845.6774589081
 11
744.6221269089
 21
1855.030533269
  0
LINE
  5
264
100
AcDbEntity
  8
3
100
AcDbLine
 62
7
  6
BYLAYER
 10
745.0623265268
 20
1860.3539960885
 11
745.0623265268
 21
1855.030533269
  0
LINE
  5
265
100
AcDbEntity
  8
3
100
AcDbLine
 62
7
  6
BYLAYER
 10
745.0623265268
 20
1845.6774589081
 11
745.0623265268
 21
1825.030533269
  0
LINE
  5
266
100
AcDbEntity
  8
3
100
AcDbLine
 62
7
  6
BYLAYER
 10
745.0623265268
 20
1815.6774589081
 11
745.0623265268
 21
1810.3539960885
  0
LINE
  5
267
100
AcDbEntity
  8
3
100
AcDbLine
 62
7
  6
BYLAYER
 10
745.0623265268
 20
1061.3032344675
 11
745.0623265268
 21
1055.9797716479
  0
LINE
  5
268
100
AcDbEntity
  8
3
100
AcDbLine
 62
7
  6
BYLAYER
 10
745.0623265268
 20
1046.626697287
 11
745.0623265268
 21
1025.9797716479
  0
LINE
  5
269
100
AcDbEntity
  8
3
100
AcDbLine
 62
7
  6
BYLAYER
 10
745.0623265268
 20
1016.626697287
 11
745.0623265268
 21
1011.3032344675
  0
LINE
  5
26A
100
AcDbEntity
  8
3
100
AcDbLine
 62
7
  6
BYLAYER
 10
745.0623265268
 20
264.0190936277
 11
745.0623265268
 21
258.6956308081
  0
LINE
  5
26B
100
AcDbEntity
  8
3
100
AcDbLine
 62
7
  6
BYLAYER
 10
745.0623265268
 20
249.3425564473
 11
745.0623265268
 21
228.6956308081
  0
LINE
  5
26C
100
AcDbEntity
  8
3
100
AcDbLine
 62
7
  6
BYLAYER
 10
745.0623265268
 20
219.3425564473
 11
745.0623265268
 21
214.0190936277
  0
LINE
  5
26D
100
AcDbEntity
  8
3
100
AcDbLine
 62
7
  6
BYLAYER
 10
747.6221269089
 20
1855.030533269
 11
747.6221269089
 21
1845.6774589081
  0
LINE
  5
26E
100
AcDbEntity
  8
3
100
AcDbLine
 62
7
  6
BYLAYER
 10
747.6221269089
 20
1825.030533269
 11
747.6221269089
 21
1815.6774589081
  0
LINE
  5
26F
100
AcDbEntity
  8
3
100
AcDbLine
 62
7
  6
BYLAYER
 10
747.6221269089
 20
1055.9797716479
 11
747.6221269089
 21
1046.626697287
  0
LINE
  5
270
100
AcDbEntity
  8
3
100
AcDbLine
 62
7
  6
BYLAYER
 10
747.6221269089
 20
1025.9797716479
 11
747.6221269089
 21
1016.626697287
  0
LINE
  5
271
100
AcDbEntity
  8
3
100
AcDbLine
 62
7
  6
BYLAYER
 10
747.6221269089
 20
258.6956308081
 11
747.6221269089
 21
249.3425564473
  0
LINE
  5
272
100
AcDbEntity
  8
3
100
AcDbLine
 62
7
  6
BYLAYER
 10
747.6221269089
 20
228.6956308081
 11
747.6221269089
 21
219.3425564473
  0
LINE
  5
273
100
AcDbEntity
  8
3
100
AcDbLine
 62
7
  6
BYLAYER
 10
747.7256118429
 20
217.6665936277
 11
747.7256118429
 21
230.3715936277
  0
LINE
  5
274
100
AcDbEntity
  8
3
100
AcDbLine
 62
7
  6
BYLAYER
 10
747.7256118429
 20
247.6665936277
 11
747.7256118429
 21
260.3715936277
  0
LINE
  5
275
100
AcDbEntity
  8
3
100
AcDbLine
 62
7
  6
BYLAYER
 10
747.7256118429
 20
1014.9507344675
 11
747.7256118429
 21
1027.6557344675
  0
LINE
  5
276
100
AcDbEntity
  8
3
100
AcDbLine
 62
7
  6
BYLAYER
 10
747.7256118429
 20
1044.9507344675
 11
747.7256118429
 21
1057.6557344675
  0
LINE
  5
277
100
AcDbEntity
  8
3
100
AcDbLine
 62
7
  6
BYLAYER
 10
747.7256118429
 20
1814.0014960885
 11
747.7256118429
 21
1826.7064960885
  0
LINE
  5
278
100
AcDbEntity
  8
3
100
AcDbLine
 62
7
  6
BYLAYER
 10
747.7256118429
 20
1844.0014960885
 11
747.7256118429
 21
1856.7064960885
  0
LINE
  5
279
100
AcDbEntity
  8
3
100
AcDbLine
 62
7
  6
BYLAYER
 10
748.9702111047
 20
1856.7064960885
 11
748.9702111047
 21
1844.0014960885
  0
LINE
  5
27A
100
AcDbEntity
  8
3
100
AcDbLine
 62
7
  6
BYLAYER
 10
748.9702111047
 20
1826.7064960885
 11
748.9702111047
 21
1814.0014960885
  0
LINE
  5
27B
100
AcDbEntity
  8
3
100
AcDbLine
 62
7
  6
BYLAYER
 10
748.9702111047
 20
1057.6557344675
 11
748.9702111047
 21
1044.9507344675
  0
LINE
  5
27C
100
AcDbEntity
  8
3
100
AcDbLine
 62
7
  6
BYLAYER
 10
748.9702111047
 20
1027.6557344675
 11
748.9702111047
 21
1014.9507344675
  0
LINE
  5
27D
100
AcDbEntity
  8
3
100
AcDbLine
 62
7
  6
BYLAYER
 10
748.9702111047
 20
260.3715936277
 11
748.9702111047
 21
247.6665936277
  0
LINE
  5
27E
100
AcDbEntity
  8
3
100
AcDbLine
 62
7
  6
BYLAYER
 10
748.9702111047
 20
230.3715936277
 11
748.9702111047
 21
217.6665936277
  0
LINE
  5
27F
100
AcDbEntity
  8
3
100
AcDbLine
 62
7
  6
BYLAYER
 10
749.0623265268
 20
214.0190936277
 11
749.0623265268
 21
264.0190936277
  0
LINE
  5
280
100
AcDbEntity
  8
3
100
AcDbLine
 62
7
  6
BYLAYER
 10
749.0623265268
 20
1011.3032344675
 11
749.0623265268
 21
1061.3032344675
  0
LINE
  5
281
100
AcDbEntity
  8
3
100
AcDbLine
 62
7
  6
BYLAYER
 10
749.0623265268
 20
1810.3539960885
 11
749.0623265268
 21
1860.3539960885
  0
LINE
  5
282
100
AcDbEntity
  8
3
100
AcDbLine
 62
7
  6
BYLAYER
 10
752.0623265268
 20
1860.3539960885
 11
752.0623265268
 21
1810.3539960885
  0
LINE
  5
283
100
AcDbEntity
  8
3
100
AcDbLine
 62
7
  6
BYLAYER
 10
752.0623265268
 20
1061.3032344675
 11
752.0623265268
 21
1011.3032344675
  0
LINE
  5
284
100
AcDbEntity
  8
3
100
AcDbLine
 62
7
  6
BYLAYER
 10
752.0623265268
 20
264.0190936277
 11
752.0623265268
 21
214.0190936277
  0
LINE
  5
285
100
AcDbEntity
  8
0
100
AcDbLine
 62
7
  6
BYLAYER
 10
752.3039890622
 20
1900.6709596543
 11
752.3039873406
 21
1899.8724659721
  0
LINE
  5
286
100
AcDbEntity
  8
0
100
AcDbLine
 62
7
  6
BYLAYER
 10
752.3037466046
 20
170.170808366
 11
752.3037466046
 21
186.670808366
  0
LINE
  5
287
100
AcDbEntity
  8
0
100
AcDbLine
 62
7
  6
BYLAYER
 10
752.3039873418
 20
1899.6709185045
 11
752.3039873418
 21
1885.1709185045
  0
LINE
  5
288
100
AcDbEntity
  8
0
100
AcDbLine
 62
7
  6
BYLAYER
 10
752.3039873418
 20
1901.6709185045
 11
752.3039873418
 21
1899.6829085506
  0
LINE
  5
289
100
AcDbEntity
  8
3
100
AcDbLine
 62
7
  6
BYLAYER
 10
752.3042280789
 20
1885.170931313
 11
752.3042280789
 21
186.670931313
  0
LINE
  5
28A
100
AcDbEntity
  8
0
100
AcDbLine
 62
7
  6
BYLAYER
 10
753.3037466046
 20
169.170808366
 11
753.3037466029
 21
171.170808366
  0
LINE
  5
28B
100
AcDbEntity
  8
0
100
AcDbLine
 62
7
  6
BYLAYER
 10
753.3039873401
 20
1900.6709185045
 11
753.3039873418
 21
1902.6709185045
  0
LINE
  5
28C
100
AcDbEntity
  8
0
100
AcDbLine
 62
7
  6
BYLAYER
 10
753.5039873418
 20
1900.1709185045
 11
753.5039873418
 21
1901.7709185045
  0
LINE
  5
28D
100
AcDbEntity
  8
0
100
AcDbLine
 62
7
  6
BYLAYER
 10
753.5042335206
 20
171.6709185045
 11
753.5042335206
 21
170.0709185045
  0
LINE
  5
28E
100
AcDbEntity
  8
0
100
AcDbLine
 62
7
  6
BYLAYER
 10
756.3037466046
 20
171.670808366
 11
756.3037466046
 21
186.670808366
  0
LINE
  5
28F
100
AcDbEntity
  8
0
100
AcDbLine
 62
7
  6
BYLAYER
 10
756.3039873418
 20
1885.1709185045
 11
756.3039873418
 21
1900.1709185045
  0
LINE
  5
290
100
AcDbEntity
  8
3
100
AcDbLine
 62
7
  6
BYLAYER
 10
756.3042280789
 20
186.670931313
 11
756.3042280789
 21
1885.170931313
  0
LINE
  5
291
100
AcDbEntity
  8
0
100
AcDbLine
 62
7
  6
BYLAYER
 10
759.8037465321
 20
172.170808366
 11
759.8037465321
 21
171.670808366
  0
LINE
  5
292
100
AcDbEntity
  8
0
100
AcDbLine
 62
7
  6
BYLAYER
 10
759.8039872689
 20
1900.1709185045
 11
759.8039872689
 21
1899.6709185045
  0
LINE
  5
293
100
AcDbEntity
  8
0
100
AcDbLine
 62
7
  6
BYLAYER
 10
760.0539873418
 20
1902.6709185045
 11
760.0539873418
 21
1908.6709185045
  0
LINE
  5
294
100
AcDbEntity
  8
0
100
AcDbLine
 62
7
  6
BYLAYER
 10
760.1039873418
 20
1900.2751009393
 11
760.1039873418
 21
1901.7709185045
  0
LINE
  5
295
100
AcDbEntity
  8
0
100
AcDbLine
 62
7
  6
BYLAYER
 10
760.1042335206
 20
171.5687225733
 11
760.1042335206
 21
170.0709185045
  0
LINE
  5
296
100
AcDbEntity
  8
0
100
AcDbLine
 62
7
  6
BYLAYER
 10
760.3037466046
 20
171.170808366
 11
760.3037466046
 21
170.170808366
  0
LINE
  5
297
100
AcDbEntity
  8
0
100
AcDbLine
 62
7
  6
BYLAYER
 10
760.3039873418
 20
1901.6709185045
 11
760.3039873418
 21
1900.6709185045
  0
LINE
  5
298
100
AcDbEntity
  8
0
100
AcDbLine
 62
7
  6
BYLAYER
 10
761.3037466046
 20
169.170808366
 11
761.3037466046
 21
171.170808366
  0
LINE
  5
299
100
AcDbEntity
  8
0
100
AcDbLine
 62
7
  6
BYLAYER
 10
761.3039873418
 20
1900.6709185045
 11
761.3039873418
 21
1902.6709185045
  0
LINE
  5
29A
100
AcDbEntity
  8
3
100
AcDbLine
 62
7
  6
BYLAYER
 10
707.0623265268
 20
1011.3032344675
 11
752.0623265268
 21
1011.3032344675
  0
LINE
  5
29B
100
AcDbEntity
  8
3
100
AcDbLine
 62
7
  6
BYLAYER
 10
747.7256118429
 20
1014.9507344675
 11
748.9702111047
 21
1014.9507344675
  0
LINE
  5
29C
100
AcDbEntity
  8
3
100
AcDbLine
 62
7
  6
BYLAYER
 10
752.0623265268
 20
1016.3032344675
 11
749.0623265268
 21
1016.3032344675
  0
LINE
  5
29D
100
AcDbEntity
  8
3
100
AcDbLine
 62
7
  6
BYLAYER
 10
747.6221269089
 20
1016.626697287
 11
744.6221269089
 21
1016.626697287
  0
LINE
  5
29E
100
AcDbEntity
  8
3
100
AcDbLine
 62
7
  6
BYLAYER
 10
710.2623265268
 20
1018.0532344675
 11
723.7623265268
 21
1018.0532344675
  0
LINE
  5
29F
100
AcDbEntity
  8
3
100
AcDbLine
 62
7
  6
BYLAYER
 10
740.3516715015
 20
1018.3032344675
 11
744.6221269089
 21
1018.3032344675
  0
LINE
  5
2A0
100
AcDbEntity
  8
3
100
AcDbLine
 62
7
  6
BYLAYER
 10
747.6221269089
 20
1018.3032344675
 11
747.7256118429
 21
1018.3032344675
  0
LINE
  5
2A1
100
AcDbEntity
  8
3
100
AcDbLine
 62
7
  6
BYLAYER
 10
748.9702111047
 20
1018.3032344675
 11
749.0623265268
 21
1018.3032344675
  0
LINE
  5
2A2
100
AcDbEntity
  8
3
100
AcDbLine
 62
7
  6
BYLAYER
 10
752.0623265268
 20
1018.3032344675
 11
752.3042280789
 21
1018.3032344675
  0
LINE
  5
2A3
100
AcDbEntity
  8
3
100
AcDbLine
 62
7
  6
BYLAYER
 10
747.6221269089
 20
1021.3032344675
 11
744.6221269089
 21
1021.3032344675
  0
LINE
  5
2A4
100
AcDbEntity
  8
3
100
AcDbLine
 62
7
  6
BYLAYER
 10
740.3516715015
 20
1024.3032344675
 11
744.6221269089
 21
1024.3032344675
  0
LINE
  5
2A5
100
AcDbEntity
  8
3
100
AcDbLine
 62
7
  6
BYLAYER
 10
747.6221269089
 20
1024.3032344675
 11
747.7256118429
 21
1024.3032344675
  0
LINE
  5
2A6
100
AcDbEntity
  8
3
100
AcDbLine
 62
7
  6
BYLAYER
 10
748.9702111047
 20
1024.3032344675
 11
749.0623265268
 21
1024.3032344675
  0
LINE
  5
2A7
100
AcDbEntity
  8
3
100
AcDbLine
 62
7
  6
BYLAYER
 10
752.0623265268
 20
1024.3032344675
 11
752.3042280789
 21
1024.3032344675
  0
LINE
  5
2A8
100
AcDbEntity
  8
3
100
AcDbLine
 62
7
  6
BYLAYER
 10
723.7623265268
 20
1024.5532344675
 11
710.2623265268
 21
1024.5532344675
  0
LINE
  5
2A9
100
AcDbEntity
  8
3
100
AcDbLine
 62
7
  6
BYLAYER
 10
747.6221269089
 20
1025.9797716479
 11
744.6221269089
 21
1025.9797716479
  0
LINE
  5
2AA
100
AcDbEntity
  8
3
100
AcDbLine
 62
7
  6
BYLAYER
 10
748.9702111047
 20
1027.6557344675
 11
747.7256118429
 21
1027.6557344675
  0
LINE
  5
2AB
100
AcDbEntity
  8
3
100
AcDbLine
 62
7
  6
BYLAYER
 10
747.7256118429
 20
1044.9507344675
 11
748.9702111047
 21
1044.9507344675
  0
LINE
  5
2AC
100
AcDbEntity
  8
3
100
AcDbLine
 62
7
  6
BYLAYER
 10
747.6221269089
 20
1046.626697287
 11
744.6221269089
 21
1046.626697287
  0
LINE
  5
2AD
100
AcDbEntity
  8
3
100
AcDbLine
 62
7
  6
BYLAYER
 10
710.2623265268
 20
1048.0532344675
 11
723.7623265268
 21
1048.0532344675
  0
LINE
  5
2AE
100
AcDbEntity
  8
3
100
AcDbLine
 62
7
  6
BYLAYER
 10
740.3516715015
 20
1048.3032344675
 11
744.6221269089
 21
1048.3032344675
  0
LINE
  5
2AF
100
AcDbEntity
  8
3
100
AcDbLine
 62
7
  6
BYLAYER
 10
747.6221269089
 20
1048.3032344675
 11
747.7256118429
 21
1048.3032344675
  0
LINE
  5
2B0
100
AcDbEntity
  8
3
100
AcDbLine
 62
7
  6
BYLAYER
 10
748.9702111047
 20
1048.3032344675
 11
749.0623265268
 21
1048.3032344675
  0
LINE
  5
2B1
100
AcDbEntity
  8
3
100
AcDbLine
 62
7
  6
BYLAYER
 10
752.0623265268
 20
1048.3032344675
 11
752.3042280789
 21
1048.3032344675
  0
LINE
  5
2B2
100
AcDbEntity
  8
0
100
AcDbLine
 62
7
  6
BYLAYER
 10
763.6802473418
 20
1910.3709185045
 11
763.6802473418
 21
1909.1709185045
  0
LINE
  5
2B3
100
AcDbEntity
  8
0
100
AcDbLine
 62
7
  6
BYLAYER
 10
771.9302473418
 20
1910.3709185045
 11
771.9302473418
 21
1909.1709185045
  0
LINE
  5
2B4
100
AcDbEntity
  8
0
100
AcDbLine
 62
7
  6
BYLAYER
 10
775.3037466046
 20
186.670808366
 11
775.3037466046
 21
170.170808366
  0
LINE
  5
2B5
100
AcDbEntity
  8
0
100
AcDbLine
 62
7
  6
BYLAYER
 10
775.3039873418
 20
1901.6709185045
 11
775.3039873418
 21
1885.1709185045
  0
LINE
  5
2B6
100
AcDbEntity
  8
3
100
AcDbLine
 62
7
  6
BYLAYER
 10
775.3042453938
 20
1885.170931313
 11
775.3042453938
 21
186.670931313
  0
LINE
  5
2B7
100
AcDbEntity
  8
0
100
AcDbLine
 62
7
  6
BYLAYER
 10
775.5539873418
 20
1902.6709185045
 11
775.5539873418
 21
1908.6709185045
  0
LINE
  5
2B8
100
AcDbEntity
  8
0
100
AcDbLine
 62
7
  6
BYLAYER
 10
775.8037466046
 20
170.170808366
 11
775.8037466046
 21
186.670808366
  0
LINE
  5
2B9
100
AcDbEntity
  8
0
100
AcDbLine
 62
7
  6
BYLAYER
 10
775.8039873418
 20
1885.1709185045
 11
775.8039873418
 21
1901.6709185044
  0
LINE
  5
2BA
100
AcDbEntity
  8
3
100
AcDbLine
 62
7
  6
BYLAYER
 10
775.8042453938
 20
186.670931313
 11
775.8042453938
 21
1885.170931313
  0
LINE
  5
2BB
100
AcDbEntity
  8
0
100
AcDbLine
 62
7
  6
BYLAYER
 10
782.5539873418
 20
1902.6709185045
 11
782.5539873418
 21
1908.6709185045
  0
LINE
  5
2BC
100
AcDbEntity
  8
0
100
AcDbLine
 62
7
  6
BYLAYER
 10
783.8037466046
 20
186.670808366
 11
783.8037466046
 21
170.170808366
  0
LINE
  5
2BD
100
AcDbEntity
  8
0
100
AcDbLine
 62
7
  6
BYLAYER
 10
783.8039873418
 20
1901.6709185044
 11
783.8039873418
 21
1885.1709185045
  0
LINE
  5
2BE
100
AcDbEntity
  8
3
100
AcDbLine
 62
7
  6
BYLAYER
 10
783.8042453938
 20
1885.170931313
 11
783.8042453938
 21
186.670931313
  0
LINE
  5
2BF
100
AcDbEntity
  8
0
100
AcDbLine
 62
7
  6
BYLAYER
 10
784.3037466046
 20
170.170808366
 11
784.3037466046
 21
186.670808366
  0
LINE
  5
2C0
100
AcDbEntity
  8
0
100
AcDbLine
 62
7
  6
BYLAYER
 10
784.3039873418
 20
1885.1709185045
 11
784.3039873418
 21
1901.6709185045
  0
LINE
  5
2C1
100
AcDbEntity
  8
0
100
AcDbLine
 62
7
  6
BYLAYER
 10
784.3039873418
 20
1909.1709185045
 11
784.3039873418
 21
1912.670917567
  0
LINE
  5
2C2
100
AcDbEntity
  8
3
100
AcDbLine
 62
7
  6
BYLAYER
 10
784.3042453938
 20
186.670931313
 11
784.3042453938
 21
1885.170931313
  0
LINE
  5
2C3
100
AcDbEntity
  8
0
100
AcDbLine
 62
7
  6
BYLAYER
 10
786.1795673418
 20
1910.3709185045
 11
786.1795673418
 21
1909.1709185045
  0
LINE
  5
2C4
100
AcDbEntity
  8
0
100
AcDbLine
 62
7
  6
BYLAYER
 10
792.3037466046
 20
171.170808366
 11
792.3037466046
 21
169.170808366
  0
LINE
  5
2C5
100
AcDbEntity
  8
0
100
AcDbLine
 62
7
  6
BYLAYER
 10
792.3039873418
 20
1902.6709185045
 11
792.3039873418
 21
1900.6709185045
  0
LINE
  5
2C6
100
AcDbEntity
  8
0
100
AcDbLine
 62
7
  6
BYLAYER
 10
793.3037466046
 20
170.170808366
 11
793.3037466046
 21
171.170808366
  0
LINE
  5
2C7
100
AcDbEntity
  8
0
100
AcDbLine
 62
7
  6
BYLAYER
 10
793.3039873418
 20
1900.6709185045
 11
793.3039873418
 21
1901.6709185045
  0
LINE
  5
2C8
100
AcDbEntity
  8
0
100
AcDbLine
 62
7
  6
BYLAYER
 10
793.5039873418
 20
1900.2725173811
 11
793.5039873418
 21
1901.7709185045
  0
LINE
  5
2C9
100
AcDbEntity
  8
0
100
AcDbLine
 62
7
  6
BYLAYER
 10
793.5042453938
 20
171.5697082785
 11
793.5042453938
 21
170.0709185045
  0
LINE
  5
2CA
100
AcDbEntity
  8
0
100
AcDbLine
 62
7
  6
BYLAYER
 10
793.8037466774
 20
171.670808366
 11
793.8037466774
 21
172.170808366
  0
LINE
  5
2CB
100
AcDbEntity
  8
0
100
AcDbLine
 62
7
  6
BYLAYER
 10
793.8039874093
 20
1899.6709185045
 11
793.8039874093
 21
1900.1709185045
  0
LINE
  5
2CC
100
AcDbEntity
  8
0
100
AcDbLine
 62
7
  6
BYLAYER
 10
794.3697395399
 20
1909.1709185045
 11
794.3697395399
 21
1910.3709185045
  0
LINE
  5
2CD
100
AcDbEntity
  8
0
100
AcDbLine
 62
7
  6
BYLAYER
 10
796.3039873418
 20
1909.1709185045
 11
796.3039873418
 21
1912.670917567
  0
LINE
  5
2CE
100
AcDbEntity
  8
0
100
AcDbLine
 62
7
  6
BYLAYER
 10
798.0539873418
 20
1902.7709185045
 11
798.0539873418
 21
1908.6709185045
  0
LINE
  5
2CF
100
AcDbEntity
  8
0
100
AcDbLine
 62
7
  6
BYLAYER
 10
798.9031971582
 20
186.670808366
 11
798.9031971582
 21
171.670808366
  0
LINE
  5
2D0
100
AcDbEntity
  8
0
100
AcDbLine
 62
7
  6
BYLAYER
 10
798.9034378954
 20
1900.1709185045
 11
798.9034378954
 21
1885.1709185045
  0
LINE
  5
2D1
100
AcDbEntity
  8
3
100
AcDbLine
 62
7
  6
BYLAYER
 10
798.9036959474
 20
1885.170931313
 11
798.9036959474
 21
186.670931313
  0
LINE
  5
2D2
100
AcDbEntity
  8
0
100
AcDbLine
 62
7
  6
BYLAYER
 10
800.1039873418
 20
1900.2725173811
 11
800.1039873418
 21
1901.7709185045
  0
LINE
  5
2D3
100
AcDbEntity
  8
0
100
AcDbLine
 62
7
  6
BYLAYER
 10
800.1042453938
 20
171.5687107001
 11
800.1042453938
 21
170.0709185045
  0
LINE
  5
2D4
100
AcDbEntity
  8
0
100
AcDbLine
 62
7
  6
BYLAYER
 10
800.3037466046
 20
171.170808366
 11
800.3037466046
 21
170.170808366
  0
LINE
  5
2D5
100
AcDbEntity
  8
0
100
AcDbLine
 62
7
  6
BYLAYER
 10
800.3039873418
 20
1901.6709185045
 11
800.3039873418
 21
1900.6709185045
  0
LINE
  5
2D6
100
AcDbEntity
  8
0
100
AcDbLine
 62
7
  6
BYLAYER
 10
801.6504084372
 20
172.170808366
 11
801.6504084372
 21
186.670808366
  0
LINE
  5
2D7
100
AcDbEntity
  8
0
100
AcDbLine
 62
7
  6
BYLAYER
 10
801.6506491743
 20
1885.1709185045
 11
801.6506491743
 21
1899.6709185045
  0
LINE
  5
2D8
100
AcDbEntity
  8
3
100
AcDbLine
 62
7
  6
BYLAYER
 10
801.6509072264
 20
186.670931313
 11
801.6509072264
 21
1885.170931313
  0
LINE
  5
2D9
100
AcDbEntity
  8
0
100
AcDbLine
 62
7
  6
BYLAYER
 10
802.2158282964
 20
170.170808366
 11
802.2158282964
 21
172.170808366
  0
LINE
  5
2DA
100
AcDbEntity
  8
0
100
AcDbLine
 62
7
  6
BYLAYER
 10
802.2160690336
 20
1899.6709185045
 11
802.2160690336
 21
1901.6709185045
  0
LINE
  5
2DB
100
AcDbEntity
  8
0
100
AcDbLine
 62
7
  6
BYLAYER
 10
805.8531888604
 20
186.670808366
 11
805.8531888604
 21
170.170808366
  0
LINE
  5
2DC
100
AcDbEntity
  8
0
100
AcDbLine
 62
7
  6
BYLAYER
 10
805.8534295976
 20
1901.6709185045
 11
805.8534295976
 21
1885.1709185045
  0
LINE
  5
2DD
100
AcDbEntity
  8
3
100
AcDbLine
 62
7
  6
BYLAYER
 10
805.8536876495
 20
1885.170931313
 11
805.8536876495
 21
186.670931313
  0
LINE
  5
2DE
100
AcDbEntity
  8
0
100
AcDbLine
 62
7
  6
BYLAYER
 10
807.3037466046
 20
170.170808366
 11
807.3037466046
 21
186.670808366
  0
LINE
  5
2DF
100
AcDbEntity
  8
0
100
AcDbLine
 62
7
  6
BYLAYER
 10
807.3039873418
 20
1885.1709185045
 11
807.3039873418
 21
1901.6709185045
  0
LINE
  5
2E0
100
AcDbEntity
  8
3
100
AcDbLine
 62
7
  6
BYLAYER
 10
807.3042453938
 20
1885.170931313
 11
807.3042453938
 21
186.670931313
  0
LINE
  5
2E1
100
AcDbEntity
  8
3
100
AcDbLine
 62
7
  6
BYLAYER
 10
747.6221269089
 20
1051.3032344675
 11
744.6221269089
 21
1051.3032344675
  0
LINE
  5
2E2
100
AcDbEntity
  8
3
100
AcDbLine
 62
7
  6
BYLAYER
 10
740.3516715015
 20
1054.3032344675
 11
744.6221269089
 21
1054.3032344675
  0
LINE
  5
2E3
100
AcDbEntity
  8
3
100
AcDbLine
 62
7
  6
BYLAYER
 10
747.6221269089
 20
1054.3032344675
 11
747.7256118429
 21
1054.3032344675
  0
LINE
  5
2E4
100
AcDbEntity
  8
3
100
AcDbLine
 62
7
  6
BYLAYER
 10
748.9702111047
 20
1054.3032344675
 11
749.0623265268
 21
1054.3032344675
  0
LINE
  5
2E5
100
AcDbEntity
  8
3
100
AcDbLine
 62
7
  6
BYLAYER
 10
752.0623265268
 20
1054.3032344675
 11
752.3042280789
 21
1054.3032344675
  0
LINE
  5
2E6
100
AcDbEntity
  8
3
100
AcDbLine
 62
7
  6
BYLAYER
 10
723.7623265268
 20
1054.5532344675
 11
710.2623265268
 21
1054.5532344675
  0
LINE
  5
2E7
100
AcDbEntity
  8
3
100
AcDbLine
 62
7
  6
BYLAYER
 10
747.6221269089
 20
1055.9797716479
 11
744.6221269089
 21
1055.9797716479
  0
LINE
  5
2E8
100
AcDbEntity
  8
3
100
AcDbLine
 62
7
  6
BYLAYER
 10
749.0623265268
 20
1056.3032344675
 11
752.0623265268
 21
1056.3032344675
  0
LINE
  5
2E9
100
AcDbEntity
  8
3
100
AcDbLine
 62
7
  6
BYLAYER
 10
748.9702111047
 20
1057.6557344675
 11
747.7256118429
 21
1057.6557344675
  0
LINE
  5
2EA
100
AcDbEntity
  8
3
100
AcDbLine
 62
7
  6
BYLAYER
 10
707.0623265268
 20
1061.3032344675
 11
752.0623265268
 21
1061.3032344675
  0
LINE
  5
2EB
100
AcDbEntity
  8
0
100
AcDbLine
 62
7
  6
BYLAYER
 10
775.0539873418
 20
1909.1709185045
 11
775.5539873418
 21
1908.6709185045
  0
LINE
  5
2EC
100
AcDbEntity
  8
0
100
AcDbLine
 62
7
  6
BYLAYER
 10
797.5539873418
 20
1909.1709185045
 11
798.0539873418
 21
1908.6709185045
  0
LINE
  5
2ED
100
AcDbEntity
  8
0
100
AcDbLine
 62
7
  6
BYLAYER
 10
795.803987906
 20
1913.1709199188
 11
796.3039888897
 21
1912.670919115
  0
LINE
  5
2EE
100
AcDbEntity
  8
3
100
AcDbLine
 62
7
  6
BYLAYER
 10
707.0623265268
 20
1810.3539960885
 11
752.0623265268
 21
1810.3539960885
  0
LINE
  5
2EF
100
AcDbEntity
  8
3
100
AcDbLine
 62
7
  6
BYLAYER
 10
747.7256118429
 20
1814.0014960885
 11
748.9702111047
 21
1814.0014960885
  0
LINE
  5
2F0
100
AcDbEntity
  8
3
100
AcDbLine
 62
7
  6
BYLAYER
 10
752.0623265268
 20
1815.3539960885
 11
749.0623265268
 21
1815.3539960885
  0
LINE
  5
2F1
100
AcDbEntity
  8
3
100
AcDbLine
 62
7
  6
BYLAYER
 10
747.6221269089
 20
1815.6774589081
 11
744.6221269089
 21
1815.6774589081
  0
LINE
  5
2F2
100
AcDbEntity
  8
3
100
AcDbLine
 62
7
  6
BYLAYER
 10
710.2623265268
 20
1817.1039960885
 11
723.7623265268
 21
1817.1039960885
  0
LINE
  5
2F3
100
AcDbEntity
  8
3
100
AcDbLine
 62
7
  6
BYLAYER
 10
740.3516715015
 20
1817.3539960885
 11
744.6221269089
 21
1817.3539960885
  0
LINE
  5
2F4
100
AcDbEntity
  8
3
100
AcDbLine
 62
7
  6
BYLAYER
 10
747.6221269089
 20
1817.3539960885
 11
747.7256118429
 21
1817.3539960885
  0
LINE
  5
2F5
100
AcDbEntity
  8
3
100
AcDbLine
 62
7
  6
BYLAYER
 10
748.9702111047
 20
1817.3539960885
 11
749.0623265268
 21
1817.3539960885
  0
LINE
  5
2F6
100
AcDbEntity
  8
3
100
AcDbLine
 62
7
  6
BYLAYER
 10
752.0623265268
 20
1817.3539960885
 11
752.3042280789
 21
1817.3539960885
  0
LINE
  5
2F7
100
AcDbEntity
  8
3
100
AcDbLine
 62
7
  6
BYLAYER
 10
747.6221269089
 20
1820.3539960885
 11
744.6221269089
 21
1820.3539960885
  0
LINE
  5
2F8
100
AcDbEntity
  8
3
100
AcDbLine
 62
7
  6
BYLAYER
 10
740.3516715015
 20
1823.3539960885
 11
744.6221269089
 21
1823.3539960885
  0
LINE
  5
2F9
100
AcDbEntity
  8
3
100
AcDbLine
 62
7
  6
BYLAYER
 10
747.6221269089
 20
1823.3539960885
 11
747.7256118429
 21
1823.3539960885
  0
LINE
  5
2FA
100
AcDbEntity
  8
3
100
AcDbLine
 62
7
  6
BYLAYER
 10
748.9702111047
 20
1823.3539960885
 11
749.0623265268
 21
1823.3539960885
  0
LINE
  5
2FB
100
AcDbEntity
  8
3
100
AcDbLine
 62
7
  6
BYLAYER
 10
752.0623265268
 20
1823.3539960885
 11
752.3042280789
 21
1823.3539960885
  0
LINE
  5
2FC
100
AcDbEntity
  8
3
100
AcDbLine
 62
7
  6
BYLAYER
 10
723.7623265268
 20
1823.6039960885
 11
710.2623265268
 21
1823.6039960885
  0
LINE
  5
2FD
100
AcDbEntity
  8
3
100
AcDbLine
 62
7
  6
BYLAYER
 10
747.6221269089
 20
1825.030533269
 11
744.6221269089
 21
1825.030533269
  0
LINE
  5
2FE
100
AcDbEntity
  8
3
100
AcDbLine
 62
7
  6
BYLAYER
 10
748.9702111047
 20
1826.7064960885
 11
747.7256118429
 21
1826.7064960885
  0
LINE
  5
2FF
100
AcDbEntity
  8
3
100
AcDbLine
 62
7
  6
BYLAYER
 10
747.7256118429
 20
1844.0014960885
 11
748.9702111047
 21
1844.0014960885
  0
LINE
  5
300
100
AcDbEntity
  8
3
100
AcDbLine
 62
7
  6
BYLAYER
 10
747.6221269089
 20
1845.6774589081
 11
744.6221269089
 21
1845.6774589081
  0
LINE
  5
301
100
AcDbEntity
  8
3
100
AcDbLine
 62
7
  6
BYLAYER
 10
710.2623265268
 20
1847.1039960885
 11
723.7623265268
 21
1847.1039960885
  0
LINE
  5
302
100
AcDbEntity
  8
3
100
AcDbLine
 62
7
  6
BYLAYER
 10
740.3516715015
 20
1847.3539960885
 11
744.6221269089
 21
1847.3539960885
  0
LINE
  5
303
100
AcDbEntity
  8
3
100
AcDbLine
 62
7
  6
BYLAYER
 10
747.6221269089
 20
1847.3539960885
 11
747.7256118429
 21
1847.3539960885
  0
LINE
  5
304
100
AcDbEntity
  8
3
100
AcDbLine
 62
7
  6
BYLAYER
 10
748.9702111047
 20
1847.3539960885
 11
749.0623265268
 21
1847.3539960885
  0
LINE
  5
305
100
AcDbEntity
  8
3
100
AcDbLine
 62
7
  6
BYLAYER
 10
752.0623265268
 20
1847.3539960885
 11
752.3042280789
 21
1847.3539960885
  0
LINE
  5
306
100
AcDbEntity
  8
3
100
AcDbLine
 62
7
  6
BYLAYER
 10
747.6221269089
 20
1850.3539960885
 11
744.6221269089
 21
1850.3539960885
  0
LINE
  5
307
100
AcDbEntity
  8
3
100
AcDbLine
 62
7
  6
BYLAYER
 10
740.3516715015
 20
1853.3539960885
 11
744.6221269089
 21
1853.3539960885
  0
LINE
  5
308
100
AcDbEntity
  8
3
100
AcDbLine
 62
7
  6
BYLAYER
 10
747.6221269089
 20
1853.3539960885
 11
747.7256118429
 21
1853.3539960885
  0
LINE
  5
309
100
AcDbEntity
  8
3
100
AcDbLine
 62
7
  6
BYLAYER
 10
748.9702111047
 20
1853.3539960885
 11
749.0623265268
 21
1853.3539960885
  0
LINE
  5
30A
100
AcDbEntity
  8
3
100
AcDbLine
 62
7
  6
BYLAYER
 10
752.0623265268
 20
1853.3539960885
 11
752.3042280789
 21
1853.3539960885
  0
LINE
  5
30B
100
AcDbEntity
  8
3
100
AcDbLine
 62
7
  6
BYLAYER
 10
723.7623265268
 20
1853.6039960885
 11
710.2623265268
 21
1853.6039960885
  0
LINE
  5
30C
100
AcDbEntity
  8
3
100
AcDbLine
 62
7
  6
BYLAYER
 10
747.6221269089
 20
1855.030533269
 11
744.6221269089
 21
1855.030533269
  0
LINE
  5
30D
100
AcDbEntity
  8
3
100
AcDbLine
 62
7
  6
BYLAYER
 10
749.0623265268
 20
1855.3539960885
 11
752.0623265268
 21
1855.3539960885
  0
LINE
  5
30E
100
AcDbEntity
  8
3
100
AcDbLine
 62
7
  6
BYLAYER
 10
748.9702111047
 20
1856.7064960885
 11
747.7256118429
 21
1856.7064960885
  0
LINE
  5
30F
100
AcDbEntity
  8
3
100
AcDbLine
 62
7
  6
BYLAYER
 10
707.0623265268
 20
1860.3539960885
 11
752.0623265268
 21
1860.3539960885
  0
LINE
  5
310
100
AcDbEntity
  8
0
100
AcDbLine
 62
7
  6
BYLAYER
 10
752.3039873418
 20
1885.1709185045
 11
807.3039873418
 21
1885.1709185045
  0
LINE
  5
311
100
AcDbEntity
  8
3
100
AcDbLine
 62
7
  6
BYLAYER
 10
752.3042280789
 20
1885.170931313
 11
807.3042453938
 21
1885.170931313
  0
LINE
  5
312
100
AcDbEntity
  8
0
100
AcDbLine
 62
7
  6
BYLAYER
 10
790.3203892503
 20
1898.6709185045
 11
782.3039873418
 21
1898.6709185045
  0
LINE
  5
313
100
AcDbEntity
  8
0
100
AcDbLine
 62
7
  6
BYLAYER
 10
767.7875854333
 20
1898.6709185045
 11
775.8039873418
 21
1898.6709185045
  0
LINE
  5
314
100
AcDbEntity
  8
0
100
AcDbLine
 62
7
  6
BYLAYER
 10
790.3201735467
 20
1898.6821127555
 11
782.4091963707
 21
1898.6821127555
  0
LINE
  5
315
100
AcDbEntity
  8
0
100
AcDbLine
 62
7
  6
BYLAYER
 10
767.7878013162
 20
1898.6821315874
 11
775.6986908571
 21
1898.6821315874
  0
LINE
  5
316
100
AcDbEntity
  8
0
100
AcDbLine
 62
7
  6
BYLAYER
 10
790.3206049539
 20
1899.6597242534
 11
782.1987783129
 21
1899.6597242534
  0
LINE
  5
317
100
AcDbEntity
  8
0
100
AcDbLine
 62
7
  6
BYLAYER
 10
767.7873695504
 20
1899.6597054215
 11
775.9092838264
 21
1899.6597054215
  0
LINE
  5
318
100
AcDbEntity
  8
0
100
AcDbLine
 62
7
  6
BYLAYER
 10
752.3039873418
 20
1899.6709185045
 11
759.8039873418
 21
1899.6709185045
  0
LINE
  5
319
100
AcDbEntity
  8
0
100
AcDbLine
 62
7
  6
BYLAYER
 10
793.8039873418
 20
1899.6709185045
 11
802.2160690336
 21
1899.6709185045
  0
LINE
  5
31A
100
AcDbEntity
  8
0
100
AcDbLine
 62
7
  6
BYLAYER
 10
752.8039873418
 20
1900.1709185045
 11
759.8039873418
 21
1900.1709185045
  0
LINE
  5
31B
100
AcDbEntity
  8
0
100
AcDbLine
 62
7
  6
BYLAYER
 10
793.8039873418
 20
1900.1709185045
 11
800.3537408354
 21
1900.1709185045
  0
LINE
  5
31C
100
AcDbEntity
  8
0
100
AcDbLine
 62
7
  6
BYLAYER
 10
800.7163025713
 20
1900.6709185045
 11
800.1039873418
 21
1900.6709185045
  0
LINE
  5
31D
100
AcDbEntity
  8
0
100
AcDbLine
 62
7
  6
BYLAYER
 10
793.5039873418
 20
1900.6709185045
 11
792.3039873418
 21
1900.6709185616
  0
LINE
  5
31E
100
AcDbEntity
  8
0
100
AcDbLine
 62
7
  6
BYLAYER
 10
761.3039873418
 20
1900.6709185734
 11
760.1039873418
 21
1900.6709185045
  0
LINE
  5
31F
100
AcDbEntity
  8
0
100
AcDbLine
 62
7
  6
BYLAYER
 10
753.5039873418
 20
1900.6709185045
 11
752.3039873418
 21
1900.6709185734
  0
LINE
  5
320
100
AcDbEntity
  8
0
100
AcDbLine
 62
7
  6
BYLAYER
 10
752.3039873418
 20
1901.6709185045
 11
753.5039873418
 21
1901.6709185045
  0
LINE
  5
321
100
AcDbEntity
  8
0
100
AcDbLine
 62
7
  6
BYLAYER
 10
760.1039873418
 20
1901.6709185045
 11
775.8039873418
 21
1901.6709184978
  0
LINE
  5
322
100
AcDbEntity
  8
0
100
AcDbLine
 62
7
  6
BYLAYER
 10
783.8039873418
 20
1901.6709185044
 11
793.5039873418
 21
1901.6709185045
  0
LINE
  5
323
100
AcDbEntity
  8
0
100
AcDbLine
 62
7
  6
BYLAYER
 10
800.1039873418
 20
1901.6709185045
 11
807.3039873418
 21
1901.6709185045
  0
LINE
  5
324
100
AcDbEntity
  8
0
100
AcDbLine
 62
7
  6
BYLAYER
 10
753.5039873418
 20
1901.7709185045
 11
760.1039873418
 21
1901.7709185045
  0
LINE
  5
325
100
AcDbEntity
  8
0
100
AcDbLine
 62
7
  6
BYLAYER
 10
793.5039873418
 20
1901.7709185045
 11
800.1039873418
 21
1901.7709185045
  0
LINE
  5
326
100
AcDbEntity
  8
0
100
AcDbLine
 62
7
  6
BYLAYER
 10
775.6625391617
 20
1902.1709185045
 11
783.944470996
 21
1902.1709185045
  0
LINE
  5
327
100
AcDbEntity
  8
0
100
AcDbLine
 62
7
  6
BYLAYER
 10
754.1307821383
 20
1902.6709185045
 11
753.3039873418
 21
1902.6709185045
  0
LINE
  5
328
100
AcDbEntity
  8
0
100
AcDbLine
 62
7
  6
BYLAYER
 10
759.4771925453
 20
1902.6709185045
 11
794.1307821383
 21
1902.6709185045
  0
LINE
  5
329
100
AcDbEntity
  8
0
100
AcDbLine
 62
7
  6
BYLAYER
 10
799.4771925453
 20
1902.6709185045
 11
806.3039873418
 21
1902.6709185045
  0
LINE
  5
32A
100
AcDbEntity
  8
0
100
AcDbLine
 62
7
  6
BYLAYER
 10
754.5040799409
 20
1902.7709185045
 11
759.1039032432
 21
1902.7709185045
  0
LINE
  5
32B
100
AcDbEntity
  8
0
100
AcDbLine
 62
7
  6
BYLAYER
 10
794.5040799409
 20
1902.7709185045
 11
799.1039032432
 21
1902.7709185045
  0
LINE
  5
32C
100
AcDbEntity
  8
0
100
AcDbLine
 62
7
  6
BYLAYER
 10
798.053923045
 20
1904.1709185045
 11
782.5540516386
 21
1904.1709185045
  0
LINE
  5
32D
100
AcDbEntity
  8
0
100
AcDbLine
 62
7
  6
BYLAYER
 10
775.553923045
 20
1904.1709185045
 11
760.0540516386
 21
1904.1709185045
  0
LINE
  5
32E
100
AcDbEntity
  8
0
100
AcDbLine
 62
7
  6
BYLAYER
 10
798.0539873418
 20
1907.1709185045
 11
782.5539873418
 21
1907.1709185045
  0
LINE
  5
32F
100
AcDbEntity
  8
0
100
AcDbLine
 62
7
  6
BYLAYER
 10
775.5539873418
 20
1907.1709185045
 11
760.0539873418
 21
1907.1709185045
  0
LINE
  5
330
100
AcDbEntity
  8
0
100
AcDbLine
 62
7
  6
BYLAYER
 10
760.0539873418
 20
1908.6709185045
 11
775.5539873418
 21
1908.6709185045
  0
LINE
  5
331
100
AcDbEntity
  8
0
100
AcDbLine
 62
7
  6
BYLAYER
 10
782.5539873418
 20
1908.6709185045
 11
798.0539873418
 21
1908.6709185045
  0
LINE
  5
332
100
AcDbEntity
  8
0
100
AcDbLine
 62
7
  6
BYLAYER
 10
760.5539873418
 20
1909.1709185045
 11
775.0539873418
 21
1909.1709185045
  0
LINE
  5
333
100
AcDbEntity
  8
0
100
AcDbLine
 62
7
  6
BYLAYER
 10
783.0539873418
 20
1909.1709185045
 11
797.5539873418
 21
1909.1709185045
  0
LINE
  5
334
100
AcDbEntity
  8
0
100
AcDbLine
 62
7
  6
BYLAYER
 10
763.6802473418
 20
1910.3709185045
 11
771.9302473418
 21
1910.3709185045
  0
LINE
  5
335
100
AcDbEntity
  8
0
100
AcDbLine
 62
7
  6
BYLAYER
 10
786.1795673418
 20
1910.3709185045
 11
794.3697395399
 21
1910.3709185045
  0
LINE
  5
336
100
AcDbEntity
  8
0
100
AcDbLine
 62
7
  6
BYLAYER
 10
763.9803348178
 20
1910.6709185045
 11
771.6302659589
 21
1910.6709185045
  0
LINE
  5
337
100
AcDbEntity
  8
0
100
AcDbLine
 62
7
  6
BYLAYER
 10
786.479576006
 20
1910.6709185045
 11
794.0649619758
 21
1910.6709185045
  0
LINE
  5
338
100
AcDbEntity
  8
0
100
AcDbLine
 62
7
  6
BYLAYER
 10
784.3039873418
 20
1912.670917567
 11
796.3039873418
 21
1912.670917567
  0
LINE
  5
339
100
AcDbEntity
  8
0
100
AcDbLine
 62
7
  6
BYLAYER
 10
784.8039867775
 20
1913.1709185045
 11
795.803987906
 21
1913.1709185045
  0
ARC
  5
33A
100
AcDbEntity
  8
3
100
AcDbCircle
 62
7
  6
BYLAYER
 10
707.0623265268
 20
1016.3032344675
 40
5.0
100
AcDbArc
 50
180.0
 51
270.0
  0
ARC
  5
33B
100
AcDbEntity
  8
3
100
AcDbCircle
 62
7
  6
BYLAYER
 10
707.0623265268
 20
259.0190936277
 40
5.0
100
AcDbArc
 50
90.0
 51
180.0
  0
ARC
  5
33C
100
AcDbEntity
  8
3
100
AcDbCircle
 62
7
  6
BYLAYER
 10
707.0623265268
 20
219.0190936277
 40
5.0
100
AcDbArc
 50
180.0
 51
270.0
  0
ARC
  5
33D
100
AcDbEntity
  8
3
100
AcDbCircle
 62
7
  6
BYLAYER
 10
710.2623265268
 20
1021.3032344675
 40
3.25
100
AcDbArc
 50
90.0
 51
270.0
  0
ARC
  5
33E
100
AcDbEntity
  8
3
100
AcDbCircle
 62
7
  6
BYLAYER
 10
723.7623265268
 20
1021.3032344675
 40
3.25
100
AcDbArc
 50
270.0
 51
90.0
  0
ARC
  5
33F
100
AcDbEntity
  8
3
100
AcDbCircle
 62
7
  6
BYLAYER
 10
710.2623265268
 20
224.0190936277
 40
3.25
100
AcDbArc
 50
90.0
 51
270.0
  0
ARC
  5
340
100
AcDbEntity
  8
3
100
AcDbCircle
 62
7
  6
BYLAYER
 10
723.7623265268
 20
224.0190936277
 40
3.25
100
AcDbArc
 50
270.0
 51
90.0
  0
ARC
  5
341
100
AcDbEntity
  8
3
100
AcDbCircle
 62
7
  6
BYLAYER
 10
710.2623265268
 20
254.0190936277
 40
3.25
100
AcDbArc
 50
90.0
 51
270.0
  0
ARC
  5
342
100
AcDbEntity
  8
3
100
AcDbCircle
 62
7
  6
BYLAYER
 10
723.7623265268
 20
254.0190936277
 40
3.25
100
AcDbArc
 50
270.0
 51
90.0
  0
ARC
  5
343
100
AcDbEntity
  8
0
100
AcDbCircle
 62
7
  6
BYLAYER
 10
754.5042335206
 20
170.0709185045
 40
1.0
100
AcDbArc
 50
180.0
 51
270.0
  0
ARC
  5
344
100
AcDbEntity
  8
0
100
AcDbCircle
 62
7
  6
BYLAYER
 10
753.3037466046
 20
170.170808366
 40
1.0
100
AcDbArc
 50
179.9999999999
 51
270.0
  0
ARC
  5
345
100
AcDbEntity
  8
0
100
AcDbCircle
 62
7
  6
BYLAYER
 10
752.8037466046
 20
172.170808366
 40
0.5
100
AcDbArc
 50
180.0
 51
270.0
  0
ARC
  5
346
100
AcDbEntity
  8
3
100
AcDbCircle
 62
7
  6
BYLAYER
 10
707.0623265268
 20
1056.3032344675
 40
5.0
100
AcDbArc
 50
90.0
 51
180.0
  0
ARC
  5
347
100
AcDbEntity
  8
3
100
AcDbCircle
 62
7
  6
BYLAYER
 10
710.2623265268
 20
1051.3032344675
 40
3.25
100
AcDbArc
 50
90.0
 51
270.0
  0
ARC
  5
348
100
AcDbEntity
  8
3
100
AcDbCircle
 62
7
  6
BYLAYER
 10
723.7623265268
 20
1051.3032344675
 40
3.25
100
AcDbArc
 50
270.0
 51
90.0
  0
ARC
  5
349
100
AcDbEntity
  8
3
100
AcDbCircle
 62
7
  6
BYLAYER
 10
707.0623265268
 20
1855.3539960885
 40
5.0
100
AcDbArc
 50
90.0
 51
180.0
  0
ARC
  5
34A
100
AcDbEntity
  8
3
100
AcDbCircle
 62
7
  6
BYLAYER
 10
707.0623265268
 20
1815.3539960885
 40
5.0
100
AcDbArc
 50
180.0
 51
270.0
  0
ARC
  5
34B
100
AcDbEntity
  8
3
100
AcDbCircle
 62
7
  6
BYLAYER
 10
710.2623265268
 20
1820.3539960885
 40
3.25
100
AcDbArc
 50
90.0
 51
270.0
  0
ARC
  5
34C
100
AcDbEntity
  8
3
100
AcDbCircle
 62
7
  6
BYLAYER
 10
723.7623265268
 20
1820.3539960885
 40
3.25
100
AcDbArc
 50
270.0
 51
90.0
  0
ARC
  5
34D
100
AcDbEntity
  8
3
100
AcDbCircle
 62
7
  6
BYLAYER
 10
710.2623265268
 20
1850.3539960885
 40
3.25
100
AcDbArc
 50
90.0
 51
270.0
  0
ARC
  5
34E
100
AcDbEntity
  8
3
100
AcDbCircle
 62
7
  6
BYLAYER
 10
723.7623265268
 20
1850.3539960885
 40
3.25
100
AcDbArc
 50
270.0
 51
90.0
  0
ARC
  5
34F
100
AcDbEntity
  8
0
100
AcDbCircle
 62
7
  6
BYLAYER
 10
754.5039873418
 20
1901.7709185045
 40
1.0
100
AcDbArc
 50
90.0
 51
180.0
  0
ARC
  5
350
100
AcDbEntity
  8
0
100
AcDbCircle
 62
7
  6
BYLAYER
 10
753.3039873418
 20
1901.6709185045
 40
1.0
100
AcDbArc
 50
90.0
 51
180.0000000001
  0
ARC
  5
351
100
AcDbEntity
  8
0
100
AcDbCircle
 62
7
  6
BYLAYER
 10
752.8039873418
 20
1899.6709185045
 40
0.5
100
AcDbArc
 50
90.0
 51
180.0
  0
ARC
  5
352
100
AcDbEntity
  8
0
100
AcDbCircle
 62
7
  6
BYLAYER
 10
780.0305492179
 20
157.5962796962
 40
25.9492033245
100
AcDbArc
 50
33.0803197532
 51
33.623639098
  0
ARC
  5
353
100
AcDbEntity
  8
0
100
AcDbCircle
 62
7
  6
BYLAYER
 10
759.1042335206
 20
170.0709185045
 40
1.0
100
AcDbArc
 50
270.0
 51
360.0
  0
ARC
  5
354
100
AcDbEntity
  8
0
100
AcDbCircle
 62
7
  6
BYLAYER
 10
774.8037466046
 20
170.170808366
 40
1.0
100
AcDbArc
 50
270.0
 51
360.0
  0
ARC
  5
355
100
AcDbEntity
  8
0
100
AcDbCircle
 62
7
  6
BYLAYER
 10
761.3037466046
 20
170.170808366
 40
1.0
100
AcDbArc
 50
180.0
 51
270.0
  0
ARC
  5
356
100
AcDbEntity
  8
0
100
AcDbCircle
 62
7
  6
BYLAYER
 10
759.8037466046
 20
171.170808366
 40
0.5
100
AcDbArc
 50
0.0
 51
90.0
  0
ARC
  5
357
100
AcDbEntity
  8
0
100
AcDbCircle
 62
7
  6
BYLAYER
 10
794.5042453938
 20
170.0709185045
 40
1.0
100
AcDbArc
 50
180.0
 51
270.0
  0
ARC
  5
358
100
AcDbEntity
  8
0
100
AcDbCircle
 62
7
  6
BYLAYER
 10
799.1042453938
 20
170.0709185045
 40
1.0
100
AcDbArc
 50
270.0
 51
360.0
  0
ARC
  5
359
100
AcDbEntity
  8
0
100
AcDbCircle
 62
7
  6
BYLAYER
 10
784.8037466046
 20
170.170808366
 40
1.0
100
AcDbArc
 50
179.9999999983
 51
270.0
  0
ARC
  5
35A
100
AcDbEntity
  8
0
100
AcDbCircle
 62
7
  6
BYLAYER
 10
792.3037466046
 20
170.170808366
 40
1.0
100
AcDbArc
 50
270.0
 51
360.0
  0
ARC
  5
35B
100
AcDbEntity
  8
0
100
AcDbCircle
 62
7
  6
BYLAYER
 10
801.3037466046
 20
170.170808366
 40
1.0
100
AcDbArc
 50
180.0
 51
270.0
  0
ARC
  5
35C
100
AcDbEntity
  8
0
100
AcDbCircle
 62
7
  6
BYLAYER
 10
806.3037466046
 20
170.170808366
 40
1.0
100
AcDbArc
 50
270.0000000017
 51
360.0
  0
ARC
  5
35D
100
AcDbEntity
  8
0
100
AcDbCircle
 62
7
  6
BYLAYER
 10
793.8037466046
 20
171.170808366
 40
0.5
100
AcDbArc
 50
90.0
 51
180.0
  0
ARC
  5
35E
100
AcDbEntity
  8
0
100
AcDbCircle
 62
7
  6
BYLAYER
 10
799.8037466046
 20
171.170808366
 40
0.5
100
AcDbArc
 50
0.0
 51
90.0
  0
ARC
  5
35F
100
AcDbEntity
  8
0
100
AcDbCircle
 62
7
  6
BYLAYER
 10
759.1039873418
 20
1901.7709185045
 40
1.0
100
AcDbArc
 50
0.0
 51
90.0
  0
ARC
  5
360
100
AcDbEntity
  8
0
100
AcDbCircle
 62
7
  6
BYLAYER
 10
761.3039873418
 20
1901.6709185045
 40
1.0
100
AcDbArc
 50
90.0
 51
180.0
  0
ARC
  5
361
100
AcDbEntity
  8
0
100
AcDbCircle
 62
7
  6
BYLAYER
 10
774.8039873418
 20
1901.6709185045
 40
1.0
100
AcDbArc
 50
0.0
 51
90.0
  0
ARC
  5
362
100
AcDbEntity
  8
0
100
AcDbCircle
 62
7
  6
BYLAYER
 10
759.8039873418
 20
1900.6709185045
 40
0.5
100
AcDbArc
 50
270.0
 51
360.0
  0
ARC
  5
363
100
AcDbEntity
  8
0
100
AcDbCircle
 62
7
  6
BYLAYER
 10
782.3039873418
 20
1899.1709185045
 40
0.5
100
AcDbArc
 50
102.1468526144
 51
282.1468526143
  0
ARC
  5
364
100
AcDbEntity
  8
0
100
AcDbCircle
 62
7
  6
BYLAYER
 10
775.8039873418
 20
1899.1709185045
 40
0.5
100
AcDbArc
 50
257.8196647598
 51
77.8196647598
  0
ARC
  5
365
100
AcDbEntity
  8
0
100
AcDbCircle
 62
7
  6
BYLAYER
 10
778.5769993093
 20
1915.2022982459
 40
27.689607703
100
AcDbArc
 50
326.3934359326
 51
326.9026052162
  0
ARC
  5
366
100
AcDbEntity
  8
0
100
AcDbCircle
 62
7
  6
BYLAYER
 10
763.9802473418
 20
1910.3709185045
 40
0.3
100
AcDbArc
 50
90.0
 51
180.0
  0
ARC
  5
367
100
AcDbEntity
  8
0
100
AcDbCircle
 62
7
  6
BYLAYER
 10
771.6302473418
 20
1910.3709185045
 40
0.3
100
AcDbArc
 50
0.0
 51
90.0
  0
ARC
  5
368
100
AcDbEntity
  8
0
100
AcDbCircle
 62
7
  6
BYLAYER
 10
794.5039873418
 20
1901.7709185045
 40
1.0
100
AcDbArc
 50
90.0
 51
180.0
  0
ARC
  5
369
100
AcDbEntity
  8
0
100
AcDbCircle
 62
7
  6
BYLAYER
 10
799.1039873418
 20
1901.7709185045
 40
1.0
100
AcDbArc
 50
0.0
 51
90.0
  0
ARC
  5
36A
100
AcDbEntity
  8
0
100
AcDbCircle
 62
7
  6
BYLAYER
 10
784.8039873418
 20
1901.6709185045
 40
1.0
100
AcDbArc
 50
90.0
 51
180.0000000008
  0
ARC
  5
36B
100
AcDbEntity
  8
0
100
AcDbCircle
 62
7
  6
BYLAYER
 10
806.3039873418
 20
1901.6709185044
 40
1.0
100
AcDbArc
 50
0.0000000002
 51
90.0000000009
  0
ARC
  5
36C
100
AcDbEntity
  8
0
100
AcDbCircle
 62
7
  6
BYLAYER
 10
792.3039873418
 20
1901.6709185045
 40
1.0
100
AcDbArc
 50
0.0
 51
90.0
  0
ARC
  5
36D
100
AcDbEntity
  8
0
100
AcDbCircle
 62
7
  6
BYLAYER
 10
801.3039873418
 20
1901.6709185045
 40
1.0
100
AcDbArc
 50
90.0000000003
 51
180.0
  0
ARC
  5
36E
100
AcDbEntity
  8
0
100
AcDbCircle
 62
7
  6
BYLAYER
 10
799.8039873418
 20
1900.6709185045
 40
0.5
100
AcDbArc
 50
270.0
 51
360.0
  0
ARC
  5
36F
100
AcDbEntity
  8
0
100
AcDbCircle
 62
7
  6
BYLAYER
 10
793.8039873418
 20
1900.6709185045
 40
0.5
100
AcDbArc
 50
180.0
 51
270.0
  0
ARC
  5
370
100
AcDbEntity
  8
0
100
AcDbCircle
 62
7
  6
BYLAYER
 10
794.0668319566
 20
1910.3661484204
 40
0.3044707676
100
AcDbArc
 50
36.4827958934
 51
54.5150619303
  0
ARC
  5
371
100
AcDbEntity
  8
0
100
AcDbCircle
 62
7
  6
BYLAYER
 10
786.4795673418
 20
1910.3709185045
 40
0.3
100
AcDbArc
 50
90.0
 51
180.0
  0
SPLINE
  5
372
100
AcDbEntity
  8
0
100
AcDbSpline
 62
7
  6
BYLAYER
 70
0
 71
3
 72
8
 73
4
 74
0
 42
0.0000001
 43
0.0000001
 44
0.0000000001
 40
0.0
 40
0.0
 40
0.0
 40
0.0
 40
1.0
 40
1.0
 40
1.0
 40
1.0
 10
794.3697395399
 20
1910.3709185045
 30
0.0
 10
794.3697395399
 20
1910.4327824858
 30
0.0
 10
794.348353802
 20
1910.497391049
 30
0.0
 10
794.3116372414
 20
1910.5471810718
 30
0.0
  0
SPLINE
  5
373
100
AcDbEntity
  8
0
100
AcDbSpline
 62
7
  6
BYLAYER
 70
0
 71
3
 72
8
 73
4
 74
0
 42
0.0000001
 43
0.0000001
 44
0.0000000001
 40
0.0
 40
0.0
 40
0.0
 40
0.0
 40
1.0
 40
1.0
 40
1.0
 40
1.0
 10
794.2435738639
 20
1910.6140692677
 30
0.0
 10
794.1926752154
 20
1910.6503060595
 30
0.0
 10
794.127442318
 20
1910.6709200103
 30
0.0
 10
794.0649621012
 20
1910.6709185045
 30
0.0
  0
SPLINE
  5
374
100
AcDbEntity
  8
0
100
AcDbSpline
 62
7
  6
BYLAYER
 70
0
 71
3
 72
15
 73
11
 74
0
 42
0.0000001
 43
0.0000001
 44
0.0000000001
 40
0.0
 40
0.0
 40
0.0
 40
0.0
 40
0.2636784782
 40
0.5741051372
 40
0.7239517191
 40
0.8562958621
 40
0.9120219732
 40
0.9572544159
 40
0.9883481867
 40
1.0
 40
1.0
 40
1.0
 40
1.0
 10
753.3039873534
 20
1900.6709185045
 30
0.0
 10
753.3039871985
 20
1900.6076244897
 30
0.0
 10
753.2096702457
 20
1900.4853298788
 30
0.0
 10
753.0826863627
 20
1900.3751281831
 30
0.0
 10
752.9712579144
 20
1900.2854612072
 30
0.0
 10
752.9062385712
 20
1900.2370869251
 30
0.0
 10
752.8604953287
 20
1900.2048227617
 30
0.0
 10
752.8331984898
 20
1900.1884123123
 30
0.0
 10
752.816442011
 20
1900.1759435926
 30
0.0
 10
752.8057253502
 20
1900.1731098924
 30
0.0
 10
752.8039873501
 20
1900.1709185073
 30
0.0
  0
SPLINE
  5
375
100
AcDbEntity
  8
0
100
AcDbSpline
 62
7
  6
BYLAYER
 70
0
 71
3
 72
11
 73
7
 74
0
 42
0.0000001
 43
0.0000001
 44
0.0000000001
 40
0.0
 40
0.0
 40
0.0
 40
0.0
 40
0.3404385698
 40
0.6266185405
 40
0.8401374976
 40
1.0
 40
1.0
 40
1.0
 40
1.0
 10
775.3039859186
 20
1901.6709185045
 30
0.0
 10
775.3039859182
 20
1901.8075195226
 30
0.0
 10
775.2791244042
 20
1902.0601673127
 30
0.0
 10
775.171374834
 20
1902.3824306406
 30
0.0
 10
775.016894569
 20
1902.6053353498
 30
0.0
 10
774.8681292481
 20
1902.6709040112
 30
0.0
 10
774.8039844009
 20
1902.6709185049
 30
0.0
  0
SPLINE
  5
376
100
AcDbEntity
  8
0
100
AcDbSpline
 62
7
  6
BYLAYER
 70
0
 71
3
 72
11
 73
7
 74
0
 42
0.0000001
 43
0.0000001
 44
0.0000000001
 40
0.0
 40
0.0
 40
0.0
 40
0.0
 40
0.2478324097
 40
0.4979557222
 40
0.7486362922
 40
1.0
 40
1.0
 40
1.0
 40
1.0
 10
792.3039873418
 20
1900.6709185045
 30
0.0
 10
792.3039876101
 20
1900.5067970846
 30
0.0
 10
792.4361471583
 20
1900.1767184267
 30
0.0
 10
792.8236641628
 20
1899.8501900222
 30
0.0
 10
793.3022304085
 20
1899.6774442932
 30
0.0
 10
793.6375273994
 20
1899.6709184967
 30
0.0
 10
793.8039873418
 20
1899.6709185045
 30
0.0
  0
SPLINE
  5
377
100
AcDbEntity
  8
0
100
AcDbSpline
 62
7
  6
BYLAYER
 70
0
 71
3
 72
12
 73
8
 74
0
 42
0.0000001
 43
0.0000001
 44
0.0000000001
 40
0.0
 40
0.0
 40
0.0
 40
0.0
 40
0.1204115357
 40
0.2167519688
 40
0.3384069038
 40
0.6443218671
 40
1.0
 40
1.0
 40
1.0
 40
1.0
 10
805.5787084697
 20
1902.6709185045
 30
0.0
 10
805.621974023
 20
1902.6709185045
 30
0.0
 10
805.686860458
 20
1902.6023025918
 30
0.0
 10
805.7364529414
 20
1902.4957840163
 30
0.0
 10
805.7956804384
 20
1902.3147188533
 30
0.0
 10
805.8408349179
 20
1902.0368034179
 30
0.0
 10
805.8534295976
 20
1901.7987186455
 30
0.0
 10
805.8534295976
 20
1901.6709185045
 30
0.0
  0
SPLINE
  5
378
100
AcDbEntity
  8
0
100
AcDbSpline
 62
7
  6
BYLAYER
 70
0
 71
3
 72
8
 73
4
 74
0
 42
0.0000001
 43
0.0000001
 44
0.0000000001
 40
0.0
 40
0.0
 40
0.0
 40
0.0
 40
1.0
 40
1.0
 40
1.0
 40
1.0
 10
802.2160690336
 20
1899.6709185045
 30
0.0
 10
802.0242677109
 20
1899.7414222937
 30
0.0
 10
801.8319929392
 20
1899.8107241457
 30
0.0
 10
801.6385060656
 20
1899.8764612085
 30
0.0
  0
SPLINE
  5
379
100
AcDbEntity
  8
0
100
AcDbSpline
 62
7
  6
BYLAYER
 70
0
 71
3
 72
8
 73
4
 74
0
 42
0.0000001
 43
0.0000001
 44
0.0000000001
 40
0.0
 40
0.0
 40
0.0
 40
0.0
 40
1.0
 40
1.0
 40
1.0
 40
1.0
 10
801.7737895699
 20
1900.0820040205
 30
0.0
 10
801.9256756033
 20
1899.9499358061
 30
0.0
 10
802.0723552478
 20
1899.8118359639
 30
0.0
 10
802.216069128
 20
1899.6709186085
 30
0.0
  0
SPLINE
  5
37A
100
AcDbEntity
  8
0
100
AcDbSpline
 62
7
  6
BYLAYER
 70
0
 71
3
 72
10
 73
6
 74
0
 42
0.0000001
 43
0.0000001
 44
0.0000000001
 40
0.0
 40
0.0
 40
0.0
 40
0.0
 40
0.2114258548
 40
0.4596612947
 40
1.0
 40
1.0
 40
1.0
 40
1.0
 10
800.7163025713
 20
1900.6709185045
 30
0.0
 10
800.8027035744
 20
1900.670917918
 30
0.0
 10
800.9879976819
 20
1900.6151635431
 30
0.0
 10
801.3469379376
 20
1900.4217818388
 30
0.0
 10
801.6071437316
 20
1900.2268764595
 30
0.0
 10
801.773789476
 20
1900.0820039125
 30
0.0
  0
SPLINE
  5
37B
100
AcDbEntity
  8
0
100
AcDbSpline
 62
7
  6
BYLAYER
 70
0
 71
3
 72
10
 73
6
 74
0
 42
0.0000001
 43
0.0000001
 44
0.0000000001
 40
0.0
 40
0.0
 40
0.0
 40
0.0
 40
0.5192781373
 40
0.7706703291
 40
1.0
 40
1.0
 40
1.0
 40
1.0
 10
801.638506125
 20
1899.8764614142
 30
0.0
 10
801.4227918452
 20
1899.9529646024
 30
0.0
 10
801.0969882098
 20
1900.0520075901
 30
0.0
 10
800.6663963293
 20
1900.1459034957
 30
0.0
 10
800.4548209386
 20
1900.170918267
 30
0.0
 10
800.3537409246
 20
1900.1709185045
 30
0.0
  0
SPLINE
  5
37C
100
AcDbEntity
  8
0
100
AcDbSpline
 62
7
  6
BYLAYER
 70
0
 71
3
 72
8
 73
4
 74
0
 42
0.0000001
 43
0.0000001
 44
0.0000000001
 40
0.0
 40
0.0
 40
0.0
 40
0.0
 40
1.0
 40
1.0
 40
1.0
 40
1.0
 10
801.6506491743
 20
1899.6709185045
 30
0.0
 10
801.6506491743
 20
1899.7395522006
 30
0.0
 10
801.6469442947
 20
1899.8083482101
 30
0.0
 10
801.6385060656
 20
1899.8764612085
 30
0.0
  0
SPLINE
  5
37D
100
AcDbEntity
  8
0
100
AcDbSpline
 62
7
  6
BYLAYER
 70
0
 71
3
 72
12
 73
8
 74
0
 42
0.0000001
 43
0.0000001
 44
0.0000000001
 40
0.0
 40
0.0
 40
0.0
 40
0.0
 40
0.3555601317
 40
0.6614267398
 40
0.7831217149
 40
0.8795320322
 40
1.0
 40
1.0
 40
1.0
 40
1.0
 10
802.2160690336
 20
1901.6709185045
 30
0.0
 10
802.2160690336
 20
1901.7986757858
 30
0.0
 10
802.2034825039
 20
1902.0367002843
 30
0.0
 10
802.1583495879
 20
1902.3145699077
 30
0.0
 10
802.0991404699
 20
1902.4956650825
 30
0.0
 10
802.0495439913
 20
1902.6022403863
 30
0.0
 10
801.98463358
 20
1902.6709185045
 30
0.0
 10
801.9413479057
 20
1902.6709185045
 30
0.0
  0
SPLINE
  5
37E
100
AcDbEntity
  8
0
100
AcDbSpline
 62
7
  6
BYLAYER
 70
0
 71
3
 72
10
 73
6
 74
0
 42
0.0000001
 43
0.0000001
 44
0.0000000001
 40
0.0
 40
0.0
 40
0.0
 40
0.0
 40
0.5485257156
 40
0.7949517469
 40
1.0
 40
1.0
 40
1.0
 40
1.0
 10
800.7163025722
 20
1900.6709185045
 30
0.0
 10
800.716302559
 20
1900.5478662531
 30
0.0
 10
800.6683661525
 20
1900.3600053022
 30
0.0
 10
800.5022799406
 20
1900.1996510853
 30
0.0
 10
800.3997399556
 20
1900.1709185041
 30
0.0
 10
800.3537409286
 20
1900.1709185045
 30
0.0
  0
SPLINE
  5
37F
100
AcDbEntity
  8
0
100
AcDbSpline
 62
7
  6
BYLAYER
 70
0
 71
3
 72
11
 73
7
 74
0
 42
0.0000001
 43
0.0000001
 44
0.0000000001
 40
0.0
 40
0.0
 40
0.0
 40
0.0
 40
0.1598605771
 40
0.3733762137
 40
0.6595504004
 40
1.0
 40
1.0
 40
1.0
 40
1.0
 10
784.803989376
 20
1902.6709185048
 30
0.0
 10
784.7398452949
 20
1902.6709053736
 30
0.0
 10
784.5910818853
 20
1902.6053362967
 30
0.0
 10
784.4366025711
 20
1902.3824376246
 30
0.0
 10
784.3288499619
 20
1902.060173919
 30
0.0
 10
784.3039885275
 20
1901.8075239615
 30
0.0
 10
784.3039878826
 20
1901.6709185045
 30
0.0
  0
SPLINE
  5
380
100
AcDbEntity
  8
0
100
AcDbSpline
 62
7
  6
BYLAYER
 70
0
 71
3
 72
11
 73
7
 74
0
 42
0.0000001
 43
0.0000001
 44
0.0000000001
 40
0.0
 40
0.0
 40
0.0
 40
0.0
 40
0.2478327053
 40
0.4979558062
 40
0.7486361583
 40
1.0
 40
1.0
 40
1.0
 40
1.0
 10
761.3039873418
 20
1900.6709185045
 30
0.0
 10
761.3039869063
 20
1900.506796889
 30
0.0
 10
761.171827428
 20
1900.176718175
 30
0.0
 10
760.7843103149
 20
1899.8501899981
 30
0.0
 10
760.3057443247
 20
1899.677444278
 30
0.0
 10
759.9704473726
 20
1899.6709184631
 30
0.0
 10
759.8039873418
 20
1899.6709185045
 30
0.0
  0
SPLINE
  5
381
100
AcDbEntity
  8
0
100
AcDbSpline
 62
7
  6
BYLAYER
 70
0
 71
3
 72
11
 73
7
 74
0
 42
0.0000001
 43
0.0000001
 44
0.0000000001
 40
0.0
 40
0.0
 40
0.0
 40
0.0
 40
0.3404385908
 40
0.6266185618
 40
0.8401375074
 40
1.0
 40
1.0
 40
1.0
 40
1.0
 10
784.3037479123
 20
170.170808366
 30
0.0
 10
784.3037479127
 20
170.0342073372
 30
0.0
 10
784.32860943
 20
169.781559534
 30
0.0
 10
784.4363590087
 20
169.4592961995
 30
0.0
 10
784.5908392807
 20
169.2363914965
 30
0.0
 10
784.7396046032
 20
169.1708228543
 30
0.0
 10
784.8037494475
 20
169.1708083655
 30
0.0
  0
SPLINE
  5
382
100
AcDbEntity
  8
0
100
AcDbSpline
 62
7
  6
BYLAYER
 70
0
 71
3
 72
12
 73
8
 74
0
 42
0.0000001
 43
0.0000001
 44
0.0000000001
 40
0.0
 40
0.0
 40
0.0
 40
0.0
 40
0.1204115357
 40
0.2167519688
 40
0.3384069038
 40
0.6443218671
 40
1.0
 40
1.0
 40
1.0
 40
1.0
 10
801.9411071685
 20
169.170808366
 30
0.0
 10
801.9843727219
 20
169.170808366
 30
0.0
 10
802.0492591568
 20
169.2394242786
 30
0.0
 10
802.0988516403
 20
169.3459428541
 30
0.0
 10
802.1580791372
 20
169.5270080171
 30
0.0
 10
802.2032336168
 20
169.8049234525
 30
0.0
 10
802.2158282964
 20
170.043008225
 30
0.0
 10
802.2158282964
 20
170.170808366
 30
0.0
  0
SPLINE
  5
383
100
AcDbEntity
  8
0
100
AcDbSpline
 62
7
  6
BYLAYER
 70
0
 71
3
 72
15
 73
11
 74
0
 42
0.0000001
 43
0.0000001
 44
0.0000000001
 40
0.0
 40
0.0
 40
0.0
 40
0.0
 40
0.0116518133
 40
0.0427455841
 40
0.0879780268
 40
0.143704138
 40
0.2760482811
 40
0.4258948631
 40
0.7363215223
 40
1.0
 40
1.0
 40
1.0
 40
1.0
 10
752.803746612
 20
171.6708083631
 30
0.0
 10
752.8054826371
 20
171.668615413
 30
0.0
 10
752.8162037897
 20
171.6657852721
 30
0.0
 10
752.8329563898
 20
171.653313479
 30
0.0
 10
752.8602551063
 20
171.6369045173
 30
0.0
 10
752.9059974464
 20
171.6046396389
 30
0.0
 10
752.9710173295
 20
171.5562657845
 30
0.0
 10
753.0824455273
 20
171.4665986101
 30
0.0
 10
753.209429537
 20
171.356397015
 30
0.0
 10
753.3037464596
 20
171.2341023805
 30
0.0
 10
753.3037466145
 20
171.170808366
 30
0.0
  0
SPLINE
  5
384
100
AcDbEntity
  8
0
100
AcDbSpline
 62
7
  6
BYLAYER
 70
0
 71
3
 72
11
 73
7
 74
0
 42
0.0000001
 43
0.0000001
 44
0.0000000001
 40
0.0
 40
0.0
 40
0.0
 40
0.0
 40
0.2478325037
 40
0.497955658
 40
0.7486362695
 40
1.0
 40
1.0
 40
1.0
 40
1.0
 10
761.3037466046
 20
171.170808366
 30
0.0
 10
761.3037461689
 20
171.3349298482
 30
0.0
 10
761.1715868426
 20
171.6650084681
 30
0.0
 10
760.784069752
 20
171.9915368305
 30
0.0
 10
760.3055036039
 20
172.1642825678
 30
0.0
 10
759.970206562
 20
172.1708084074
 30
0.0
 10
759.8037466046
 20
172.170808366
 30
0.0
  0
SPLINE
  5
385
100
AcDbEntity
  8
0
100
AcDbSpline
 62
7
  6
BYLAYER
 70
0
 71
3
 72
11
 73
7
 74
0
 42
0.0000001
 43
0.0000001
 44
0.0000000001
 40
0.0
 40
0.0
 40
0.0
 40
0.0
 40
0.1598605678
 40
0.3733761936
 40
0.6595503807
 40
1.0
 40
1.0
 40
1.0
 40
1.0
 10
774.8037446627
 20
169.1708083656
 30
0.0
 10
774.8678887411
 20
169.1708214899
 30
0.0
 10
775.0166521521
 20
169.2363905524
 30
0.0
 10
775.171131473
 20
169.4592892167
 30
0.0
 10
775.2788840902
 20
169.7815529292
 30
0.0
 10
775.3037455277
 20
170.0342028988
 30
0.0
 10
775.3037461726
 20
170.1708083659
 30
0.0
  0
SPLINE
  5
386
100
AcDbEntity
  8
0
100
AcDbSpline
 62
7
  6
BYLAYER
 70
0
 71
3
 72
11
 73
7
 74
0
 42
0.0000001
 43
0.0000001
 44
0.0000000001
 40
0.0
 40
0.0
 40
0.0
 40
0.0
 40
0.2478327053
 40
0.4979558062
 40
0.7486361583
 40
1.0
 40
1.0
 40
1.0
 40
1.0
 10
792.3037466046
 20
171.170808366
 30
0.0
 10
792.3037470402
 20
171.3349299815
 30
0.0
 10
792.4359065183
 20
171.6650086954
 30
0.0
 10
792.8234236315
 20
171.9915368724
 30
0.0
 10
793.3019896217
 20
172.1642825924
 30
0.0
 10
793.6372865738
 20
172.1708084074
 30
0.0
 10
793.8037466046
 20
172.170808366
 30
0.0
  0
SPLINE
  5
387
100
AcDbEntity
  8
0
100
AcDbSpline
 62
7
  6
BYLAYER
 70
0
 71
3
 72
12
 73
8
 74
0
 42
0.0000001
 43
0.0000001
 44
0.0000000001
 40
0.0
 40
0.0
 40
0.0
 40
0.0
 40
0.3555601317
 40
0.6614267398
 40
0.7831217149
 40
0.8795320322
 40
1.0
 40
1.0
 40
1.0
 40
1.0
 10
805.8531888604
 20
170.170808366
 30
0.0
 10
805.8531888604
 20
170.0430510846
 30
0.0
 10
805.8406023307
 20
169.8050265862
 30
0.0
 10
805.7954694146
 20
169.5271569628
 30
0.0
 10
805.7362602967
 20
169.3460617879
 30
0.0
 10
805.686663818
 20
169.2394864841
 30
0.0
 10
805.6217534068
 20
169.170808366
 30
0.0
 10
805.5784677325
 20
169.170808366
 30
0.0
  0
SPLINE
  5
388
100
AcDbEntity
  8
0
100
AcDbSpline
 62
7
  6
BYLAYER
 70
0
 71
3
 72
8
 73
4
 74
0
 42
0.0000001
 43
0.0000001
 44
0.0000000001
 40
0.0
 40
0.0
 40
0.0
 40
0.0
 40
1.0
 40
1.0
 40
1.0
 40
1.0
 10
802.2158284286
 20
172.1708082202
 30
0.0
 10
802.0721145101
 20
172.0298909034
 30
0.0
 10
801.9254349028
 20
171.8917910227
 30
0.0
 10
801.7735488703
 20
171.7597228067
 30
0.0
  0
SPLINE
  5
389
100
AcDbEntity
  8
0
100
AcDbSpline
 62
7
  6
BYLAYER
 70
0
 71
3
 72
8
 73
4
 74
0
 42
0.0000001
 43
0.0000001
 44
0.0000000001
 40
0.0
 40
0.0
 40
0.0
 40
0.0
 40
1.0
 40
1.0
 40
1.0
 40
1.0
 10
802.2158282964
 20
172.170808366
 30
0.0
 10
802.0240269567
 20
172.1003046231
 30
0.0
 10
801.8317522056
 20
172.0310027143
 30
0.0
 10
801.6382653284
 20
171.965265662
 30
0.0
  0
SPLINE
  5
38A
100
AcDbEntity
  8
0
100
AcDbSpline
 62
7
  6
BYLAYER
 70
0
 71
3
 72
10
 73
6
 74
0
 42
0.0000001
 43
0.0000001
 44
0.0000000001
 40
0.0
 40
0.0
 40
0.0
 40
0.0
 40
0.211426268
 40
0.4596614222
 40
1.0
 40
1.0
 40
1.0
 40
1.0
 10
800.7160618134
 20
171.170808366
 30
0.0
 10
800.8024629862
 20
171.1708089484
 30
0.0
 10
800.9877571352
 20
171.22656344
 30
0.0
 10
801.3466973592
 20
171.4199451711
 30
0.0
 10
801.6069030453
 20
171.6148504286
 30
0.0
 10
801.7735487389
 20
171.759722958
 30
0.0
  0
SPLINE
  5
38B
100
AcDbEntity
  8
0
100
AcDbSpline
 62
7
  6
BYLAYER
 70
0
 71
3
 72
10
 73
6
 74
0
 42
0.0000001
 43
0.0000001
 44
0.0000000001
 40
0.0
 40
0.0
 40
0.0
 40
0.0
 40
0.2050482569
 40
0.4514742889
 40
1.0
 40
1.0
 40
1.0
 40
1.0
 10
800.3535001734
 20
171.670808366
 30
0.0
 10
800.3994992012
 20
171.6708083663
 30
0.0
 10
800.5020391875
 20
171.6420757853
 30
0.0
 10
800.6681253998
 20
171.4817215679
 30
0.0
 10
800.7160618036
 20
171.2938606164
 30
0.0
 10
800.7160618146
 20
171.170808366
 30
0.0
  0
SPLINE
  5
38C
100
AcDbEntity
  8
0
100
AcDbSpline
 62
7
  6
BYLAYER
 70
0
 71
3
 72
8
 73
4
 74
0
 42
0.0000001
 43
0.0000001
 44
0.0000000001
 40
0.0
 40
0.0
 40
0.0
 40
0.0
 40
1.0
 40
1.0
 40
1.0
 40
1.0
 10
801.6382653284
 20
171.965265662
 30
0.0
 10
801.6467035575
 20
172.0333786603
 30
0.0
 10
801.6504084372
 20
172.1021746698
 30
0.0
 10
801.6504084372
 20
172.170808366
 30
0.0
  0
SPLINE
  5
38D
100
AcDbEntity
  8
0
100
AcDbSpline
 62
7
  6
BYLAYER
 70
0
 71
3
 72
10
 73
6
 74
0
 42
0.0000001
 43
0.0000001
 44
0.0000000001
 40
0.0
 40
0.0
 40
0.0
 40
0.0
 40
0.2293296864
 40
0.4807218845
 40
1.0
 40
1.0
 40
1.0
 40
1.0
 10
800.353500194
 20
171.670808366
 30
0.0
 10
800.4545802143
 20
171.6708086024
 30
0.0
 10
800.6661556141
 20
171.6958233735
 30
0.0
 10
801.0967474925
 20
171.7897192788
 30
0.0
 10
801.4225511221
 20
171.888762258
 30
0.0
 10
801.6382653909
 20
171.9652654455
 30
0.0
  0
SPLINE
  5
38E
100
AcDbEntity
  8
0
100
AcDbSpline
 62
7
  6
BYLAYER
 70
0
 71
3
 72
16
 73
12
 74
0
 42
0.0000001
 43
0.0000001
 44
0.0000000001
 40
0.0
 40
0.0
 40
0.0
 40
0.0
 40
0.0660819509
 40
0.1837076052
 40
0.3386899351
 40
0.5123359223
 40
0.6837013925
 40
0.8321172397
 40
0.9396824817
 40
0.9934236715
 40
1.0
 40
1.0
 40
1.0
 40
1.0
 10
790.2873697297
 20
1899.6597242534
 30
0.0
 10
790.2871618831
 20
1899.6379042329
 30
0.0
 10
790.2869870312
 20
1899.5772509319
 30
0.0
 10
790.2867200394
 20
1899.4653334342
 30
0.0
 10
790.2866014803
 20
1899.3184060231
 30
0.0
 10
790.2864908038
 20
1899.1514367268
 30
0.0
 10
790.2867809356
 20
1898.9952018238
 30
0.0
 10
790.286294699
 20
1898.8342600469
 30
0.0
 10
790.288019686
 20
1898.7771005648
 30
0.0
 10
790.2861157203
 20
1898.656422132
 30
0.0
 10
790.2877804525
 20
1898.6799412756
 30
0.0
 10
790.2878011369
 20
1898.6821127555
 30
0.0
  0
SPLINE
  5
38F
100
AcDbEntity
  8
0
100
AcDbSpline
 62
7
  6
BYLAYER
 70
0
 71
3
 72
16
 73
12
 74
0
 42
0.0000001
 43
0.0000001
 44
0.0000000001
 40
0.0
 40
0.0
 40
0.0
 40
0.0
 40
0.0660819509
 40
0.1837076052
 40
0.3386899351
 40
0.5123359223
 40
0.6837013925
 40
0.8321172397
 40
0.9396824817
 40
0.9934236715
 40
1.0
 40
1.0
 40
1.0
 40
1.0
 10
790.3206049539
 20
1899.6597242534
 30
0.0
 10
790.3208128005
 20
1899.6379042329
 30
0.0
 10
790.3209876523
 20
1899.5772509319
 30
0.0
 10
790.3212546441
 20
1899.4653334342
 30
0.0
 10
790.3213732033
 20
1899.3184060231
 30
0.0
 10
790.3214838798
 20
1899.1514367268
 30
0.0
 10
790.321193748
 20
1898.9952018238
 30
0.0
 10
790.3216799845
 20
1898.8342600469
 30
0.0
 10
790.3199549976
 20
1898.7771005648
 30
0.0
 10
790.3218589633
 20
1898.656422132
 30
0.0
 10
790.3201942311
 20
1898.6799412756
 30
0.0
 10
790.3201735467
 20
1898.6821127555
 30
0.0
  0
SPLINE
  5
390
100
AcDbEntity
  8
0
100
AcDbSpline
 62
7
  6
BYLAYER
 70
0
 71
3
 72
16
 73
12
 74
0
 42
0.0000001
 43
0.0000001
 44
0.0000000001
 40
0.0
 40
0.0
 40
0.0
 40
0.0
 40
0.0660819509
 40
0.1837076052
 40
0.3386899351
 40
0.5123359223
 40
0.6837013925
 40
0.8321172397
 40
0.9396824817
 40
0.9934236715
 40
1.0
 40
1.0
 40
1.0
 40
1.0
 10
790.2873697297
 20
1899.6597242534
 30
0.0
 10
790.2871618831
 20
1899.6379042329
 30
0.0
 10
790.2869870312
 20
1899.5772509319
 30
0.0
 10
790.2867200394
 20
1899.4653334342
 30
0.0
 10
790.2866014803
 20
1899.3184060231
 30
0.0
 10
790.2864908038
 20
1899.1514367268
 30
0.0
 10
790.2867809356
 20
1898.9952018238
 30
0.0
 10
790.286294699
 20
1898.8342600469
 30
0.0
 10
790.288019686
 20
1898.7771005648
 30
0.0
 10
790.2861157203
 20
1898.656422132
 30
0.0
 10
790.2877804525
 20
1898.6799412756
 30
0.0
 10
790.2878011369
 20
1898.6821127555
 30
0.0
  0
SPLINE
  5
391
100
AcDbEntity
  8
0
100
AcDbSpline
 62
7
  6
BYLAYER
 70
0
 71
3
 72
16
 73
12
 74
0
 42
0.0000001
 43
0.0000001
 44
0.0000000001
 40
0.0
 40
0.0
 40
0.0
 40
0.0
 40
0.0660819509
 40
0.1837076052
 40
0.3386899351
 40
0.5123359223
 40
0.6837013925
 40
0.8321172397
 40
0.9396824817
 40
0.9934236715
 40
1.0
 40
1.0
 40
1.0
 40
1.0
 10
790.3206049539
 20
1899.6597242534
 30
0.0
 10
790.3208128005
 20
1899.6379042329
 30
0.0
 10
790.3209876523
 20
1899.5772509319
 30
0.0
 10
790.3212546441
 20
1899.4653334342
 30
0.0
 10
790.3213732033
 20
1899.3184060231
 30
0.0
 10
790.3214838798
 20
1899.1514367268
 30
0.0
 10
790.321193748
 20
1898.9952018238
 30
0.0
 10
790.3216799845
 20
1898.8342600469
 30
0.0
 10
790.3199549976
 20
1898.7771005648
 30
0.0
 10
790.3218589633
 20
1898.656422132
 30
0.0
 10
790.3201942311
 20
1898.6799412756
 30
0.0
 10
790.3201735467
 20
1898.6821127555
 30
0.0
  0
SPLINE
  5
392
100
AcDbEntity
  8
0
100
AcDbSpline
 62
7
  6
BYLAYER
 70
0
 71
3
 72
16
 73
12
 74
0
 42
0.0000001
 43
0.0000001
 44
0.0000000001
 40
0.0
 40
0.0
 40
0.0
 40
0.0
 40
0.066109371
 40
0.1837553808
 40
0.338748546
 40
0.5123945412
 40
0.6837491914
 40
0.8321446955
 40
0.9396825251
 40
0.9933925399
 40
1.0
 40
1.0
 40
1.0
 40
1.0
 10
767.8206051332
 20
1899.6597054215
 30
0.0
 10
767.8208128904
 20
1899.6378758079
 30
0.0
 10
767.8209878337
 20
1899.5772052414
 30
0.0
 10
767.8212547045
 20
1899.4652656346
 30
0.0
 10
767.8213733366
 20
1899.3183242305
 30
0.0
 10
767.8214835594
 20
1899.1513513301
 30
0.0
 10
767.8211947788
 20
1898.9951203967
 30
0.0
 10
767.8216767434
 20
1898.8342034892
 30
0.0
 10
767.8199616059
 20
1898.77703929
 30
0.0
 10
767.8218511513
 20
1898.6564120782
 30
0.0
 10
767.8201941322
 20
1898.6799497741
 30
0.0
 10
767.8201733674
 20
1898.6821315874
 30
0.0
  0
SPLINE
  5
393
100
AcDbEntity
  8
0
100
AcDbSpline
 62
7
  6
BYLAYER
 70
0
 71
3
 72
16
 73
12
 74
0
 42
0.0000001
 43
0.0000001
 44
0.0000000001
 40
0.0
 40
0.0
 40
0.0
 40
0.0
 40
0.066109371
 40
0.1837553808
 40
0.338748546
 40
0.5123945412
 40
0.6837491914
 40
0.8321446955
 40
0.9396825251
 40
0.9933925399
 40
1.0
 40
1.0
 40
1.0
 40
1.0
 10
767.7873695504
 20
1899.6597054215
 30
0.0
 10
767.7871617931
 20
1899.6378758079
 30
0.0
 10
767.7869868499
 20
1899.5772052414
 30
0.0
 10
767.7867199791
 20
1899.4652656346
 30
0.0
 10
767.786601347
 20
1899.3183242305
 30
0.0
 10
767.7864911242
 20
1899.1513513301
 30
0.0
 10
767.7867799047
 20
1898.9951203967
 30
0.0
 10
767.7862979402
 20
1898.8342034892
 30
0.0
 10
767.7880130777
 20
1898.77703929
 30
0.0
 10
767.7861235322
 20
1898.6564120782
 30
0.0
 10
767.7877805514
 20
1898.6799497741
 30
0.0
 10
767.7878013162
 20
1898.6821315874
 30
0.0
  0
SPLINE
  5
394
100
AcDbEntity
  8
0
100
AcDbSpline
 62
7
  6
BYLAYER
 70
0
 71
3
 72
16
 73
12
 74
0
 42
0.0000001
 43
0.0000001
 44
0.0000000001
 40
0.0
 40
0.0
 40
0.0
 40
0.0
 40
0.0661715043
 40
0.1838636386
 40
0.3388813558
 40
0.5125273691
 40
0.6838575011
 40
0.8322069082
 40
0.9396826219
 40
0.9933219952
 40
1.0
 40
1.0
 40
1.0
 40
1.0
 10
767.8206055395
 20
1899.6596626877
 30
0.0
 10
767.8208130948
 20
1899.6378113372
 30
0.0
 10
767.820988244
 20
1899.5771016516
 30
0.0
 10
767.8212548418
 20
1899.4651119557
 30
0.0
 10
767.821373636
 20
1899.3181388582
 30
0.0
 10
767.8214828438
 20
1899.151157812
 30
0.0
 10
767.8211970773
 20
1898.9949358868
 30
0.0
 10
767.8216695065
 20
1898.8340753695
 30
0.0
 10
767.819976346
 20
1898.7769004788
 30
0.0
 10
767.8218337136
 20
1898.6563893667
 30
0.0
 10
767.8201939075
 20
1898.6799690906
 30
0.0
 10
767.8201729611
 20
1898.6821743212
 30
0.0
  0
SPLINE
  5
395
100
AcDbEntity
  8
0
100
AcDbSpline
 62
7
  6
BYLAYER
 70
0
 71
3
 72
16
 73
12
 74
0
 42
0.0000001
 43
0.0000001
 44
0.0000000001
 40
0.0
 40
0.0
 40
0.0
 40
0.0
 40
0.0661715043
 40
0.1838636386
 40
0.3388813558
 40
0.5125273691
 40
0.6838575011
 40
0.8322069082
 40
0.9396826219
 40
0.9933219952
 40
1.0
 40
1.0
 40
1.0
 40
1.0
 10
767.7873691441
 20
1899.6596626877
 30
0.0
 10
767.7871615888
 20
1899.6378113372
 30
0.0
 10
767.7869864396
 20
1899.5771016516
 30
0.0
 10
767.7867198417
 20
1899.4651119557
 30
0.0
 10
767.7866010475
 20
1899.3181388582
 30
0.0
 10
767.7864918397
 20
1899.151157812
 30
0.0
 10
767.7867776063
 20
1898.9949358868
 30
0.0
 10
767.786305177
 20
1898.8340753695
 30
0.0
 10
767.7879983376
 20
1898.7769004788
 30
0.0
 10
767.78614097
 20
1898.6563893667
 30
0.0
 10
767.7877807761
 20
1898.6799690906
 30
0.0
 10
767.7878017225
 20
1898.6821743212
 30
0.0
  0
SPLINE
  5
396
100
AcDbEntity
  8
0
100
AcDbSpline
 62
7
  6
BYLAYER
 70
0
 71
3
 72
16
 73
12
 74
0
 42
0.0000001
 43
0.0000001
 44
0.0000000001
 40
0.0
 40
0.0
 40
0.0
 40
0.0
 40
0.0660819509
 40
0.1837076052
 40
0.3386899351
 40
0.5123359223
 40
0.6837013925
 40
0.8321172397
 40
0.9396824817
 40
0.9934236715
 40
1.0
 40
1.0
 40
1.0
 40
1.0
 10
790.2873697297
 20
1899.6597242534
 30
0.0
 10
790.2871618831
 20
1899.6379042329
 30
0.0
 10
790.2869870312
 20
1899.5772509319
 30
0.0
 10
790.2867200394
 20
1899.4653334342
 30
0.0
 10
790.2866014803
 20
1899.3184060231
 30
0.0
 10
790.2864908038
 20
1899.1514367268
 30
0.0
 10
790.2867809356
 20
1898.9952018238
 30
0.0
 10
790.286294699
 20
1898.8342600469
 30
0.0
 10
790.288019686
 20
1898.7771005648
 30
0.0
 10
790.2861157203
 20
1898.656422132
 30
0.0
 10
790.2877804525
 20
1898.6799412756
 30
0.0
 10
790.2878011369
 20
1898.6821127555
 30
0.0
  0
SPLINE
  5
397
100
AcDbEntity
  8
0
100
AcDbSpline
 62
7
  6
BYLAYER
 70
0
 71
3
 72
16
 73
12
 74
0
 42
0.0000001
 43
0.0000001
 44
0.0000000001
 40
0.0
 40
0.0
 40
0.0
 40
0.0
 40
0.0660819509
 40
0.1837076052
 40
0.3386899351
 40
0.5123359223
 40
0.6837013925
 40
0.8321172397
 40
0.9396824817
 40
0.9934236715
 40
1.0
 40
1.0
 40
1.0
 40
1.0
 10
790.3206049539
 20
1899.6597242534
 30
0.0
 10
790.3208128005
 20
1899.6379042329
 30
0.0
 10
790.3209876523
 20
1899.5772509319
 30
0.0
 10
790.3212546441
 20
1899.4653334342
 30
0.0
 10
790.3213732033
 20
1899.3184060231
 30
0.0
 10
790.3214838798
 20
1899.1514367268
 30
0.0
 10
790.321193748
 20
1898.9952018238
 30
0.0
 10
790.3216799845
 20
1898.8342600469
 30
0.0
 10
790.3199549976
 20
1898.7771005648
 30
0.0
 10
790.3218589633
 20
1898.656422132
 30
0.0
 10
790.3201942311
 20
1898.6799412756
 30
0.0
 10
790.3201735467
 20
1898.6821127555
 30
0.0
  0
SPLINE
  5
398
100
AcDbEntity
  8
0
100
AcDbSpline
 62
7
  6
BYLAYER
 70
0
 71
3
 72
16
 73
12
 74
0
 42
0.0000001
 43
0.0000001
 44
0.0000000001
 40
0.0
 40
0.0
 40
0.0
 40
0.0
 40
0.0660819509
 40
0.1837076052
 40
0.3386899351
 40
0.5123359223
 40
0.6837013925
 40
0.8321172397
 40
0.9396824817
 40
0.9934236715
 40
1.0
 40
1.0
 40
1.0
 40
1.0
 10
790.2873697297
 20
1899.6597242534
 30
0.0
 10
790.2871618831
 20
1899.6379042329
 30
0.0
 10
790.2869870312
 20
1899.5772509319
 30
0.0
 10
790.2867200394
 20
1899.4653334342
 30
0.0
 10
790.2866014803
 20
1899.3184060231
 30
0.0
 10
790.2864908038
 20
1899.1514367268
 30
0.0
 10
790.2867809356
 20
1898.9952018238
 30
0.0
 10
790.286294699
 20
1898.8342600469
 30
0.0
 10
790.288019686
 20
1898.7771005648
 30
0.0
 10
790.2861157203
 20
1898.656422132
 30
0.0
 10
790.2877804525
 20
1898.6799412756
 30
0.0
 10
790.2878011369
 20
1898.6821127555
 30
0.0
  0
SPLINE
  5
399
100
AcDbEntity
  8
0
100
AcDbSpline
 62
7
  6
BYLAYER
 70
0
 71
3
 72
16
 73
12
 74
0
 42
0.0000001
 43
0.0000001
 44
0.0000000001
 40
0.0
 40
0.0
 40
0.0
 40
0.0
 40
0.0660819509
 40
0.1837076052
 40
0.3386899351
 40
0.5123359223
 40
0.6837013925
 40
0.8321172397
 40
0.9396824817
 40
0.9934236715
 40
1.0
 40
1.0
 40
1.0
 40
1.0
 10
790.3206049539
 20
1899.6597242534
 30
0.0
 10
790.3208128005
 20
1899.6379042329
 30
0.0
 10
790.3209876523
 20
1899.5772509319
 30
0.0
 10
790.3212546441
 20
1899.4653334342
 30
0.0
 10
790.3213732033
 20
1899.3184060231
 30
0.0
 10
790.3214838798
 20
1899.1514367268
 30
0.0
 10
790.321193748
 20
1898.9952018238
 30
0.0
 10
790.3216799845
 20
1898.8342600469
 30
0.0
 10
790.3199549976
 20
1898.7771005648
 30
0.0
 10
790.3218589633
 20
1898.656422132
 30
0.0
 10
790.3201942311
 20
1898.6799412756
 30
0.0
 10
790.3201735467
 20
1898.6821127555
 30
0.0
  0
SPLINE
  5
39A
100
AcDbEntity
  8
0
100
AcDbSpline
 62
7
  6
BYLAYER
 70
0
 71
3
 72
16
 73
12
 74
0
 42
0.0000001
 43
0.0000001
 44
0.0000000001
 40
0.0
 40
0.0
 40
0.0
 40
0.0
 40
0.066109371
 40
0.1837553808
 40
0.338748546
 40
0.5123945412
 40
0.6837491914
 40
0.8321446955
 40
0.9396825251
 40
0.9933925399
 40
1.0
 40
1.0
 40
1.0
 40
1.0
 10
767.8206051332
 20
1899.6597054215
 30
0.0
 10
767.8208128904
 20
1899.6378758079
 30
0.0
 10
767.8209878337
 20
1899.5772052414
 30
0.0
 10
767.8212547045
 20
1899.4652656346
 30
0.0
 10
767.8213733366
 20
1899.3183242305
 30
0.0
 10
767.8214835594
 20
1899.1513513301
 30
0.0
 10
767.8211947788
 20
1898.9951203967
 30
0.0
 10
767.8216767434
 20
1898.8342034892
 30
0.0
 10
767.8199616059
 20
1898.77703929
 30
0.0
 10
767.8218511513
 20
1898.6564120782
 30
0.0
 10
767.8201941322
 20
1898.6799497741
 30
0.0
 10
767.8201733674
 20
1898.6821315874
 30
0.0
  0
SPLINE
  5
39B
100
AcDbEntity
  8
0
100
AcDbSpline
 62
7
  6
BYLAYER
 70
0
 71
3
 72
16
 73
12
 74
0
 42
0.0000001
 43
0.0000001
 44
0.0000000001
 40
0.0
 40
0.0
 40
0.0
 40
0.0
 40
0.066109371
 40
0.1837553808
 40
0.338748546
 40
0.5123945412
 40
0.6837491914
 40
0.8321446955
 40
0.9396825251
 40
0.9933925399
 40
1.0
 40
1.0
 40
1.0
 40
1.0
 10
767.7873695504
 20
1899.6597054215
 30
0.0
 10
767.7871617931
 20
1899.6378758079
 30
0.0
 10
767.7869868499
 20
1899.5772052414
 30
0.0
 10
767.7867199791
 20
1899.4652656346
 30
0.0
 10
767.786601347
 20
1899.3183242305
 30
0.0
 10
767.7864911242
 20
1899.1513513301
 30
0.0
 10
767.7867799047
 20
1898.9951203967
 30
0.0
 10
767.7862979402
 20
1898.8342034892
 30
0.0
 10
767.7880130777
 20
1898.77703929
 30
0.0
 10
767.7861235322
 20
1898.6564120782
 30
0.0
 10
767.7877805514
 20
1898.6799497741
 30
0.0
 10
767.7878013162
 20
1898.6821315874
 30
0.0
  0
SPLINE
  5
39C
100
AcDbEntity
  8
0
100
AcDbSpline
 62
7
  6
BYLAYER
 70
0
 71
3
 72
16
 73
12
 74
0
 42
0.0000001
 43
0.0000001
 44
0.0000000001
 40
0.0
 40
0.0
 40
0.0
 40
0.0
 40
0.0661715043
 40
0.1838636386
 40
0.3388813558
 40
0.5125273691
 40
0.6838575011
 40
0.8322069082
 40
0.9396826219
 40
0.9933219952
 40
1.0
 40
1.0
 40
1.0
 40
1.0
 10
767.8206055395
 20
1899.6596626877
 30
0.0
 10
767.8208130948
 20
1899.6378113372
 30
0.0
 10
767.820988244
 20
1899.5771016516
 30
0.0
 10
767.8212548418
 20
1899.4651119557
 30
0.0
 10
767.821373636
 20
1899.3181388582
 30
0.0
 10
767.8214828438
 20
1899.151157812
 30
0.0
 10
767.8211970773
 20
1898.9949358868
 30
0.0
 10
767.8216695065
 20
1898.8340753695
 30
0.0
 10
767.819976346
 20
1898.7769004788
 30
0.0
 10
767.8218337136
 20
1898.6563893667
 30
0.0
 10
767.8201939075
 20
1898.6799690906
 30
0.0
 10
767.8201729611
 20
1898.6821743212
 30
0.0
  0
SPLINE
  5
39D
100
AcDbEntity
  8
0
100
AcDbSpline
 62
7
  6
BYLAYER
 70
0
 71
3
 72
16
 73
12
 74
0
 42
0.0000001
 43
0.0000001
 44
0.0000000001
 40
0.0
 40
0.0
 40
0.0
 40
0.0
 40
0.0661715043
 40
0.1838636386
 40
0.3388813558
 40
0.5125273691
 40
0.6838575011
 40
0.8322069082
 40
0.9396826219
 40
0.9933219952
 40
1.0
 40
1.0
 40
1.0
 40
1.0
 10
767.7873691441
 20
1899.6596626877
 30
0.0
 10
767.7871615888
 20
1899.6378113372
 30
0.0
 10
767.7869864396
 20
1899.5771016516
 30
0.0
 10
767.7867198417
 20
1899.4651119557
 30
0.0
 10
767.7866010475
 20
1899.3181388582
 30
0.0
 10
767.7864918397
 20
1899.151157812
 30
0.0
 10
767.7867776063
 20
1898.9949358868
 30
0.0
 10
767.786305177
 20
1898.8340753695
 30
0.0
 10
767.7879983376
 20
1898.7769004788
 30
0.0
 10
767.78614097
 20
1898.6563893667
 30
0.0
 10
767.7877807761
 20
1898.6799690906
 30
0.0
 10
767.7878017225
 20
1898.6821743212
 30
0.0
  0
ENDSEC
  0
SECTION
  2
OBJECTS
  0
DICTIONARY
  5
C
100
AcDbDictionary
280
0
281
1
  3
ACAD_GROUP
350
D
  3
ACAD_MLINESTYLE
350
17
  3
ACAD_LAYOUT
350
1A
  3
ACAD_PLOTSETTINGS
350
19
  3
ACAD_PLOTSTYLENAME
350
E
  0
DICTIONARY
  5
D
102
{ACAD_REACTORS
330
C
102
}
100
AcDbDictionary
280
0
281
1
  0
ACDBDICTIONARYWDFLT
  5
E
102
{ACAD_REACTORS
330
C
102
}
100
AcDbDictionary
281
1
  3
Normal
350
F
100
AcDbDictionaryWithDefault
340
F
  0
DICTIONARY
  5
17
102
{ACAD_REACTORS
330
C
102
}
100
AcDbDictionary
280
0
281
1
  3
Standard
350
18
  0
DICTIONARY
  5
19
102
{ACAD_REACTORS
330
C
102
}
100
AcDbDictionary
281
1
  0
DICTIONARY
  5
1A
102
{ACAD_REACTORS
330
C
102
}
100
AcDbDictionary
281
1
  3
Model
350
39E
  3
Layout1
350
39F
  0
ACDBPLACEHOLDER
  5
F
102
{ACAD_REACTORS
330
E
102
}
  0
MLINESTYLE
  5
18
102
{ACAD_REACTORS
330
17
102
}
100
AcDbMlineStyle
  2
STANDARD
 70
0
  3

 62
256
 51
90.0
 52
90.0
 71
2
 49
0.5
 62
256
  6
BYLAYER
 49
-0.5
 62
256
  6
BYLAYER
  0
LAYOUT
  5
39E
102
{ACAD_REACTORS
330
1A
102
}
100
AcDbPlotSettings
  1

  2
none_device
  4

  6

 40
0.0
 41
0.0
 42
0.0
 43
0.0
 44
210.0
 45
297.0
 46
0.0
 47
0.0
 48
0.0
 49
0.0
140
0.0
141
0.0
142
1.0
143
1.0
 70
1024
 72
1
 73
0
 74
0
  7

 75
0
147
1.0
148
0.0
149
0.0
100
AcDbLayout
  1
Model
 70
0
 71
0
 10
0.0
 20
0.0
 11
210.0
 21
297.0
 12
0.0
 22
0.0
 32
0.0
 14
0.0
 24
0.0
 34
0.0
 15
0.0
 25
0.0
 35
0.0
146
0.0
 13
0.0
 23
0.0
 33
0.0
 16
1.0
 26
0.0
 36
0.0
 17
0.0
 27
1.0
 37
0.0
 76
0
330
212
345
0
346
0
  0
LAYOUT
  5
39F
102
{ACAD_REACTORS
330
1A
102
}
100
AcDbPlotSettings
  1

  2
none_device
  4

  6

 40
0.0
 41
0.0
 42
0.0
 43
0.0
 44
210.0
 45
297.0
 46
0.0
 47
0.0
 48
0.0
 49
0.0
140
0.0
141
0.0
142
1.0
143
1.0
 70
0
 72
1
 73
0
 74
0
  7

 75
0
147
1.0
148
0.0
149
0.0
100
AcDbLayout
  1
Layout1
 70
0
 71
1
 10
0.0
 20
0.0
 11
210.0
 21
297.0
 12
0.0
 22
0.0
 32
0.0
 14
0.0
 24
0.0
 34
0.0
 15
0.0
 25
0.0
 35
0.0
146
0.0
 13
0.0
 23
0.0
 33
0.0
 16
1.0
 26
0.0
 36
0.0
 17
0.0
 27
1.0
 37
0.0
 76
0
330
213
345
0
346
0
  0
ENDSEC
  0
EOF
