999
DXF file: C:\Users\sesa63760\Dev\_Creo\CAD\MCADPD0005317_3D-CAD\drw0001_4.dxf
999
Pro/ENGINEER 2019471 by Parametric Technology Corporation
  0
SECTION
  2
HEADER
  9
$ACADVER
  1
AC1024
  9
$DWGCODEPAGE
  3
ANSI_1252
  9
$EXTMAX
 10
78.4345611285
 20
110.9288793103
 30
0.0
  9
$EXTMIN
 10
0.0
 20
0.0
 30
0.0
  9
$LIMMIN
 10
0.0
 20
0.0
  9
$LIMMAX
 10
78.4345611285
 20
110.9288793103
  9
$VIEWCTR
 10
39.2172805643
 20
55.4644396552
  9
$VIEWSIZE
 40
110.9288793103
  9
$CLAYER
  8
0
  9
$LTSCALE
 40
7.2309195402
  9
$CELTYPE
  6
BYLAYER
  9
$DIMSCALE
 40
1.0
  9
$DIMASZ
 40
0.9337447753
  9
$DIMEXO
 40
1.0
  9
$DIMDLI
 40
4.995908046
  9
$DIMEXE
 40
1.0
  9
$DIMCEN
 40
1.1832413793
  9
$DIMLFAC
 40
1.0
  9
$DIMBLK
  1
_FILLED
  9
$DIMALT
 70
0
  9
$DIMALTF
 40
0.0393700787
  9
$DIMTXT
 40
1.3072426855
  9
$DIMTOL
 70
1
  9
$DIMLIM
 70
0
  9
$DIMTFAC
 40
1.0
  9
$DIMTP
 40
0.01
  9
$DIMTM
 40
0.01
  9
$DIMGAP
 40
0.625
  9
$DIMDSEP
 70
46
  9
$AUNITS
 70
0
  9
$PDMODE
 70
3
  9
$PDSIZE
 40
0.3125
  9
$HANDSEED
  5
282
  9
$TILEMODE
 70
1
  9
$MEASUREMENT
 70
1
  9
$INSUNITS
 70
4
  0
ENDSEC
  0
SECTION
  2
CLASSES
  0
CLASS
  1
ACDBDICTIONARYWDFLT
  2
AcDbDictionaryWithDefault
  3
AutoCAD 2000
 90
0
 91
1
280
0
281
0
  0
CLASS
  1
ACDBPLACEHOLDER
  2
AcDbPlaceHolder
  3
AutoCAD 2000
 90
0
 91
1
280
0
281
0
  0
CLASS
  1
LAYOUT
  2
AcDbLayout
  3
AutoCAD 2000
 90
0
 91
0
280
0
281
0
  0
ENDSEC
  0
SECTION
  2
TABLES
  0
TABLE
  2
VPORT
  5
8
100
AcDbSymbolTable
 70
2
  0
VPORT
  5
1F4
100
AcDbSymbolTableRecord
100
AcDbViewportTableRecord
  2
*ACTIVE
 70
0
 10
0.0
 20
0.0
 11
1.0
 21
1.0
 12
39.2172805643
 22
55.4644396552
 13
0.0
 23
0.0
 14
1.0
 24
1.0
 15
0.0
 25
0.0
 16
0.0
 26
0.0
 36
1.0
 17
0.0
 27
0.0
 37
0.0
 40
110.9288793103
 41
0.7070707071
 42
50.0
 43
0.0
 44
0.0
 50
0.0
 51
0.0
 71
0
 72
100
 73
1
 74
1
 75
0
 76
0
 77
0
 78
0
  0
ENDTAB
  0
TABLE
  2
LTYPE
  5
5
100
AcDbSymbolTable
 70
6
  0
LTYPE
  5
14
100
AcDbSymbolTableRecord
100
AcDbLinetypeTableRecord
  2
BYBLOCK
 70
0
  3

 72
65
 73
0
 40
0.0
  0
LTYPE
  5
15
100
AcDbSymbolTableRecord
100
AcDbLinetypeTableRecord
  2
BYLAYER
 70
0
  3

 72
65
 73
0
 40
0.0
  0
LTYPE
  5
16
100
AcDbSymbolTableRecord
100
AcDbLinetypeTableRecord
  2
CONTINUOUS
 70
64
  3
Solid line
 72
65
 73
0
 40
0.0
  0
LTYPE
  5
1F5
100
AcDbSymbolTableRecord
100
AcDbLinetypeTableRecord
  2
CENTER
 70
64
  3
____ _ ____ _ ____ _ ____ _ ____ _ ____ _ ____
 72
65
 73
4
 40
0.6
 49
0.375
 74
0
 49
-0.075
 74
0
 49
0.075
 74
0
 49
-0.075
 74
0
  0
LTYPE
  5
1F6
100
AcDbSymbolTableRecord
100
AcDbLinetypeTableRecord
  2
HIDDEN
 70
64
  3
- - - - - - - - - - - - - - - - - - - -
 72
65
 73
2
 40
0.2
 49
0.1
 74
0
 49
-0.1
 74
0
  0
LTYPE
  5
1F7
100
AcDbSymbolTableRecord
100
AcDbLinetypeTableRecord
  2
PHANTOM
 70
64
  3
_____ _ _ _____ _ _ _____ _ _ _____
 72
65
 73
6
 40
0.8
 49
0.45
 74
0
 49
-0.05
 74
0
 49
0.1
 74
0
 49
-0.05
 74
0
 49
0.1
 74
0
 49
-0.05
 74
0
  0
LTYPE
  5
1F8
100
AcDbSymbolTableRecord
100
AcDbLinetypeTableRecord
  2
DOT
 70
64
  3
. . . . . . . . . . . . . . . . . . . .
 72
65
 73
2
 40
0.2
 49
0.1
 74
0
 49
-0.1
 74
0
  0
LTYPE
  5
1F9
100
AcDbSymbolTableRecord
100
AcDbLinetypeTableRecord
  2
DASHED
 70
64
  3
- - - - - - - - - - - - - - - - - - - -
 72
65
 73
2
 40
0.2
 49
0.1
 74
0
 49
-0.1
 74
0
  0
ENDTAB
  0
TABLE
  2
LAYER
  5
2
100
AcDbSymbolTable
 70
36
  0
LAYER
  5
10
100
AcDbSymbolTableRecord
100
AcDbLayerTableRecord
  2
0
 70
0
 62
7
  6
CONTINUOUS
370
-3
390
F
  0
LAYER
  5
1FA
100
AcDbSymbolTableRecord
100
AcDbLayerTableRecord
  2
DEFAULT_1
 70
0
 62
7
  6
CENTER
370
-3
390
F
  0
LAYER
  5
1FB
100
AcDbSymbolTableRecord
100
AcDbLayerTableRecord
  2
DEFAULT_2
 70
0
 62
7
  6
HIDDEN
370
-3
390
F
  0
LAYER
  5
1FC
100
AcDbSymbolTableRecord
100
AcDbLayerTableRecord
  2
DEFAULT_3
 70
0
 62
7
  6
PHANTOM
370
-3
390
F
  0
LAYER
  5
1FD
100
AcDbSymbolTableRecord
100
AcDbLayerTableRecord
  2
00_COMPONENTS
 70
0
 62
7
  6
CONTINUOUS
370
-3
390
F
  0
LAYER
  5
1FE
100
AcDbSymbolTableRecord
100
AcDbLayerTableRecord
  2
01_1_DEFAULT_DATUMS
 70
0
 62
7
  6
CONTINUOUS
370
-3
390
F
  0
LAYER
  5
1FF
100
AcDbSymbolTableRecord
100
AcDbLayerTableRecord
  2
01_PLANES
 70
0
 62
7
  6
CONTINUOUS
370
-3
390
F
  0
LAYER
  5
200
100
AcDbSymbolTableRecord
100
AcDbLayerTableRecord
  2
02_COORD_SYS
 70
0
 62
7
  6
CONTINUOUS
370
-3
390
F
  0
LAYER
  5
201
100
AcDbSymbolTableRecord
100
AcDbLayerTableRecord
  2
03_AXES
 70
0
 62
7
  6
CONTINUOUS
370
-3
390
F
  0
LAYER
  5
202
100
AcDbSymbolTableRecord
100
AcDbLayerTableRecord
  2
04_POINTS
 70
0
 62
7
  6
CONTINUOUS
370
-3
390
F
  0
LAYER
  5
203
100
AcDbSymbolTableRecord
100
AcDbLayerTableRecord
  2
05_CURVES
 70
0
 62
7
  6
CONTINUOUS
370
-3
390
F
  0
LAYER
  5
204
100
AcDbSymbolTableRecord
100
AcDbLayerTableRecord
  2
06_SURFS
 70
0
 62
7
  6
CONTINUOUS
370
-3
390
F
  0
LAYER
  5
205
100
AcDbSymbolTableRecord
100
AcDbLayerTableRecord
  2
07_COSMETICS
 70
0
 62
7
  6
CONTINUOUS
370
-3
390
F
  0
LAYER
  5
206
100
AcDbSymbolTableRecord
100
AcDbLayerTableRecord
  2
10_NOTES
 70
0
 62
7
  6
CONTINUOUS
370
-3
390
F
  0
LAYER
  5
207
100
AcDbSymbolTableRecord
100
AcDbLayerTableRecord
  2
11_NOTES_PUB
 70
0
 62
7
  6
CONTINUOUS
370
-3
390
F
  0
LAYER
  5
208
100
AcDbSymbolTableRecord
100
AcDbLayerTableRecord
  2
13_REF_GTOL
 70
0
 62
7
  6
CONTINUOUS
370
-3
390
F
  0
LAYER
  5
209
100
AcDbSymbolTableRecord
100
AcDbLayerTableRecord
  2
16_MISC
 70
0
 62
7
  6
CONTINUOUS
370
-3
390
F
  0
LAYER
  5
20A
100
AcDbSymbolTableRecord
100
AcDbLayerTableRecord
  2
17_NO_PRINT
 70
0
 62
7
  6
CONTINUOUS
370
-3
390
F
  0
LAYER
  5
20B
100
AcDbSymbolTableRecord
100
AcDbLayerTableRecord
  2
18_DATUM_CAMS_JOINTS
 70
0
 62
7
  6
CONTINUOUS
370
-3
390
F
  0
LAYER
  5
20C
100
AcDbSymbolTableRecord
100
AcDbLayerTableRecord
  2
19_DATUM_FUNCTIONAL
 70
0
 62
7
  6
CONTINUOUS
370
-3
390
F
  0
LAYER
  5
20D
100
AcDbSymbolTableRecord
100
AcDbLayerTableRecord
  2
20_DATUM_KINEMATIC_SCHEME
 70
0
 62
7
  6
CONTINUOUS
370
-3
390
F
  0
ENDTAB
  0
TABLE
  2
STYLE
  5
3
100
AcDbSymbolTable
 70
1
  0
STYLE
  5
11
100
AcDbSymbolTableRecord
100
AcDbTextStyleTableRecord
  2
STANDARD
 70
0
 40
0.0
 41
1.0
 50
0.0
 71
0
 42
0.2
  3
ARIAL.TTF
  4

  0
STYLE
  5
20E
100
AcDbSymbolTableRecord
100
AcDbTextStyleTableRecord
  2
TEXTSTYLE_1
 70
0
 40
0.0
 41
0.8
 50
0.0
 71
0
 42
0.2
  3
gdt
  4

  0
ENDTAB
  0
TABLE
  2
VIEW
  5
6
100
AcDbSymbolTable
 70
0
  0
ENDTAB
  0
TABLE
  2
UCS
  5
7
100
AcDbSymbolTable
 70
0
  0
ENDTAB
  0
TABLE
  2
APPID
  5
9
100
AcDbSymbolTable
 70
1
  0
APPID
  5
20F
100
AcDbSymbolTableRecord
100
AcDbRegAppTableRecord
  2
ACAD
 70
0
  0
ENDTAB
  0
TABLE
  2
BLOCK_RECORD
  5
1
100
AcDbSymbolTable
 70
0
  0
BLOCK_RECORD
  5
210
100
AcDbSymbolTableRecord
100
AcDbBlockTableRecord
  2
*Model_Space
  0
BLOCK_RECORD
  5
211
100
AcDbSymbolTableRecord
100
AcDbBlockTableRecord
  2
*Paper_Space
  0
BLOCK_RECORD
  5
212
100
AcDbSymbolTableRecord
100
AcDbBlockTableRecord
  2
_FILLED
  0
ENDTAB
  0
TABLE
  2
DIMSTYLE
  5
A
100
AcDbSymbolTable
 70
1
100
AcDbDimStyleTable
 71
0
  0
DIMSTYLE
105
213
100
AcDbSymbolTableRecord
100
AcDbDimStyleTableRecord
  2
STANDARD
 70
0
  3

  4

 40
1.0
 41
0.9337447753
 42
1.0
 43
0.38
 44
1.0
 45
0.0
 46
0.0
 47
0.01
 48
0.01
140
1.3072426855
141
0.09
142
0.0
143
25.4
144
1.0
145
0.0
146
1.0
147
0.625
 71
1
 72
0
 73
0
 74
0
 75
0
 76
0
 77
1
 78
8
 79
2
170
0
171
1
172
0
173
0
174
0
175
0
176
0
177
0
178
0
270
2
179
2
271
2
272
2
273
2
274
2
275
0
280
0
281
0
282
0
283
1
284
8
285
0
286
0
287
3
288
0
340
11
278
46
341
212
342
212
343
212
344
212
  0
ENDTAB
  0
ENDSEC
  0
SECTION
  2
BLOCKS
  0
BLOCK
  5
20
100
AcDbEntity
  8
0
100
AcDbBlockBegin
  2
*Model_Space
 70
0
 10
0.0
 20
0.0
 30
0.0
  3
*Model_Space
  1

  0
ENDBLK
  5
21
100
AcDbEntity
  8
0
100
AcDbBlockEnd
  0
BLOCK
  5
1C
100
AcDbEntity
  8
0
100
AcDbBlockBegin
  2
*Paper_Space
 70
0
 10
0.0
 20
0.0
 30
0.0
  3
*Paper_Space
  1

  0
ENDBLK
  5
1D
100
AcDbEntity
  8
0
100
AcDbBlockEnd
  0
BLOCK
  5
214
100
AcDbEntity
  8
0
100
AcDbBlockBegin
  2
_FILLED
 70
64
 10
0.0
 20
0.0
  3
_FILLED
  1

  0
SOLID
  5
215
100
AcDbEntity
  8
0
  6
BYBLOCK
 62
0
100
AcDbTrace
 10
0.0
 20
0.0
 11
-1.0
 21
0.25
 12
-1.0
 22
-0.25
 13
-1.0
 23
-0.25
  0
ENDBLK
  5
216
100
AcDbEntity
  8
0
  6
BYBLOCK
 62
0
100
AcDbBlockEnd
  0
ENDSEC
  0
SECTION
  2
ENTITIES
  0
LINE
  5
217
100
AcDbEntity
  8
0
100
AcDbLine
 62
7
  6
BYLAYER
 10
62.7355995298
 20
12.425
 11
17.7355995298
 21
12.425
  0
LINE
  5
218
100
AcDbEntity
  8
0
100
AcDbLine
 62
7
  6
BYLAYER
 10
17.7355995298
 20
13.425
 11
62.7355995298
 21
13.425
  0
LINE
  5
219
100
AcDbEntity
  8
0
100
AcDbLine
 62
7
  6
BYLAYER
 10
64.1355995298
 20
17.375
 11
16.3355995298
 21
17.375
  0
LINE
  5
21A
100
AcDbEntity
  8
0
100
AcDbLine
 62
7
  6
BYLAYER
 10
67.2355995339
 20
18.875
 11
13.2355995112
 21
18.875
  0
LINE
  5
21B
100
AcDbEntity
  8
0
100
AcDbLine
 62
7
  6
BYLAYER
 10
13.2355995298
 20
19.875
 11
67.2355995298
 21
19.875
  0
LINE
  5
21C
100
AcDbEntity
  8
0
100
AcDbLine
 62
7
  6
BYLAYER
 10
8.7355995298
 20
24.975
 11
8.7355995298
 21
72.775
  0
LINE
  5
21D
100
AcDbEntity
  8
0
100
AcDbLine
 62
7
  6
BYLAYER
 10
10.2355995298
 20
21.875
 11
11.2355995298
 21
21.875
  0
LINE
  5
21E
100
AcDbEntity
  8
0
100
AcDbLine
 62
7
  6
BYLAYER
 10
69.2355995298
 20
21.875
 11
70.2355995298
 21
21.875
  0
LINE
  5
21F
100
AcDbEntity
  8
0
100
AcDbLine
 62
7
  6
BYLAYER
 10
10.2355995298
 20
21.8749999959
 11
10.2355995298
 21
75.8750000186
  0
LINE
  5
220
100
AcDbEntity
  8
0
100
AcDbLine
 62
7
  6
BYLAYER
 10
11.2355995298
 20
75.875
 11
11.2355995298
 21
21.875
  0
LINE
  5
221
100
AcDbEntity
  8
0
100
AcDbLine
 62
7
  6
BYLAYER
 10
13.2355995298
 20
78.875
 11
13.2355995298
 21
77.875
  0
LINE
  5
222
100
AcDbEntity
  8
0
100
AcDbLine
 62
7
  6
BYLAYER
 10
13.2355995298
 20
19.875
 11
13.2355995298
 21
18.875
  0
LINE
  5
223
100
AcDbEntity
  8
0
100
AcDbLine
 62
7
  6
BYLAYER
 10
17.7355995298
 20
97.825
 11
17.7355995298
 21
80.375
  0
LINE
  5
224
100
AcDbEntity
  8
0
100
AcDbLine
 62
7
  6
BYLAYER
 10
17.7355995298
 20
17.375
 11
17.7355995298
 21
12.425
  0
LINE
  5
225
100
AcDbEntity
  8
0
100
AcDbLine
 62
7
  6
BYLAYER
 10
48.9533974198
 20
30.8750000011
 11
31.5178016399
 21
30.8750000016
  0
LINE
  5
226
100
AcDbEntity
  8
0
100
AcDbLine
 62
7
  6
BYLAYER
 10
20.5442308623
 20
54.875
 11
20.5442308623
 21
52.875
  0
LINE
  5
227
100
AcDbEntity
  8
0
100
AcDbLine
 62
7
  6
BYLAYER
 10
20.5442308623
 20
44.875
 11
20.5442308623
 21
42.875
  0
LINE
  5
228
100
AcDbEntity
  8
0
100
AcDbLine
 62
7
  6
BYLAYER
 10
24.7205995298
 20
17.375
 11
24.7205995298
 21
17.2660632602
  0
LINE
  5
229
100
AcDbEntity
  8
0
100
AcDbLine
 62
7
  6
BYLAYER
 10
25.7505995298
 20
17.2660632602
 11
25.7505995298
 21
17.375
  0
LINE
  5
22A
100
AcDbEntity
  8
0
100
AcDbLine
 62
7
  6
BYLAYER
 10
59.9269682088
 20
42.875
 11
20.5442308507
 21
42.875
  0
LINE
  5
22B
100
AcDbEntity
  8
0
100
AcDbLine
 62
7
  6
BYLAYER
 10
20.5442308623
 20
44.875
 11
53.7355995298
 21
44.875
  0
LINE
  5
22C
100
AcDbEntity
  8
0
100
AcDbLine
 62
7
  6
BYLAYER
 10
54.1355995298
 20
44.875
 11
59.9269681973
 21
44.875
  0
LINE
  5
22D
100
AcDbEntity
  8
0
100
AcDbLine
 62
7
  6
BYLAYER
 10
53.7355995298
 20
46.975
 11
23.5355995298
 21
46.975
  0
LINE
  5
22E
100
AcDbEntity
  8
0
100
AcDbLine
 62
7
  6
BYLAYER
 10
23.5355995298
 20
47.175
 11
54.1355995298
 21
47.175
  0
LINE
  5
22F
100
AcDbEntity
  8
0
100
AcDbLine
 62
7
  6
BYLAYER
 10
62.3883892807
 20
52.8125
 11
60.419252414
 21
52.4625
  0
LINE
  5
230
100
AcDbEntity
  8
0
100
AcDbLine
 62
7
  6
BYLAYER
 10
18.0828097788
 20
44.9375
 11
20.0519466456
 21
45.2875
  0
LINE
  5
231
100
AcDbEntity
  8
0
100
AcDbLine
 62
7
  6
BYLAYER
 10
54.1355995298
 20
50.575
 11
23.5355995298
 21
50.575
  0
LINE
  5
232
100
AcDbEntity
  8
0
100
AcDbLine
 62
7
  6
BYLAYER
 10
23.5355995298
 20
50.775
 11
53.7355995298
 21
50.775
  0
LINE
  5
233
100
AcDbEntity
  8
0
100
AcDbLine
 62
7
  6
BYLAYER
 10
20.0519466456
 20
52.4625
 11
18.0828097788
 21
52.8125
  0
LINE
  5
234
100
AcDbEntity
  8
0
100
AcDbLine
 62
7
  6
BYLAYER
 10
60.419252414
 20
45.2875
 11
62.3883892807
 21
44.9375
  0
LINE
  5
235
100
AcDbEntity
  8
0
100
AcDbLine
 62
7
  6
BYLAYER
 10
39.7205995298
 20
17.375
 11
39.7205995298
 21
17.2660632602
  0
LINE
  5
236
100
AcDbEntity
  8
0
100
AcDbLine
 62
7
  6
BYLAYER
 10
59.9269681973
 20
52.875
 11
54.1355995298
 21
52.875
  0
LINE
  5
237
100
AcDbEntity
  8
0
100
AcDbLine
 62
7
  6
BYLAYER
 10
53.7355995298
 20
52.875
 11
20.5442308623
 21
52.875
  0
LINE
  5
238
100
AcDbEntity
  8
0
100
AcDbLine
 62
7
  6
BYLAYER
 10
20.5442308507
 20
54.875
 11
59.9269682088
 21
54.875
  0
LINE
  5
239
100
AcDbEntity
  8
0
100
AcDbLine
 62
7
  6
BYLAYER
 10
30.4280768912
 20
69.1249999924
 11
31.5178016288
 21
66.8749999933
  0
LINE
  5
23A
100
AcDbEntity
  8
0
100
AcDbLine
 62
7
  6
BYLAYER
 10
50.0431221281
 20
28.624999988
 11
48.9533973949
 21
30.8749999894
  0
LINE
  5
23B
100
AcDbEntity
  8
0
100
AcDbLine
 62
7
  6
BYLAYER
 10
40.7505995298
 20
17.2660632602
 11
40.7505995298
 21
17.375
  0
LINE
  5
23C
100
AcDbEntity
  8
0
100
AcDbLine
 62
7
  6
BYLAYER
 10
31.5178019778
 20
30.8749998377
 11
30.4280772838
 21
28.6249998174
  0
LINE
  5
23D
100
AcDbEntity
  8
0
100
AcDbLine
 62
7
  6
BYLAYER
 10
48.9534030597
 20
66.874997267
 11
50.043128501
 21
69.1249969254
  0
LINE
  5
23E
100
AcDbEntity
  8
0
100
AcDbLine
 62
7
  6
BYLAYER
 10
59.0035904396
 20
49.3173870805
 11
55.6703353112
 21
51.0897102704
  0
LINE
  5
23F
100
AcDbEntity
  8
0
100
AcDbLine
 62
7
  6
BYLAYER
 10
53.7355995298
 20
42.875
 11
53.7355995298
 21
46.975
  0
LINE
  5
240
100
AcDbEntity
  8
0
100
AcDbLine
 62
7
  6
BYLAYER
 10
53.7355995298
 20
50.775
 11
53.7355995298
 21
54.875
  0
LINE
  5
241
100
AcDbEntity
  8
0
100
AcDbLine
 62
7
  6
BYLAYER
 10
54.1355995298
 20
42.875
 11
54.1355995298
 21
47.175
  0
LINE
  5
242
100
AcDbEntity
  8
0
100
AcDbLine
 62
7
  6
BYLAYER
 10
54.1355995298
 20
50.575
 11
54.1355995298
 21
54.875
  0
LINE
  5
243
100
AcDbEntity
  8
0
100
AcDbLine
 62
7
  6
BYLAYER
 10
54.7205995298
 20
17.375
 11
54.7205995298
 21
17.2660632602
  0
LINE
  5
244
100
AcDbEntity
  8
0
100
AcDbLine
 62
7
  6
BYLAYER
 10
31.5178016477
 20
66.8750000019
 11
48.9533974106
 21
66.8750000033
  0
LINE
  5
245
100
AcDbEntity
  8
0
100
AcDbLine
 62
7
  6
BYLAYER
 10
54.9355995298
 20
47.110904501
 11
54.9355995298
 21
50.648236474
  0
LINE
  5
246
100
AcDbEntity
  8
0
100
AcDbLine
 62
7
  6
BYLAYER
 10
55.7505995298
 20
17.2660632602
 11
55.7505995298
 21
17.375
  0
LINE
  5
247
100
AcDbEntity
  8
0
100
AcDbLine
 62
7
  6
BYLAYER
 10
55.66957904
 20
46.6690294181
 11
59.0028341684
 21
48.4340382012
  0
LINE
  5
248
100
AcDbEntity
  8
0
100
AcDbLine
 62
7
  6
BYLAYER
 10
59.9269681973
 20
42.875
 11
59.9269681973
 21
44.875
  0
LINE
  5
249
100
AcDbEntity
  8
0
100
AcDbLine
 62
7
  6
BYLAYER
 10
59.9269681973
 20
52.875
 11
59.9269681973
 21
54.875
  0
LINE
  5
24A
100
AcDbEntity
  8
0
100
AcDbLine
 62
7
  6
BYLAYER
 10
70.2355995298
 20
75.875
 11
69.2355995298
 21
75.875
  0
LINE
  5
24B
100
AcDbEntity
  8
0
100
AcDbLine
 62
7
  6
BYLAYER
 10
11.2355995298
 20
75.875
 11
10.2355995298
 21
75.875
  0
LINE
  5
24C
100
AcDbEntity
  8
0
100
AcDbLine
 62
7
  6
BYLAYER
 10
62.7355995298
 20
12.425
 11
62.7355995298
 21
17.375
  0
LINE
  5
24D
100
AcDbEntity
  8
0
100
AcDbLine
 62
7
  6
BYLAYER
 10
62.7355995298
 20
80.375
 11
62.7355995298
 21
97.825
  0
LINE
  5
24E
100
AcDbEntity
  8
0
100
AcDbLine
 62
7
  6
BYLAYER
 10
67.2355995298
 20
77.875
 11
13.2355995298
 21
77.875
  0
LINE
  5
24F
100
AcDbEntity
  8
0
100
AcDbLine
 62
7
  6
BYLAYER
 10
13.2355995257
 20
78.875
 11
67.2355995484
 21
78.875
  0
LINE
  5
250
100
AcDbEntity
  8
0
100
AcDbLine
 62
7
  6
BYLAYER
 10
67.2355995298
 20
18.875
 11
67.2355995298
 21
19.875
  0
LINE
  5
251
100
AcDbEntity
  8
0
100
AcDbLine
 62
7
  6
BYLAYER
 10
67.2355995298
 20
77.875
 11
67.2355995298
 21
78.875
  0
LINE
  5
252
100
AcDbEntity
  8
0
100
AcDbLine
 62
7
  6
BYLAYER
 10
16.3355995298
 20
80.375
 11
64.1355995298
 21
80.375
  0
LINE
  5
253
100
AcDbEntity
  8
0
100
AcDbLine
 62
7
  6
BYLAYER
 10
69.2355995298
 20
21.875
 11
69.2355995298
 21
75.875
  0
LINE
  5
254
100
AcDbEntity
  8
0
100
AcDbLine
 62
7
  6
BYLAYER
 10
70.2355995298
 20
75.8750000041
 11
70.2355995298
 21
21.8749999814
  0
LINE
  5
255
100
AcDbEntity
  8
0
100
AcDbLine
 62
7
  6
BYLAYER
 10
71.7355995298
 20
72.775
 11
71.7355995298
 21
24.975
  0
LINE
  5
256
100
AcDbEntity
  8
0
100
AcDbLine
 62
7
  6
BYLAYER
 10
62.7355995298
 20
84.975
 11
17.7355995298
 21
84.975
  0
LINE
  5
257
100
AcDbEntity
  8
0
100
AcDbLine
 62
7
  6
BYLAYER
 10
62.7355995298
 20
97.825
 11
17.7355995298
 21
97.825
  0
ARC
  5
258
100
AcDbEntity
  8
0
100
AcDbCircle
 62
7
  6
BYLAYER
 10
16.3355995298
 20
24.975
 40
7.6
100
AcDbArc
 50
180.0
 51
270.0
  0
ARC
  5
259
100
AcDbEntity
  8
0
100
AcDbCircle
 62
7
  6
BYLAYER
 10
25.2355995298
 20
20.475
 40
3.75
100
AcDbArc
 50
242.7632350655
 51
297.2347786476
  0
ARC
  5
25A
100
AcDbEntity
  8
0
100
AcDbCircle
 62
7
  6
BYLAYER
 10
25.2355995298
 20
20.475
 40
3.25
100
AcDbArc
 50
262.7500597235
 51
277.2499402765
  0
ARC
  5
25B
100
AcDbEntity
  8
0
100
AcDbCircle
 62
7
  6
BYLAYER
 10
13.2355995298
 20
21.875
 40
3.0
100
AcDbArc
 50
180.0000000389
 51
269.9999998221
  0
ARC
  5
25C
100
AcDbEntity
  8
0
100
AcDbCircle
 62
7
  6
BYLAYER
 10
20.5442308623
 20
45.375
 40
2.5
100
AcDbArc
 50
190.0786581077
 51
269.9999998679
  0
ARC
  5
25D
100
AcDbEntity
  8
0
100
AcDbCircle
 62
7
  6
BYLAYER
 10
13.2355995298
 20
21.875
 40
2.0
100
AcDbArc
 50
180.0
 51
270.0
  0
ARC
  5
25E
100
AcDbEntity
  8
0
100
AcDbCircle
 62
7
  6
BYLAYER
 10
20.5442308623
 20
45.375
 40
0.5
100
AcDbArc
 50
190.0786581095
 51
269.9999999997
  0
ARC
  5
25F
100
AcDbEntity
  8
0
100
AcDbCircle
 62
7
  6
BYLAYER
 10
16.3355995298
 20
72.775
 40
7.6
100
AcDbArc
 50
90.0
 51
180.0
  0
ARC
  5
260
100
AcDbEntity
  8
0
100
AcDbCircle
 62
7
  6
BYLAYER
 10
13.2355995298
 20
75.875
 40
3.0
100
AcDbArc
 50
90.0
 51
179.9999998221
  0
ARC
  5
261
100
AcDbEntity
  8
0
100
AcDbCircle
 62
7
  6
BYLAYER
 10
20.5442308623
 20
52.375
 40
2.5
100
AcDbArc
 50
90.0000001189
 51
169.9213418923
  0
ARC
  5
262
100
AcDbEntity
  8
0
100
AcDbCircle
 62
7
  6
BYLAYER
 10
13.2355995298
 20
75.875
 40
2.0
100
AcDbArc
 50
90.0
 51
180.0
  0
ARC
  5
263
100
AcDbEntity
  8
0
100
AcDbCircle
 62
7
  6
BYLAYER
 10
23.5355995298
 20
48.875
 40
1.9
100
AcDbArc
 50
90.0
 51
270.0
  0
ARC
  5
264
100
AcDbEntity
  8
0
100
AcDbCircle
 62
7
  6
BYLAYER
 10
23.5355995298
 20
48.875
 40
1.7
100
AcDbArc
 50
90.0
 51
270.0
  0
ARC
  5
265
100
AcDbEntity
  8
0
100
AcDbCircle
 62
7
  6
BYLAYER
 10
20.5442308623
 20
52.375
 40
0.5
100
AcDbArc
 50
90.0000000009
 51
169.9213418904
  0
ARC
  5
266
100
AcDbEntity
  8
0
100
AcDbCircle
 62
7
  6
BYLAYER
 10
64.1355995298
 20
24.975
 40
7.6
100
AcDbArc
 50
270.0
 51
360.0
  0
ARC
  5
267
100
AcDbEntity
  8
0
100
AcDbCircle
 62
7
  6
BYLAYER
 10
55.2355995298
 20
20.475
 40
3.75
100
AcDbArc
 50
242.7632350655
 51
297.2347786476
  0
ARC
  5
268
100
AcDbEntity
  8
0
100
AcDbCircle
 62
7
  6
BYLAYER
 10
40.2355995298
 20
20.475
 40
3.75
100
AcDbArc
 50
242.7632350655
 51
297.2347786476
  0
ARC
  5
269
100
AcDbEntity
  8
0
100
AcDbCircle
 62
7
  6
BYLAYER
 10
40.2355995298
 20
20.475
 40
3.25
100
AcDbArc
 50
262.7500597235
 51
277.2499402765
  0
ARC
  5
26A
100
AcDbEntity
  8
0
100
AcDbCircle
 62
7
  6
BYLAYER
 10
55.2355995298
 20
20.475
 40
3.25
100
AcDbArc
 50
262.7500597235
 51
277.2499402765
  0
ARC
  5
26B
100
AcDbEntity
  8
0
100
AcDbCircle
 62
7
  6
BYLAYER
 10
67.2355995298
 20
21.875
 40
3.0
100
AcDbArc
 50
270.0000000389
 51
359.9999998221
  0
ARC
  5
26C
100
AcDbEntity
  8
0
100
AcDbCircle
 62
7
  6
BYLAYER
 10
59.9269681973
 20
45.375
 40
2.5
100
AcDbArc
 50
270.0000001288
 51
349.9213418923
  0
ARC
  5
26D
100
AcDbEntity
  8
0
100
AcDbCircle
 62
7
  6
BYLAYER
 10
67.2355995298
 20
21.875
 40
2.0
100
AcDbArc
 50
270.0
 51
360.0
  0
ARC
  5
26E
100
AcDbEntity
  8
0
100
AcDbCircle
 62
7
  6
BYLAYER
 10
55.4355995298
 20
47.110904501
 40
0.5
100
AcDbArc
 50
180.0
 51
297.9018934882
  0
ARC
  5
26F
100
AcDbEntity
  8
0
100
AcDbCircle
 62
7
  6
BYLAYER
 10
59.9269681973
 20
45.375
 40
0.5
100
AcDbArc
 50
270.0000000009
 51
349.9213418905
  0
CIRCLE
  5
270
100
AcDbEntity
  8
0
100
AcDbCircle
 62
7
  6
BYLAYER
 10
40.2355995298
 20
48.875
 40
22.5
  0
ARC
  5
271
100
AcDbEntity
  8
0
100
AcDbCircle
 62
7
  6
BYLAYER
 10
40.2355995298
 20
48.875
 40
20.5
100
AcDbArc
 50
349.9213418922
 51
10.0786581078
  0
ARC
  5
272
100
AcDbEntity
  8
0
100
AcDbCircle
 62
7
  6
BYLAYER
 10
40.2355995298
 20
48.875
 40
20.5
100
AcDbArc
 50
169.9213418922
 51
190.0786581078
  0
ARC
  5
273
100
AcDbEntity
  8
0
100
AcDbCircle
 62
7
  6
BYLAYER
 10
40.2355995298
 20
48.875
 40
20.0
100
AcDbArc
 50
64.1580672571
 51
115.8419327478
  0
ARC
  5
274
100
AcDbEntity
  8
0
100
AcDbCircle
 62
7
  6
BYLAYER
 10
40.2355995298
 20
48.875
 40
20.0
100
AcDbArc
 50
244.1580672277
 51
295.8419327721
  0
ARC
  5
275
100
AcDbEntity
  8
0
100
AcDbCircle
 62
7
  6
BYLAYER
 10
64.1355995298
 20
72.775
 40
7.6
100
AcDbArc
 50
0.0
 51
90.0
  0
ARC
  5
276
100
AcDbEntity
  8
0
100
AcDbCircle
 62
7
  6
BYLAYER
 10
67.2355995298
 20
75.875
 40
3.0
100
AcDbArc
 50
0.0000000389
 51
90.0
  0
ARC
  5
277
100
AcDbEntity
  8
0
100
AcDbCircle
 62
7
  6
BYLAYER
 10
59.9269681973
 20
52.375
 40
2.5
100
AcDbArc
 50
10.0786581077
 51
89.9999998679
  0
ARC
  5
278
100
AcDbEntity
  8
0
100
AcDbCircle
 62
7
  6
BYLAYER
 10
67.2355995298
 20
75.875
 40
2.0
100
AcDbArc
 50
0.0
 51
90.0
  0
ARC
  5
279
100
AcDbEntity
  8
0
100
AcDbCircle
 62
7
  6
BYLAYER
 10
58.7688546582
 20
48.8759132841
 40
0.5
100
AcDbArc
 50
297.9018934882
 51
61.9999999996
  0
ARC
  5
27A
100
AcDbEntity
  8
0
100
AcDbCircle
 62
7
  6
BYLAYER
 10
55.4355995298
 20
50.648236474
 40
0.5
100
AcDbArc
 50
62.0
 51
180.0
  0
ARC
  5
27B
100
AcDbEntity
  8
0
100
AcDbCircle
 62
7
  6
BYLAYER
 10
59.9269681973
 20
52.375
 40
0.5
100
AcDbArc
 50
10.0786581095
 51
89.9999999997
  0
SPLINE
  5
27C
100
AcDbEntity
  8
0
100
AcDbSpline
 62
7
  6
BYLAYER
 70
0
 71
3
 72
27
 73
23
 74
0
 42
0.0000001
 43
0.0000001
 44
0.0000000001
 40
0.0
 40
0.0
 40
0.0
 40
0.0
 40
0.1823671916
 40
0.360083966
 40
0.5297690428
 40
0.6097061289
 40
0.6849249272
 40
0.7542587703
 40
0.8166415348
 40
0.8710025024
 40
0.9165889448
 40
0.9358599807
 40
0.9526955203
 40
0.9670465834
 40
0.978858893
 40
0.9880811951
 40
0.99171335
 40
0.9946900948
 40
0.9970093166
 40
0.9986688547
 40
0.999666501
 40
1.0
 40
1.0
 40
1.0
 40
1.0
 10
31.5177978957
 20
30.8749906658
 30
0.0
 10
30.5633456259
 20
31.257594782
 30
0.0
 10
28.7298690057
 20
32.1489929959
 30
0.0
 10
26.253051351
 20
33.8377521578
 30
0.0
 10
24.4912034918
 20
35.4985814688
 30
0.0
 10
23.3220542328
 20
36.9106201891
 30
0.0
 10
22.5926417822
 20
37.9468016867
 30
0.0
 10
21.9974045638
 20
38.9516506355
 30
0.0
 10
21.5283090897
 20
39.891092771
 30
0.0
 10
21.1747140626
 20
40.7359973558
 30
0.0
 10
20.95177739
 20
41.370525298
 30
0.0
 10
20.8153860518
 20
41.8105300128
 30
0.0
 10
20.7370670533
 20
42.0840667862
 30
0.0
 10
20.6748663815
 20
42.3184175763
 30
0.0
 10
20.6268498542
 20
42.5120800788
 30
0.0
 10
20.5947089335
 20
42.6474070552
 30
0.0
 10
20.574825995
 20
42.7344221304
 30
0.0
 10
20.5637228309
 20
42.783539303
 30
0.0
 10
20.5556039632
 20
42.821871974
 30
0.0
 10
20.5491322838
 20
42.8492646119
 30
0.0
 10
20.5467431859
 20
42.8658529752
 30
0.0
 10
20.5441381732
 20
42.8731213715
 30
0.0
 10
20.5442207795
 20
42.875
 30
0.0
  0
SPLINE
  5
27D
100
AcDbEntity
  8
0
100
AcDbSpline
 62
7
  6
BYLAYER
 70
0
 71
3
 72
22
 73
18
 74
0
 42
0.0000001
 43
0.0000001
 44
0.0000000001
 40
0.0
 40
0.0
 40
0.0
 40
0.0
 40
0.001333476
 40
0.0053163181
 40
0.0119307395
 40
0.0211597107
 40
0.0329794992
 40
0.0473385686
 40
0.0834596259
 40
0.1290625039
 40
0.1834403329
 40
0.2458414663
 40
0.3151982755
 40
0.4702898881
 40
0.6399931778
 40
0.8176796767
 40
1.0
 40
1.0
 40
1.0
 40
1.0
 10
20.5442668368
 20
54.8749999997
 30
0.0
 10
20.5462485575
 20
54.8822520076
 30
0.0
 10
20.5512041294
 20
54.9118707773
 30
0.0
 10
20.5666423247
 20
54.9773267549
 30
0.0
 10
20.5907734858
 20
55.0864782863
 30
0.0
 10
20.6270618868
 20
55.2381601185
 30
0.0
 10
20.6750000193
 20
55.4319467449
 30
0.0
 10
20.7651354567
 20
55.7714390711
 30
0.0
 10
20.9205102106
 20
56.2905612551
 30
0.0
 10
21.1750510183
 20
57.0148043991
 30
0.0
 10
21.5287856413
 20
57.8598425785
 30
0.0
 10
21.9979930517
 20
58.7994922972
 30
0.0
 10
22.8232162073
 20
60.1918153246
 30
0.0
 10
24.1840836166
 20
61.9615368048
 30
0.0
 10
26.2541524153
 20
63.9131187876
 30
0.0
 10
28.7309414444
 20
65.6015544322
 30
0.0
 10
30.5637277033
 20
66.4925081926
 30
0.0
 10
31.5178150018
 20
66.8749666922
 30
0.0
  0
SPLINE
  5
27E
100
AcDbEntity
  8
0
100
AcDbSpline
 62
7
  6
BYLAYER
 70
0
 71
3
 72
23
 73
19
 74
0
 42
0.0000001
 43
0.0000001
 44
0.0000000001
 40
0.0
 40
0.0
 40
0.0
 40
0.0
 40
0.1823917481
 40
0.3601605751
 40
0.5298835121
 40
0.6098419481
 40
0.6850800715
 40
0.7544246672
 40
0.8168029783
 40
0.8711395856
 40
0.9166891632
 40
0.9527545947
 40
0.9670880824
 40
0.9788854823
 40
0.9880963408
 40
0.9946971641
 40
0.9986709612
 40
1.0
 40
1.0
 40
1.0
 40
1.0
 10
48.953406261
 20
66.8750220844
 30
0.0
 10
49.9079786666
 20
66.4923466023
 30
0.0
 10
51.741800277
 20
65.6006769894
 30
0.0
 10
54.219155344
 20
63.9115474416
 30
0.0
 10
55.9813074705
 20
62.2501111012
 30
0.0
 10
57.1506047745
 20
60.8376218651
 30
0.0
 10
57.8800714197
 20
59.8011218552
 30
0.0
 10
58.4751848129
 20
58.7960278712
 30
0.0
 10
58.9440252032
 20
57.856578447
 30
0.0
 10
59.2973406567
 20
57.0119456563
 30
0.0
 10
59.5514230789
 20
56.2883448875
 30
0.0
 10
59.7065751074
 20
55.7698709621
 30
0.0
 10
59.7964256787
 20
55.4308690424
 30
0.0
 10
59.8444939444
 20
55.2374623731
 30
0.0
 10
59.8801322144
 20
55.0859410978
 30
0.0
 10
59.9055625595
 20
54.9772712718
 30
0.0
 10
59.9186308683
 20
54.9114860947
 30
0.0
 10
59.9260198669
 20
54.8824304915
 30
0.0
 10
59.9269920448
 20
54.8749999999
 30
0.0
  0
SPLINE
  5
27F
100
AcDbEntity
  8
0
100
AcDbSpline
 62
7
  6
BYLAYER
 70
0
 71
3
 72
25
 73
21
 74
0
 42
0.0000001
 43
0.0000001
 44
0.0000000001
 40
0.0
 40
0.0
 40
0.0
 40
0.0
 40
0.0003346408
 40
0.0013347703
 40
0.0029980243
 40
0.0053220852
 40
0.0119435742
 40
0.0211816593
 40
0.0330121438
 40
0.0473833978
 40
0.0642408926
 40
0.0835354312
 40
0.1291729653
 40
0.1835902258
 40
0.2460319916
 40
0.3154156178
 40
0.4704866071
 40
0.6401170762
 40
0.8176981975
 40
1.0
 40
1.0
 40
1.0
 40
1.0
 10
59.9269756239
 20
42.875
 30
0.0
 10
59.9263317678
 20
42.8732266031
 30
0.0
 10
59.9254719238
 20
42.8656712863
 30
0.0
 10
59.9213797063
 20
42.8493042758
 30
0.0
 10
59.9158484501
 20
42.821708759
 30
0.0
 10
59.9028356045
 20
42.7633432271
 30
0.0
 10
59.8802675988
 20
42.6633305611
 30
0.0
 10
59.8441499212
 20
42.5114544557
 30
0.0
 10
59.7960811451
 20
42.3175109048
 30
0.0
 10
59.7337957619
 20
42.082861272
 30
0.0
 10
59.6553786719
 20
41.8090017528
 30
0.0
 10
59.5188098866
 20
41.3685387821
 30
0.0
 10
59.295556688
 20
40.7334195897
 30
0.0
 10
58.9414516833
 20
39.8878369884
 30
0.0
 10
58.4717732904
 20
38.9477341838
 30
0.0
 10
57.6461358209
 20
37.5553368405
 30
0.0
 10
56.2851205713
 20
35.7861761253
 30
0.0
 10
54.2155064882
 20
33.8357561271
 30
0.0
 10
51.7396722808
 20
32.1478758756
 30
0.0
 10
49.9074127475
 20
31.2573796323
 30
0.0
 10
48.9534001764
 20
30.8749931247
 30
0.0
  0
ENDSEC
  0
SECTION
  2
OBJECTS
  0
DICTIONARY
  5
C
100
AcDbDictionary
280
0
281
1
  3
ACAD_GROUP
350
D
  3
ACAD_MLINESTYLE
350
17
  3
ACAD_LAYOUT
350
1A
  3
ACAD_PLOTSETTINGS
350
19
  3
ACAD_PLOTSTYLENAME
350
E
  0
DICTIONARY
  5
D
102
{ACAD_REACTORS
330
C
102
}
100
AcDbDictionary
280
0
281
1
  0
ACDBDICTIONARYWDFLT
  5
E
102
{ACAD_REACTORS
330
C
102
}
100
AcDbDictionary
281
1
  3
Normal
350
F
100
AcDbDictionaryWithDefault
340
F
  0
DICTIONARY
  5
17
102
{ACAD_REACTORS
330
C
102
}
100
AcDbDictionary
280
0
281
1
  3
Standard
350
18
  0
DICTIONARY
  5
19
102
{ACAD_REACTORS
330
C
102
}
100
AcDbDictionary
281
1
  0
DICTIONARY
  5
1A
102
{ACAD_REACTORS
330
C
102
}
100
AcDbDictionary
281
1
  3
Model
350
280
  3
Layout1
350
281
  0
ACDBPLACEHOLDER
  5
F
102
{ACAD_REACTORS
330
E
102
}
  0
MLINESTYLE
  5
18
102
{ACAD_REACTORS
330
17
102
}
100
AcDbMlineStyle
  2
STANDARD
 70
0
  3

 62
256
 51
90.0
 52
90.0
 71
2
 49
0.5
 62
256
  6
BYLAYER
 49
-0.5
 62
256
  6
BYLAYER
  0
LAYOUT
  5
280
102
{ACAD_REACTORS
330
1A
102
}
100
AcDbPlotSettings
  1

  2
none_device
  4

  6

 40
0.0
 41
0.0
 42
0.0
 43
0.0
 44
210.0
 45
297.0
 46
0.0
 47
0.0
 48
0.0
 49
0.0
140
0.0
141
0.0
142
1.0
143
1.0
 70
1024
 72
1
 73
0
 74
0
  7

 75
0
147
1.0
148
0.0
149
0.0
100
AcDbLayout
  1
Model
 70
0
 71
0
 10
0.0
 20
0.0
 11
210.0
 21
297.0
 12
0.0
 22
0.0
 32
0.0
 14
0.0
 24
0.0
 34
0.0
 15
0.0
 25
0.0
 35
0.0
146
0.0
 13
0.0
 23
0.0
 33
0.0
 16
1.0
 26
0.0
 36
0.0
 17
0.0
 27
1.0
 37
0.0
 76
0
330
210
345
0
346
0
  0
LAYOUT
  5
281
102
{ACAD_REACTORS
330
1A
102
}
100
AcDbPlotSettings
  1

  2
none_device
  4

  6

 40
0.0
 41
0.0
 42
0.0
 43
0.0
 44
210.0
 45
297.0
 46
0.0
 47
0.0
 48
0.0
 49
0.0
140
0.0
141
0.0
142
1.0
143
1.0
 70
0
 72
1
 73
0
 74
0
  7

 75
0
147
1.0
148
0.0
149
0.0
100
AcDbLayout
  1
Layout1
 70
0
 71
1
 10
0.0
 20
0.0
 11
210.0
 21
297.0
 12
0.0
 22
0.0
 32
0.0
 14
0.0
 24
0.0
 34
0.0
 15
0.0
 25
0.0
 35
0.0
146
0.0
 13
0.0
 23
0.0
 33
0.0
 16
1.0
 26
0.0
 36
0.0
 17
0.0
 27
1.0
 37
0.0
 76
0
330
211
345
0
346
0
  0
ENDSEC
  0
EOF
