999
DXF file: C:\Users\sesa63760\Dev\_Creo\CAD\MCADID0004244_3D-CAD\drw0001_4.dxf
999
Pro/ENGINEER 2019471 by Parametric Technology Corporation
  0
SECTION
  2
HEADER
  9
$ACADVER
  1
AC1024
  9
$DWGCODEPAGE
  3
ANSI_1252
  9
$EXTMAX
 10
950.9640142432
 20
1344.9348201439
 30
0.0
  9
$EXTMIN
 10
0.0
 20
0.0
 30
0.0
  9
$LIMMIN
 10
0.0
 20
0.0
  9
$LIMMAX
 10
950.9640142432
 20
1344.9348201439
  9
$VIEWCTR
 10
475.4820071216
 20
672.4674100719
  9
$VIEWSIZE
 40
1344.9348201439
  9
$CLAYER
  8
0
  9
$LTSCALE
 40
87.6698253131
  9
$CELTYPE
  6
BYLAYER
  9
$DIMSCALE
 40
1.0
  9
$DIMASZ
 40
11.3210001696
  9
$DIMEXO
 40
1.0
  9
$DIMDLI
 40
60.5718793072
  9
$DIMEXE
 40
1.0
  9
$DIMCEN
 40
14.3459714149
  9
$DIMLFAC
 40
1.0
  9
$DIMBLK
  1
_FILLED
  9
$DIMALT
 70
0
  9
$DIMALTF
 40
0.0393700787
  9
$DIMTXT
 40
15.8494002374
  9
$DIMTOL
 70
1
  9
$DIMLIM
 70
0
  9
$DIMTFAC
 40
1.0
  9
$DIMTP
 40
0.01
  9
$DIMTM
 40
0.01
  9
$DIMGAP
 40
0.625
  9
$DIMDSEP
 70
46
  9
$AUNITS
 70
0
  9
$PDMODE
 70
3
  9
$PDSIZE
 40
0.3125
  9
$HANDSEED
  5
40D
  9
$TILEMODE
 70
1
  9
$MEASUREMENT
 70
1
  9
$INSUNITS
 70
4
  0
ENDSEC
  0
SECTION
  2
CLASSES
  0
CLASS
  1
ACDBDICTIONARYWDFLT
  2
AcDbDictionaryWithDefault
  3
AutoCAD 2000
 90
0
 91
1
280
0
281
0
  0
CLASS
  1
ACDBPLACEHOLDER
  2
AcDbPlaceHolder
  3
AutoCAD 2000
 90
0
 91
1
280
0
281
0
  0
CLASS
  1
LAYOUT
  2
AcDbLayout
  3
AutoCAD 2000
 90
0
 91
0
280
0
281
0
  0
ENDSEC
  0
SECTION
  2
TABLES
  0
TABLE
  2
VPORT
  5
8
100
AcDbSymbolTable
 70
2
  0
VPORT
  5
1F4
100
AcDbSymbolTableRecord
100
AcDbViewportTableRecord
  2
*ACTIVE
 70
0
 10
0.0
 20
0.0
 11
1.0
 21
1.0
 12
475.4820071216
 22
672.4674100719
 13
0.0
 23
0.0
 14
1.0
 24
1.0
 15
0.0
 25
0.0
 16
0.0
 26
0.0
 36
1.0
 17
0.0
 27
0.0
 37
0.0
 40
1344.9348201439
 41
0.7070707071
 42
50.0
 43
0.0
 44
0.0
 50
0.0
 51
0.0
 71
0
 72
100
 73
1
 74
1
 75
0
 76
0
 77
0
 78
0
  0
ENDTAB
  0
TABLE
  2
LTYPE
  5
5
100
AcDbSymbolTable
 70
6
  0
LTYPE
  5
14
100
AcDbSymbolTableRecord
100
AcDbLinetypeTableRecord
  2
BYBLOCK
 70
0
  3

 72
65
 73
0
 40
0.0
  0
LTYPE
  5
15
100
AcDbSymbolTableRecord
100
AcDbLinetypeTableRecord
  2
BYLAYER
 70
0
  3

 72
65
 73
0
 40
0.0
  0
LTYPE
  5
16
100
AcDbSymbolTableRecord
100
AcDbLinetypeTableRecord
  2
CONTINUOUS
 70
64
  3
Solid line
 72
65
 73
0
 40
0.0
  0
LTYPE
  5
1F5
100
AcDbSymbolTableRecord
100
AcDbLinetypeTableRecord
  2
CENTER
 70
64
  3
____ _ ____ _ ____ _ ____ _ ____ _ ____ _ ____
 72
65
 73
4
 40
0.6
 49
0.375
 74
0
 49
-0.075
 74
0
 49
0.075
 74
0
 49
-0.075
 74
0
  0
LTYPE
  5
1F6
100
AcDbSymbolTableRecord
100
AcDbLinetypeTableRecord
  2
HIDDEN
 70
64
  3
- - - - - - - - - - - - - - - - - - - -
 72
65
 73
2
 40
0.2
 49
0.1
 74
0
 49
-0.1
 74
0
  0
LTYPE
  5
1F7
100
AcDbSymbolTableRecord
100
AcDbLinetypeTableRecord
  2
PHANTOM
 70
64
  3
_____ _ _ _____ _ _ _____ _ _ _____
 72
65
 73
6
 40
0.8
 49
0.45
 74
0
 49
-0.05
 74
0
 49
0.1
 74
0
 49
-0.05
 74
0
 49
0.1
 74
0
 49
-0.05
 74
0
  0
LTYPE
  5
1F8
100
AcDbSymbolTableRecord
100
AcDbLinetypeTableRecord
  2
DOT
 70
64
  3
. . . . . . . . . . . . . . . . . . . .
 72
65
 73
2
 40
0.2
 49
0.1
 74
0
 49
-0.1
 74
0
  0
LTYPE
  5
1F9
100
AcDbSymbolTableRecord
100
AcDbLinetypeTableRecord
  2
DASHED
 70
64
  3
- - - - - - - - - - - - - - - - - - - -
 72
65
 73
2
 40
0.2
 49
0.1
 74
0
 49
-0.1
 74
0
  0
ENDTAB
  0
TABLE
  2
LAYER
  5
2
100
AcDbSymbolTable
 70
36
  0
LAYER
  5
10
100
AcDbSymbolTableRecord
100
AcDbLayerTableRecord
  2
0
 70
0
 62
7
  6
CONTINUOUS
370
-3
390
F
  0
LAYER
  5
1FA
100
AcDbSymbolTableRecord
100
AcDbLayerTableRecord
  2
DEFAULT_1
 70
0
 62
7
  6
CENTER
370
-3
390
F
  0
LAYER
  5
1FB
100
AcDbSymbolTableRecord
100
AcDbLayerTableRecord
  2
DEFAULT_2
 70
0
 62
7
  6
HIDDEN
370
-3
390
F
  0
LAYER
  5
1FC
100
AcDbSymbolTableRecord
100
AcDbLayerTableRecord
  2
DEFAULT_3
 70
0
 62
7
  6
PHANTOM
370
-3
390
F
  0
LAYER
  5
1FD
100
AcDbSymbolTableRecord
100
AcDbLayerTableRecord
  2
00_COMPONENTS
 70
0
 62
7
  6
CONTINUOUS
370
-3
390
F
  0
LAYER
  5
1FE
100
AcDbSymbolTableRecord
100
AcDbLayerTableRecord
  2
01_1_DEFAULT_DATUMS
 70
0
 62
7
  6
CONTINUOUS
370
-3
390
F
  0
LAYER
  5
1FF
100
AcDbSymbolTableRecord
100
AcDbLayerTableRecord
  2
01_PLANES
 70
0
 62
7
  6
CONTINUOUS
370
-3
390
F
  0
LAYER
  5
200
100
AcDbSymbolTableRecord
100
AcDbLayerTableRecord
  2
02_COORD_SYS
 70
0
 62
7
  6
CONTINUOUS
370
-3
390
F
  0
LAYER
  5
201
100
AcDbSymbolTableRecord
100
AcDbLayerTableRecord
  2
03_AXES
 70
0
 62
7
  6
CONTINUOUS
370
-3
390
F
  0
LAYER
  5
202
100
AcDbSymbolTableRecord
100
AcDbLayerTableRecord
  2
04_POINTS
 70
0
 62
7
  6
CONTINUOUS
370
-3
390
F
  0
LAYER
  5
203
100
AcDbSymbolTableRecord
100
AcDbLayerTableRecord
  2
05_CURVES
 70
0
 62
7
  6
CONTINUOUS
370
-3
390
F
  0
LAYER
  5
204
100
AcDbSymbolTableRecord
100
AcDbLayerTableRecord
  2
06_SURFS
 70
0
 62
7
  6
CONTINUOUS
370
-3
390
F
  0
LAYER
  5
205
100
AcDbSymbolTableRecord
100
AcDbLayerTableRecord
  2
07_COSMETICS
 70
0
 62
7
  6
CONTINUOUS
370
-3
390
F
  0
LAYER
  5
206
100
AcDbSymbolTableRecord
100
AcDbLayerTableRecord
  2
10_NOTES
 70
0
 62
7
  6
CONTINUOUS
370
-3
390
F
  0
LAYER
  5
207
100
AcDbSymbolTableRecord
100
AcDbLayerTableRecord
  2
11_NOTES_PUB
 70
0
 62
7
  6
CONTINUOUS
370
-3
390
F
  0
LAYER
  5
208
100
AcDbSymbolTableRecord
100
AcDbLayerTableRecord
  2
13_REF_GTOL
 70
0
 62
7
  6
CONTINUOUS
370
-3
390
F
  0
LAYER
  5
209
100
AcDbSymbolTableRecord
100
AcDbLayerTableRecord
  2
16_MISC
 70
0
 62
7
  6
CONTINUOUS
370
-3
390
F
  0
LAYER
  5
20A
100
AcDbSymbolTableRecord
100
AcDbLayerTableRecord
  2
17_NO_PRINT
 70
0
 62
7
  6
CONTINUOUS
370
-3
390
F
  0
LAYER
  5
20B
100
AcDbSymbolTableRecord
100
AcDbLayerTableRecord
  2
18_DATUM_CAMS_JOINTS
 70
0
 62
7
  6
CONTINUOUS
370
-3
390
F
  0
LAYER
  5
20C
100
AcDbSymbolTableRecord
100
AcDbLayerTableRecord
  2
19_DATUM_FUNCTIONAL
 70
0
 62
7
  6
CONTINUOUS
370
-3
390
F
  0
LAYER
  5
20D
100
AcDbSymbolTableRecord
100
AcDbLayerTableRecord
  2
20_DATUM_KINEMATIC_SCHEME
 70
0
 62
7
  6
CONTINUOUS
370
-3
390
F
  0
LAYER
  5
20E
100
AcDbSymbolTableRecord
100
AcDbLayerTableRecord
  2
3
 70
0
 62
7
  6
CONTINUOUS
370
-3
390
F
  0
LAYER
  5
20F
100
AcDbSymbolTableRecord
100
AcDbLayerTableRecord
  2
4
 70
0
 62
7
  6
CONTINUOUS
370
-3
390
F
  0
ENDTAB
  0
TABLE
  2
STYLE
  5
3
100
AcDbSymbolTable
 70
1
  0
STYLE
  5
11
100
AcDbSymbolTableRecord
100
AcDbTextStyleTableRecord
  2
STANDARD
 70
0
 40
0.0
 41
1.0
 50
0.0
 71
0
 42
0.2
  3
ARIAL.TTF
  4

  0
STYLE
  5
210
100
AcDbSymbolTableRecord
100
AcDbTextStyleTableRecord
  2
TEXTSTYLE_1
 70
0
 40
0.0
 41
0.8
 50
0.0
 71
0
 42
0.2
  3
gdt
  4

  0
ENDTAB
  0
TABLE
  2
VIEW
  5
6
100
AcDbSymbolTable
 70
0
  0
ENDTAB
  0
TABLE
  2
UCS
  5
7
100
AcDbSymbolTable
 70
0
  0
ENDTAB
  0
TABLE
  2
APPID
  5
9
100
AcDbSymbolTable
 70
1
  0
APPID
  5
211
100
AcDbSymbolTableRecord
100
AcDbRegAppTableRecord
  2
ACAD
 70
0
  0
ENDTAB
  0
TABLE
  2
BLOCK_RECORD
  5
1
100
AcDbSymbolTable
 70
0
  0
BLOCK_RECORD
  5
212
100
AcDbSymbolTableRecord
100
AcDbBlockTableRecord
  2
*Model_Space
  0
BLOCK_RECORD
  5
213
100
AcDbSymbolTableRecord
100
AcDbBlockTableRecord
  2
*Paper_Space
  0
BLOCK_RECORD
  5
214
100
AcDbSymbolTableRecord
100
AcDbBlockTableRecord
  2
_FILLED
  0
ENDTAB
  0
TABLE
  2
DIMSTYLE
  5
A
100
AcDbSymbolTable
 70
1
100
AcDbDimStyleTable
 71
0
  0
DIMSTYLE
105
215
100
AcDbSymbolTableRecord
100
AcDbDimStyleTableRecord
  2
STANDARD
 70
0
  3

  4

 40
1.0
 41
11.3210001696
 42
1.0
 43
0.38
 44
1.0
 45
0.0
 46
0.0
 47
0.01
 48
0.01
140
15.8494002374
141
0.09
142
0.0
143
25.4
144
1.0
145
0.0
146
1.0
147
0.625
 71
1
 72
0
 73
0
 74
0
 75
0
 76
0
 77
1
 78
8
 79
2
170
0
171
1
172
0
173
0
174
0
175
0
176
0
177
0
178
0
270
2
179
2
271
2
272
2
273
2
274
2
275
0
280
0
281
0
282
0
283
1
284
8
285
0
286
0
287
3
288
0
340
11
278
46
341
214
342
214
343
214
344
214
  0
ENDTAB
  0
ENDSEC
  0
SECTION
  2
BLOCKS
  0
BLOCK
  5
20
100
AcDbEntity
  8
0
100
AcDbBlockBegin
  2
*Model_Space
 70
0
 10
0.0
 20
0.0
 30
0.0
  3
*Model_Space
  1

  0
ENDBLK
  5
21
100
AcDbEntity
  8
0
100
AcDbBlockEnd
  0
BLOCK
  5
1C
100
AcDbEntity
  8
0
100
AcDbBlockBegin
  2
*Paper_Space
 70
0
 10
0.0
 20
0.0
 30
0.0
  3
*Paper_Space
  1

  0
ENDBLK
  5
1D
100
AcDbEntity
  8
0
100
AcDbBlockEnd
  0
BLOCK
  5
216
100
AcDbEntity
  8
0
100
AcDbBlockBegin
  2
_FILLED
 70
64
 10
0.0
 20
0.0
  3
_FILLED
  1

  0
SOLID
  5
217
100
AcDbEntity
  8
0
  6
BYBLOCK
 62
0
100
AcDbTrace
 10
0.0
 20
0.0
 11
-1.0
 21
0.25
 12
-1.0
 22
-0.25
 13
-1.0
 23
-0.25
  0
ENDBLK
  5
218
100
AcDbEntity
  8
0
  6
BYBLOCK
 62
0
100
AcDbBlockEnd
  0
ENDSEC
  0
SECTION
  2
ENTITIES
  0
LINE
  5
219
100
AcDbEntity
  8
0
100
AcDbLine
 62
7
  6
BYLAYER
 10
384.3862562469
 20
96.5494861293
 11
384.5397542052
 21
96.5058721347
  0
LINE
  5
21A
100
AcDbEntity
  8
0
100
AcDbLine
 62
7
  6
BYLAYER
 10
536.6123844518
 20
96.4034554234
 11
536.6122075852
 21
96.4034447994
  0
LINE
  5
21B
100
AcDbEntity
  8
0
100
AcDbLine
 62
7
  6
BYLAYER
 10
388.9632537775
 20
96.4034554351
 11
388.96307691
 21
96.403444811
  0
LINE
  5
21C
100
AcDbEntity
  8
0
100
AcDbLine
 62
7
  6
BYLAYER
 10
536.6122075852
 20
96.4034447994
 11
536.5619765119
 21
96.4018395453
  0
LINE
  5
21D
100
AcDbEntity
  8
0
100
AcDbLine
 62
7
  6
BYLAYER
 10
388.96307691
 20
96.403444811
 11
388.9128456234
 21
96.4018395441
  0
LINE
  5
21E
100
AcDbEntity
  8
0
100
AcDbLine
 62
7
  6
BYLAYER
 10
580.3587387141
 20
96.301942446
 11
574.7583653468
 21
96.301942446
  0
LINE
  5
21F
100
AcDbEntity
  8
0
100
AcDbLine
 62
7
  6
BYLAYER
 10
538.358263677
 20
96.301942446
 11
532.7588403898
 21
96.301942446
  0
LINE
  5
220
100
AcDbEntity
  8
0
100
AcDbLine
 62
7
  6
BYLAYER
 10
432.7096078256
 20
96.301942446
 11
427.1092344583
 21
96.301942446
  0
LINE
  5
221
100
AcDbEntity
  8
0
100
AcDbLine
 62
7
  6
BYLAYER
 10
390.7091327885
 20
96.301942446
 11
385.1097095013
 21
96.301942446
  0
LINE
  5
222
100
AcDbEntity
  8
0
100
AcDbLine
 62
7
  6
BYLAYER
 10
385.3979569312
 20
96.4018323076
 11
432.4205102182
 21
96.4018323076
  0
LINE
  5
223
100
AcDbEntity
  8
0
100
AcDbLine
 62
7
  6
BYLAYER
 10
533.0470878197
 20
96.4018323076
 11
580.0696411067
 21
96.4018323076
  0
LINE
  5
224
100
AcDbEntity
  8
0
100
AcDbLine
 62
7
  6
BYLAYER
 10
581.3588401401
 20
97.301942446
 11
581.0373139404
 21
97.301942446
  0
LINE
  5
225
100
AcDbEntity
  8
0
100
AcDbLine
 62
7
  6
BYLAYER
 10
532.0794162599
 20
97.301942446
 11
531.7588401432
 21
97.301942446
  0
LINE
  5
226
100
AcDbEntity
  8
0
100
AcDbLine
 62
7
  6
BYLAYER
 10
433.7097092516
 20
97.301942446
 11
433.3881830519
 21
97.301942446
  0
LINE
  5
227
100
AcDbEntity
  8
0
100
AcDbLine
 62
7
  6
BYLAYER
 10
384.4302853714
 20
97.301942446
 11
384.1097092547
 21
97.301942446
  0
LINE
  5
228
100
AcDbEntity
  8
0
100
AcDbLine
 62
7
  6
BYLAYER
 10
581.5583651002
 20
97.4018323076
 11
581.3588401401
 21
97.4018323076
  0
LINE
  5
229
100
AcDbEntity
  8
0
100
AcDbLine
 62
7
  6
BYLAYER
 10
581.0697701239
 20
97.4018323076
 11
532.0469600765
 21
97.4018323076
  0
LINE
  5
22A
100
AcDbEntity
  8
0
100
AcDbLine
 62
7
  6
BYLAYER
 10
531.7588401432
 20
97.4018323076
 11
531.5583651002
 21
97.4018323076
  0
LINE
  5
22B
100
AcDbEntity
  8
0
100
AcDbLine
 62
7
  6
BYLAYER
 10
433.9092342117
 20
97.4018323076
 11
433.7097092516
 21
97.4018323076
  0
LINE
  5
22C
100
AcDbEntity
  8
0
100
AcDbLine
 62
7
  6
BYLAYER
 10
433.4206392354
 20
97.4018323076
 11
384.3978291879
 21
97.4018323076
  0
LINE
  5
22D
100
AcDbEntity
  8
0
100
AcDbLine
 62
7
  6
BYLAYER
 10
384.1097092547
 20
97.4018323076
 11
383.9092342117
 21
97.4018323076
  0
LINE
  5
22E
100
AcDbEntity
  8
0
100
AcDbLine
 62
7
  6
BYLAYER
 10
383.9092342117
 20
98.4018322387
 11
384.1097092547
 21
98.4018322387
  0
LINE
  5
22F
100
AcDbEntity
  8
0
100
AcDbLine
 62
7
  6
BYLAYER
 10
433.7097092516
 20
98.4018322504
 11
433.9092342117
 21
98.4018322504
  0
LINE
  5
230
100
AcDbEntity
  8
0
100
AcDbLine
 62
7
  6
BYLAYER
 10
531.5583651002
 20
98.4018322387
 11
531.7588401432
 21
98.4018322387
  0
LINE
  5
231
100
AcDbEntity
  8
0
100
AcDbLine
 62
7
  6
BYLAYER
 10
581.3588401401
 20
98.4018322504
 11
581.5583651002
 21
98.4018322504
  0
LINE
  5
232
100
AcDbEntity
  8
0
100
AcDbLine
 62
7
  6
BYLAYER
 10
384.1097092547
 20
98.901942446
 11
384.3978291879
 21
98.901942446
  0
LINE
  5
233
100
AcDbEntity
  8
0
100
AcDbLine
 62
7
  6
BYLAYER
 10
433.4206392354
 20
98.901942446
 11
433.7097092516
 21
98.901942446
  0
LINE
  5
234
100
AcDbEntity
  8
0
100
AcDbLine
 62
7
  6
BYLAYER
 10
531.7588401432
 20
98.901942446
 11
532.0469600765
 21
98.901942446
  0
LINE
  5
235
100
AcDbEntity
  8
0
100
AcDbLine
 62
7
  6
BYLAYER
 10
581.0697701239
 20
98.901942446
 11
581.3588401401
 21
98.901942446
  0
LINE
  5
236
100
AcDbEntity
  8
0
100
AcDbLine
 62
7
  6
BYLAYER
 10
581.5583651002
 20
99.4018323076
 11
581.0120560454
 21
99.4018323076
  0
LINE
  5
237
100
AcDbEntity
  8
0
100
AcDbLine
 62
7
  6
BYLAYER
 10
532.104674155
 20
99.4018323076
 11
531.5583651002
 21
99.4018323076
  0
LINE
  5
238
100
AcDbEntity
  8
0
100
AcDbLine
 62
7
  6
BYLAYER
 10
433.9092342117
 20
99.4018323076
 11
433.3629251569
 21
99.4018323076
  0
LINE
  5
239
100
AcDbEntity
  8
0
100
AcDbLine
 62
7
  6
BYLAYER
 10
384.4555432665
 20
99.4018323076
 11
383.9092342117
 21
99.4018323076
  0
LINE
  5
23A
100
AcDbEntity
  8
0
100
AcDbLine
 62
7
  6
BYLAYER
 10
383.9092342117
 20
113.9018323076
 11
427.9092342117
 21
113.9018323076
  0
LINE
  5
23B
100
AcDbEntity
  8
0
100
AcDbLine
 62
7
  6
BYLAYER
 10
427.9620206162
 20
113.9018323076
 11
433.9092342117
 21
113.9018323076
  0
LINE
  5
23C
100
AcDbEntity
  8
0
100
AcDbLine
 62
7
  6
BYLAYER
 10
531.5583651002
 20
113.9018323076
 11
575.5583651002
 21
113.9018323076
  0
LINE
  5
23D
100
AcDbEntity
  8
0
100
AcDbLine
 62
7
  6
BYLAYER
 10
575.6111515047
 20
113.9018323076
 11
581.5583651002
 21
113.9018323076
  0
LINE
  5
23E
100
AcDbEntity
  8
3
100
AcDbLine
 62
7
  6
BYLAYER
 10
581.5588401432
 20
113.9019552546
 11
575.5578595641
 21
113.9019552546
  0
LINE
  5
23F
100
AcDbEntity
  8
3
100
AcDbLine
 62
7
  6
BYLAYER
 10
537.5598207222
 20
113.9019552546
 11
531.5588401432
 21
113.9019552546
  0
LINE
  5
240
100
AcDbEntity
  8
3
100
AcDbLine
 62
7
  6
BYLAYER
 10
433.9097092547
 20
113.9019552546
 11
427.9087286756
 21
113.9019552546
  0
LINE
  5
241
100
AcDbEntity
  8
3
100
AcDbLine
 62
7
  6
BYLAYER
 10
389.9106898337
 20
113.9019552546
 11
383.9097092547
 21
113.9019552546
  0
LINE
  5
242
100
AcDbEntity
  8
3
100
AcDbLine
 62
7
  6
BYLAYER
 10
390.109070106
 20
113.9019552546
 11
427.709070106
 21
113.9019552546
  0
LINE
  5
243
100
AcDbEntity
  8
3
100
AcDbLine
 62
7
  6
BYLAYER
 10
537.7582009945
 20
113.9019552546
 11
575.3582009945
 21
113.9019552546
  0
LINE
  5
244
100
AcDbEntity
  8
0
100
AcDbLine
 62
7
  6
BYLAYER
 10
428.8558369009
 20
96.4034182729
 11
428.9056226978
 21
96.4018395527
  0
LINE
  5
245
100
AcDbEntity
  8
0
100
AcDbLine
 62
7
  6
BYLAYER
 10
576.5049686799
 20
96.4034182225
 11
576.5547535867
 21
96.4018395552
  0
LINE
  5
246
100
AcDbEntity
  8
0
100
AcDbLine
 62
7
  6
BYLAYER
 10
532.0354229445
 20
96.5494641827
 11
532.1888966827
 21
96.5058605457
  0
LINE
  5
247
100
AcDbEntity
  8
4
100
AcDbLine
 62
7
  6
BYLAYER
 10
591.7475858267
 20
141.2501175693
 11
581.5588401432
 21
141.2501175693
  0
LINE
  5
248
100
AcDbEntity
  8
3
100
AcDbLine
 62
7
  6
BYLAYER
 10
444.0984549382
 20
141.2501175693
 11
433.9097092547
 21
141.2501175693
  0
LINE
  5
249
100
AcDbEntity
  8
0
100
AcDbLine
 62
7
  6
BYLAYER
 10
392.6599620227
 20
1236.401942446
 11
392.1599620227
 21
1235.901942446
  0
LINE
  5
24A
100
AcDbEntity
  8
3
100
AcDbLine
 62
7
  6
BYLAYER
 10
433.9097092547
 20
191.2501175693
 11
444.0984549382
 21
191.2501175693
  0
LINE
  5
24B
100
AcDbEntity
  8
4
100
AcDbLine
 62
7
  6
BYLAYER
 10
581.5588401432
 20
191.2501175693
 11
591.7475858267
 21
191.2501175693
  0
LINE
  5
24C
100
AcDbEntity
  8
0
100
AcDbLine
 62
7
  6
BYLAYER
 10
412.4099600441
 20
1240.401942446
 11
411.9099620227
 21
1239.9019446045
  0
LINE
  5
24D
100
AcDbEntity
  8
0
100
AcDbLine
 62
7
  6
BYLAYER
 10
410.6599620227
 20
1236.401942446
 11
410.1599620227
 21
1235.901942446
  0
LINE
  5
24E
100
AcDbEntity
  8
0
100
AcDbLine
 62
7
  6
BYLAYER
 10
410.6599620227
 20
1231.401942446
 11
410.1599620227
 21
1230.901942446
  0
LINE
  5
24F
100
AcDbEntity
  8
0
100
AcDbLine
 62
7
  6
BYLAYER
 10
425.4599620227
 20
1229.901942446
 11
425.6599620227
 21
1230.101942446
  0
LINE
  5
250
100
AcDbEntity
  8
0
100
AcDbLine
 62
7
  6
BYLAYER
 10
540.3090929112
 20
1236.401942446
 11
539.8090929112
 21
1235.901942446
  0
LINE
  5
251
100
AcDbEntity
  8
0
100
AcDbLine
 62
7
  6
BYLAYER
 10
560.0590909326
 20
1240.401942446
 11
559.5590929112
 21
1239.9019446045
  0
LINE
  5
252
100
AcDbEntity
  8
0
100
AcDbLine
 62
7
  6
BYLAYER
 10
558.3090929112
 20
1236.401942446
 11
557.8090929112
 21
1235.901942446
  0
LINE
  5
253
100
AcDbEntity
  8
0
100
AcDbLine
 62
7
  6
BYLAYER
 10
558.3090929112
 20
1231.401942446
 11
557.8090929112
 21
1230.901942446
  0
LINE
  5
254
100
AcDbEntity
  8
0
100
AcDbLine
 62
7
  6
BYLAYER
 10
573.1090929112
 20
1229.901942446
 11
573.3090929112
 21
1230.101942446
  0
LINE
  5
255
100
AcDbEntity
  8
0
100
AcDbLine
 62
7
  6
BYLAYER
 10
383.9092342117
 20
97.4018323076
 11
383.9092342117
 21
113.9018323076
  0
LINE
  5
256
100
AcDbEntity
  8
3
100
AcDbLine
 62
7
  6
BYLAYER
 10
383.9097092547
 20
1212.4019552546
 11
383.9097092547
 21
113.9019552546
  0
LINE
  5
257
100
AcDbEntity
  8
0
100
AcDbLine
 62
7
  6
BYLAYER
 10
383.9099620227
 20
1226.901942446
 11
383.9099620227
 21
1212.401942446
  0
LINE
  5
258
100
AcDbEntity
  8
0
100
AcDbLine
 62
7
  6
BYLAYER
 10
383.9099620227
 20
1228.901942446
 11
383.9099620227
 21
1226.9178382389
  0
LINE
  5
259
100
AcDbEntity
  8
0
100
AcDbLine
 62
7
  6
BYLAYER
 10
384.1097092547
 20
98.901942446
 11
384.1097092547
 21
97.301942446
  0
LINE
  5
25A
100
AcDbEntity
  8
0
100
AcDbLine
 62
7
  6
BYLAYER
 10
384.1099620227
 20
1229.001942446
 11
384.1099620227
 21
1227.401942446
  0
LINE
  5
25B
100
AcDbEntity
  8
0
100
AcDbLine
 62
7
  6
BYLAYER
 10
384.2939947353
 20
99.4018323076
 11
384.2939947353
 21
113.9018323076
  0
LINE
  5
25C
100
AcDbEntity
  8
3
100
AcDbLine
 62
7
  6
BYLAYER
 10
384.2944697783
 20
113.9019552546
 11
384.2944697783
 21
1212.4019552546
  0
LINE
  5
25D
100
AcDbEntity
  8
0
100
AcDbLine
 62
7
  6
BYLAYER
 10
384.2947225463
 20
1212.401942446
 11
384.2947225463
 21
1226.901942446
  0
LINE
  5
25E
100
AcDbEntity
  8
0
100
AcDbLine
 62
7
  6
BYLAYER
 10
384.398556999
 20
1228.901942446
 11
384.3985835822
 21
1227.2786799312
  0
LINE
  5
25F
100
AcDbEntity
  8
0
100
AcDbLine
 62
7
  6
BYLAYER
 10
384.4555432665
 20
97.4018323075
 11
384.4555432665
 21
99.4018323076
  0
LINE
  5
260
100
AcDbEntity
  8
0
100
AcDbLine
 62
7
  6
BYLAYER
 10
384.4562710775
 20
1226.901942446
 11
384.4562710775
 21
1228.9019424445
  0
LINE
  5
261
100
AcDbEntity
  8
0
100
AcDbLine
 62
7
  6
BYLAYER
 10
385.4947891419
 20
113.9018323076
 11
385.4947891419
 21
97.4018323076
  0
LINE
  5
262
100
AcDbEntity
  8
3
100
AcDbLine
 62
7
  6
BYLAYER
 10
385.4952641849
 20
1212.4019552546
 11
385.4952641849
 21
113.9019552546
  0
LINE
  5
263
100
AcDbEntity
  8
0
100
AcDbLine
 62
7
  6
BYLAYER
 10
385.4955169529
 20
1228.9019424445
 11
385.4955169529
 21
1212.401942446
  0
LINE
  5
264
100
AcDbEntity
  8
0
100
AcDbLine
 62
7
  6
BYLAYER
 10
387.4178370371
 20
96.4018323116
 11
387.4178370372
 21
113.9018323076
  0
LINE
  5
265
100
AcDbEntity
  8
3
100
AcDbLine
 62
7
  6
BYLAYER
 10
387.4183120802
 20
863.9019552546
 11
387.4183120802
 21
1212.4019552546
  0
LINE
  5
266
100
AcDbEntity
  8
0
100
AcDbLine
 62
7
  6
BYLAYER
 10
387.4185648482
 20
1212.401942446
 11
387.4185648482
 21
1229.901942446
  0
LINE
  5
267
100
AcDbEntity
  8
3
100
AcDbLine
 62
7
  6
BYLAYER
 10
387.5464669683
 20
113.9019552546
 11
387.5464669683
 21
863.9019552546
  0
LINE
  5
268
100
AcDbEntity
  8
0
100
AcDbLine
 62
7
  6
BYLAYER
 10
387.6731662342
 20
113.9018323076
 11
387.6731662341
 21
96.4018323116
  0
LINE
  5
269
100
AcDbEntity
  8
0
100
AcDbLine
 62
7
  6
BYLAYER
 10
387.6738940452
 20
1229.901942446
 11
387.6738940452
 21
1212.401942446
  0
LINE
  5
26A
100
AcDbEntity
  8
3
100
AcDbLine
 62
7
  6
BYLAYER
 10
387.6746218562
 20
1212.4019552546
 11
387.6746218562
 21
863.9019552546
  0
LINE
  5
26B
100
AcDbEntity
  8
0
100
AcDbLine
 62
7
  6
BYLAYER
 10
389.4620206162
 20
97.4018323012
 11
389.4620206162
 21
113.9018323076
  0
LINE
  5
26C
100
AcDbEntity
  8
0
100
AcDbLine
 62
7
  6
BYLAYER
 10
389.4627484272
 20
1212.401942446
 11
389.4627484272
 21
1228.9019424433
  0
LINE
  5
26D
100
AcDbEntity
  8
3
100
AcDbLine
 62
7
  6
BYLAYER
 10
389.4634762382
 20
113.9019552546
 11
389.4634762382
 21
1212.4019552546
  0
LINE
  5
26E
100
AcDbEntity
  8
0
100
AcDbLine
 62
7
  6
BYLAYER
 10
389.8564478072
 20
113.9018323076
 11
389.8564478072
 21
97.4018323013
  0
LINE
  5
26F
100
AcDbEntity
  8
0
100
AcDbLine
 62
7
  6
BYLAYER
 10
389.8571756182
 20
1228.9019424433
 11
389.8571756182
 21
1212.401942446
  0
LINE
  5
270
100
AcDbEntity
  8
3
100
AcDbLine
 62
7
  6
BYLAYER
 10
389.8579034292
 20
1212.4019552546
 11
389.8579034292
 21
113.9019552546
  0
LINE
  5
271
100
AcDbEntity
  8
0
100
AcDbLine
 62
7
  6
BYLAYER
 10
389.9092342117
 20
97.4018323076
 11
389.9092342117
 21
113.9018323076
  0
LINE
  5
272
100
AcDbEntity
  8
0
100
AcDbLine
 62
7
  6
BYLAYER
 10
389.9099620227
 20
1212.401942446
 11
389.9099620227
 21
1228.901942446
  0
LINE
  5
273
100
AcDbEntity
  8
3
100
AcDbLine
 62
7
  6
BYLAYER
 10
389.9106898337
 20
113.9019552546
 11
389.9106898337
 21
1212.4019552546
  0
LINE
  5
274
100
AcDbEntity
  8
3
100
AcDbLine
 62
7
  6
BYLAYER
 10
390.109070106
 20
113.9019552546
 11
390.109070106
 21
1212.4019717136
  0
LINE
  5
275
100
AcDbEntity
  8
0
100
AcDbLine
 62
7
  6
BYLAYER
 10
392.1599620227
 20
1229.901942446
 11
392.1599620227
 21
1235.901942446
  0
LINE
  5
276
100
AcDbEntity
  8
0
100
AcDbLine
 62
7
  6
BYLAYER
 10
395.7832020227
 20
1237.601942446
 11
395.7832020227
 21
1236.401942446
  0
LINE
  5
277
100
AcDbEntity
  8
0
100
AcDbLine
 62
7
  6
BYLAYER
 10
399.2082020227
 20
1236.401942446
 11
399.2082020227
 21
1237.901942446
  0
LINE
  5
278
100
AcDbEntity
  8
0
100
AcDbLine
 62
7
  6
BYLAYER
 10
400.6082020227
 20
1236.401942446
 11
400.6082020227
 21
1237.901942446
  0
LINE
  5
279
100
AcDbEntity
  8
0
100
AcDbLine
 62
7
  6
BYLAYER
 10
404.0332020227
 20
1236.401942446
 11
404.0332020227
 21
1237.601942446
  0
LINE
  5
27A
100
AcDbEntity
  8
0
100
AcDbLine
 62
7
  6
BYLAYER
 10
407.6599620227
 20
1229.901942446
 11
407.6599620227
 21
1235.901942446
  0
LINE
  5
27B
100
AcDbEntity
  8
0
100
AcDbLine
 62
7
  6
BYLAYER
 10
410.1599620227
 20
1229.901942446
 11
410.1599620227
 21
1235.901942446
  0
LINE
  5
27C
100
AcDbEntity
  8
0
100
AcDbLine
 62
7
  6
BYLAYER
 10
411.9099620227
 20
1239.9019446045
 11
411.9099620227
 21
1232.401942446
  0
LINE
  5
27D
100
AcDbEntity
  8
0
100
AcDbLine
 62
7
  6
BYLAYER
 10
412.4099620227
 20
1231.401942446
 11
412.4099620227
 21
1232.401942446
  0
LINE
  5
27E
100
AcDbEntity
  8
0
100
AcDbLine
 62
7
  6
BYLAYER
 10
384.397855933
 20
99.0251178858
 11
384.3978291879
 21
97.4018323076
  0
LINE
  5
27F
100
AcDbEntity
  8
0
100
AcDbLine
 62
7
  6
BYLAYER
 10
423.4099620227
 20
1231.401942446
 11
423.4099620227
 21
1232.401942446
  0
LINE
  5
280
100
AcDbEntity
  8
0
100
AcDbLine
 62
7
  6
BYLAYER
 10
423.9099620227
 20
1232.401942446
 11
423.9099620227
 21
1239.9019446045
  0
LINE
  5
281
100
AcDbEntity
  8
0
100
AcDbLine
 62
7
  6
BYLAYER
 10
425.6599620227
 20
1229.901942446
 11
425.6599620227
 21
1235.901942446
  0
LINE
  5
282
100
AcDbEntity
  8
3
100
AcDbLine
 62
7
  6
BYLAYER
 10
427.709070106
 20
1212.4019717136
 11
427.709070106
 21
113.9019552546
  0
LINE
  5
283
100
AcDbEntity
  8
3
100
AcDbLine
 62
7
  6
BYLAYER
 10
427.9087286756
 20
1212.4019552546
 11
427.9087286756
 21
113.9019552546
  0
LINE
  5
284
100
AcDbEntity
  8
0
100
AcDbLine
 62
7
  6
BYLAYER
 10
427.9092342117
 20
113.9018323076
 11
427.9092342117
 21
97.4018323076
  0
LINE
  5
285
100
AcDbEntity
  8
0
100
AcDbLine
 62
7
  6
BYLAYER
 10
427.9099620227
 20
1228.901942446
 11
427.9099620227
 21
1212.401942446
  0
LINE
  5
286
100
AcDbEntity
  8
3
100
AcDbLine
 62
7
  6
BYLAYER
 10
427.9615150801
 20
113.9019552546
 11
427.9615150801
 21
1212.4019552546
  0
LINE
  5
287
100
AcDbEntity
  8
0
100
AcDbLine
 62
7
  6
BYLAYER
 10
427.9620206162
 20
97.4018323096
 11
427.9620206162
 21
113.9018323076
  0
LINE
  5
288
100
AcDbEntity
  8
0
100
AcDbLine
 62
7
  6
BYLAYER
 10
427.9627484272
 20
1212.401942446
 11
427.9627484272
 21
1228.9019424538
  0
LINE
  5
289
100
AcDbEntity
  8
3
100
AcDbLine
 62
7
  6
BYLAYER
 10
428.3559422711
 20
1212.4019552546
 11
428.3559422711
 21
113.9019552546
  0
LINE
  5
28A
100
AcDbEntity
  8
0
100
AcDbLine
 62
7
  6
BYLAYER
 10
428.3564478072
 20
113.9018323076
 11
428.3564478072
 21
97.4018323096
  0
LINE
  5
28B
100
AcDbEntity
  8
0
100
AcDbLine
 62
7
  6
BYLAYER
 10
428.3571756182
 20
1228.9019424539
 11
428.3571756182
 21
1212.401942446
  0
LINE
  5
28C
100
AcDbEntity
  8
3
100
AcDbLine
 62
7
  6
BYLAYER
 10
430.1447966531
 20
863.9019552546
 11
430.1447966531
 21
1212.4019552546
  0
LINE
  5
28D
100
AcDbEntity
  8
0
100
AcDbLine
 62
7
  6
BYLAYER
 10
430.1453021891
 20
96.4018323076
 11
430.1453021892
 21
113.9018323076
  0
LINE
  5
28E
100
AcDbEntity
  8
0
100
AcDbLine
 62
7
  6
BYLAYER
 10
430.1460300002
 20
1212.401942446
 11
430.1460300003
 21
1229.9019424354
  0
LINE
  5
28F
100
AcDbEntity
  8
3
100
AcDbLine
 62
7
  6
BYLAYER
 10
430.2729515411
 20
113.9019552546
 11
430.2729515411
 21
863.9019552546
  0
LINE
  5
290
100
AcDbEntity
  8
0
100
AcDbLine
 62
7
  6
BYLAYER
 10
430.4006313862
 20
113.9018323076
 11
430.4006313861
 21
96.4018323076
  0
LINE
  5
291
100
AcDbEntity
  8
3
100
AcDbLine
 62
7
  6
BYLAYER
 10
430.4011064291
 20
1212.4019552546
 11
430.4011064291
 21
863.9019552546
  0
LINE
  5
292
100
AcDbEntity
  8
0
100
AcDbLine
 62
7
  6
BYLAYER
 10
430.4013591974
 20
1229.9019424354
 11
430.4013591972
 21
1212.401942446
  0
LINE
  5
293
100
AcDbEntity
  8
0
100
AcDbLine
 62
7
  6
BYLAYER
 10
432.3236792814
 20
97.4018323182
 11
432.3236792814
 21
113.9018323076
  0
LINE
  5
294
100
AcDbEntity
  8
3
100
AcDbLine
 62
7
  6
BYLAYER
 10
432.3241543244
 20
113.9019552546
 11
432.3241543244
 21
1212.4019552546
  0
LINE
  5
295
100
AcDbEntity
  8
0
100
AcDbLine
 62
7
  6
BYLAYER
 10
432.3244070925
 20
1212.401942446
 11
432.3244070925
 21
1228.901942446
  0
LINE
  5
296
100
AcDbEntity
  8
0
100
AcDbLine
 62
7
  6
BYLAYER
 10
433.3629251569
 20
99.4018323076
 11
433.3629251569
 21
97.4018323179
  0
LINE
  5
297
100
AcDbEntity
  8
0
100
AcDbLine
 62
7
  6
BYLAYER
 10
433.3636529679
 20
1228.901942446
 11
433.3636529679
 21
1226.901942446
  0
LINE
  5
298
100
AcDbEntity
  8
0
100
AcDbLine
 62
7
  6
BYLAYER
 10
433.4206392354
 20
97.4018323076
 11
433.4206126522
 21
99.0250948225
  0
LINE
  5
299
100
AcDbEntity
  8
0
100
AcDbLine
 62
7
  6
BYLAYER
 10
433.5244736881
 20
113.9018323076
 11
433.5244736881
 21
99.4018323076
  0
LINE
  5
29A
100
AcDbEntity
  8
3
100
AcDbLine
 62
7
  6
BYLAYER
 10
433.5249487311
 20
1212.4019552546
 11
433.5249487311
 21
113.9019552546
  0
LINE
  5
29B
100
AcDbEntity
  8
0
100
AcDbLine
 62
7
  6
BYLAYER
 10
433.5252014991
 20
1226.901942446
 11
433.5252014991
 21
1212.401942446
  0
LINE
  5
29C
100
AcDbEntity
  8
0
100
AcDbLine
 62
7
  6
BYLAYER
 10
433.7097092516
 20
97.301942446
 11
433.7097092516
 21
98.901942446
  0
LINE
  5
29D
100
AcDbEntity
  8
0
100
AcDbLine
 62
7
  6
BYLAYER
 10
433.7099620227
 20
1227.401942446
 11
433.7099620227
 21
1229.001942446
  0
LINE
  5
29E
100
AcDbEntity
  8
0
100
AcDbLine
 62
7
  6
BYLAYER
 10
433.9092342117
 20
97.4018323076
 11
433.9092342117
 21
99.3859365149
  0
LINE
  5
29F
100
AcDbEntity
  8
0
100
AcDbLine
 62
7
  6
BYLAYER
 10
433.9092342117
 20
99.4018323076
 11
433.9092342117
 21
113.9018323076
  0
LINE
  5
2A0
100
AcDbEntity
  8
3
100
AcDbLine
 62
7
  6
BYLAYER
 10
433.9097092547
 20
113.9019552546
 11
433.9097092547
 21
1212.4019552546
  0
LINE
  5
2A1
100
AcDbEntity
  8
0
100
AcDbLine
 62
7
  6
BYLAYER
 10
433.9099620227
 20
1212.401942446
 11
433.9099620227
 21
1228.901942446
  0
LINE
  5
2A2
100
AcDbEntity
  8
3
100
AcDbLine
 62
7
  6
BYLAYER
 10
437.0984549382
 20
1187.5850200301
 11
437.0984549382
 21
1137.5850200301
  0
LINE
  5
2A3
100
AcDbEntity
  8
3
100
AcDbLine
 62
7
  6
BYLAYER
 10
437.0984549382
 20
191.2501175693
 11
437.0984549382
 21
141.2501175693
  0
LINE
  5
2A4
100
AcDbEntity
  8
3
100
AcDbLine
 62
7
  6
BYLAYER
 10
444.0984549382
 20
141.2501175693
 11
444.0984549382
 21
191.2501175693
  0
LINE
  5
2A5
100
AcDbEntity
  8
3
100
AcDbLine
 62
7
  6
BYLAYER
 10
444.0984549382
 20
1137.5850200301
 11
444.0984549382
 21
1187.5850200301
  0
LINE
  5
2A6
100
AcDbEntity
  8
0
100
AcDbLine
 62
7
  6
BYLAYER
 10
433.4213404791
 20
1227.278683179
 11
433.4213670464
 21
1228.901942446
  0
LINE
  5
2A7
100
AcDbEntity
  8
0
100
AcDbLine
 62
7
  6
BYLAYER
 10
531.5583651002
 20
97.4018323076
 11
531.5583651002
 21
113.9018323076
  0
LINE
  5
2A8
100
AcDbEntity
  8
3
100
AcDbLine
 62
7
  6
BYLAYER
 10
531.5588401432
 20
1212.4019552546
 11
531.5588401432
 21
113.9019552546
  0
LINE
  5
2A9
100
AcDbEntity
  8
0
100
AcDbLine
 62
7
  6
BYLAYER
 10
531.5590929112
 20
1226.901942446
 11
531.5590929112
 21
1212.401942446
  0
LINE
  5
2AA
100
AcDbEntity
  8
0
100
AcDbLine
 62
7
  6
BYLAYER
 10
531.5590929112
 20
1228.901942446
 11
531.5590929112
 21
1226.917838239
  0
LINE
  5
2AB
100
AcDbEntity
  8
0
100
AcDbLine
 62
7
  6
BYLAYER
 10
531.7588401432
 20
98.901942446
 11
531.7588401432
 21
97.301942446
  0
LINE
  5
2AC
100
AcDbEntity
  8
0
100
AcDbLine
 62
7
  6
BYLAYER
 10
531.7590929112
 20
1229.001942446
 11
531.7590929112
 21
1227.401942446
  0
LINE
  5
2AD
100
AcDbEntity
  8
0
100
AcDbLine
 62
7
  6
BYLAYER
 10
531.9431256238
 20
99.4018323076
 11
531.9431256238
 21
113.9018323076
  0
LINE
  5
2AE
100
AcDbEntity
  8
3
100
AcDbLine
 62
7
  6
BYLAYER
 10
531.9436006668
 20
113.9019552546
 11
531.9436006668
 21
1212.4019552546
  0
LINE
  5
2AF
100
AcDbEntity
  8
0
100
AcDbLine
 62
7
  6
BYLAYER
 10
531.9438534348
 20
1212.401942446
 11
531.9438534348
 21
1226.901942446
  0
LINE
  5
2B0
100
AcDbEntity
  8
0
100
AcDbLine
 62
7
  6
BYLAYER
 10
532.0476878875
 20
1228.901942446
 11
532.0477144707
 21
1227.2786799312
  0
LINE
  5
2B1
100
AcDbEntity
  8
0
100
AcDbLine
 62
7
  6
BYLAYER
 10
532.104674155
 20
97.4018323073
 11
532.104674155
 21
99.4018323076
  0
LINE
  5
2B2
100
AcDbEntity
  8
0
100
AcDbLine
 62
7
  6
BYLAYER
 10
532.105401966
 20
1226.901942446
 11
532.105401966
 21
1228.901942446
  0
LINE
  5
2B3
100
AcDbEntity
  8
0
100
AcDbLine
 62
7
  6
BYLAYER
 10
533.1439200304
 20
113.9018323076
 11
533.1439200304
 21
97.4018323076
  0
LINE
  5
2B4
100
AcDbEntity
  8
3
100
AcDbLine
 62
7
  6
BYLAYER
 10
533.1443950734
 20
1212.4019552546
 11
533.1443950734
 21
113.9019552546
  0
LINE
  5
2B5
100
AcDbEntity
  8
0
100
AcDbLine
 62
7
  6
BYLAYER
 10
533.1446478414
 20
1228.901942446
 11
533.1446478414
 21
1212.401942446
  0
LINE
  5
2B6
100
AcDbEntity
  8
0
100
AcDbLine
 62
7
  6
BYLAYER
 10
535.0669679257
 20
96.4018323106
 11
535.0669679257
 21
113.9018323076
  0
LINE
  5
2B7
100
AcDbEntity
  8
3
100
AcDbLine
 62
7
  6
BYLAYER
 10
535.0674429687
 20
863.9019552546
 11
535.0674429687
 21
1212.4019552546
  0
LINE
  5
2B8
100
AcDbEntity
  8
0
100
AcDbLine
 62
7
  6
BYLAYER
 10
535.0676957367
 20
1212.401942446
 11
535.0676957367
 21
1229.901942446
  0
LINE
  5
2B9
100
AcDbEntity
  8
3
100
AcDbLine
 62
7
  6
BYLAYER
 10
535.1955978568
 20
113.9019552546
 11
535.1955978568
 21
863.9019552546
  0
LINE
  5
2BA
100
AcDbEntity
  8
0
100
AcDbLine
 62
7
  6
BYLAYER
 10
535.3222971227
 20
113.9018323076
 11
535.3222971227
 21
96.4018323106
  0
LINE
  5
2BB
100
AcDbEntity
  8
0
100
AcDbLine
 62
7
  6
BYLAYER
 10
535.3230249337
 20
1229.901942446
 11
535.3230249337
 21
1212.401942446
  0
LINE
  5
2BC
100
AcDbEntity
  8
3
100
AcDbLine
 62
7
  6
BYLAYER
 10
535.3237527447
 20
1212.4019552546
 11
535.3237527447
 21
863.9019552546
  0
LINE
  5
2BD
100
AcDbEntity
  8
0
100
AcDbLine
 62
7
  6
BYLAYER
 10
537.1111515047
 20
97.4018323024
 11
537.1111515047
 21
113.9018323076
  0
LINE
  5
2BE
100
AcDbEntity
  8
0
100
AcDbLine
 62
7
  6
BYLAYER
 10
537.1118793157
 20
1212.401942446
 11
537.1118793157
 21
1228.9019424433
  0
LINE
  5
2BF
100
AcDbEntity
  8
3
100
AcDbLine
 62
7
  6
BYLAYER
 10
537.1126071267
 20
113.9019552546
 11
537.1126071267
 21
1212.4019552546
  0
LINE
  5
2C0
100
AcDbEntity
  8
0
100
AcDbLine
 62
7
  6
BYLAYER
 10
537.5055786957
 20
113.9018323076
 11
537.5055786957
 21
97.4018323024
  0
LINE
  5
2C1
100
AcDbEntity
  8
0
100
AcDbLine
 62
7
  6
BYLAYER
 10
537.5063065067
 20
1228.9019424433
 11
537.5063065067
 21
1212.401942446
  0
LINE
  5
2C2
100
AcDbEntity
  8
3
100
AcDbLine
 62
7
  6
BYLAYER
 10
537.5070343177
 20
1212.4019552546
 11
537.5070343177
 21
113.9019552546
  0
LINE
  5
2C3
100
AcDbEntity
  8
0
100
AcDbLine
 62
7
  6
BYLAYER
 10
537.5583651002
 20
97.4018323076
 11
537.5583651002
 21
113.9018323076
  0
LINE
  5
2C4
100
AcDbEntity
  8
0
100
AcDbLine
 62
7
  6
BYLAYER
 10
537.5590929112
 20
1212.401942446
 11
537.5590929112
 21
1228.901942446
  0
LINE
  5
2C5
100
AcDbEntity
  8
3
100
AcDbLine
 62
7
  6
BYLAYER
 10
537.5598207222
 20
113.9019552546
 11
537.5598207222
 21
1212.4019552546
  0
LINE
  5
2C6
100
AcDbEntity
  8
3
100
AcDbLine
 62
7
  6
BYLAYER
 10
537.7582009945
 20
113.9019552546
 11
537.7582009945
 21
1212.4019717136
  0
LINE
  5
2C7
100
AcDbEntity
  8
0
100
AcDbLine
 62
7
  6
BYLAYER
 10
539.8090929112
 20
1229.901942446
 11
539.8090929112
 21
1235.901942446
  0
LINE
  5
2C8
100
AcDbEntity
  8
0
100
AcDbLine
 62
7
  6
BYLAYER
 10
543.4323329112
 20
1237.601942446
 11
543.4323329112
 21
1236.401942446
  0
LINE
  5
2C9
100
AcDbEntity
  8
0
100
AcDbLine
 62
7
  6
BYLAYER
 10
549.9368689923
 20
1236.401942446
 11
549.9368689923
 21
1237.601942446
  0
LINE
  5
2CA
100
AcDbEntity
  8
0
100
AcDbLine
 62
7
  6
BYLAYER
 10
550.4918260531
 20
1236.401942446
 11
550.4918260531
 21
1237.901942446
  0
LINE
  5
2CB
100
AcDbEntity
  8
0
100
AcDbLine
 62
7
  6
BYLAYER
 10
550.926818486
 20
1237.601942446
 11
550.926818486
 21
1236.401942446
  0
LINE
  5
2CC
100
AcDbEntity
  8
0
100
AcDbLine
 62
7
  6
BYLAYER
 10
551.6823329112
 20
1237.601942446
 11
551.6823329112
 21
1236.401942446
  0
LINE
  5
2CD
100
AcDbEntity
  8
0
100
AcDbLine
 62
7
  6
BYLAYER
 10
555.3090929112
 20
1229.901942446
 11
555.3090929112
 21
1235.901942446
  0
LINE
  5
2CE
100
AcDbEntity
  8
0
100
AcDbLine
 62
7
  6
BYLAYER
 10
557.8090929112
 20
1229.901942446
 11
557.8090929112
 21
1235.901942446
  0
LINE
  5
2CF
100
AcDbEntity
  8
0
100
AcDbLine
 62
7
  6
BYLAYER
 10
559.5590929112
 20
1239.9019446045
 11
559.5590929112
 21
1232.401942446
  0
LINE
  5
2D0
100
AcDbEntity
  8
0
100
AcDbLine
 62
7
  6
BYLAYER
 10
560.0590929112
 20
1231.401942446
 11
560.0590929112
 21
1232.401942446
  0
LINE
  5
2D1
100
AcDbEntity
  8
0
100
AcDbLine
 62
7
  6
BYLAYER
 10
532.0469866438
 20
99.0250915746
 11
532.0469600765
 21
97.4018323076
  0
LINE
  5
2D2
100
AcDbEntity
  8
0
100
AcDbLine
 62
7
  6
BYLAYER
 10
571.0590929112
 20
1231.401942446
 11
571.0590929112
 21
1232.401942446
  0
LINE
  5
2D3
100
AcDbEntity
  8
0
100
AcDbLine
 62
7
  6
BYLAYER
 10
571.5590929112
 20
1232.401942446
 11
571.5590929112
 21
1239.9019446045
  0
LINE
  5
2D4
100
AcDbEntity
  8
0
100
AcDbLine
 62
7
  6
BYLAYER
 10
573.3090929112
 20
1229.901942446
 11
573.3090929112
 21
1235.901942446
  0
LINE
  5
2D5
100
AcDbEntity
  8
3
100
AcDbLine
 62
7
  6
BYLAYER
 10
575.3582009945
 20
1212.4019717136
 11
575.3582009945
 21
113.9019552546
  0
LINE
  5
2D6
100
AcDbEntity
  8
3
100
AcDbLine
 62
7
  6
BYLAYER
 10
575.5578595641
 20
1212.4019552546
 11
575.5578595641
 21
113.9019552546
  0
LINE
  5
2D7
100
AcDbEntity
  8
0
100
AcDbLine
 62
7
  6
BYLAYER
 10
575.5583651002
 20
113.9018323076
 11
575.5583651002
 21
97.4018323076
  0
LINE
  5
2D8
100
AcDbEntity
  8
0
100
AcDbLine
 62
7
  6
BYLAYER
 10
575.5590929112
 20
1228.901942446
 11
575.5590929112
 21
1212.401942446
  0
LINE
  5
2D9
100
AcDbEntity
  8
3
100
AcDbLine
 62
7
  6
BYLAYER
 10
575.6106459686
 20
113.9019552546
 11
575.6106459686
 21
1212.4019552546
  0
LINE
  5
2DA
100
AcDbEntity
  8
0
100
AcDbLine
 62
7
  6
BYLAYER
 10
575.6111515047
 20
97.4018323121
 11
575.6111515047
 21
113.9018323076
  0
LINE
  5
2DB
100
AcDbEntity
  8
0
100
AcDbLine
 62
7
  6
BYLAYER
 10
575.6118793157
 20
1212.401942446
 11
575.6118793157
 21
1228.9019424514
  0
LINE
  5
2DC
100
AcDbEntity
  8
3
100
AcDbLine
 62
7
  6
BYLAYER
 10
576.0050731596
 20
1212.4019552546
 11
576.0050731596
 21
113.9019552546
  0
LINE
  5
2DD
100
AcDbEntity
  8
0
100
AcDbLine
 62
7
  6
BYLAYER
 10
576.0055786957
 20
113.9018323076
 11
576.0055786957
 21
97.401832312
  0
LINE
  5
2DE
100
AcDbEntity
  8
0
100
AcDbLine
 62
7
  6
BYLAYER
 10
576.0063065067
 20
1228.9019424515
 11
576.0063065067
 21
1212.401942446
  0
LINE
  5
2DF
100
AcDbEntity
  8
3
100
AcDbLine
 62
7
  6
BYLAYER
 10
577.7939275416
 20
863.9019552546
 11
577.7939275416
 21
1212.4019552546
  0
LINE
  5
2E0
100
AcDbEntity
  8
0
100
AcDbLine
 62
7
  6
BYLAYER
 10
577.7944330777
 20
96.4018323076
 11
577.7944330777
 21
113.9018323076
  0
LINE
  5
2E1
100
AcDbEntity
  8
0
100
AcDbLine
 62
7
  6
BYLAYER
 10
577.7951608887
 20
1212.401942446
 11
577.7951608888
 21
1229.9019424367
  0
LINE
  5
2E2
100
AcDbEntity
  8
3
100
AcDbLine
 62
7
  6
BYLAYER
 10
577.9220824296
 20
113.9019552546
 11
577.9220824296
 21
863.9019552546
  0
LINE
  5
2E3
100
AcDbEntity
  8
0
100
AcDbLine
 62
7
  6
BYLAYER
 10
578.0497622747
 20
113.9018323076
 11
578.0497622747
 21
96.4018323076
  0
LINE
  5
2E4
100
AcDbEntity
  8
3
100
AcDbLine
 62
7
  6
BYLAYER
 10
578.0502373176
 20
1212.4019552546
 11
578.0502373176
 21
863.9019552546
  0
LINE
  5
2E5
100
AcDbEntity
  8
0
100
AcDbLine
 62
7
  6
BYLAYER
 10
578.0504900859
 20
1229.9019424367
 11
578.0504900857
 21
1212.401942446
  0
LINE
  5
2E6
100
AcDbEntity
  8
0
100
AcDbLine
 62
7
  6
BYLAYER
 10
579.97281017
 20
97.401832315
 11
579.97281017
 21
113.9018323076
  0
LINE
  5
2E7
100
AcDbEntity
  8
3
100
AcDbLine
 62
7
  6
BYLAYER
 10
579.9732852129
 20
113.9019552546
 11
579.9732852129
 21
1212.4019552546
  0
LINE
  5
2E8
100
AcDbEntity
  8
0
100
AcDbLine
 62
7
  6
BYLAYER
 10
579.973537981
 20
1212.401942446
 11
579.973537981
 21
1228.901942446
  0
LINE
  5
2E9
100
AcDbEntity
  8
0
100
AcDbLine
 62
7
  6
BYLAYER
 10
581.0120560454
 20
99.4018323076
 11
581.0120560454
 21
97.4018323148
  0
LINE
  5
2EA
100
AcDbEntity
  8
0
100
AcDbLine
 62
7
  6
BYLAYER
 10
581.0127838564
 20
1228.901942446
 11
581.0127838564
 21
1226.901942446
  0
LINE
  5
2EB
100
AcDbEntity
  8
0
100
AcDbLine
 62
7
  6
BYLAYER
 10
581.0697701239
 20
97.4018323076
 11
581.0697435407
 21
99.0250948225
  0
LINE
  5
2EC
100
AcDbEntity
  8
0
100
AcDbLine
 62
7
  6
BYLAYER
 10
581.1736045766
 20
113.9018323076
 11
581.1736045766
 21
99.4018323076
  0
LINE
  5
2ED
100
AcDbEntity
  8
3
100
AcDbLine
 62
7
  6
BYLAYER
 10
581.1740796196
 20
1212.4019552546
 11
581.1740796196
 21
113.9019552546
  0
LINE
  5
2EE
100
AcDbEntity
  8
0
100
AcDbLine
 62
7
  6
BYLAYER
 10
581.1743323876
 20
1226.901942446
 11
581.1743323876
 21
1212.401942446
  0
LINE
  5
2EF
100
AcDbEntity
  8
0
100
AcDbLine
 62
7
  6
BYLAYER
 10
581.3588401401
 20
97.301942446
 11
581.3588401401
 21
98.901942446
  0
LINE
  5
2F0
100
AcDbEntity
  8
0
100
AcDbLine
 62
7
  6
BYLAYER
 10
581.3590929112
 20
1227.401942446
 11
581.3590929112
 21
1229.001942446
  0
LINE
  5
2F1
100
AcDbEntity
  8
0
100
AcDbLine
 62
7
  6
BYLAYER
 10
581.5583651002
 20
97.4018323076
 11
581.5583651002
 21
99.3859365144
  0
LINE
  5
2F2
100
AcDbEntity
  8
0
100
AcDbLine
 62
7
  6
BYLAYER
 10
581.5583651002
 20
99.4018323076
 11
581.5583651002
 21
113.9018323076
  0
LINE
  5
2F3
100
AcDbEntity
  8
3
100
AcDbLine
 62
7
  6
BYLAYER
 10
581.5588401432
 20
113.9019552546
 11
581.5588401432
 21
1212.4019552546
  0
LINE
  5
2F4
100
AcDbEntity
  8
0
100
AcDbLine
 62
7
  6
BYLAYER
 10
581.5590929112
 20
1212.401942446
 11
581.5590929112
 21
1228.901942446
  0
LINE
  5
2F5
100
AcDbEntity
  8
4
100
AcDbLine
 62
7
  6
BYLAYER
 10
584.7475858267
 20
1187.5850200301
 11
584.7475858267
 21
1137.5850200301
  0
LINE
  5
2F6
100
AcDbEntity
  8
4
100
AcDbLine
 62
7
  6
BYLAYER
 10
584.7475858267
 20
191.2501175693
 11
584.7475858267
 21
141.2501175693
  0
LINE
  5
2F7
100
AcDbEntity
  8
4
100
AcDbLine
 62
7
  6
BYLAYER
 10
591.7475858267
 20
141.2501175693
 11
591.7475858267
 21
191.2501175693
  0
LINE
  5
2F8
100
AcDbEntity
  8
4
100
AcDbLine
 62
7
  6
BYLAYER
 10
591.7475858267
 20
1137.5850200301
 11
591.7475858267
 21
1187.5850200301
  0
LINE
  5
2F9
100
AcDbEntity
  8
0
100
AcDbLine
 62
7
  6
BYLAYER
 10
581.0704713676
 20
1227.2786831791
 11
581.0704979349
 21
1228.901942446
  0
LINE
  5
2FA
100
AcDbEntity
  8
3
100
AcDbLine
 62
7
  6
BYLAYER
 10
578.0502373176
 20
863.9019552546
 11
577.7939275416
 21
863.9019552546
  0
LINE
  5
2FB
100
AcDbEntity
  8
3
100
AcDbLine
 62
7
  6
BYLAYER
 10
535.3237527447
 20
863.9019552546
 11
535.0674429687
 21
863.9019552546
  0
LINE
  5
2FC
100
AcDbEntity
  8
3
100
AcDbLine
 62
7
  6
BYLAYER
 10
430.4011064291
 20
863.9019552546
 11
430.1447966531
 21
863.9019552546
  0
LINE
  5
2FD
100
AcDbEntity
  8
3
100
AcDbLine
 62
7
  6
BYLAYER
 10
387.6746218562
 20
863.9019552546
 11
387.4183120802
 21
863.9019552546
  0
LINE
  5
2FE
100
AcDbEntity
  8
0
100
AcDbLine
 62
7
  6
BYLAYER
 10
410.3599620227
 20
1229.901942446
 11
410.1599620227
 21
1230.101942446
  0
LINE
  5
2FF
100
AcDbEntity
  8
0
100
AcDbLine
 62
7
  6
BYLAYER
 10
407.1599620227
 20
1236.401942446
 11
407.6599620227
 21
1235.901942446
  0
LINE
  5
300
100
AcDbEntity
  8
0
100
AcDbLine
 62
7
  6
BYLAYER
 10
425.1599620227
 20
1231.401942446
 11
425.6599620227
 21
1230.901942446
  0
LINE
  5
301
100
AcDbEntity
  8
0
100
AcDbLine
 62
7
  6
BYLAYER
 10
425.1599620227
 20
1236.401942446
 11
425.6599620227
 21
1235.901942446
  0
LINE
  5
302
100
AcDbEntity
  8
0
100
AcDbLine
 62
7
  6
BYLAYER
 10
423.4099640013
 20
1240.401942446
 11
423.9099620227
 21
1239.9019446045
  0
LINE
  5
303
100
AcDbEntity
  8
4
100
AcDbLine
 62
7
  6
BYLAYER
 10
591.7475858267
 20
1137.5850200301
 11
581.5588401432
 21
1137.5850200301
  0
LINE
  5
304
100
AcDbEntity
  8
3
100
AcDbLine
 62
7
  6
BYLAYER
 10
444.0984549382
 20
1137.5850200301
 11
433.9097092547
 21
1137.5850200301
  0
LINE
  5
305
100
AcDbEntity
  8
0
100
AcDbLine
 62
7
  6
BYLAYER
 10
558.0090929112
 20
1229.901942446
 11
557.8090929112
 21
1230.101942446
  0
LINE
  5
306
100
AcDbEntity
  8
0
100
AcDbLine
 62
7
  6
BYLAYER
 10
554.8090929112
 20
1236.401942446
 11
555.3090929112
 21
1235.901942446
  0
LINE
  5
307
100
AcDbEntity
  8
0
100
AcDbLine
 62
7
  6
BYLAYER
 10
572.8090929112
 20
1231.401942446
 11
573.3090929112
 21
1230.901942446
  0
LINE
  5
308
100
AcDbEntity
  8
0
100
AcDbLine
 62
7
  6
BYLAYER
 10
572.8090929112
 20
1236.401942446
 11
573.3090929112
 21
1235.901942446
  0
LINE
  5
309
100
AcDbEntity
  8
0
100
AcDbLine
 62
7
  6
BYLAYER
 10
571.0590948898
 20
1240.401942446
 11
571.5590929112
 21
1239.9019446045
  0
LINE
  5
30A
100
AcDbEntity
  8
0
100
AcDbLine
 62
7
  6
BYLAYER
 10
576.5052199772
 20
1229.9003278065
 11
576.5050358103
 21
1229.9003167345
  0
LINE
  5
30B
100
AcDbEntity
  8
0
100
AcDbLine
 62
7
  6
BYLAYER
 10
428.8560886628
 20
1229.9003277833
 11
428.8559044948
 21
1229.9003167112
  0
LINE
  5
30C
100
AcDbEntity
  8
0
100
AcDbLine
 62
7
  6
BYLAYER
 10
576.5554816404
 20
1229.901935208
 11
576.5052199772
 21
1229.9003278065
  0
LINE
  5
30D
100
AcDbEntity
  8
0
100
AcDbLine
 62
7
  6
BYLAYER
 10
428.9063507518
 20
1229.9019352104
 11
428.8560886628
 21
1229.9003277833
  0
LINE
  5
30E
100
AcDbEntity
  8
3
100
AcDbLine
 62
7
  6
BYLAYER
 10
433.9097092547
 20
1187.5850200301
 11
444.0984549382
 21
1187.5850200301
  0
LINE
  5
30F
100
AcDbEntity
  8
4
100
AcDbLine
 62
7
  6
BYLAYER
 10
581.5588401432
 20
1187.5850200301
 11
591.7475858267
 21
1187.5850200301
  0
LINE
  5
310
100
AcDbEntity
  8
3
100
AcDbLine
 62
7
  6
BYLAYER
 10
575.3582009945
 20
1212.4019717136
 11
537.7582009945
 21
1212.4019717136
  0
LINE
  5
311
100
AcDbEntity
  8
0
100
AcDbLine
 62
7
  6
BYLAYER
 10
581.5590929112
 20
1212.401942446
 11
537.5590929112
 21
1212.401942446
  0
LINE
  5
312
100
AcDbEntity
  8
0
100
AcDbLine
 62
7
  6
BYLAYER
 10
537.5063065067
 20
1212.401942446
 11
531.5590929112
 21
1212.401942446
  0
LINE
  5
313
100
AcDbEntity
  8
0
100
AcDbLine
 62
7
  6
BYLAYER
 10
433.9099620227
 20
1212.401942446
 11
389.9099620227
 21
1212.401942446
  0
LINE
  5
314
100
AcDbEntity
  8
3
100
AcDbLine
 62
7
  6
BYLAYER
 10
427.709070106
 20
1212.4019717136
 11
390.109070106
 21
1212.4019717136
  0
LINE
  5
315
100
AcDbEntity
  8
0
100
AcDbLine
 62
7
  6
BYLAYER
 10
389.8571756182
 20
1212.401942446
 11
383.9099620227
 21
1212.401942446
  0
LINE
  5
316
100
AcDbEntity
  8
3
100
AcDbLine
 62
7
  6
BYLAYER
 10
383.9097092547
 20
1212.4019552546
 11
389.9106898337
 21
1212.4019552546
  0
LINE
  5
317
100
AcDbEntity
  8
3
100
AcDbLine
 62
7
  6
BYLAYER
 10
427.9087286756
 20
1212.4019552546
 11
433.9097092547
 21
1212.4019552546
  0
LINE
  5
318
100
AcDbEntity
  8
3
100
AcDbLine
 62
7
  6
BYLAYER
 10
531.5588401432
 20
1212.4019552546
 11
537.5598207222
 21
1212.4019552546
  0
LINE
  5
319
100
AcDbEntity
  8
3
100
AcDbLine
 62
7
  6
BYLAYER
 10
575.5578595641
 20
1212.4019552546
 11
581.5588401432
 21
1212.4019552546
  0
LINE
  5
31A
100
AcDbEntity
  8
0
100
AcDbLine
 62
7
  6
BYLAYER
 10
383.9099620227
 20
1226.901942446
 11
384.4562710775
 21
1226.901942446
  0
LINE
  5
31B
100
AcDbEntity
  8
0
100
AcDbLine
 62
7
  6
BYLAYER
 10
433.3636529679
 20
1226.901942446
 11
433.9099620227
 21
1226.901942446
  0
LINE
  5
31C
100
AcDbEntity
  8
0
100
AcDbLine
 62
7
  6
BYLAYER
 10
531.5590929112
 20
1226.901942446
 11
532.105401966
 21
1226.901942446
  0
LINE
  5
31D
100
AcDbEntity
  8
0
100
AcDbLine
 62
7
  6
BYLAYER
 10
581.0127838564
 20
1226.901942446
 11
581.5590929112
 21
1226.901942446
  0
LINE
  5
31E
100
AcDbEntity
  8
0
100
AcDbLine
 62
7
  6
BYLAYER
 10
581.3590929112
 20
1227.401942446
 11
581.0704979349
 21
1227.401942446
  0
LINE
  5
31F
100
AcDbEntity
  8
0
100
AcDbLine
 62
7
  6
BYLAYER
 10
532.0476878875
 20
1227.401942446
 11
531.7590929112
 21
1227.401942446
  0
LINE
  5
320
100
AcDbEntity
  8
0
100
AcDbLine
 62
7
  6
BYLAYER
 10
433.7099620227
 20
1227.401942446
 11
433.4213670464
 21
1227.401942446
  0
LINE
  5
321
100
AcDbEntity
  8
0
100
AcDbLine
 62
7
  6
BYLAYER
 10
384.398556999
 20
1227.401942446
 11
384.1099620227
 21
1227.401942446
  0
LINE
  5
322
100
AcDbEntity
  8
0
100
AcDbLine
 62
7
  6
BYLAYER
 10
581.5590929112
 20
1227.9019425149
 11
581.3590929112
 21
1227.9019425149
  0
LINE
  5
323
100
AcDbEntity
  8
0
100
AcDbLine
 62
7
  6
BYLAYER
 10
531.7590929112
 20
1227.9019425032
 11
531.5590929112
 21
1227.9019425032
  0
LINE
  5
324
100
AcDbEntity
  8
0
100
AcDbLine
 62
7
  6
BYLAYER
 10
433.9099620227
 20
1227.9019425149
 11
433.7099620227
 21
1227.9019425149
  0
LINE
  5
325
100
AcDbEntity
  8
0
100
AcDbLine
 62
7
  6
BYLAYER
 10
384.1099620227
 20
1227.9019425032
 11
383.9099620227
 21
1227.9019425032
  0
LINE
  5
326
100
AcDbEntity
  8
0
100
AcDbLine
 62
7
  6
BYLAYER
 10
383.9099620227
 20
1228.901942446
 11
384.1099620227
 21
1228.901942446
  0
LINE
  5
327
100
AcDbEntity
  8
0
100
AcDbLine
 62
7
  6
BYLAYER
 10
384.398556999
 20
1228.901942446
 11
433.4213670464
 21
1228.901942446
  0
LINE
  5
328
100
AcDbEntity
  8
0
100
AcDbLine
 62
7
  6
BYLAYER
 10
433.7099620227
 20
1228.901942446
 11
433.9099620227
 21
1228.901942446
  0
LINE
  5
329
100
AcDbEntity
  8
0
100
AcDbLine
 62
7
  6
BYLAYER
 10
531.5590929112
 20
1228.901942446
 11
531.7590929112
 21
1228.901942446
  0
LINE
  5
32A
100
AcDbEntity
  8
0
100
AcDbLine
 62
7
  6
BYLAYER
 10
532.0476878875
 20
1228.901942446
 11
581.0704979349
 21
1228.901942446
  0
LINE
  5
32B
100
AcDbEntity
  8
0
100
AcDbLine
 62
7
  6
BYLAYER
 10
581.3590929112
 20
1228.901942446
 11
581.5590929112
 21
1228.901942446
  0
LINE
  5
32C
100
AcDbEntity
  8
0
100
AcDbLine
 62
7
  6
BYLAYER
 10
384.1099620227
 20
1229.001942446
 11
384.4310489686
 21
1229.001942446
  0
LINE
  5
32D
100
AcDbEntity
  8
0
100
AcDbLine
 62
7
  6
BYLAYER
 10
433.3888750768
 20
1229.001942446
 11
433.7099620227
 21
1229.001942446
  0
LINE
  5
32E
100
AcDbEntity
  8
0
100
AcDbLine
 62
7
  6
BYLAYER
 10
531.7590929112
 20
1229.001942446
 11
532.0801798571
 21
1229.001942446
  0
LINE
  5
32F
100
AcDbEntity
  8
0
100
AcDbLine
 62
7
  6
BYLAYER
 10
581.0380059653
 20
1229.001942446
 11
581.3590929112
 21
1229.001942446
  0
LINE
  5
330
100
AcDbEntity
  8
0
100
AcDbLine
 62
7
  6
BYLAYER
 10
385.3987802309
 20
1229.901942446
 11
432.4211438734
 21
1229.901942446
  0
LINE
  5
331
100
AcDbEntity
  8
0
100
AcDbLine
 62
7
  6
BYLAYER
 10
533.0479111194
 20
1229.901942446
 11
580.0702754981
 21
1229.901942446
  0
LINE
  5
332
100
AcDbEntity
  8
0
100
AcDbLine
 62
7
  6
BYLAYER
 10
385.1100634487
 20
1230.001942446
 11
390.709961776
 21
1230.001942446
  0
LINE
  5
333
100
AcDbEntity
  8
0
100
AcDbLine
 62
7
  6
BYLAYER
 10
427.1100634487
 20
1230.001942446
 11
432.709961776
 21
1230.001942446
  0
LINE
  5
334
100
AcDbEntity
  8
0
100
AcDbLine
 62
7
  6
BYLAYER
 10
532.7591943372
 20
1230.001942446
 11
538.3590926646
 21
1230.001942446
  0
LINE
  5
335
100
AcDbEntity
  8
0
100
AcDbLine
 62
7
  6
BYLAYER
 10
574.7591943372
 20
1230.001942446
 11
580.3590926646
 21
1230.001942446
  0
LINE
  5
336
100
AcDbEntity
  8
0
100
AcDbLine
 62
7
  6
BYLAYER
 10
573.3090929112
 20
1230.101942446
 11
557.8090929112
 21
1230.101942446
  0
LINE
  5
337
100
AcDbEntity
  8
0
100
AcDbLine
 62
7
  6
BYLAYER
 10
425.6599620227
 20
1230.101942446
 11
410.1599620227
 21
1230.101942446
  0
LINE
  5
338
100
AcDbEntity
  8
0
100
AcDbLine
 62
7
  6
BYLAYER
 10
410.1599620227
 20
1230.901942446
 11
425.6599620227
 21
1230.901942446
  0
LINE
  5
339
100
AcDbEntity
  8
0
100
AcDbLine
 62
7
  6
BYLAYER
 10
557.8090929112
 20
1230.901942446
 11
573.3090929112
 21
1230.901942446
  0
LINE
  5
33A
100
AcDbEntity
  8
0
100
AcDbLine
 62
7
  6
BYLAYER
 10
555.3090929112
 20
1231.401942446
 11
539.8090929112
 21
1231.401942446
  0
LINE
  5
33B
100
AcDbEntity
  8
0
100
AcDbLine
 62
7
  6
BYLAYER
 10
407.6599620227
 20
1231.401942446
 11
392.1599620227
 21
1231.401942446
  0
LINE
  5
33C
100
AcDbEntity
  8
0
100
AcDbLine
 62
7
  6
BYLAYER
 10
410.1599620227
 20
1231.401942446
 11
425.6599620227
 21
1231.401942446
  0
LINE
  5
33D
100
AcDbEntity
  8
0
100
AcDbLine
 62
7
  6
BYLAYER
 10
557.8090929112
 20
1231.401942446
 11
573.3090929112
 21
1231.401942446
  0
LINE
  5
33E
100
AcDbEntity
  8
0
100
AcDbLine
 62
7
  6
BYLAYER
 10
571.5590929112
 20
1232.401942446
 11
559.5590929112
 21
1232.401942446
  0
LINE
  5
33F
100
AcDbEntity
  8
0
100
AcDbLine
 62
7
  6
BYLAYER
 10
423.9099620227
 20
1232.401942446
 11
411.9099620227
 21
1232.401942446
  0
LINE
  5
340
100
AcDbEntity
  8
0
100
AcDbLine
 62
7
  6
BYLAYER
 10
573.3090886284
 20
1234.401942446
 11
571.5590929112
 21
1234.401942446
  0
LINE
  5
341
100
AcDbEntity
  8
0
100
AcDbLine
 62
7
  6
BYLAYER
 10
559.5590929112
 20
1234.401942446
 11
557.809097194
 21
1234.401942446
  0
LINE
  5
342
100
AcDbEntity
  8
0
100
AcDbLine
 62
7
  6
BYLAYER
 10
555.3090886284
 20
1234.401942446
 11
539.809097194
 21
1234.401942446
  0
LINE
  5
343
100
AcDbEntity
  8
0
100
AcDbLine
 62
7
  6
BYLAYER
 10
425.6599577399
 20
1234.401942446
 11
423.9099620227
 21
1234.401942446
  0
LINE
  5
344
100
AcDbEntity
  8
0
100
AcDbLine
 62
7
  6
BYLAYER
 10
411.9099620227
 20
1234.401942446
 11
410.1599663055
 21
1234.401942446
  0
LINE
  5
345
100
AcDbEntity
  8
0
100
AcDbLine
 62
7
  6
BYLAYER
 10
407.6599577399
 20
1234.401942446
 11
392.1599663055
 21
1234.401942446
  0
LINE
  5
346
100
AcDbEntity
  8
0
100
AcDbLine
 62
7
  6
BYLAYER
 10
392.1599620227
 20
1235.901942446
 11
407.6599620227
 21
1235.901942446
  0
LINE
  5
347
100
AcDbEntity
  8
0
100
AcDbLine
 62
7
  6
BYLAYER
 10
410.1599620227
 20
1235.901942446
 11
411.9099620227
 21
1235.901942446
  0
LINE
  5
348
100
AcDbEntity
  8
0
100
AcDbLine
 62
7
  6
BYLAYER
 10
423.9099620227
 20
1235.901942446
 11
425.6599620227
 21
1235.901942446
  0
LINE
  5
349
100
AcDbEntity
  8
0
100
AcDbLine
 62
7
  6
BYLAYER
 10
539.8090929112
 20
1235.901942446
 11
555.3090929112
 21
1235.901942446
  0
LINE
  5
34A
100
AcDbEntity
  8
0
100
AcDbLine
 62
7
  6
BYLAYER
 10
557.8090929112
 20
1235.901942446
 11
559.5590929112
 21
1235.901942446
  0
LINE
  5
34B
100
AcDbEntity
  8
0
100
AcDbLine
 62
7
  6
BYLAYER
 10
571.5590929112
 20
1235.901942446
 11
573.3090929112
 21
1235.901942446
  0
LINE
  5
34C
100
AcDbEntity
  8
0
100
AcDbLine
 62
7
  6
BYLAYER
 10
392.6599660255
 20
1236.401942446
 11
407.1599580199
 21
1236.401942446
  0
LINE
  5
34D
100
AcDbEntity
  8
0
100
AcDbLine
 62
7
  6
BYLAYER
 10
410.6599660255
 20
1236.401942446
 11
411.9099620227
 21
1236.401942446
  0
LINE
  5
34E
100
AcDbEntity
  8
0
100
AcDbLine
 62
7
  6
BYLAYER
 10
423.9099620227
 20
1236.401942446
 11
425.1599580199
 21
1236.401942446
  0
LINE
  5
34F
100
AcDbEntity
  8
0
100
AcDbLine
 62
7
  6
BYLAYER
 10
540.309096914
 20
1236.401942446
 11
554.8090889084
 21
1236.401942446
  0
LINE
  5
350
100
AcDbEntity
  8
0
100
AcDbLine
 62
7
  6
BYLAYER
 10
558.309096914
 20
1236.401942446
 11
559.5590929112
 21
1236.401942446
  0
LINE
  5
351
100
AcDbEntity
  8
0
100
AcDbLine
 62
7
  6
BYLAYER
 10
571.5590929112
 20
1236.401942446
 11
572.8090889084
 21
1236.401942446
  0
LINE
  5
352
100
AcDbEntity
  8
0
100
AcDbLine
 62
7
  6
BYLAYER
 10
395.7832020227
 20
1237.601942446
 11
399.2082020227
 21
1237.601942446
  0
LINE
  5
353
100
AcDbEntity
  8
0
100
AcDbLine
 62
7
  6
BYLAYER
 10
400.6082020227
 20
1237.601942446
 11
404.0332020227
 21
1237.601942446
  0
LINE
  5
354
100
AcDbEntity
  8
0
100
AcDbLine
 62
7
  6
BYLAYER
 10
543.4323329112
 20
1237.601942446
 11
549.9368689923
 21
1237.601942446
  0
LINE
  5
355
100
AcDbEntity
  8
0
100
AcDbLine
 62
7
  6
BYLAYER
 10
550.926818486
 20
1237.601942446
 11
551.6823329112
 21
1237.601942446
  0
LINE
  5
356
100
AcDbEntity
  8
0
100
AcDbLine
 62
7
  6
BYLAYER
 10
396.0832061939
 20
1237.901942446
 11
403.733171258
 21
1237.901942446
  0
LINE
  5
357
100
AcDbEntity
  8
0
100
AcDbLine
 62
7
  6
BYLAYER
 10
543.7323036651
 20
1237.901942446
 11
551.3824006343
 21
1237.901942446
  0
LINE
  5
358
100
AcDbEntity
  8
0
100
AcDbLine
 62
7
  6
BYLAYER
 10
411.9099620227
 20
1239.9019446045
 11
423.9099620227
 21
1239.9019446045
  0
LINE
  5
359
100
AcDbEntity
  8
0
100
AcDbLine
 62
7
  6
BYLAYER
 10
559.5590929112
 20
1239.9019446045
 11
571.5590929112
 21
1239.9019446045
  0
LINE
  5
35A
100
AcDbEntity
  8
0
100
AcDbLine
 62
7
  6
BYLAYER
 10
412.4099600441
 20
1240.401942446
 11
423.4099581357
 21
1240.401942446
  0
LINE
  5
35B
100
AcDbEntity
  8
0
100
AcDbLine
 62
7
  6
BYLAYER
 10
560.0590909326
 20
1240.401942446
 11
571.0590890242
 21
1240.401942446
  0
LINE
  5
35C
100
AcDbEntity
  8
0
100
AcDbLine
 62
7
  6
BYLAYER
 10
388.963359069
 20
1229.9003564957
 11
388.9135735364
 21
1229.9019352002
  0
LINE
  5
35D
100
AcDbEntity
  8
0
100
AcDbLine
 62
7
  6
BYLAYER
 10
536.6124899573
 20
1229.9003564957
 11
536.5627044249
 21
1229.9019352002
  0
LINE
  5
35E
100
AcDbEntity
  8
0
100
AcDbLine
 62
7
  6
BYLAYER
 10
433.4329065852
 20
1229.7543090944
 11
433.2802486423
 21
1229.7976811873
  0
LINE
  5
35F
100
AcDbEntity
  8
0
100
AcDbLine
 62
7
  6
BYLAYER
 10
581.0820374768
 20
1229.7543090925
 11
580.9293795318
 21
1229.7976811864
  0
ARC
  5
360
100
AcDbEntity
  8
0
100
AcDbCircle
 62
7
  6
BYLAYER
 10
427.1092342117
 20
97.301942446
 40
1.0
100
AcDbArc
 50
247.6323509959
 51
270.0
  0
ARC
  5
361
100
AcDbEntity
  8
0
100
AcDbCircle
 62
7
  6
BYLAYER
 10
390.7092342146
 20
97.301942446
 40
1.0
100
AcDbArc
 50
270.0
 51
292.3676490041
  0
ARC
  5
362
100
AcDbEntity
  8
0
100
AcDbCircle
 62
7
  6
BYLAYER
 10
428.1097092516
 20
97.301942446
 40
1.0
100
AcDbArc
 50
247.6323509958
 51
270.0
  0
ARC
  5
363
100
AcDbEntity
  8
0
100
AcDbCircle
 62
7
  6
BYLAYER
 10
432.7097092516
 20
97.301942446
 40
1.0
100
AcDbArc
 50
270.0
 51
360.0
  0
ARC
  5
364
100
AcDbEntity
  8
0
100
AcDbCircle
 62
7
  6
BYLAYER
 10
385.1097092547
 20
97.301942446
 40
1.0
100
AcDbArc
 50
180.0
 51
270.0
  0
ARC
  5
365
100
AcDbEntity
  8
0
100
AcDbCircle
 62
7
  6
BYLAYER
 10
389.7097092547
 20
97.301942446
 40
1.0
100
AcDbArc
 50
270.0
 51
292.3676490041
  0
ARC
  5
366
100
AcDbEntity
  8
0
100
AcDbCircle
 62
7
  6
BYLAYER
 10
385.3978291879
 20
97.4018323076
 40
1.0
100
AcDbArc
 50
180.0
 51
269.9999999992
  0
ARC
  5
367
100
AcDbEntity
  8
0
100
AcDbCircle
 62
7
  6
BYLAYER
 10
432.4206392354
 20
97.4018323076
 40
1.0
100
AcDbArc
 50
270.000000004
 51
360.0
  0
ARC
  5
368
100
AcDbEntity
  8
0
100
AcDbCircle
 62
7
  6
BYLAYER
 10
432.9092342117
 20
97.4018323076
 40
1.0
100
AcDbArc
 50
290.1402792355
 51
360.0
  0
ARC
  5
369
100
AcDbEntity
  8
0
100
AcDbCircle
 62
7
  6
BYLAYER
 10
428.9092342117
 20
97.4018323076
 40
1.0
100
AcDbArc
 50
180.0
 51
270.0
  0
ARC
  5
36A
100
AcDbEntity
  8
0
100
AcDbCircle
 62
7
  6
BYLAYER
 10
388.9092342117
 20
97.4018323076
 40
1.0
100
AcDbArc
 50
270.0
 51
360.0
  0
ARC
  5
36B
100
AcDbEntity
  8
0
100
AcDbCircle
 62
7
  6
BYLAYER
 10
384.9092342117
 20
97.4018323076
 40
1.0
100
AcDbArc
 50
180.0
 51
249.9315512354
  0
ARC
  5
36C
100
AcDbEntity
  8
0
100
AcDbCircle
 62
7
  6
BYLAYER
 10
385.4170747356
 20
97.313524222
 40
0.9116919145
100
AcDbArc
 50
268.9080715222
 51
269.9995273082
  0
ARC
  5
36D
100
AcDbEntity
  8
0
100
AcDbCircle
 62
7
  6
BYLAYER
 10
432.4013937879
 20
97.3135086406
 40
0.9116763227
100
AcDbArc
 50
270.0004664016
 51
271.0845792245
  0
ARC
  5
36E
100
AcDbEntity
  8
0
100
AcDbCircle
 62
7
  6
BYLAYER
 10
433.4092342117
 20
99.4018323076
 40
0.5
100
AcDbArc
 50
271.1642031186
 51
360.0
  0
ARC
  5
36F
100
AcDbEntity
  8
0
100
AcDbCircle
 62
7
  6
BYLAYER
 10
384.4092342117
 20
99.4018323076
 40
0.5
100
AcDbArc
 50
180.0
 51
268.8357968818
  0
ARC
  5
370
100
AcDbEntity
  8
0
100
AcDbCircle
 62
7
  6
BYLAYER
 10
433.7729773296
 20
98.9951888097
 40
0.3526765594
100
AcDbArc
 50
169.079694701
 51
177.9933153754
  0
ARC
  5
371
100
AcDbEntity
  8
0
100
AcDbCircle
 62
7
  6
BYLAYER
 10
433.3383780886
 20
99.0727025812
 40
0.1614964913
100
AcDbArc
 50
325.4681300231
 51
327.6792279212
  0
ARC
  5
372
100
AcDbEntity
  8
0
100
AcDbCircle
 62
7
  6
BYLAYER
 10
427.1099620227
 20
1229.001942446
 40
1.0
100
AcDbArc
 50
90.0
 51
112.3923115548
  0
ARC
  5
373
100
AcDbEntity
  8
0
100
AcDbCircle
 62
7
  6
BYLAYER
 10
390.7099620227
 20
1229.001942446
 40
1.0
100
AcDbArc
 50
67.6076884452
 51
90.0
  0
ARC
  5
374
100
AcDbEntity
  8
0
100
AcDbCircle
 62
7
  6
BYLAYER
 10
389.7099620227
 20
1229.001942446
 40
1.0
100
AcDbArc
 50
67.6076884452
 51
90.0
  0
ARC
  5
375
100
AcDbEntity
  8
0
100
AcDbCircle
 62
7
  6
BYLAYER
 10
385.1099620227
 20
1229.001942446
 40
1.0
100
AcDbArc
 50
90.0
 51
180.0
  0
ARC
  5
376
100
AcDbEntity
  8
0
100
AcDbCircle
 62
7
  6
BYLAYER
 10
432.7099620227
 20
1229.001942446
 40
1.0
100
AcDbArc
 50
0.0
 51
90.0
  0
ARC
  5
377
100
AcDbEntity
  8
0
100
AcDbCircle
 62
7
  6
BYLAYER
 10
428.1099620227
 20
1229.001942446
 40
1.0
100
AcDbArc
 50
90.0
 51
112.3923115548
  0
ARC
  5
378
100
AcDbEntity
  8
0
100
AcDbCircle
 62
7
  6
BYLAYER
 10
432.4213670464
 20
1228.9019424461
 40
1.0
100
AcDbArc
 50
0.0
 51
90.0
  0
ARC
  5
379
100
AcDbEntity
  8
0
100
AcDbCircle
 62
7
  6
BYLAYER
 10
385.398556999
 20
1228.901942446
 40
1.0
100
AcDbArc
 50
90.0000000004
 51
180.0
  0
ARC
  5
37A
100
AcDbEntity
  8
0
100
AcDbCircle
 62
7
  6
BYLAYER
 10
384.9099620227
 20
1228.901942446
 40
1.0
100
AcDbArc
 50
110.1126910722
 51
180.0
  0
ARC
  5
37B
100
AcDbEntity
  8
0
100
AcDbCircle
 62
7
  6
BYLAYER
 10
388.9099620227
 20
1228.901942446
 40
1.0
100
AcDbArc
 50
0.0
 51
90.0
  0
ARC
  5
37C
100
AcDbEntity
  8
0
100
AcDbCircle
 62
7
  6
BYLAYER
 10
428.9099620227
 20
1228.901942446
 40
1.0
100
AcDbArc
 50
90.0
 51
180.0
  0
ARC
  5
37D
100
AcDbEntity
  8
0
100
AcDbCircle
 62
7
  6
BYLAYER
 10
432.9099620227
 20
1228.901942446
 40
1.0
100
AcDbArc
 50
0.0
 51
69.8873089279
  0
ARC
  5
37E
100
AcDbEntity
  8
0
100
AcDbCircle
 62
7
  6
BYLAYER
 10
385.4178024464
 20
1228.9902661253
 40
0.9116763193
100
AcDbArc
 50
90.0004663994
 51
91.0845793931
  0
ARC
  5
37F
100
AcDbEntity
  8
0
100
AcDbCircle
 62
7
  6
BYLAYER
 10
384.4099620227
 20
1226.901942446
 40
0.5
100
AcDbArc
 50
91.1642031186
 51
180.0
  0
ARC
  5
380
100
AcDbEntity
  8
0
100
AcDbCircle
 62
7
  6
BYLAYER
 10
433.4099620227
 20
1226.901942446
 40
0.5
100
AcDbArc
 50
0.0
 51
88.8357968818
  0
ARC
  5
381
100
AcDbEntity
  8
0
100
AcDbCircle
 62
7
  6
BYLAYER
 10
384.0462189047
 20
1227.3085859439
 40
0.3526765595
100
AcDbArc
 50
349.07969471
 51
357.9933153825
  0
ARC
  5
382
100
AcDbEntity
  8
0
100
AcDbCircle
 62
7
  6
BYLAYER
 10
403.7332020227
 20
1237.601942446
 40
0.3
100
AcDbArc
 50
0.0
 51
90.0
  0
ARC
  5
383
100
AcDbEntity
  8
0
100
AcDbCircle
 62
7
  6
BYLAYER
 10
396.0832020227
 20
1237.601942446
 40
0.3
100
AcDbArc
 50
90.0
 51
180.0
  0
ARC
  5
384
100
AcDbEntity
  8
0
100
AcDbCircle
 62
7
  6
BYLAYER
 10
384.4808181455
 20
1227.2310721725
 40
0.161496491
100
AcDbArc
 50
145.4681300248
 51
147.6792278875
  0
ARC
  5
385
100
AcDbEntity
  8
0
100
AcDbCircle
 62
7
  6
BYLAYER
 10
574.7583651002
 20
97.301942446
 40
1.0
100
AcDbArc
 50
247.6323509959
 51
270.0
  0
ARC
  5
386
100
AcDbEntity
  8
0
100
AcDbCircle
 62
7
  6
BYLAYER
 10
538.3583651031
 20
97.301942446
 40
1.0
100
AcDbArc
 50
270.0
 51
292.3676490041
  0
ARC
  5
387
100
AcDbEntity
  8
0
100
AcDbCircle
 62
7
  6
BYLAYER
 10
575.7588401401
 20
97.301942446
 40
1.0
100
AcDbArc
 50
247.6323509959
 51
270.0
  0
ARC
  5
388
100
AcDbEntity
  8
0
100
AcDbCircle
 62
7
  6
BYLAYER
 10
580.3588401401
 20
97.301942446
 40
1.0
100
AcDbArc
 50
270.0
 51
360.0
  0
ARC
  5
389
100
AcDbEntity
  8
0
100
AcDbCircle
 62
7
  6
BYLAYER
 10
532.7588401432
 20
97.301942446
 40
1.0
100
AcDbArc
 50
180.0
 51
270.0
  0
ARC
  5
38A
100
AcDbEntity
  8
0
100
AcDbCircle
 62
7
  6
BYLAYER
 10
537.3588401432
 20
97.301942446
 40
1.0
100
AcDbArc
 50
270.0
 51
292.3676490041
  0
ARC
  5
38B
100
AcDbEntity
  8
0
100
AcDbCircle
 62
7
  6
BYLAYER
 10
533.0469600765
 20
97.4018323076
 40
1.0
100
AcDbArc
 50
180.0
 51
269.9999999982
  0
ARC
  5
38C
100
AcDbEntity
  8
0
100
AcDbCircle
 62
7
  6
BYLAYER
 10
580.0697701239
 20
97.4018323076
 40
1.0
100
AcDbArc
 50
270.0000000018
 51
360.0
  0
ARC
  5
38D
100
AcDbEntity
  8
0
100
AcDbCircle
 62
7
  6
BYLAYER
 10
580.5583651002
 20
97.4018323076
 40
1.0
100
AcDbArc
 50
290.1402792355
 51
360.0
  0
ARC
  5
38E
100
AcDbEntity
  8
0
100
AcDbCircle
 62
7
  6
BYLAYER
 10
576.5583651002
 20
97.4018323076
 40
1.0
100
AcDbArc
 50
180.0
 51
270.0
  0
ARC
  5
38F
100
AcDbEntity
  8
0
100
AcDbCircle
 62
7
  6
BYLAYER
 10
536.5583651002
 20
97.4018323076
 40
1.0
100
AcDbArc
 50
270.0
 51
360.0
  0
ARC
  5
390
100
AcDbEntity
  8
0
100
AcDbCircle
 62
7
  6
BYLAYER
 10
532.5583651002
 20
97.4018323076
 40
1.0
100
AcDbArc
 50
180.0
 51
249.9315512353
  0
ARC
  5
391
100
AcDbEntity
  8
0
100
AcDbCircle
 62
7
  6
BYLAYER
 10
533.0662056241
 20
97.3135242222
 40
0.9116919149
100
AcDbArc
 50
268.9080715183
 51
269.9995273079
  0
ARC
  5
392
100
AcDbEntity
  8
0
100
AcDbCircle
 62
7
  6
BYLAYER
 10
580.0505246765
 20
97.3135086374
 40
0.9116763227
100
AcDbArc
 50
270.0004664016
 51
271.084579283
  0
ARC
  5
393
100
AcDbEntity
  8
0
100
AcDbCircle
 62
7
  6
BYLAYER
 10
581.0583651002
 20
99.4018323076
 40
0.5
100
AcDbArc
 50
271.1642031186
 51
360.0
  0
ARC
  5
394
100
AcDbEntity
  8
0
100
AcDbCircle
 62
7
  6
BYLAYER
 10
532.0583651002
 20
99.4018323076
 40
0.5
100
AcDbArc
 50
180.0
 51
268.8357968818
  0
ARC
  5
395
100
AcDbEntity
  8
0
100
AcDbCircle
 62
7
  6
BYLAYER
 10
581.4221082181
 20
98.9951888097
 40
0.3526765595
100
AcDbArc
 50
169.0796947224
 51
177.9933153825
  0
ARC
  5
396
100
AcDbEntity
  8
0
100
AcDbCircle
 62
7
  6
BYLAYER
 10
580.9875089774
 20
99.072702581
 40
0.161496491
100
AcDbArc
 50
325.4681300216
 51
327.6792279152
  0
ARC
  5
397
100
AcDbEntity
  8
0
100
AcDbCircle
 62
7
  6
BYLAYER
 10
574.7590929112
 20
1229.001942446
 40
1.0
100
AcDbArc
 50
90.0
 51
112.3923115548
  0
ARC
  5
398
100
AcDbEntity
  8
0
100
AcDbCircle
 62
7
  6
BYLAYER
 10
538.3590929112
 20
1229.001942446
 40
1.0
100
AcDbArc
 50
67.6076884452
 51
90.0
  0
ARC
  5
399
100
AcDbEntity
  8
0
100
AcDbCircle
 62
7
  6
BYLAYER
 10
580.3590929112
 20
1229.001942446
 40
1.0
100
AcDbArc
 50
0.0
 51
90.0
  0
ARC
  5
39A
100
AcDbEntity
  8
0
100
AcDbCircle
 62
7
  6
BYLAYER
 10
575.7590929112
 20
1229.001942446
 40
1.0
100
AcDbArc
 50
90.0
 51
112.3923115548
  0
ARC
  5
39B
100
AcDbEntity
  8
0
100
AcDbCircle
 62
7
  6
BYLAYER
 10
537.3590929112
 20
1229.001942446
 40
1.0
100
AcDbArc
 50
67.6076884452
 51
90.0
  0
ARC
  5
39C
100
AcDbEntity
  8
0
100
AcDbCircle
 62
7
  6
BYLAYER
 10
532.7590929112
 20
1229.001942446
 40
1.0
100
AcDbArc
 50
90.0
 51
180.0
  0
ARC
  5
39D
100
AcDbEntity
  8
0
100
AcDbCircle
 62
7
  6
BYLAYER
 10
580.0704979349
 20
1228.9019424461
 40
1.0
100
AcDbArc
 50
0.0
 51
90.0
  0
ARC
  5
39E
100
AcDbEntity
  8
0
100
AcDbCircle
 62
7
  6
BYLAYER
 10
533.0476878875
 20
1228.901942446
 40
1.0
100
AcDbArc
 50
90.0
 51
180.0
  0
ARC
  5
39F
100
AcDbEntity
  8
0
100
AcDbCircle
 62
7
  6
BYLAYER
 10
532.5590929112
 20
1228.901942446
 40
1.0
100
AcDbArc
 50
110.1126910722
 51
180.0
  0
ARC
  5
3A0
100
AcDbEntity
  8
0
100
AcDbCircle
 62
7
  6
BYLAYER
 10
536.5590929112
 20
1228.901942446
 40
1.0
100
AcDbArc
 50
0.0
 51
90.0
  0
ARC
  5
3A1
100
AcDbEntity
  8
0
100
AcDbCircle
 62
7
  6
BYLAYER
 10
576.5590929112
 20
1228.901942446
 40
1.0
100
AcDbArc
 50
90.0
 51
180.0
  0
ARC
  5
3A2
100
AcDbEntity
  8
0
100
AcDbCircle
 62
7
  6
BYLAYER
 10
580.5590929112
 20
1228.901942446
 40
1.0
100
AcDbArc
 50
0.0
 51
69.8873089279
  0
ARC
  5
3A3
100
AcDbEntity
  8
0
100
AcDbCircle
 62
7
  6
BYLAYER
 10
580.0512435983
 20
1228.9902512579
 40
0.9116911881
100
AcDbArc
 50
88.9077074507
 51
89.9995267508
  0
ARC
  5
3A4
100
AcDbEntity
  8
0
100
AcDbCircle
 62
7
  6
BYLAYER
 10
533.0669333361
 20
1228.9902659443
 40
0.9116765017
100
AcDbArc
 50
90.0004664742
 51
91.0846637941
  0
ARC
  5
3A5
100
AcDbEntity
  8
0
100
AcDbCircle
 62
7
  6
BYLAYER
 10
532.0590929112
 20
1226.901942446
 40
0.5
100
AcDbArc
 50
91.1642031186
 51
180.0
  0
ARC
  5
3A6
100
AcDbEntity
  8
0
100
AcDbCircle
 62
7
  6
BYLAYER
 10
581.0590929112
 20
1226.901942446
 40
0.5
100
AcDbArc
 50
0.0
 51
88.8357968818
  0
ARC
  5
3A7
100
AcDbEntity
  8
0
100
AcDbCircle
 62
7
  6
BYLAYER
 10
531.6953497933
 20
1227.3085859439
 40
0.3526765595
100
AcDbArc
 50
349.0796947129
 51
357.9933153871
  0
ARC
  5
3A8
100
AcDbEntity
  8
0
100
AcDbCircle
 62
7
  6
BYLAYER
 10
551.3823329112
 20
1237.601942446
 40
0.3
100
AcDbArc
 50
0.0000000001
 51
90.0
  0
ARC
  5
3A9
100
AcDbEntity
  8
0
100
AcDbCircle
 62
7
  6
BYLAYER
 10
543.7323329112
 20
1237.601942446
 40
0.3
100
AcDbArc
 50
90.0
 51
180.0
  0
ARC
  5
3AA
100
AcDbEntity
  8
0
100
AcDbCircle
 62
7
  6
BYLAYER
 10
532.1299490341
 20
1227.2310721725
 40
0.1614964911
100
AcDbArc
 50
145.4681300245
 51
147.6792279001
  0
SPLINE
  5
3AB
100
AcDbEntity
  8
0
100
AcDbSpline
 62
7
  6
BYLAYER
 70
0
 71
3
 72
11
 73
7
 74
0
 42
0.0000001
 43
0.0000001
 44
0.0000000001
 40
0.0
 40
0.0
 40
0.0
 40
0.0
 40
0.288407732
 40
0.5554500762
 40
0.7902017319
 40
1.0
 40
1.0
 40
1.0
 40
1.0
 10
549.9368689923
 20
1237.601942446
 30
0.0
 10
549.9368689923
 20
1237.6408802857
 30
0.0
 10
549.9264705523
 20
1237.7163656015
 30
0.0
 10
549.8808980327
 20
1237.8147661401
 30
0.0
 10
549.8104469645
 20
1237.8841330205
 30
0.0
 10
549.7496888876
 20
1237.901942446
 30
0.0
 10
549.7213640877
 20
1237.901942446
 30
0.0
  0
SPLINE
  5
3AC
100
AcDbEntity
  8
0
100
AcDbSpline
 62
7
  6
BYLAYER
 70
0
 71
3
 72
11
 73
7
 74
0
 42
0.0000001
 43
0.0000001
 44
0.0000000001
 40
0.0
 40
0.0
 40
0.0
 40
0.0
 40
0.2884175038
 40
0.555539955
 40
0.7901454563
 40
1.0
 40
1.0
 40
1.0
 40
1.0
 10
550.926818486
 20
1237.601942446
 30
0.0
 10
550.926818486
 20
1237.6408754799
 30
0.0
 10
550.916225758
 20
1237.7162947571
 30
0.0
 10
550.8709888528
 20
1237.8148747653
 30
0.0
 10
550.8002843419
 20
1237.8839216183
 30
0.0
 10
550.7396415224
 20
1237.901942446
 30
0.0
 10
550.7113135813
 20
1237.901942446
 30
0.0
  0
SPLINE
  5
3AD
100
AcDbEntity
  8
0
100
AcDbSpline
 62
7
  6
BYLAYER
 70
0
 71
3
 72
9
 73
5
 74
0
 42
0.0000001
 43
0.0000001
 44
0.0000000001
 40
0.0
 40
0.0
 40
0.0
 40
0.0
 40
0.2435004606
 40
1.0
 40
1.0
 40
1.0
 40
1.0
 10
581.0697435621
 20
99.0249987311
 30
0.0
 10
581.0695325178
 20
99.0559974081
 30
0.0
 10
581.0636096196
 20
99.1832490466
 30
0.0
 10
581.0389881605
 20
99.3093667414
 30
0.0
 10
581.0120560454
 20
99.4018323076
 30
0.0
  0
SPLINE
  5
3AE
100
AcDbEntity
  8
0
100
AcDbSpline
 62
7
  6
BYLAYER
 70
0
 71
3
 72
9
 73
5
 74
0
 42
0.0000001
 43
0.0000001
 44
0.0000000001
 40
0.0
 40
0.0
 40
0.0
 40
0.0
 40
0.279285131
 40
1.0
 40
1.0
 40
1.0
 40
1.0
 10
581.1311035619
 20
99.1962893605
 30
0.0
 10
581.1361126993
 20
99.1814078481
 30
0.0
 10
581.151708049
 20
99.1276382238
 30
0.0
 10
581.1546489349
 20
99.0682712548
 30
0.0
 10
581.1432812548
 20
99.0293785502
 30
0.0
  0
SPLINE
  5
3AF
100
AcDbEntity
  8
0
100
AcDbSpline
 62
7
  6
BYLAYER
 70
0
 71
3
 72
8
 73
4
 74
0
 42
0.0000001
 43
0.0000001
 44
0.0000000001
 40
0.0
 40
0.0
 40
0.0
 40
0.0
 40
1.0
 40
1.0
 40
1.0
 40
1.0
 10
581.1432812548
 20
99.0293785502
 30
0.0
 10
581.1388719294
 20
99.0142927467
 30
0.0
 10
581.1323879056
 20
98.9996388765
 30
0.0
 10
581.1239845026
 20
98.986357068
 30
0.0
  0
SPLINE
  5
3B0
100
AcDbEntity
  8
0
100
AcDbSpline
 62
7
  6
BYLAYER
 70
0
 71
3
 72
8
 73
4
 74
0
 42
0.0000001
 43
0.0000001
 44
0.0000000001
 40
0.0
 40
0.0
 40
0.0
 40
0.0
 40
1.0
 40
1.0
 40
1.0
 40
1.0
 10
581.120551564
 20
98.9811559441
 30
0.0
 10
581.1075104022
 20
98.9622039756
 30
0.0
 10
581.0899306907
 20
98.9458816626
 30
0.0
 10
581.0703676186
 20
98.9337764892
 30
0.0
  0
SPLINE
  5
3B1
100
AcDbEntity
  8
0
100
AcDbSpline
 62
7
  6
BYLAYER
 70
0
 71
3
 72
8
 73
4
 74
0
 42
0.0000001
 43
0.0000001
 44
0.0000000001
 40
0.0
 40
0.0
 40
0.0
 40
0.0
 40
1.0
 40
1.0
 40
1.0
 40
1.0
 10
581.1736045766
 20
99.4018323076
 30
0.0
 10
581.1736045766
 20
99.3318687234
 30
0.0
 10
581.1589361523
 20
99.2604788354
 30
0.0
 10
581.1311036959
 20
99.1962896035
 30
0.0
  0
SPLINE
  5
3B2
100
AcDbEntity
  8
0
100
AcDbSpline
 62
7
  6
BYLAYER
 70
0
 71
3
 72
9
 73
5
 74
0
 42
0.0000001
 43
0.0000001
 44
0.0000000001
 40
0.0
 40
0.0
 40
0.0
 40
0.0
 40
0.2661599696
 40
1.0
 40
1.0
 40
1.0
 40
1.0
 10
532.0469180019
 20
98.9334341802
 30
0.0
 10
532.0376933194
 20
98.9390968257
 30
0.0
 10
532.0048407686
 20
98.9633068186
 30
0.0
 10
531.9820464519
 20
99.0002666863
 30
0.0
 10
531.9735931243
 20
99.028887874
 30
0.0
  0
SPLINE
  5
3B3
100
AcDbEntity
  8
0
100
AcDbSpline
 62
7
  6
BYLAYER
 70
0
 71
3
 72
9
 73
5
 74
0
 42
0.0000001
 43
0.0000001
 44
0.0000000001
 40
0.0
 40
0.0
 40
0.0
 40
0.0
 40
0.2282933278
 40
1.0
 40
1.0
 40
1.0
 40
1.0
 10
531.9735931243
 20
99.028887874
 30
0.0
 10
531.969939955
 20
99.0412567363
 30
0.0
 10
531.959770609
 20
99.0972537962
 30
0.0
 10
531.9717188061
 20
99.1549709083
 30
0.0
 10
531.985626647
 20
99.1962893451
 30
0.0
  0
SPLINE
  5
3B4
100
AcDbEntity
  8
0
100
AcDbSpline
 62
7
  6
BYLAYER
 70
0
 71
3
 72
9
 73
5
 74
0
 42
0.0000001
 43
0.0000001
 44
0.0000000001
 40
0.0
 40
0.0
 40
0.0
 40
0.0
 40
0.257078501
 40
1.0
 40
1.0
 40
1.0
 40
1.0
 10
532.104674155
 20
99.4018323076
 30
0.0
 10
532.0955231502
 20
99.3704129485
 30
0.0
 10
532.0637576021
 20
99.2471511229
 30
0.0
 10
532.0476303142
 20
99.119561755
 30
0.0
 10
532.0469866022
 20
99.0249935783
 30
0.0
  0
SPLINE
  5
3B5
100
AcDbEntity
  8
0
100
AcDbSpline
 62
7
  6
BYLAYER
 70
0
 71
3
 72
8
 73
4
 74
0
 42
0.0000001
 43
0.0000001
 44
0.0000000001
 40
0.0
 40
0.0
 40
0.0
 40
0.0
 40
1.0
 40
1.0
 40
1.0
 40
1.0
 10
531.9856265046
 20
99.1962896037
 30
0.0
 10
532.0189552777
 20
99.1457234754
 30
0.0
 10
532.0409369377
 20
99.0852899112
 30
0.0
 10
532.0460439026
 20
99.0249437485
 30
0.0
  0
SPLINE
  5
3B6
100
AcDbEntity
  8
0
100
AcDbSpline
 62
7
  6
BYLAYER
 70
0
 71
3
 72
8
 73
4
 74
0
 42
0.0000001
 43
0.0000001
 44
0.0000000001
 40
0.0
 40
0.0
 40
0.0
 40
0.0
 40
1.0
 40
1.0
 40
1.0
 40
1.0
 10
531.9856265045
 20
99.1962896035
 30
0.0
 10
531.9577940481
 20
99.2604788354
 30
0.0
 10
531.9431256238
 20
99.3318687234
 30
0.0
 10
531.9431256238
 20
99.4018323076
 30
0.0
  0
SPLINE
  5
3B7
100
AcDbEntity
  8
0
100
AcDbSpline
 62
7
  6
BYLAYER
 70
0
 71
3
 72
9
 73
5
 74
0
 42
0.0000001
 43
0.0000001
 44
0.0000000001
 40
0.0
 40
0.0
 40
0.0
 40
0.0
 40
0.2307080163
 40
1.0
 40
1.0
 40
1.0
 40
1.0
 10
531.9856129946
 20
99.1963143307
 30
0.0
 10
531.9919975113
 20
99.213471654
 30
0.0
 10
532.023329152
 20
99.2864797773
 30
0.0
 10
532.0672208166
 20
99.3536291146
 30
0.0
 10
532.104674155
 20
99.4018323076
 30
0.0
  0
SPLINE
  5
3B8
100
AcDbEntity
  8
0
100
AcDbSpline
 62
7
  6
BYLAYER
 70
0
 71
3
 72
11
 73
7
 74
0
 42
0.0000001
 43
0.0000001
 44
0.0000000001
 40
0.0
 40
0.0
 40
0.0
 40
0.0
 40
0.2545447175
 40
0.5064050206
 40
0.7545163807
 40
1.0
 40
1.0
 40
1.0
 40
1.0
 10
533.1439200304
 20
97.4018323076
 30
0.0
 10
533.1439200304
 20
97.2719438743
 30
0.0
 10
533.19327541
 20
97.0108419038
 30
0.0
 10
533.4058939649
 20
96.6787015774
 30
0.0
 10
533.7253914045
 20
96.4545886626
 30
0.0
 10
533.980179219
 20
96.4018323076
 30
0.0
 10
534.1054439781
 20
96.4018323076
 30
0.0
  0
SPLINE
  5
3B9
100
AcDbEntity
  8
0
100
AcDbSpline
 62
7
  6
BYLAYER
 70
0
 71
3
 72
8
 73
4
 74
0
 42
0.0000001
 43
0.0000001
 44
0.0000000001
 40
0.0
 40
0.0
 40
0.0
 40
0.0
 40
1.0
 40
1.0
 40
1.0
 40
1.0
 10
581.0758180539
 20
99.0620010673
 30
0.0
 10
581.0849870681
 20
99.1095326385
 30
0.0
 10
581.1044635715
 20
99.1558713903
 30
0.0
 10
581.1311036932
 20
99.1962895174
 30
0.0
  0
SPLINE
  5
3BA
100
AcDbEntity
  8
0
100
AcDbSpline
 62
7
  6
BYLAYER
 70
0
 71
3
 72
11
 73
7
 74
0
 42
0.0000001
 43
0.0000001
 44
0.0000000001
 40
0.0
 40
0.0
 40
0.0
 40
0.0
 40
0.2454836193
 40
0.4935949794
 40
0.7454552824
 40
1.0
 40
1.0
 40
1.0
 40
1.0
 10
579.0112862223
 20
96.401832315
 30
0.0
 10
579.1365509813
 20
96.401832315
 30
0.0
 10
579.3913387959
 20
96.45458867
 30
0.0
 10
579.7108362354
 20
96.6787015848
 30
0.0
 10
579.9234547904
 20
97.0108419112
 30
0.0
 10
579.97281017
 20
97.2719438817
 30
0.0
 10
579.97281017
 20
97.401832315
 30
0.0
  0
SPLINE
  5
3BB
100
AcDbEntity
  8
0
100
AcDbSpline
 62
7
  6
BYLAYER
 70
0
 71
3
 72
9
 73
5
 74
0
 42
0.0000001
 43
0.0000001
 44
0.0000000001
 40
0.0
 40
0.0
 40
0.0
 40
0.0
 40
0.2700173495
 40
1.0
 40
1.0
 40
1.0
 40
1.0
 10
581.0120560454
 20
99.4018323076
 30
0.0
 10
581.0251992068
 20
99.3849178964
 30
0.0
 10
581.0719257045
 20
99.3208658399
 30
0.0
 10
581.1109208019
 20
99.2505874504
 30
0.0
 10
581.1311167636
 20
99.1963135215
 30
0.0
  0
SPLINE
  5
3BC
100
AcDbEntity
  8
0
100
AcDbSpline
 62
7
  6
BYLAYER
 70
0
 71
3
 72
11
 73
7
 74
0
 42
0.0000001
 43
0.0000001
 44
0.0000000001
 40
0.0
 40
0.0
 40
0.0
 40
0.0
 40
0.2544824573
 40
0.5063335206
 40
0.7544783683
 40
1.0
 40
1.0
 40
1.0
 40
1.0
 10
581.0120560454
 20
97.4018323148
 30
0.0
 10
581.0120560454
 20
97.2734100553
 30
0.0
 10
580.9638269267
 20
97.015288835
 30
0.0
 10
580.7558532742
 20
96.6856507253
 30
0.0
 10
580.4425915409
 20
96.4605520338
 30
0.0
 10
580.1916592848
 20
96.4043399196
 30
0.0
 10
580.0677812041
 20
96.4019956482
 30
0.0
  0
SPLINE
  5
3BD
100
AcDbEntity
  8
0
100
AcDbSpline
 62
7
  6
BYLAYER
 70
0
 71
3
 72
11
 73
7
 74
0
 42
0.0000001
 43
0.0000001
 44
0.0000000001
 40
0.0
 40
0.0
 40
0.0
 40
0.0
 40
0.2627542434
 40
0.5181758025
 40
0.7629660519
 40
1.0
 40
1.0
 40
1.0
 40
1.0
 10
576.0055786957
 20
97.401832312
 30
0.0
 10
576.0055786957
 20
97.2722529546
 30
0.0
 10
576.0504911977
 20
97.014328277
 30
0.0
 10
576.2457260042
 20
96.682809598
 30
0.0
 10
576.5425328416
 20
96.4561208945
 30
0.0
 10
576.7831106986
 20
96.401832312
 30
0.0
 10
576.9000058867
 20
96.401832312
 30
0.0
  0
SPLINE
  5
3BE
100
AcDbEntity
  8
0
100
AcDbSpline
 62
7
  6
BYLAYER
 70
0
 71
3
 72
9
 73
5
 74
0
 42
0.0000001
 43
0.0000001
 44
0.0000000001
 40
0.0
 40
0.0
 40
0.0
 40
0.0
 40
0.5075525905
 40
1.0
 40
1.0
 40
1.0
 40
1.0
 10
575.6111515047
 20
97.4018323121
 30
0.0
 10
575.6112488217
 20
97.2112124912
 30
0.0
 10
575.7157792503
 20
96.8273537156
 30
0.0
 10
576.0144480752
 20
96.5606047481
 30
0.0
 10
576.1827099588
 20
96.4838370907
 30
0.0
  0
SPLINE
  5
3BF
100
AcDbEntity
  8
0
100
AcDbSpline
 62
7
  6
BYLAYER
 70
0
 71
3
 72
8
 73
4
 74
0
 42
0.0000001
 43
0.0000001
 44
0.0000000001
 40
0.0
 40
0.0
 40
0.0
 40
0.0
 40
1.0
 40
1.0
 40
1.0
 40
1.0
 10
576.1827099588
 20
96.4838370907
 30
0.0
 10
576.2834150133
 20
96.4378915029
 30
0.0
 10
576.3944125648
 20
96.4100844201
 30
0.0
 10
576.5049040693
 20
96.403441192
 30
0.0
  0
SPLINE
  5
3C0
100
AcDbEntity
  8
0
100
AcDbSpline
 62
7
  6
BYLAYER
 70
0
 71
3
 72
9
 73
5
 74
0
 42
0.0000001
 43
0.0000001
 44
0.0000000001
 40
0.0
 40
0.0
 40
0.0
 40
0.0
 40
0.5060716446
 40
1.0
 40
1.0
 40
1.0
 40
1.0
 10
537.5055786957
 20
97.4018323024
 30
0.0
 10
537.5055057427
 20
97.2362701009
 30
0.0
 10
537.4269575992
 20
96.903982923
 30
0.0
 10
537.1998149738
 20
96.6471645424
 30
0.0
 10
537.0655493585
 20
96.5572539349
 30
0.0
  0
SPLINE
  5
3C1
100
AcDbEntity
  8
0
100
AcDbSpline
 62
7
  6
BYLAYER
 70
0
 71
3
 72
9
 73
5
 74
0
 42
0.0000001
 43
0.0000001
 44
0.0000000001
 40
0.0
 40
0.0
 40
0.0
 40
0.0
 40
0.2529329701
 40
1.0
 40
1.0
 40
1.0
 40
1.0
 10
537.0655493585
 20
96.5572539349
 30
0.0
 10
537.0318028752
 20
96.5346556933
 30
0.0
 10
536.8928083458
 20
96.4539031248
 30
0.0
 10
536.7321216953
 20
96.4107124138
 30
0.0
 10
536.6123821724
 20
96.403467504
 30
0.0
  0
SPLINE
  5
3C2
100
AcDbEntity
  8
0
100
AcDbSpline
 62
7
  6
BYLAYER
 70
0
 71
3
 72
11
 73
7
 74
0
 42
0.0000001
 43
0.0000001
 44
0.0000000001
 40
0.0
 40
0.0
 40
0.0
 40
0.0
 40
0.2370339481
 40
0.4818241975
 40
0.7372457566
 40
1.0
 40
1.0
 40
1.0
 40
1.0
 10
536.2167243137
 20
96.4018323024
 30
0.0
 10
536.3336195017
 20
96.4018323024
 30
0.0
 10
536.5741973588
 20
96.4561208849
 30
0.0
 10
536.8710041961
 20
96.6828095884
 30
0.0
 10
537.0662390026
 20
97.0143282674
 30
0.0
 10
537.1111515047
 20
97.272252945
 30
0.0
 10
537.1111515047
 20
97.4018323024
 30
0.0
  0
SPLINE
  5
3C3
100
AcDbEntity
  8
0
100
AcDbSpline
 62
7
  6
BYLAYER
 70
0
 71
3
 72
11
 73
7
 74
0
 42
0.0000001
 43
0.0000001
 44
0.0000000001
 40
0.0
 40
0.0
 40
0.0
 40
0.0
 40
0.2455218772
 40
0.4936669603
 40
0.7455179631
 40
1.0
 40
1.0
 40
1.0
 40
1.0
 10
533.0488318818
 20
96.4019978645
 30
0.0
 10
532.9249633767
 20
96.4043578363
 30
0.0
 10
532.6740574384
 20
96.460593061
 30
0.0
 10
532.3608379509
 20
96.6856980319
 30
0.0
 10
532.1528956741
 20
97.0153190172
 30
0.0
 10
532.104674155
 20
97.2734200027
 30
0.0
 10
532.104674155
 20
97.4018323073
 30
0.0
  0
SPLINE
  5
3C4
100
AcDbEntity
  8
0
100
AcDbSpline
 62
7
  6
BYLAYER
 70
0
 71
3
 72
9
 73
5
 74
0
 42
0.0000001
 43
0.0000001
 44
0.0000000001
 40
0.0
 40
0.0
 40
0.0
 40
0.0
 40
0.2435004606
 40
1.0
 40
1.0
 40
1.0
 40
1.0
 10
433.4206126736
 20
99.0249987311
 30
0.0
 10
433.4204016292
 20
99.0559974081
 30
0.0
 10
433.4144787311
 20
99.1832490466
 30
0.0
 10
433.389857272
 20
99.3093667414
 30
0.0
 10
433.3629251569
 20
99.4018323076
 30
0.0
  0
SPLINE
  5
3C5
100
AcDbEntity
  8
0
100
AcDbSpline
 62
7
  6
BYLAYER
 70
0
 71
3
 72
9
 73
5
 74
0
 42
0.0000001
 43
0.0000001
 44
0.0000000001
 40
0.0
 40
0.0
 40
0.0
 40
0.0
 40
0.279285131
 40
1.0
 40
1.0
 40
1.0
 40
1.0
 10
433.4819726733
 20
99.1962893605
 30
0.0
 10
433.4869818108
 20
99.1814078481
 30
0.0
 10
433.5025771605
 20
99.1276382238
 30
0.0
 10
433.5055180464
 20
99.0682712548
 30
0.0
 10
433.4941503663
 20
99.0293785502
 30
0.0
  0
SPLINE
  5
3C6
100
AcDbEntity
  8
0
100
AcDbSpline
 62
7
  6
BYLAYER
 70
0
 71
3
 72
8
 73
4
 74
0
 42
0.0000001
 43
0.0000001
 44
0.0000000001
 40
0.0
 40
0.0
 40
0.0
 40
0.0
 40
1.0
 40
1.0
 40
1.0
 40
1.0
 10
433.4941503663
 20
99.0293785502
 30
0.0
 10
433.4897410409
 20
99.0142927467
 30
0.0
 10
433.4832570171
 20
98.9996388765
 30
0.0
 10
433.4748536141
 20
98.986357068
 30
0.0
  0
SPLINE
  5
3C7
100
AcDbEntity
  8
0
100
AcDbSpline
 62
7
  6
BYLAYER
 70
0
 71
3
 72
8
 73
4
 74
0
 42
0.0000001
 43
0.0000001
 44
0.0000000001
 40
0.0
 40
0.0
 40
0.0
 40
0.0
 40
1.0
 40
1.0
 40
1.0
 40
1.0
 10
433.4714206755
 20
98.9811559441
 30
0.0
 10
433.4583795137
 20
98.9622039756
 30
0.0
 10
433.4407998022
 20
98.9458816626
 30
0.0
 10
433.4212367301
 20
98.9337764892
 30
0.0
  0
SPLINE
  5
3C8
100
AcDbEntity
  8
0
100
AcDbSpline
 62
7
  6
BYLAYER
 70
0
 71
3
 72
8
 73
4
 74
0
 42
0.0000001
 43
0.0000001
 44
0.0000000001
 40
0.0
 40
0.0
 40
0.0
 40
0.0
 40
1.0
 40
1.0
 40
1.0
 40
1.0
 10
433.5244736881
 20
99.4018323076
 30
0.0
 10
433.5244736881
 20
99.3318687234
 30
0.0
 10
433.5098052637
 20
99.2604788354
 30
0.0
 10
433.4819728074
 20
99.1962896035
 30
0.0
  0
SPLINE
  5
3C9
100
AcDbEntity
  8
0
100
AcDbSpline
 62
7
  6
BYLAYER
 70
0
 71
3
 72
9
 73
5
 74
0
 42
0.0000001
 43
0.0000001
 44
0.0000000001
 40
0.0
 40
0.0
 40
0.0
 40
0.0
 40
0.2661599696
 40
1.0
 40
1.0
 40
1.0
 40
1.0
 10
384.3977871134
 20
98.9334341802
 30
0.0
 10
384.3885624309
 20
98.9390968257
 30
0.0
 10
384.3557098801
 20
98.9633068186
 30
0.0
 10
384.3329155634
 20
99.0002666863
 30
0.0
 10
384.3244622358
 20
99.028887874
 30
0.0
  0
SPLINE
  5
3CA
100
AcDbEntity
  8
0
100
AcDbSpline
 62
7
  6
BYLAYER
 70
0
 71
3
 72
9
 73
5
 74
0
 42
0.0000001
 43
0.0000001
 44
0.0000000001
 40
0.0
 40
0.0
 40
0.0
 40
0.0
 40
0.2282933278
 40
1.0
 40
1.0
 40
1.0
 40
1.0
 10
384.3244622358
 20
99.028887874
 30
0.0
 10
384.3208090665
 20
99.0412567363
 30
0.0
 10
384.3106397205
 20
99.0972537962
 30
0.0
 10
384.3225879176
 20
99.1549709083
 30
0.0
 10
384.3364957585
 20
99.1962893451
 30
0.0
  0
SPLINE
  5
3CB
100
AcDbEntity
  8
0
100
AcDbSpline
 62
7
  6
BYLAYER
 70
0
 71
3
 72
9
 73
5
 74
0
 42
0.0000001
 43
0.0000001
 44
0.0000000001
 40
0.0
 40
0.0
 40
0.0
 40
0.0
 40
0.2570781281
 40
1.0
 40
1.0
 40
1.0
 40
1.0
 10
384.4555432665
 20
99.4018323076
 30
0.0
 10
384.4463929021
 20
99.3704151475
 30
0.0
 10
384.4146292596
 20
99.2471618337
 30
0.0
 10
384.3985016879
 20
99.119581608
 30
0.0
 10
384.397855893
 20
99.0250198798
 30
0.0
  0
SPLINE
  5
3CC
100
AcDbEntity
  8
0
100
AcDbSpline
 62
7
  6
BYLAYER
 70
0
 71
3
 72
8
 73
4
 74
0
 42
0.0000001
 43
0.0000001
 44
0.0000000001
 40
0.0
 40
0.0
 40
0.0
 40
0.0
 40
1.0
 40
1.0
 40
1.0
 40
1.0
 10
384.336495616
 20
99.1962896037
 30
0.0
 10
384.3698198153
 20
99.1457304606
 30
0.0
 10
384.3918002762
 20
99.0853070157
 30
0.0
 10
384.3969108212
 20
99.0249695354
 30
0.0
  0
SPLINE
  5
3CD
100
AcDbEntity
  8
0
100
AcDbSpline
 62
7
  6
BYLAYER
 70
0
 71
3
 72
8
 73
4
 74
0
 42
0.0000001
 43
0.0000001
 44
0.0000000001
 40
0.0
 40
0.0
 40
0.0
 40
0.0
 40
1.0
 40
1.0
 40
1.0
 40
1.0
 10
384.336495616
 20
99.1962896035
 30
0.0
 10
384.3086631596
 20
99.2604788354
 30
0.0
 10
384.2939947353
 20
99.3318687234
 30
0.0
 10
384.2939947353
 20
99.4018323076
 30
0.0
  0
SPLINE
  5
3CE
100
AcDbEntity
  8
0
100
AcDbSpline
 62
7
  6
BYLAYER
 70
0
 71
3
 72
9
 73
5
 74
0
 42
0.0000001
 43
0.0000001
 44
0.0000000001
 40
0.0
 40
0.0
 40
0.0
 40
0.0
 40
0.2307078237
 40
1.0
 40
1.0
 40
1.0
 40
1.0
 10
384.3364821053
 20
99.1963143322
 30
0.0
 10
384.3428666167
 20
99.213471641
 30
0.0
 10
384.3741982556
 20
99.2864797645
 30
0.0
 10
384.4180899188
 20
99.3536291028
 30
0.0
 10
384.4555432665
 20
99.4018323076
 30
0.0
  0
SPLINE
  5
3CF
100
AcDbEntity
  8
0
100
AcDbSpline
 62
7
  6
BYLAYER
 70
0
 71
3
 72
11
 73
7
 74
0
 42
0.0000001
 43
0.0000001
 44
0.0000000001
 40
0.0
 40
0.0
 40
0.0
 40
0.0
 40
0.2545447175
 40
0.5064050206
 40
0.7545163807
 40
1.0
 40
1.0
 40
1.0
 40
1.0
 10
385.4947891419
 20
97.4018323076
 30
0.0
 10
385.4947891419
 20
97.2719438743
 30
0.0
 10
385.5441445215
 20
97.0108419038
 30
0.0
 10
385.7567630764
 20
96.6787015774
 30
0.0
 10
386.0762605159
 20
96.4545886626
 30
0.0
 10
386.3310483305
 20
96.4018323076
 30
0.0
 10
386.4563130895
 20
96.4018323076
 30
0.0
  0
SPLINE
  5
3D0
100
AcDbEntity
  8
0
100
AcDbSpline
 62
7
  6
BYLAYER
 70
0
 71
3
 72
8
 73
4
 74
0
 42
0.0000001
 43
0.0000001
 44
0.0000000001
 40
0.0
 40
0.0
 40
0.0
 40
0.0
 40
1.0
 40
1.0
 40
1.0
 40
1.0
 10
433.4266871654
 20
99.0620010674
 30
0.0
 10
433.4358561796
 20
99.1095326386
 30
0.0
 10
433.455332683
 20
99.1558713903
 30
0.0
 10
433.4819728047
 20
99.1962895174
 30
0.0
  0
SPLINE
  5
3D1
100
AcDbEntity
  8
0
100
AcDbSpline
 62
7
  6
BYLAYER
 70
0
 71
3
 72
11
 73
7
 74
0
 42
0.0000001
 43
0.0000001
 44
0.0000000001
 40
0.0
 40
0.0
 40
0.0
 40
0.0
 40
0.2454836193
 40
0.4935949794
 40
0.7454552824
 40
1.0
 40
1.0
 40
1.0
 40
1.0
 10
431.3621553338
 20
96.4018323182
 30
0.0
 10
431.4874200928
 20
96.4018323182
 30
0.0
 10
431.7422079074
 20
96.4545886732
 30
0.0
 10
432.0617053469
 20
96.678701588
 30
0.0
 10
432.2743239018
 20
97.0108419144
 30
0.0
 10
432.3236792814
 20
97.2719438849
 30
0.0
 10
432.3236792814
 20
97.4018323182
 30
0.0
  0
SPLINE
  5
3D2
100
AcDbEntity
  8
0
100
AcDbSpline
 62
7
  6
BYLAYER
 70
0
 71
3
 72
9
 73
5
 74
0
 42
0.0000001
 43
0.0000001
 44
0.0000000001
 40
0.0
 40
0.0
 40
0.0
 40
0.0
 40
0.2700173495
 40
1.0
 40
1.0
 40
1.0
 40
1.0
 10
433.3629251569
 20
99.4018323076
 30
0.0
 10
433.3760683182
 20
99.3849178964
 30
0.0
 10
433.4227948159
 20
99.3208658399
 30
0.0
 10
433.4617899134
 20
99.2505874504
 30
0.0
 10
433.4819858751
 20
99.1963135215
 30
0.0
  0
SPLINE
  5
3D3
100
AcDbEntity
  8
0
100
AcDbSpline
 62
7
  6
BYLAYER
 70
0
 71
3
 72
11
 73
7
 74
0
 42
0.0000001
 43
0.0000001
 44
0.0000000001
 40
0.0
 40
0.0
 40
0.0
 40
0.0
 40
0.2544824573
 40
0.5063335206
 40
0.7544783683
 40
1.0
 40
1.0
 40
1.0
 40
1.0
 10
433.3629251569
 20
97.4018323179
 30
0.0
 10
433.3629251569
 20
97.2734100583
 30
0.0
 10
433.3146960381
 20
97.0152888378
 30
0.0
 10
433.1067223853
 20
96.685650728
 30
0.0
 10
432.7934606517
 20
96.4605520365
 30
0.0
 10
432.5425283954
 20
96.4043399225
 30
0.0
 10
432.4186503146
 20
96.4019956512
 30
0.0
  0
SPLINE
  5
3D4
100
AcDbEntity
  8
0
100
AcDbSpline
 62
7
  6
BYLAYER
 70
0
 71
3
 72
11
 73
7
 74
0
 42
0.0000001
 43
0.0000001
 44
0.0000000001
 40
0.0
 40
0.0
 40
0.0
 40
0.0
 40
0.2627542434
 40
0.5181758025
 40
0.7629660519
 40
1.0
 40
1.0
 40
1.0
 40
1.0
 10
428.3564478072
 20
97.4018323096
 30
0.0
 10
428.3564478072
 20
97.2722529521
 30
0.0
 10
428.4013603092
 20
97.0143282745
 30
0.0
 10
428.5965951157
 20
96.6828095955
 30
0.0
 10
428.8934019531
 20
96.456120892
 30
0.0
 10
429.1339798101
 20
96.4018323096
 30
0.0
 10
429.2508749982
 20
96.4018323096
 30
0.0
  0
SPLINE
  5
3D5
100
AcDbEntity
  8
0
100
AcDbSpline
 62
7
  6
BYLAYER
 70
0
 71
3
 72
9
 73
5
 74
0
 42
0.0000001
 43
0.0000001
 44
0.0000000001
 40
0.0
 40
0.0
 40
0.0
 40
0.0
 40
0.5075525698
 40
1.0
 40
1.0
 40
1.0
 40
1.0
 10
427.9620206162
 20
97.4018323096
 30
0.0
 10
427.962117933
 20
97.211212855
 30
0.0
 10
428.066647951
 20
96.8273548407
 30
0.0
 10
428.3653156665
 20
96.5606059275
 30
0.0
 10
428.5335770563
 20
96.483838007
 30
0.0
  0
SPLINE
  5
3D6
100
AcDbEntity
  8
0
100
AcDbSpline
 62
7
  6
BYLAYER
 70
0
 71
3
 72
8
 73
4
 74
0
 42
0.0000001
 43
0.0000001
 44
0.0000000001
 40
0.0
 40
0.0
 40
0.0
 40
0.0
 40
1.0
 40
1.0
 40
1.0
 40
1.0
 10
428.5335770563
 20
96.483838007
 30
0.0
 10
428.6342824227
 20
96.4378919848
 30
0.0
 10
428.7452804225
 20
96.4100845918
 30
0.0
 10
428.8557723842
 20
96.4034412374
 30
0.0
  0
SPLINE
  5
3D7
100
AcDbEntity
  8
0
100
AcDbSpline
 62
7
  6
BYLAYER
 70
0
 71
3
 72
9
 73
5
 74
0
 42
0.0000001
 43
0.0000001
 44
0.0000000001
 40
0.0
 40
0.0
 40
0.0
 40
0.0
 40
0.5060716446
 40
1.0
 40
1.0
 40
1.0
 40
1.0
 10
389.8564478072
 20
97.4018323013
 30
0.0
 10
389.8563748541
 20
97.2362700999
 30
0.0
 10
389.7778267108
 20
96.9039829225
 30
0.0
 10
389.5506840862
 20
96.6471645421
 30
0.0
 10
389.4164184711
 20
96.5572539345
 30
0.0
  0
SPLINE
  5
3D8
100
AcDbEntity
  8
0
100
AcDbSpline
 62
7
  6
BYLAYER
 70
0
 71
3
 72
9
 73
5
 74
0
 42
0.0000001
 43
0.0000001
 44
0.0000000001
 40
0.0
 40
0.0
 40
0.0
 40
0.0
 40
0.2529329687
 40
1.0
 40
1.0
 40
1.0
 40
1.0
 10
389.4164184711
 20
96.5572539345
 30
0.0
 10
389.3826720027
 20
96.5346557028
 30
0.0
 10
389.2436775364
 20
96.4539031657
 30
0.0
 10
389.0829909673
 20
96.410712451
 30
0.0
 10
388.9632514981
 20
96.4034675158
 30
0.0
  0
SPLINE
  5
3D9
100
AcDbEntity
  8
0
100
AcDbSpline
 62
7
  6
BYLAYER
 70
0
 71
3
 72
11
 73
7
 74
0
 42
0.0000001
 43
0.0000001
 44
0.0000000001
 40
0.0
 40
0.0
 40
0.0
 40
0.0
 40
0.2370339481
 40
0.4818241975
 40
0.7372457567
 40
1.0
 40
1.0
 40
1.0
 40
1.0
 10
388.5675934252
 20
96.4018323012
 30
0.0
 10
388.6844886132
 20
96.4018323012
 30
0.0
 10
388.9250664703
 20
96.4561208837
 30
0.0
 10
389.2218733076
 20
96.6828095872
 30
0.0
 10
389.4171081141
 20
97.0143282662
 30
0.0
 10
389.4620206162
 20
97.2722529438
 30
0.0
 10
389.4620206162
 20
97.4018323012
 30
0.0
  0
SPLINE
  5
3DA
100
AcDbEntity
  8
0
100
AcDbSpline
 62
7
  6
BYLAYER
 70
0
 71
3
 72
11
 73
7
 74
0
 42
0.0000001
 43
0.0000001
 44
0.0000000001
 40
0.0
 40
0.0
 40
0.0
 40
0.0
 40
0.2455218772
 40
0.4936669603
 40
0.7455179631
 40
1.0
 40
1.0
 40
1.0
 40
1.0
 10
385.3997009934
 20
96.4019978646
 30
0.0
 10
385.2758324882
 20
96.4043578364
 30
0.0
 10
385.02492655
 20
96.4605930611
 30
0.0
 10
384.7117070624
 20
96.685698032
 30
0.0
 10
384.5037647856
 20
97.0153190173
 30
0.0
 10
384.4555432665
 20
97.2734200029
 30
0.0
 10
384.4555432665
 20
97.4018323075
 30
0.0
  0
SPLINE
  5
3DB
100
AcDbEntity
  8
0
100
AcDbSpline
 62
7
  6
BYLAYER
 70
0
 71
3
 72
9
 73
5
 74
0
 42
0.0000001
 43
0.0000001
 44
0.0000000001
 40
0.0
 40
0.0
 40
0.0
 40
0.0
 40
0.279285131
 40
1.0
 40
1.0
 40
1.0
 40
1.0
 10
531.9863544495
 20
1227.1074853931
 30
0.0
 10
531.981345312
 20
1227.1223669055
 30
0.0
 10
531.9657499624
 20
1227.1761365299
 30
0.0
 10
531.9628090765
 20
1227.2355034988
 30
0.0
 10
531.9741767566
 20
1227.2743962034
 30
0.0
  0
SPLINE
  5
3DC
100
AcDbEntity
  8
0
100
AcDbSpline
 62
7
  6
BYLAYER
 70
0
 71
3
 72
8
 73
4
 74
0
 42
0.0000001
 43
0.0000001
 44
0.0000000001
 40
0.0
 40
0.0
 40
0.0
 40
0.0
 40
1.0
 40
1.0
 40
1.0
 40
1.0
 10
531.9741767566
 20
1227.2743962034
 30
0.0
 10
531.978586082
 20
1227.289482007
 30
0.0
 10
531.9850701058
 20
1227.3041358771
 30
0.0
 10
531.9934735088
 20
1227.3174176856
 30
0.0
  0
SPLINE
  5
3DD
100
AcDbEntity
  8
0
100
AcDbSpline
 62
7
  6
BYLAYER
 70
0
 71
3
 72
8
 73
4
 74
0
 42
0.0000001
 43
0.0000001
 44
0.0000000001
 40
0.0
 40
0.0
 40
0.0
 40
0.0
 40
1.0
 40
1.0
 40
1.0
 40
1.0
 10
531.9969064473
 20
1227.3226188095
 30
0.0
 10
532.0099476092
 20
1227.341570778
 30
0.0
 10
532.0275273207
 20
1227.357893091
 30
0.0
 10
532.0470903928
 20
1227.3699982644
 30
0.0
  0
SPLINE
  5
3DE
100
AcDbEntity
  8
0
100
AcDbSpline
 62
7
  6
BYLAYER
 70
0
 71
3
 72
8
 73
4
 74
0
 42
0.0000001
 43
0.0000001
 44
0.0000000001
 40
0.0
 40
0.0
 40
0.0
 40
0.0
 40
1.0
 40
1.0
 40
1.0
 40
1.0
 10
531.9438534348
 20
1226.901942446
 30
0.0
 10
531.9438534348
 20
1226.9719060302
 30
0.0
 10
531.9585218591
 20
1227.0432959182
 30
0.0
 10
531.9863543155
 20
1227.1074851501
 30
0.0
  0
SPLINE
  5
3DF
100
AcDbEntity
  8
0
100
AcDbSpline
 62
7
  6
BYLAYER
 70
0
 71
3
 72
8
 73
4
 74
0
 42
0.0000001
 43
0.0000001
 44
0.0000000001
 40
0.0
 40
0.0
 40
0.0
 40
0.0
 40
1.0
 40
1.0
 40
1.0
 40
1.0
 10
576.5050832361
 20
1229.9003109924
 30
0.0
 10
576.3943105244
 20
1229.893622121
 30
0.0
 10
576.2830560706
 20
1229.865542718
 30
0.0
 10
576.1821559069
 20
1229.8193421593
 30
0.0
  0
SPLINE
  5
3E0
100
AcDbEntity
  8
0
100
AcDbSpline
 62
7
  6
BYLAYER
 70
0
 71
3
 72
9
 73
5
 74
0
 42
0.0000001
 43
0.0000001
 44
0.0000000001
 40
0.0
 40
0.0
 40
0.0
 40
0.0
 40
0.4938716827
 40
1.0
 40
1.0
 40
1.0
 40
1.0
 10
576.1821559069
 20
1229.8193421593
 30
0.0
 10
576.0137164516
 20
1229.7422164475
 30
0.0
 10
575.7159330865
 20
1229.4750828933
 30
0.0
 10
575.6118951428
 20
1229.0917972495
 30
0.0
 10
575.6118956934
 20
1228.9019424515
 30
0.0
  0
SPLINE
  5
3E1
100
AcDbEntity
  8
0
100
AcDbSpline
 62
7
  6
BYLAYER
 70
0
 71
3
 72
9
 73
5
 74
0
 42
0.0000001
 43
0.0000001
 44
0.0000000001
 40
0.0
 40
0.0
 40
0.0
 40
0.0
 40
0.257078501
 40
1.0
 40
1.0
 40
1.0
 40
1.0
 10
581.0127838564
 20
1226.901942446
 30
0.0
 10
581.0219348612
 20
1226.9333618051
 30
0.0
 10
581.0537004093
 20
1227.0566236308
 30
0.0
 10
581.0698276972
 20
1227.1842129987
 30
0.0
 10
581.0704714092
 20
1227.2787811754
 30
0.0
  0
SPLINE
  5
3E2
100
AcDbEntity
  8
0
100
AcDbSpline
 62
7
  6
BYLAYER
 70
0
 71
3
 72
8
 73
4
 74
0
 42
0.0000001
 43
0.0000001
 44
0.0000000001
 40
0.0
 40
0.0
 40
0.0
 40
0.0
 40
1.0
 40
1.0
 40
1.0
 40
1.0
 10
581.1318315068
 20
1227.1074851499
 30
0.0
 10
581.0985027336
 20
1227.1580512783
 30
0.0
 10
581.0765210737
 20
1227.2184848425
 30
0.0
 10
581.0714141087
 20
1227.2788310053
 30
0.0
  0
SPLINE
  5
3E3
100
AcDbEntity
  8
0
100
AcDbSpline
 62
7
  6
BYLAYER
 70
0
 71
3
 72
8
 73
4
 74
0
 42
0.0000001
 43
0.0000001
 44
0.0000000001
 40
0.0
 40
0.0
 40
0.0
 40
0.0
 40
1.0
 40
1.0
 40
1.0
 40
1.0
 10
581.1318315069
 20
1227.1074851501
 30
0.0
 10
581.1596639633
 20
1227.0432959182
 30
0.0
 10
581.1743323876
 20
1226.9719060302
 30
0.0
 10
581.1743323876
 20
1226.901942446
 30
0.0
  0
SPLINE
  5
3E4
100
AcDbEntity
  8
0
100
AcDbSpline
 62
7
  6
BYLAYER
 70
0
 71
3
 72
9
 73
5
 74
0
 42
0.0000001
 43
0.0000001
 44
0.0000000001
 40
0.0
 40
0.0
 40
0.0
 40
0.0
 40
0.2307080163
 40
1.0
 40
1.0
 40
1.0
 40
1.0
 10
581.1318450168
 20
1227.1074604229
 30
0.0
 10
581.1254605001
 20
1227.0903030996
 30
0.0
 10
581.0941288594
 20
1227.0172949763
 30
0.0
 10
581.0502371948
 20
1226.950145639
 30
0.0
 10
581.0127838564
 20
1226.901942446
 30
0.0
  0
SPLINE
  5
3E5
100
AcDbEntity
  8
0
100
AcDbSpline
 62
7
  6
BYLAYER
 70
0
 71
3
 72
11
 73
7
 74
0
 42
0.0000001
 43
0.0000001
 44
0.0000000001
 40
0.0
 40
0.0
 40
0.0
 40
0.0
 40
0.2545447175
 40
0.5064050206
 40
0.7545163807
 40
1.0
 40
1.0
 40
1.0
 40
1.0
 10
579.9735379809
 20
1228.901942446
 30
0.0
 10
579.9735379809
 20
1229.0318308793
 30
0.0
 10
579.9241826013
 20
1229.2929328498
 30
0.0
 10
579.7115640464
 20
1229.6250731762
 30
0.0
 10
579.3920666069
 20
1229.849186091
 30
0.0
 10
579.1372787923
 20
1229.901942446
 30
0.0
 10
579.0120140333
 20
1229.901942446
 30
0.0
  0
SPLINE
  5
3E6
100
AcDbEntity
  8
0
100
AcDbSpline
 62
7
  6
BYLAYER
 70
0
 71
3
 72
11
 73
7
 74
0
 42
0.0000001
 43
0.0000001
 44
0.0000000001
 40
0.0
 40
0.0
 40
0.0
 40
0.0
 40
0.2454836193
 40
0.4935949794
 40
0.7454552825
 40
1.0
 40
1.0
 40
1.0
 40
1.0
 10
534.1061717891
 20
1229.901942446
 30
0.0
 10
533.9809070301
 20
1229.901942446
 30
0.0
 10
533.7261192155
 20
1229.849186091
 30
0.0
 10
533.406621776
 20
1229.6250731762
 30
0.0
 10
533.194003221
 20
1229.2929328498
 30
0.0
 10
533.1446478414
 20
1229.0318308793
 30
0.0
 10
533.1446478414
 20
1228.901942446
 30
0.0
  0
SPLINE
  5
3E7
100
AcDbEntity
  8
0
100
AcDbSpline
 62
7
  6
BYLAYER
 70
0
 71
3
 72
9
 73
5
 74
0
 42
0.0000001
 43
0.0000001
 44
0.0000000001
 40
0.0
 40
0.0
 40
0.0
 40
0.0
 40
0.2700173495
 40
1.0
 40
1.0
 40
1.0
 40
1.0
 10
532.105401966
 20
1226.901942446
 30
0.0
 10
532.0922588046
 20
1226.9188568572
 30
0.0
 10
532.0455323069
 20
1226.9829089137
 30
0.0
 10
532.0065372095
 20
1227.0531873032
 30
0.0
 10
531.9863412478
 20
1227.1074612322
 30
0.0
  0
SPLINE
  5
3E8
100
AcDbEntity
  8
0
100
AcDbSpline
 62
7
  6
BYLAYER
 70
0
 71
3
 72
9
 73
5
 74
0
 42
0.0000001
 43
0.0000001
 44
0.0000000001
 40
0.0
 40
0.0
 40
0.0
 40
0.0
 40
0.2435004606
 40
1.0
 40
1.0
 40
1.0
 40
1.0
 10
532.0477144493
 20
1227.2787760225
 30
0.0
 10
532.0479254936
 20
1227.2477773456
 30
0.0
 10
532.0538483918
 20
1227.120525707
 30
0.0
 10
532.0784698509
 20
1226.9944080122
 30
0.0
 10
532.105401966
 20
1226.901942446
 30
0.0
  0
SPLINE
  5
3E9
100
AcDbEntity
  8
0
100
AcDbSpline
 62
7
  6
BYLAYER
 70
0
 71
3
 72
11
 73
7
 74
0
 42
0.0000001
 43
0.0000001
 44
0.0000000001
 40
0.0
 40
0.0
 40
0.0
 40
0.0
 40
0.2544824524
 40
0.5063335151
 40
0.7544783655
 40
1.0
 40
1.0
 40
1.0
 40
1.0
 10
532.105401966
 20
1228.901942446
 30
0.0
 10
532.105401966
 20
1229.030364591
 30
0.0
 10
532.1536309973
 20
1229.2884855786
 30
0.0
 10
532.361604289
 20
1229.6181234915
 30
0.0
 10
532.6748655365
 20
1229.8432222552
 30
0.0
 10
532.92579749
 20
1229.8994346352
 30
0.0
 10
533.0496754606
 20
1229.9017790872
 30
0.0
  0
SPLINE
  5
3EA
100
AcDbEntity
  8
0
100
AcDbSpline
 62
7
  6
BYLAYER
 70
0
 71
3
 72
11
 73
7
 74
0
 42
0.0000001
 43
0.0000001
 44
0.0000000001
 40
0.0
 40
0.0
 40
0.0
 40
0.0
 40
0.2627542434
 40
0.5181758025
 40
0.7629660519
 40
1.0
 40
1.0
 40
1.0
 40
1.0
 10
537.1118793157
 20
1228.9019424433
 30
0.0
 10
537.1118793157
 20
1229.0315218008
 30
0.0
 10
537.0669668137
 20
1229.2894464784
 30
0.0
 10
536.8717320072
 20
1229.6209651574
 30
0.0
 10
536.5749251698
 20
1229.8476538609
 30
0.0
 10
536.3343473128
 20
1229.9019424433
 30
0.0
 10
536.2174521247
 20
1229.9019424433
 30
0.0
  0
SPLINE
  5
3EB
100
AcDbEntity
  8
0
100
AcDbSpline
 62
7
  6
BYLAYER
 70
0
 71
3
 72
9
 73
5
 74
0
 42
0.0000001
 43
0.0000001
 44
0.0000000001
 40
0.0
 40
0.0
 40
0.0
 40
0.0
 40
0.5075525759
 40
1.0
 40
1.0
 40
1.0
 40
1.0
 10
537.5063065067
 20
1228.9019424433
 30
0.0
 10
537.5062091898
 20
1229.0925620068
 30
0.0
 10
537.4016790497
 20
1229.4764202475
 30
0.0
 10
537.1030110042
 20
1229.7431691769
 30
0.0
 10
536.9347494675
 20
1229.8199370191
 30
0.0
  0
SPLINE
  5
3EC
100
AcDbEntity
  8
0
100
AcDbSpline
 62
7
  6
BYLAYER
 70
0
 71
3
 72
8
 73
4
 74
0
 42
0.0000001
 43
0.0000001
 44
0.0000000001
 40
0.0
 40
0.0
 40
0.0
 40
0.0
 40
1.0
 40
1.0
 40
1.0
 40
1.0
 10
536.9347494675
 20
1229.8199370191
 30
0.0
 10
536.8340441939
 20
1229.8658829121
 30
0.0
 10
536.7230463274
 20
1229.8936902129
 30
0.0
 10
536.6125545017
 20
1229.9003335297
 30
0.0
  0
SPLINE
  5
3ED
100
AcDbEntity
  8
0
100
AcDbSpline
 62
7
  6
BYLAYER
 70
0
 71
3
 72
11
 73
7
 74
0
 42
0.0000001
 43
0.0000001
 44
0.0000000001
 40
0.0
 40
0.0
 40
0.0
 40
0.0
 40
0.2370339481
 40
0.4818241975
 40
0.7372457566
 40
1.0
 40
1.0
 40
1.0
 40
1.0
 10
576.9007336977
 20
1229.9019424515
 30
0.0
 10
576.7838385097
 20
1229.9019424515
 30
0.0
 10
576.5432606526
 20
1229.847653869
 30
0.0
 10
576.2464538153
 20
1229.6209651655
 30
0.0
 10
576.0512190088
 20
1229.2894464865
 30
0.0
 10
576.0063065067
 20
1229.0315218089
 30
0.0
 10
576.0063065067
 20
1228.9019424515
 30
0.0
  0
SPLINE
  5
3EE
100
AcDbEntity
  8
0
100
AcDbSpline
 62
7
  6
BYLAYER
 70
0
 71
3
 72
11
 73
7
 74
0
 42
0.0000001
 43
0.0000001
 44
0.0000000001
 40
0.0
 40
0.0
 40
0.0
 40
0.0
 40
0.2544770271
 40
0.5063294823
 40
0.7544760457
 40
1.0
 40
1.0
 40
1.0
 40
1.0
 10
581.0127838536
 20
1228.901942446
 30
0.0
 10
581.0127835893
 20
1229.0303522613
 30
0.0
 10
580.9645618354
 20
1229.2884510976
 30
0.0
 10
580.7566215147
 20
1229.6180722503
 30
0.0
 10
580.4434000905
 20
1229.8431792066
 30
0.0
 10
580.1924926941
 20
1229.8994160002
 30
0.0
 10
580.0686231187
 20
1229.9017767785
 30
0.0
  0
SPLINE
  5
3EF
100
AcDbEntity
  8
0
100
AcDbSpline
 62
7
  6
BYLAYER
 70
0
 71
3
 72
9
 73
5
 74
0
 42
0.0000001
 43
0.0000001
 44
0.0000000001
 40
0.0
 40
0.0
 40
0.0
 40
0.0
 40
0.2661599696
 40
1.0
 40
1.0
 40
1.0
 40
1.0
 10
581.0705400095
 20
1227.3703405734
 30
0.0
 10
581.079764692
 20
1227.3646779279
 30
0.0
 10
581.1126172428
 20
1227.340467935
 30
0.0
 10
581.1354115595
 20
1227.3035080673
 30
0.0
 10
581.1438648871
 20
1227.2748868796
 30
0.0
  0
SPLINE
  5
3F0
100
AcDbEntity
  8
0
100
AcDbSpline
 62
7
  6
BYLAYER
 70
0
 71
3
 72
9
 73
5
 74
0
 42
0.0000001
 43
0.0000001
 44
0.0000000001
 40
0.0
 40
0.0
 40
0.0
 40
0.0
 40
0.2282933278
 40
1.0
 40
1.0
 40
1.0
 40
1.0
 10
581.1438648871
 20
1227.2748868796
 30
0.0
 10
581.1475180564
 20
1227.2625180173
 30
0.0
 10
581.1576874024
 20
1227.2065209574
 30
0.0
 10
581.1457392053
 20
1227.1488038453
 30
0.0
 10
581.1318313644
 20
1227.1074854085
 30
0.0
  0
SPLINE
  5
3F1
100
AcDbEntity
  8
0
100
AcDbSpline
 62
7
  6
BYLAYER
 70
0
 71
3
 72
8
 73
4
 74
0
 42
0.0000001
 43
0.0000001
 44
0.0000000001
 40
0.0
 40
0.0
 40
0.0
 40
0.0
 40
1.0
 40
1.0
 40
1.0
 40
1.0
 10
532.0416399575
 20
1227.2417736862
 30
0.0
 10
532.0324709432
 20
1227.1942421151
 30
0.0
 10
532.0129944398
 20
1227.1479033633
 30
0.0
 10
531.9863543182
 20
1227.1074852362
 30
0.0
  0
SPLINE
  5
3F2
100
AcDbEntity
  8
0
100
AcDbSpline
 62
7
  6
BYLAYER
 70
0
 71
3
 72
9
 73
5
 74
0
 42
0.0000001
 43
0.0000001
 44
0.0000000001
 40
0.0
 40
0.0
 40
0.0
 40
0.0
 40
0.279285131
 40
1.0
 40
1.0
 40
1.0
 40
1.0
 10
384.337223561
 20
1227.1074853931
 30
0.0
 10
384.3322144235
 20
1227.1223669055
 30
0.0
 10
384.3166190738
 20
1227.1761365299
 30
0.0
 10
384.3136781879
 20
1227.2355034988
 30
0.0
 10
384.3250458681
 20
1227.2743962034
 30
0.0
  0
SPLINE
  5
3F3
100
AcDbEntity
  8
0
100
AcDbSpline
 62
7
  6
BYLAYER
 70
0
 71
3
 72
8
 73
4
 74
0
 42
0.0000001
 43
0.0000001
 44
0.0000000001
 40
0.0
 40
0.0
 40
0.0
 40
0.0
 40
1.0
 40
1.0
 40
1.0
 40
1.0
 10
384.3250458681
 20
1227.2743962034
 30
0.0
 10
384.3294551935
 20
1227.289482007
 30
0.0
 10
384.3359392173
 20
1227.3041358771
 30
0.0
 10
384.3443426203
 20
1227.3174176857
 30
0.0
  0
SPLINE
  5
3F4
100
AcDbEntity
  8
0
100
AcDbSpline
 62
7
  6
BYLAYER
 70
0
 71
3
 72
8
 73
4
 74
0
 42
0.0000001
 43
0.0000001
 44
0.0000000001
 40
0.0
 40
0.0
 40
0.0
 40
0.0
 40
1.0
 40
1.0
 40
1.0
 40
1.0
 10
384.3477755588
 20
1227.3226188095
 30
0.0
 10
384.3608167207
 20
1227.341570778
 30
0.0
 10
384.3783964321
 20
1227.357893091
 30
0.0
 10
384.3979595043
 20
1227.3699982644
 30
0.0
  0
SPLINE
  5
3F5
100
AcDbEntity
  8
0
100
AcDbSpline
 62
7
  6
BYLAYER
 70
0
 71
3
 72
8
 73
4
 74
0
 42
0.0000001
 43
0.0000001
 44
0.0000000001
 40
0.0
 40
0.0
 40
0.0
 40
0.0
 40
1.0
 40
1.0
 40
1.0
 40
1.0
 10
384.2947225463
 20
1226.901942446
 30
0.0
 10
384.2947225463
 20
1226.9719060302
 30
0.0
 10
384.3093909706
 20
1227.0432959182
 30
0.0
 10
384.337223427
 20
1227.1074851501
 30
0.0
  0
SPLINE
  5
3F6
100
AcDbEntity
  8
0
100
AcDbSpline
 62
7
  6
BYLAYER
 70
0
 71
3
 72
8
 73
4
 74
0
 42
0.0000001
 43
0.0000001
 44
0.0000000001
 40
0.0
 40
0.0
 40
0.0
 40
0.0
 40
1.0
 40
1.0
 40
1.0
 40
1.0
 10
428.8559519209
 20
1229.9003109676
 30
0.0
 10
428.7451789553
 20
1229.893622029
 30
0.0
 10
428.6339242524
 20
1229.8655424546
 30
0.0
 10
428.5330239152
 20
1229.8193416564
 30
0.0
  0
SPLINE
  5
3F7
100
AcDbEntity
  8
0
100
AcDbSpline
 62
7
  6
BYLAYER
 70
0
 71
3
 72
9
 73
5
 74
0
 42
0.0000001
 43
0.0000001
 44
0.0000000001
 40
0.0
 40
0.0
 40
0.0
 40
0.0
 40
0.493871693
 40
1.0
 40
1.0
 40
1.0
 40
1.0
 10
428.5330239152
 20
1229.8193416564
 30
0.0
 10
428.3645847315
 20
1229.7422158016
 30
0.0
 10
428.0668019743
 20
1229.4750822786
 30
0.0
 10
427.9627642541
 20
1229.091797052
 30
0.0
 10
427.9627648047
 20
1228.9019424538
 30
0.0
  0
SPLINE
  5
3F8
100
AcDbEntity
  8
0
100
AcDbSpline
 62
7
  6
BYLAYER
 70
0
 71
3
 72
9
 73
5
 74
0
 42
0.0000001
 43
0.0000001
 44
0.0000000001
 40
0.0
 40
0.0
 40
0.0
 40
0.0
 40
0.257078501
 40
1.0
 40
1.0
 40
1.0
 40
1.0
 10
433.3636529679
 20
1226.901942446
 30
0.0
 10
433.3728039727
 20
1226.9333618051
 30
0.0
 10
433.4045695207
 20
1227.0566236307
 30
0.0
 10
433.4206968087
 20
1227.1842129986
 30
0.0
 10
433.4213405207
 20
1227.2787811753
 30
0.0
  0
SPLINE
  5
3F9
100
AcDbEntity
  8
0
100
AcDbSpline
 62
7
  6
BYLAYER
 70
0
 71
3
 72
8
 73
4
 74
0
 42
0.0000001
 43
0.0000001
 44
0.0000000001
 40
0.0
 40
0.0
 40
0.0
 40
0.0
 40
1.0
 40
1.0
 40
1.0
 40
1.0
 10
433.4827006183
 20
1227.1074851499
 30
0.0
 10
433.4493718451
 20
1227.1580512783
 30
0.0
 10
433.4273901852
 20
1227.2184848424
 30
0.0
 10
433.4222832202
 20
1227.2788310052
 30
0.0
  0
SPLINE
  5
3FA
100
AcDbEntity
  8
0
100
AcDbSpline
 62
7
  6
BYLAYER
 70
0
 71
3
 72
8
 73
4
 74
0
 42
0.0000001
 43
0.0000001
 44
0.0000000001
 40
0.0
 40
0.0
 40
0.0
 40
0.0
 40
1.0
 40
1.0
 40
1.0
 40
1.0
 10
433.4827006184
 20
1227.1074851501
 30
0.0
 10
433.5105330748
 20
1227.0432959182
 30
0.0
 10
433.5252014991
 20
1226.9719060302
 30
0.0
 10
433.5252014991
 20
1226.901942446
 30
0.0
  0
SPLINE
  5
3FB
100
AcDbEntity
  8
0
100
AcDbSpline
 62
7
  6
BYLAYER
 70
0
 71
3
 72
9
 73
5
 74
0
 42
0.0000001
 43
0.0000001
 44
0.0000000001
 40
0.0
 40
0.0
 40
0.0
 40
0.0
 40
0.2307080163
 40
1.0
 40
1.0
 40
1.0
 40
1.0
 10
433.4827141283
 20
1227.1074604229
 30
0.0
 10
433.4763296115
 20
1227.0903030996
 30
0.0
 10
433.4449979709
 20
1227.0172949763
 30
0.0
 10
433.4011063063
 20
1226.950145639
 30
0.0
 10
433.3636529679
 20
1226.901942446
 30
0.0
  0
SPLINE
  5
3FC
100
AcDbEntity
  8
0
100
AcDbSpline
 62
7
  6
BYLAYER
 70
0
 71
3
 72
11
 73
7
 74
0
 42
0.0000001
 43
0.0000001
 44
0.0000000001
 40
0.0
 40
0.0
 40
0.0
 40
0.0
 40
0.2545447175
 40
0.5064050206
 40
0.7545163807
 40
1.0
 40
1.0
 40
1.0
 40
1.0
 10
432.3244070924
 20
1228.901942446
 30
0.0
 10
432.3244070924
 20
1229.0318308793
 30
0.0
 10
432.2750517128
 20
1229.2929328498
 30
0.0
 10
432.0624331579
 20
1229.6250731762
 30
0.0
 10
431.7429357184
 20
1229.849186091
 30
0.0
 10
431.4881479038
 20
1229.901942446
 30
0.0
 10
431.3628831448
 20
1229.901942446
 30
0.0
  0
SPLINE
  5
3FD
100
AcDbEntity
  8
0
100
AcDbSpline
 62
7
  6
BYLAYER
 70
0
 71
3
 72
11
 73
7
 74
0
 42
0.0000001
 43
0.0000001
 44
0.0000000001
 40
0.0
 40
0.0
 40
0.0
 40
0.0
 40
0.2454836193
 40
0.4935949794
 40
0.7454552825
 40
1.0
 40
1.0
 40
1.0
 40
1.0
 10
386.4570409006
 20
1229.9019424445
 30
0.0
 10
386.3317761415
 20
1229.9019424445
 30
0.0
 10
386.076988327
 20
1229.8491860895
 30
0.0
 10
385.7574908874
 20
1229.6250731746
 30
0.0
 10
385.5448723325
 20
1229.2929328482
 30
0.0
 10
385.4955169529
 20
1229.0318308777
 30
0.0
 10
385.4955169529
 20
1228.9019424445
 30
0.0
  0
SPLINE
  5
3FE
100
AcDbEntity
  8
0
100
AcDbSpline
 62
7
  6
BYLAYER
 70
0
 71
3
 72
9
 73
5
 74
0
 42
0.0000001
 43
0.0000001
 44
0.0000000001
 40
0.0
 40
0.0
 40
0.0
 40
0.0
 40
0.2700173495
 40
1.0
 40
1.0
 40
1.0
 40
1.0
 10
384.4562710775
 20
1226.901942446
 30
0.0
 10
384.4431279161
 20
1226.9188568572
 30
0.0
 10
384.3964014184
 20
1226.9829089137
 30
0.0
 10
384.357406321
 20
1227.0531873032
 30
0.0
 10
384.3372103592
 20
1227.1074612322
 30
0.0
  0
SPLINE
  5
3FF
100
AcDbEntity
  8
0
100
AcDbSpline
 62
7
  6
BYLAYER
 70
0
 71
3
 72
9
 73
5
 74
0
 42
0.0000001
 43
0.0000001
 44
0.0000000001
 40
0.0
 40
0.0
 40
0.0
 40
0.0
 40
0.2435004606
 40
1.0
 40
1.0
 40
1.0
 40
1.0
 10
384.3985835608
 20
1227.2787760226
 30
0.0
 10
384.3987946051
 20
1227.2477773456
 30
0.0
 10
384.4047175033
 20
1227.1205257071
 30
0.0
 10
384.4293389624
 20
1226.9944080122
 30
0.0
 10
384.4562710775
 20
1226.901942446
 30
0.0
  0
SPLINE
  5
400
100
AcDbEntity
  8
0
100
AcDbSpline
 62
7
  6
BYLAYER
 70
0
 71
3
 72
11
 73
7
 74
0
 42
0.0000001
 43
0.0000001
 44
0.0000000001
 40
0.0
 40
0.0
 40
0.0
 40
0.0
 40
0.2544824573
 40
0.5063335206
 40
0.7544783683
 40
1.0
 40
1.0
 40
1.0
 40
1.0
 10
384.4562710775
 20
1228.9019424445
 30
0.0
 10
384.4562710775
 20
1229.0303647038
 30
0.0
 10
384.5045001961
 20
1229.2884859238
 30
0.0
 10
384.7124738481
 20
1229.6181240333
 30
0.0
 10
385.0257355807
 20
1229.8432227249
 30
0.0
 10
385.2766678365
 20
1229.8994348394
 30
0.0
 10
385.4005459171
 20
1229.9017791111
 30
0.0
  0
SPLINE
  5
401
100
AcDbEntity
  8
0
100
AcDbSpline
 62
7
  6
BYLAYER
 70
0
 71
3
 72
11
 73
7
 74
0
 42
0.0000001
 43
0.0000001
 44
0.0000000001
 40
0.0
 40
0.0
 40
0.0
 40
0.0
 40
0.2627542434
 40
0.5181758025
 40
0.7629660519
 40
1.0
 40
1.0
 40
1.0
 40
1.0
 10
389.4627484272
 20
1228.9019424433
 30
0.0
 10
389.4627484272
 20
1229.0315218008
 30
0.0
 10
389.4178359252
 20
1229.2894464784
 30
0.0
 10
389.2226011186
 20
1229.6209651574
 30
0.0
 10
388.9257942813
 20
1229.8476538609
 30
0.0
 10
388.6852164243
 20
1229.9019424433
 30
0.0
 10
388.5683212362
 20
1229.9019424433
 30
0.0
  0
SPLINE
  5
402
100
AcDbEntity
  8
0
100
AcDbSpline
 62
7
  6
BYLAYER
 70
0
 71
3
 72
9
 73
5
 74
0
 42
0.0000001
 43
0.0000001
 44
0.0000000001
 40
0.0
 40
0.0
 40
0.0
 40
0.0
 40
0.5075525759
 40
1.0
 40
1.0
 40
1.0
 40
1.0
 10
389.8571756182
 20
1228.9019424433
 30
0.0
 10
389.8570783013
 20
1229.0925620066
 30
0.0
 10
389.7525481614
 20
1229.4764202469
 30
0.0
 10
389.4538801166
 20
1229.7431691762
 30
0.0
 10
389.2856185802
 20
1229.8199370186
 30
0.0
  0
SPLINE
  5
403
100
AcDbEntity
  8
0
100
AcDbSpline
 62
7
  6
BYLAYER
 70
0
 71
3
 72
8
 73
4
 74
0
 42
0.0000001
 43
0.0000001
 44
0.0000000001
 40
0.0
 40
0.0
 40
0.0
 40
0.0
 40
1.0
 40
1.0
 40
1.0
 40
1.0
 10
389.2856185802
 20
1229.8199370186
 30
0.0
 10
389.1849133064
 20
1229.8658829118
 30
0.0
 10
389.0739154397
 20
1229.8936902128
 30
0.0
 10
388.9634236137
 20
1229.9003335297
 30
0.0
  0
SPLINE
  5
404
100
AcDbEntity
  8
0
100
AcDbSpline
 62
7
  6
BYLAYER
 70
0
 71
3
 72
11
 73
7
 74
0
 42
0.0000001
 43
0.0000001
 44
0.0000000001
 40
0.0
 40
0.0
 40
0.0
 40
0.0
 40
0.2370339481
 40
0.4818241975
 40
0.7372457567
 40
1.0
 40
1.0
 40
1.0
 40
1.0
 10
429.2516028092
 20
1229.9019424539
 30
0.0
 10
429.1347076211
 20
1229.9019424539
 30
0.0
 10
428.8941297641
 20
1229.8476538714
 30
0.0
 10
428.5973229267
 20
1229.6209651679
 30
0.0
 10
428.4020881202
 20
1229.2894464889
 30
0.0
 10
428.3571756182
 20
1229.0315218113
 30
0.0
 10
428.3571756182
 20
1228.9019424539
 30
0.0
  0
SPLINE
  5
405
100
AcDbEntity
  8
0
100
AcDbSpline
 62
7
  6
BYLAYER
 70
0
 71
3
 72
9
 73
5
 74
0
 42
0.0000001
 43
0.0000001
 44
0.0000000001
 40
0.0
 40
0.0
 40
0.0
 40
0.0
 40
0.504021021
 40
1.0
 40
1.0
 40
1.0
 40
1.0
 10
433.3636531094
 20
1228.901942446
 30
0.0
 10
433.3636547236
 20
1229.0695917366
 30
0.0
 10
433.2812074385
 20
1229.4076962383
 30
0.0
 10
433.044900963
 20
1229.6647308786
 30
0.0
 10
432.9059511161
 20
1229.7536660546
 30
0.0
  0
SPLINE
  5
406
100
AcDbEntity
  8
0
100
AcDbSpline
 62
7
  6
BYLAYER
 70
0
 71
3
 72
9
 73
5
 74
0
 42
0.0000001
 43
0.0000001
 44
0.0000000001
 40
0.0
 40
0.0
 40
0.0
 40
0.0
 40
0.2523793294
 40
1.0
 40
1.0
 40
1.0
 40
1.0
 10
432.9059511161
 20
1229.7536660546
 30
0.0
 10
432.8701231222
 20
1229.7765978463
 30
0.0
 10
432.7223160229
 20
1229.8580251493
 30
0.0
 10
432.5520634658
 20
1229.898367508
 30
0.0
 10
432.4260948154
 20
1229.9016321797
 30
0.0
  0
LINE
  5
407
100
AcDbEntity
  8
0
100
AcDbLine
 62
7
  6
BYLAYER
 10
432.402144899
 20
1229.901942446
 11
432.4274353709
 21
1229.9015861541
  0
SPLINE
  5
408
100
AcDbEntity
  8
0
100
AcDbSpline
 62
7
  6
BYLAYER
 70
0
 71
3
 72
9
 73
5
 74
0
 42
0.0000001
 43
0.0000001
 44
0.0000000001
 40
0.0
 40
0.0
 40
0.0
 40
0.0
 40
0.2661599696
 40
1.0
 40
1.0
 40
1.0
 40
1.0
 10
433.421409121
 20
1227.3703405734
 30
0.0
 10
433.4306338035
 20
1227.3646779279
 30
0.0
 10
433.4634863543
 20
1227.340467935
 30
0.0
 10
433.486280671
 20
1227.3035080673
 30
0.0
 10
433.4947339986
 20
1227.2748868796
 30
0.0
  0
SPLINE
  5
409
100
AcDbEntity
  8
0
100
AcDbSpline
 62
7
  6
BYLAYER
 70
0
 71
3
 72
9
 73
5
 74
0
 42
0.0000001
 43
0.0000001
 44
0.0000000001
 40
0.0
 40
0.0
 40
0.0
 40
0.0
 40
0.2282933278
 40
1.0
 40
1.0
 40
1.0
 40
1.0
 10
433.4947339986
 20
1227.2748868796
 30
0.0
 10
433.4983871679
 20
1227.2625180173
 30
0.0
 10
433.5085565138
 20
1227.2065209574
 30
0.0
 10
433.4966083168
 20
1227.1488038453
 30
0.0
 10
433.4827004759
 20
1227.1074854085
 30
0.0
  0
SPLINE
  5
40A
100
AcDbEntity
  8
0
100
AcDbSpline
 62
7
  6
BYLAYER
 70
0
 71
3
 72
8
 73
4
 74
0
 42
0.0000001
 43
0.0000001
 44
0.0000000001
 40
0.0
 40
0.0
 40
0.0
 40
0.0
 40
1.0
 40
1.0
 40
1.0
 40
1.0
 10
384.392509069
 20
1227.2417736862
 30
0.0
 10
384.3833400547
 20
1227.194242115
 30
0.0
 10
384.3638635513
 20
1227.1479033633
 30
0.0
 10
384.3372234296
 20
1227.1074852362
 30
0.0
  0
ENDSEC
  0
SECTION
  2
OBJECTS
  0
DICTIONARY
  5
C
100
AcDbDictionary
280
0
281
1
  3
ACAD_GROUP
350
D
  3
ACAD_MLINESTYLE
350
17
  3
ACAD_LAYOUT
350
1A
  3
ACAD_PLOTSETTINGS
350
19
  3
ACAD_PLOTSTYLENAME
350
E
  0
DICTIONARY
  5
D
102
{ACAD_REACTORS
330
C
102
}
100
AcDbDictionary
280
0
281
1
  0
ACDBDICTIONARYWDFLT
  5
E
102
{ACAD_REACTORS
330
C
102
}
100
AcDbDictionary
281
1
  3
Normal
350
F
100
AcDbDictionaryWithDefault
340
F
  0
DICTIONARY
  5
17
102
{ACAD_REACTORS
330
C
102
}
100
AcDbDictionary
280
0
281
1
  3
Standard
350
18
  0
DICTIONARY
  5
19
102
{ACAD_REACTORS
330
C
102
}
100
AcDbDictionary
281
1
  0
DICTIONARY
  5
1A
102
{ACAD_REACTORS
330
C
102
}
100
AcDbDictionary
281
1
  3
Model
350
40B
  3
Layout1
350
40C
  0
ACDBPLACEHOLDER
  5
F
102
{ACAD_REACTORS
330
E
102
}
  0
MLINESTYLE
  5
18
102
{ACAD_REACTORS
330
17
102
}
100
AcDbMlineStyle
  2
STANDARD
 70
0
  3

 62
256
 51
90.0
 52
90.0
 71
2
 49
0.5
 62
256
  6
BYLAYER
 49
-0.5
 62
256
  6
BYLAYER
  0
LAYOUT
  5
40B
102
{ACAD_REACTORS
330
1A
102
}
100
AcDbPlotSettings
  1

  2
none_device
  4

  6

 40
0.0
 41
0.0
 42
0.0
 43
0.0
 44
210.0
 45
297.0
 46
0.0
 47
0.0
 48
0.0
 49
0.0
140
0.0
141
0.0
142
1.0
143
1.0
 70
1024
 72
1
 73
0
 74
0
  7

 75
0
147
1.0
148
0.0
149
0.0
100
AcDbLayout
  1
Model
 70
0
 71
0
 10
0.0
 20
0.0
 11
210.0
 21
297.0
 12
0.0
 22
0.0
 32
0.0
 14
0.0
 24
0.0
 34
0.0
 15
0.0
 25
0.0
 35
0.0
146
0.0
 13
0.0
 23
0.0
 33
0.0
 16
1.0
 26
0.0
 36
0.0
 17
0.0
 27
1.0
 37
0.0
 76
0
330
212
345
0
346
0
  0
LAYOUT
  5
40C
102
{ACAD_REACTORS
330
1A
102
}
100
AcDbPlotSettings
  1

  2
none_device
  4

  6

 40
0.0
 41
0.0
 42
0.0
 43
0.0
 44
210.0
 45
297.0
 46
0.0
 47
0.0
 48
0.0
 49
0.0
140
0.0
141
0.0
142
1.0
143
1.0
 70
0
 72
1
 73
0
 74
0
  7

 75
0
147
1.0
148
0.0
149
0.0
100
AcDbLayout
  1
Layout1
 70
0
 71
1
 10
0.0
 20
0.0
 11
210.0
 21
297.0
 12
0.0
 22
0.0
 32
0.0
 14
0.0
 24
0.0
 34
0.0
 15
0.0
 25
0.0
 35
0.0
146
0.0
 13
0.0
 23
0.0
 33
0.0
 16
1.0
 26
0.0
 36
0.0
 17
0.0
 27
1.0
 37
0.0
 76
0
330
213
345
0
346
0
  0
ENDSEC
  0
EOF
