999
DXF file: C:\Users\sesa63760\Dev\_Creo\CAD\MCADPD0005172_3D-CAD\drw0001_6.dxf
999
Pro/ENGINEER 2019471 by Parametric Technology Corporation
  0
SECTION
  2
HEADER
  9
$ACADVER
  1
AC1024
  9
$DWGCODEPAGE
  3
ANSI_1252
  9
$EXTMAX
 10
96.1382890489
 20
135.9670087977
 30
0.0
  9
$EXTMIN
 10
0.0
 20
0.0
 30
0.0
  9
$LIMMIN
 10
0.0
 20
0.0
  9
$LIMMAX
 10
96.1382890489
 20
135.9670087977
  9
$VIEWCTR
 10
48.0691445244
 20
67.9835043989
  9
$VIEWSIZE
 40
135.9670087977
  9
$CLAYER
  8
0
  9
$LTSCALE
 40
8.8630346476
  9
$CELTYPE
  6
BYLAYER
  9
$DIMSCALE
 40
1.0
  9
$DIMASZ
 40
1.1445034411
  9
$DIMEXO
 40
1.0
  9
$DIMDLI
 40
6.123551211
  9
$DIMEXE
 40
1.0
  9
$DIMCEN
 40
1.4503147605
  9
$DIMLFAC
 40
1.0
  9
$DIMBLK
  1
_FILLED
  9
$DIMALT
 70
0
  9
$DIMALTF
 40
0.0393700787
  9
$DIMTXT
 40
1.6023048175
  9
$DIMTOL
 70
1
  9
$DIMLIM
 70
0
  9
$DIMTFAC
 40
1.0
  9
$DIMTP
 40
0.01
  9
$DIMTM
 40
0.01
  9
$DIMGAP
 40
0.625
  9
$DIMDSEP
 70
46
  9
$AUNITS
 70
0
  9
$PDMODE
 70
3
  9
$PDSIZE
 40
0.3125
  9
$HANDSEED
  5
34E
  9
$TILEMODE
 70
1
  9
$MEASUREMENT
 70
1
  9
$INSUNITS
 70
4
  0
ENDSEC
  0
SECTION
  2
CLASSES
  0
CLASS
  1
ACDBDICTIONARYWDFLT
  2
AcDbDictionaryWithDefault
  3
AutoCAD 2000
 90
0
 91
1
280
0
281
0
  0
CLASS
  1
ACDBPLACEHOLDER
  2
AcDbPlaceHolder
  3
AutoCAD 2000
 90
0
 91
1
280
0
281
0
  0
CLASS
  1
LAYOUT
  2
AcDbLayout
  3
AutoCAD 2000
 90
0
 91
0
280
0
281
0
  0
ENDSEC
  0
SECTION
  2
TABLES
  0
TABLE
  2
VPORT
  5
8
100
AcDbSymbolTable
 70
2
  0
VPORT
  5
1F4
100
AcDbSymbolTableRecord
100
AcDbViewportTableRecord
  2
*ACTIVE
 70
0
 10
0.0
 20
0.0
 11
1.0
 21
1.0
 12
48.0691445244
 22
67.9835043989
 13
0.0
 23
0.0
 14
1.0
 24
1.0
 15
0.0
 25
0.0
 16
0.0
 26
0.0
 36
1.0
 17
0.0
 27
0.0
 37
0.0
 40
135.9670087977
 41
0.7070707071
 42
50.0
 43
0.0
 44
0.0
 50
0.0
 51
0.0
 71
0
 72
100
 73
1
 74
1
 75
0
 76
0
 77
0
 78
0
  0
ENDTAB
  0
TABLE
  2
LTYPE
  5
5
100
AcDbSymbolTable
 70
6
  0
LTYPE
  5
14
100
AcDbSymbolTableRecord
100
AcDbLinetypeTableRecord
  2
BYBLOCK
 70
0
  3

 72
65
 73
0
 40
0.0
  0
LTYPE
  5
15
100
AcDbSymbolTableRecord
100
AcDbLinetypeTableRecord
  2
BYLAYER
 70
0
  3

 72
65
 73
0
 40
0.0
  0
LTYPE
  5
16
100
AcDbSymbolTableRecord
100
AcDbLinetypeTableRecord
  2
CONTINUOUS
 70
64
  3
Solid line
 72
65
 73
0
 40
0.0
  0
LTYPE
  5
1F5
100
AcDbSymbolTableRecord
100
AcDbLinetypeTableRecord
  2
CENTER
 70
64
  3
____ _ ____ _ ____ _ ____ _ ____ _ ____ _ ____
 72
65
 73
4
 40
0.6
 49
0.375
 74
0
 49
-0.075
 74
0
 49
0.075
 74
0
 49
-0.075
 74
0
  0
LTYPE
  5
1F6
100
AcDbSymbolTableRecord
100
AcDbLinetypeTableRecord
  2
HIDDEN
 70
64
  3
- - - - - - - - - - - - - - - - - - - -
 72
65
 73
2
 40
0.2
 49
0.1
 74
0
 49
-0.1
 74
0
  0
LTYPE
  5
1F7
100
AcDbSymbolTableRecord
100
AcDbLinetypeTableRecord
  2
PHANTOM
 70
64
  3
_____ _ _ _____ _ _ _____ _ _ _____
 72
65
 73
6
 40
0.8
 49
0.45
 74
0
 49
-0.05
 74
0
 49
0.1
 74
0
 49
-0.05
 74
0
 49
0.1
 74
0
 49
-0.05
 74
0
  0
LTYPE
  5
1F8
100
AcDbSymbolTableRecord
100
AcDbLinetypeTableRecord
  2
DOT
 70
64
  3
. . . . . . . . . . . . . . . . . . . .
 72
65
 73
2
 40
0.2
 49
0.1
 74
0
 49
-0.1
 74
0
  0
LTYPE
  5
1F9
100
AcDbSymbolTableRecord
100
AcDbLinetypeTableRecord
  2
DASHED
 70
64
  3
- - - - - - - - - - - - - - - - - - - -
 72
65
 73
2
 40
0.2
 49
0.1
 74
0
 49
-0.1
 74
0
  0
ENDTAB
  0
TABLE
  2
LAYER
  5
2
100
AcDbSymbolTable
 70
36
  0
LAYER
  5
10
100
AcDbSymbolTableRecord
100
AcDbLayerTableRecord
  2
0
 70
0
 62
7
  6
CONTINUOUS
370
-3
390
F
  0
LAYER
  5
1FA
100
AcDbSymbolTableRecord
100
AcDbLayerTableRecord
  2
DEFAULT_1
 70
0
 62
7
  6
CENTER
370
-3
390
F
  0
LAYER
  5
1FB
100
AcDbSymbolTableRecord
100
AcDbLayerTableRecord
  2
DEFAULT_2
 70
0
 62
7
  6
HIDDEN
370
-3
390
F
  0
LAYER
  5
1FC
100
AcDbSymbolTableRecord
100
AcDbLayerTableRecord
  2
DEFAULT_3
 70
0
 62
7
  6
PHANTOM
370
-3
390
F
  0
LAYER
  5
1FD
100
AcDbSymbolTableRecord
100
AcDbLayerTableRecord
  2
00_COMPONENTS
 70
0
 62
7
  6
CONTINUOUS
370
-3
390
F
  0
LAYER
  5
1FE
100
AcDbSymbolTableRecord
100
AcDbLayerTableRecord
  2
01_1_DEFAULT_DATUMS
 70
0
 62
7
  6
CONTINUOUS
370
-3
390
F
  0
LAYER
  5
1FF
100
AcDbSymbolTableRecord
100
AcDbLayerTableRecord
  2
01_PLANES
 70
0
 62
7
  6
CONTINUOUS
370
-3
390
F
  0
LAYER
  5
200
100
AcDbSymbolTableRecord
100
AcDbLayerTableRecord
  2
02_COORD_SYS
 70
0
 62
7
  6
CONTINUOUS
370
-3
390
F
  0
LAYER
  5
201
100
AcDbSymbolTableRecord
100
AcDbLayerTableRecord
  2
03_AXES
 70
0
 62
7
  6
CONTINUOUS
370
-3
390
F
  0
LAYER
  5
202
100
AcDbSymbolTableRecord
100
AcDbLayerTableRecord
  2
04_POINTS
 70
0
 62
7
  6
CONTINUOUS
370
-3
390
F
  0
LAYER
  5
203
100
AcDbSymbolTableRecord
100
AcDbLayerTableRecord
  2
05_CURVES
 70
0
 62
7
  6
CONTINUOUS
370
-3
390
F
  0
LAYER
  5
204
100
AcDbSymbolTableRecord
100
AcDbLayerTableRecord
  2
06_SURFS
 70
0
 62
7
  6
CONTINUOUS
370
-3
390
F
  0
LAYER
  5
205
100
AcDbSymbolTableRecord
100
AcDbLayerTableRecord
  2
07_COSMETICS
 70
0
 62
7
  6
CONTINUOUS
370
-3
390
F
  0
LAYER
  5
206
100
AcDbSymbolTableRecord
100
AcDbLayerTableRecord
  2
10_NOTES
 70
0
 62
7
  6
CONTINUOUS
370
-3
390
F
  0
LAYER
  5
207
100
AcDbSymbolTableRecord
100
AcDbLayerTableRecord
  2
11_NOTES_PUB
 70
0
 62
7
  6
CONTINUOUS
370
-3
390
F
  0
LAYER
  5
208
100
AcDbSymbolTableRecord
100
AcDbLayerTableRecord
  2
13_REF_GTOL
 70
0
 62
7
  6
CONTINUOUS
370
-3
390
F
  0
LAYER
  5
209
100
AcDbSymbolTableRecord
100
AcDbLayerTableRecord
  2
16_MISC
 70
0
 62
7
  6
CONTINUOUS
370
-3
390
F
  0
LAYER
  5
20A
100
AcDbSymbolTableRecord
100
AcDbLayerTableRecord
  2
17_NO_PRINT
 70
0
 62
7
  6
CONTINUOUS
370
-3
390
F
  0
LAYER
  5
20B
100
AcDbSymbolTableRecord
100
AcDbLayerTableRecord
  2
18_DATUM_CAMS_JOINTS
 70
0
 62
7
  6
CONTINUOUS
370
-3
390
F
  0
LAYER
  5
20C
100
AcDbSymbolTableRecord
100
AcDbLayerTableRecord
  2
19_DATUM_FUNCTIONAL
 70
0
 62
7
  6
CONTINUOUS
370
-3
390
F
  0
LAYER
  5
20D
100
AcDbSymbolTableRecord
100
AcDbLayerTableRecord
  2
20_DATUM_KINEMATIC_SCHEME
 70
0
 62
7
  6
CONTINUOUS
370
-3
390
F
  0
ENDTAB
  0
TABLE
  2
STYLE
  5
3
100
AcDbSymbolTable
 70
1
  0
STYLE
  5
11
100
AcDbSymbolTableRecord
100
AcDbTextStyleTableRecord
  2
STANDARD
 70
0
 40
0.0
 41
1.0
 50
0.0
 71
0
 42
0.2
  3
ARIAL.TTF
  4

  0
STYLE
  5
20E
100
AcDbSymbolTableRecord
100
AcDbTextStyleTableRecord
  2
TEXTSTYLE_1
 70
0
 40
0.0
 41
0.8
 50
0.0
 71
0
 42
0.2
  3
gdt
  4

  0
ENDTAB
  0
TABLE
  2
VIEW
  5
6
100
AcDbSymbolTable
 70
0
  0
ENDTAB
  0
TABLE
  2
UCS
  5
7
100
AcDbSymbolTable
 70
0
  0
ENDTAB
  0
TABLE
  2
APPID
  5
9
100
AcDbSymbolTable
 70
1
  0
APPID
  5
20F
100
AcDbSymbolTableRecord
100
AcDbRegAppTableRecord
  2
ACAD
 70
0
  0
ENDTAB
  0
TABLE
  2
BLOCK_RECORD
  5
1
100
AcDbSymbolTable
 70
0
  0
BLOCK_RECORD
  5
210
100
AcDbSymbolTableRecord
100
AcDbBlockTableRecord
  2
*Model_Space
  0
BLOCK_RECORD
  5
211
100
AcDbSymbolTableRecord
100
AcDbBlockTableRecord
  2
*Paper_Space
  0
BLOCK_RECORD
  5
212
100
AcDbSymbolTableRecord
100
AcDbBlockTableRecord
  2
_FILLED
  0
ENDTAB
  0
TABLE
  2
DIMSTYLE
  5
A
100
AcDbSymbolTable
 70
1
100
AcDbDimStyleTable
 71
0
  0
DIMSTYLE
105
213
100
AcDbSymbolTableRecord
100
AcDbDimStyleTableRecord
  2
STANDARD
 70
0
  3

  4

 40
1.0
 41
1.1445034411
 42
1.0
 43
0.38
 44
1.0
 45
0.0
 46
0.0
 47
0.01
 48
0.01
140
1.6023048175
141
0.09
142
0.0
143
25.4
144
1.0
145
0.0
146
1.0
147
0.625
 71
1
 72
0
 73
0
 74
0
 75
0
 76
0
 77
1
 78
8
 79
2
170
0
171
1
172
0
173
0
174
0
175
0
176
0
177
0
178
0
270
2
179
2
271
2
272
2
273
2
274
2
275
0
280
0
281
0
282
0
283
1
284
8
285
0
286
0
287
3
288
0
340
11
278
46
341
212
342
212
343
212
344
212
  0
ENDTAB
  0
ENDSEC
  0
SECTION
  2
BLOCKS
  0
BLOCK
  5
20
100
AcDbEntity
  8
0
100
AcDbBlockBegin
  2
*Model_Space
 70
0
 10
0.0
 20
0.0
 30
0.0
  3
*Model_Space
  1

  0
ENDBLK
  5
21
100
AcDbEntity
  8
0
100
AcDbBlockEnd
  0
BLOCK
  5
1C
100
AcDbEntity
  8
0
100
AcDbBlockBegin
  2
*Paper_Space
 70
0
 10
0.0
 20
0.0
 30
0.0
  3
*Paper_Space
  1

  0
ENDBLK
  5
1D
100
AcDbEntity
  8
0
100
AcDbBlockEnd
  0
BLOCK
  5
214
100
AcDbEntity
  8
0
100
AcDbBlockBegin
  2
_FILLED
 70
64
 10
0.0
 20
0.0
  3
_FILLED
  1

  0
SOLID
  5
215
100
AcDbEntity
  8
0
  6
BYBLOCK
 62
0
100
AcDbTrace
 10
0.0
 20
0.0
 11
-1.0
 21
0.25
 12
-1.0
 22
-0.25
 13
-1.0
 23
-0.25
  0
ENDBLK
  5
216
100
AcDbEntity
  8
0
  6
BYBLOCK
 62
0
100
AcDbBlockEnd
  0
ENDSEC
  0
SECTION
  2
ENTITIES
  0
LINE
  5
217
100
AcDbEntity
  8
0
100
AcDbLine
 62
7
  6
BYLAYER
 10
41.4512559617
 20
11.2335043989
 11
56.3512559617
 21
11.2335043989
  0
LINE
  5
218
100
AcDbEntity
  8
0
100
AcDbLine
 62
7
  6
BYLAYER
 10
57.6512559617
 20
12.5335043988
 11
56.8512559617
 21
12.5335043988
  0
LINE
  5
219
100
AcDbEntity
  8
0
100
AcDbLine
 62
7
  6
BYLAYER
 10
40.9512559617
 20
12.5335043988
 11
40.1512559617
 21
12.5335043988
  0
LINE
  5
21A
100
AcDbEntity
  8
0
100
AcDbLine
 62
7
  6
BYLAYER
 10
60.2012559614
 20
13.5137601202
 11
58.3012559614
 21
13.5137601202
  0
LINE
  5
21B
100
AcDbEntity
  8
0
100
AcDbLine
 62
7
  6
BYLAYER
 10
39.501255962
 20
13.5137601202
 11
37.6012559614
 21
13.5137601202
  0
LINE
  5
21C
100
AcDbEntity
  8
0
100
AcDbLine
 62
7
  6
BYLAYER
 10
58.3012559614
 20
13.6526832832
 11
39.501255962
 21
13.6526832832
  0
LINE
  5
21D
100
AcDbEntity
  8
0
100
AcDbLine
 62
7
  6
BYLAYER
 10
37.6012559614
 20
22.0412200011
 11
60.2012559614
 21
22.0412200011
  0
LINE
  5
21E
100
AcDbEntity
  8
0
100
AcDbLine
 62
7
  6
BYLAYER
 10
60.2012559614
 20
25.033504399
 11
56.4484792119
 21
25.033504399
  0
LINE
  5
21F
100
AcDbEntity
  8
0
100
AcDbLine
 62
7
  6
BYLAYER
 10
41.3540327115
 20
25.033504399
 11
37.6012559614
 21
25.033504399
  0
LINE
  5
220
100
AcDbEntity
  8
0
100
AcDbLine
 62
7
  6
BYLAYER
 10
41.3540327115
 20
25.033504399
 11
37.6012559614
 21
29.2546537552
  0
LINE
  5
221
100
AcDbEntity
  8
0
100
AcDbLine
 62
7
  6
BYLAYER
 10
40.1012559616
 20
99.5353093608
 11
39.4294591919
 21
99.0080591092
  0
LINE
  5
222
100
AcDbEntity
  8
0
100
AcDbLine
 62
7
  6
BYLAYER
 10
45.1012559616
 20
99.5353093608
 11
44.2012559616
 21
99.0492970879
  0
LINE
  5
223
100
AcDbEntity
  8
0
100
AcDbLine
 62
7
  6
BYLAYER
 10
50.1012559616
 20
99.5353093608
 11
49.2012559616
 21
99.0492970879
  0
LINE
  5
224
100
AcDbEntity
  8
0
100
AcDbLine
 62
7
  6
BYLAYER
 10
42.7012559616
 20
102.1355685701
 11
43.2327567733
 21
102.9839748089
  0
LINE
  5
225
100
AcDbEntity
  8
0
100
AcDbLine
 62
7
  6
BYLAYER
 10
55.1012559616
 20
99.5353093608
 11
54.2012559616
 21
99.0492970879
  0
LINE
  5
226
100
AcDbEntity
  8
0
100
AcDbLine
 62
7
  6
BYLAYER
 10
47.7012559616
 20
102.1355685701
 11
48.2327567733
 21
102.9839748089
  0
LINE
  5
227
100
AcDbEntity
  8
0
100
AcDbLine
 62
7
  6
BYLAYER
 10
37.6012559614
 20
46.6335043987
 11
41.3540327115
 21
46.6335043987
  0
LINE
  5
228
100
AcDbEntity
  8
0
100
AcDbLine
 62
7
  6
BYLAYER
 10
56.4484792119
 20
46.6335043987
 11
60.2012559614
 21
46.6335043987
  0
LINE
  5
229
100
AcDbEntity
  8
0
100
AcDbLine
 62
7
  6
BYLAYER
 10
58.9512559615
 20
49.3908936479
 11
38.8512559617
 21
49.3908936479
  0
LINE
  5
22A
100
AcDbEntity
  8
0
100
AcDbLine
 62
7
  6
BYLAYER
 10
38.8512559617
 20
52.1271765014
 11
58.9512559615
 21
52.1271765014
  0
LINE
  5
22B
100
AcDbEntity
  8
0
100
AcDbLine
 62
7
  6
BYLAYER
 10
37.6012559614
 20
13.5137601202
 11
37.6012559614
 21
124.7335043989
  0
LINE
  5
22C
100
AcDbEntity
  8
0
100
AcDbLine
 62
7
  6
BYLAYER
 10
53.2327567733
 20
102.983974809
 11
52.7012559616
 21
102.1355685702
  0
LINE
  5
22D
100
AcDbEntity
  8
0
100
AcDbLine
 62
7
  6
BYLAYER
 10
42.7012559616
 20
80.5335295022
 11
43.2327567733
 21
81.381935741
  0
LINE
  5
22E
100
AcDbEntity
  8
0
100
AcDbLine
 62
7
  6
BYLAYER
 10
40.1012559616
 20
77.9332702929
 11
39.4294591919
 21
77.4060200412
  0
LINE
  5
22F
100
AcDbEntity
  8
0
100
AcDbLine
 62
7
  6
BYLAYER
 10
59.4512559617
 20
53.4865136893
 11
58.9512559615
 21
53.4865136893
  0
LINE
  5
230
100
AcDbEntity
  8
0
100
AcDbLine
 62
7
  6
BYLAYER
 10
38.8512559617
 20
53.4865136893
 11
38.3512559617
 21
53.4865136893
  0
LINE
  5
231
100
AcDbEntity
  8
0
100
AcDbLine
 62
7
  6
BYLAYER
 10
58.3730527313
 20
54.8575544429
 11
54.2012559616
 21
54.8575544429
  0
LINE
  5
232
100
AcDbEntity
  8
0
100
AcDbLine
 62
7
  6
BYLAYER
 10
53.6012559616
 20
54.8575544429
 11
49.2012559616
 21
54.8575544429
  0
LINE
  5
233
100
AcDbEntity
  8
0
100
AcDbLine
 62
7
  6
BYLAYER
 10
48.6012559616
 20
54.8575544429
 11
44.2012559616
 21
54.8575544429
  0
LINE
  5
234
100
AcDbEntity
  8
0
100
AcDbLine
 62
7
  6
BYLAYER
 10
43.6012559616
 20
54.8575544429
 11
39.4294591919
 21
54.8575544429
  0
LINE
  5
235
100
AcDbEntity
  8
0
100
AcDbLine
 62
7
  6
BYLAYER
 10
57.7012559616
 20
56.3540841314
 11
55.1012559616
 21
56.3540841314
  0
LINE
  5
236
100
AcDbEntity
  8
0
100
AcDbLine
 62
7
  6
BYLAYER
 10
52.7012559616
 20
56.3540841314
 11
50.1012559616
 21
56.3540841314
  0
LINE
  5
237
100
AcDbEntity
  8
0
100
AcDbLine
 62
7
  6
BYLAYER
 10
47.7012559616
 20
56.3540841314
 11
45.1012559616
 21
56.3540841314
  0
LINE
  5
238
100
AcDbEntity
  8
0
100
AcDbLine
 62
7
  6
BYLAYER
 10
40.1012559616
 20
56.3540841314
 11
42.7012559616
 21
56.3540841314
  0
LINE
  5
239
100
AcDbEntity
  8
0
100
AcDbLine
 62
7
  6
BYLAYER
 10
42.7012559616
 20
56.3540841314
 11
43.6012559616
 21
55.8680718585
  0
LINE
  5
23A
100
AcDbEntity
  8
0
100
AcDbLine
 62
7
  6
BYLAYER
 10
40.1012559616
 20
58.9543433407
 11
39.7355519077
 21
59.8027495795
  0
LINE
  5
23B
100
AcDbEntity
  8
0
100
AcDbLine
 62
7
  6
BYLAYER
 10
38.3512559617
 20
53.4865136893
 11
38.3512559617
 21
70.9648911011
  0
LINE
  5
23C
100
AcDbEntity
  8
0
100
AcDbLine
 62
7
  6
BYLAYER
 10
38.3512559617
 20
75.0865136893
 11
38.3512559617
 21
92.5648911011
  0
LINE
  5
23D
100
AcDbEntity
  8
0
100
AcDbLine
 62
7
  6
BYLAYER
 10
38.3512559617
 20
96.6835043989
 11
38.3512559617
 21
114.2950540345
  0
LINE
  5
23E
100
AcDbEntity
  8
0
100
AcDbLine
 62
7
  6
BYLAYER
 10
38.8512559617
 20
49.3908936479
 11
38.8512559617
 21
117.0649275874
  0
LINE
  5
23F
100
AcDbEntity
  8
0
100
AcDbLine
 62
7
  6
BYLAYER
 10
39.2012559617
 20
123.0287241981
 11
39.2012559617
 21
121.0287367368
  0
LINE
  5
240
100
AcDbEntity
  8
0
100
AcDbLine
 62
7
  6
BYLAYER
 10
39.4294591918
 20
102.9839748089
 11
39.4294591919
 21
98.0387796723
  0
LINE
  5
241
100
AcDbEntity
  8
0
100
AcDbLine
 62
7
  6
BYLAYER
 10
39.4294591918
 20
81.381935741
 11
39.4294591919
 21
76.4367406044
  0
LINE
  5
242
100
AcDbEntity
  8
0
100
AcDbLine
 62
7
  6
BYLAYER
 10
39.4294591918
 20
59.8027495795
 11
39.4294591919
 21
54.8575544428
  0
LINE
  5
243
100
AcDbEntity
  8
0
100
AcDbLine
 62
7
  6
BYLAYER
 10
39.501255962
 20
13.5137601202
 11
39.501255962
 21
13.6526832832
  0
LINE
  5
244
100
AcDbEntity
  8
0
100
AcDbLine
 62
7
  6
BYLAYER
 10
40.1012559616
 20
56.3540841314
 11
40.1012559616
 21
58.9543433407
  0
LINE
  5
245
100
AcDbEntity
  8
0
100
AcDbLine
 62
7
  6
BYLAYER
 10
40.1012559616
 20
77.9332702929
 11
40.1012559616
 21
80.5335295022
  0
LINE
  5
246
100
AcDbEntity
  8
0
100
AcDbLine
 62
7
  6
BYLAYER
 10
40.1012559616
 20
99.5353093608
 11
40.1012559616
 21
102.1355685702
  0
LINE
  5
247
100
AcDbEntity
  8
0
100
AcDbLine
 62
7
  6
BYLAYER
 10
40.1512559617
 20
13.6526832832
 11
40.1512559617
 21
12.5335043988
  0
LINE
  5
248
100
AcDbEntity
  8
0
100
AcDbLine
 62
7
  6
BYLAYER
 10
40.9512559617
 20
12.5335043988
 11
40.9512559617
 21
13.6526832832
  0
LINE
  5
249
100
AcDbEntity
  8
0
100
AcDbLine
 62
7
  6
BYLAYER
 10
41.3540327115
 20
25.033504399
 11
41.3540327115
 21
46.6335043987
  0
LINE
  5
24A
100
AcDbEntity
  8
0
100
AcDbLine
 62
7
  6
BYLAYER
 10
47.7012559616
 20
80.5335295022
 11
48.2327567733
 21
81.381935741
  0
LINE
  5
24B
100
AcDbEntity
  8
0
100
AcDbLine
 62
7
  6
BYLAYER
 10
45.1012559616
 20
77.9332702929
 11
44.2012559616
 21
77.44725802
  0
LINE
  5
24C
100
AcDbEntity
  8
0
100
AcDbLine
 62
7
  6
BYLAYER
 10
50.1012559616
 20
77.9332702929
 11
49.2012559616
 21
77.44725802
  0
LINE
  5
24D
100
AcDbEntity
  8
0
100
AcDbLine
 62
7
  6
BYLAYER
 10
57.7012559616
 20
57.1163141424
 11
55.1012559616
 21
57.1163141424
  0
LINE
  5
24E
100
AcDbEntity
  8
0
100
AcDbLine
 62
7
  6
BYLAYER
 10
52.7012559616
 20
57.1163141424
 11
50.1012559616
 21
57.1163141424
  0
LINE
  5
24F
100
AcDbEntity
  8
0
100
AcDbLine
 62
7
  6
BYLAYER
 10
42.7012559616
 20
57.1163141424
 11
40.1012559616
 21
57.1163141423
  0
LINE
  5
250
100
AcDbEntity
  8
0
100
AcDbLine
 62
7
  6
BYLAYER
 10
45.1012559616
 20
57.1163141424
 11
47.7012559616
 21
57.1163141424
  0
LINE
  5
251
100
AcDbEntity
  8
0
100
AcDbLine
 62
7
  6
BYLAYER
 10
42.7012559616
 20
58.9543433407
 11
40.1012559616
 21
58.9543433407
  0
LINE
  5
252
100
AcDbEntity
  8
0
100
AcDbLine
 62
7
  6
BYLAYER
 10
45.1012559616
 20
58.9543433407
 11
47.7012559616
 21
58.9543433407
  0
LINE
  5
253
100
AcDbEntity
  8
0
100
AcDbLine
 62
7
  6
BYLAYER
 10
50.1012559616
 20
58.9543433407
 11
52.7012559616
 21
58.9543433407
  0
LINE
  5
254
100
AcDbEntity
  8
0
100
AcDbLine
 62
7
  6
BYLAYER
 10
55.1012559616
 20
58.9543433407
 11
57.7012559616
 21
58.9543433407
  0
LINE
  5
255
100
AcDbEntity
  8
0
100
AcDbLine
 62
7
  6
BYLAYER
 10
38.3512559617
 20
59.5276841154
 11
38.8512559617
 21
59.5276841154
  0
LINE
  5
256
100
AcDbEntity
  8
0
100
AcDbLine
 62
7
  6
BYLAYER
 10
58.9512559615
 20
59.5276841154
 11
59.4512559617
 21
59.5276841154
  0
LINE
  5
257
100
AcDbEntity
  8
0
100
AcDbLine
 62
7
  6
BYLAYER
 10
58.3730527313
 20
59.8027495795
 11
54.2012559616
 21
59.8027495795
  0
LINE
  5
258
100
AcDbEntity
  8
0
100
AcDbLine
 62
7
  6
BYLAYER
 10
53.6012559616
 20
59.8027495795
 11
49.2012559616
 21
59.8027495795
  0
LINE
  5
259
100
AcDbEntity
  8
0
100
AcDbLine
 62
7
  6
BYLAYER
 10
48.6012559616
 20
59.8027495795
 11
44.2012559616
 21
59.8027495795
  0
LINE
  5
25A
100
AcDbEntity
  8
0
100
AcDbLine
 62
7
  6
BYLAYER
 10
43.6012559616
 20
59.8027495795
 11
39.4294591918
 21
59.8027495795
  0
LINE
  5
25B
100
AcDbEntity
  8
0
100
AcDbLine
 62
7
  6
BYLAYER
 10
38.8512559617
 20
60.6409284288
 11
58.9512559615
 21
60.6409284288
  0
LINE
  5
25C
100
AcDbEntity
  8
0
100
AcDbLine
 62
7
  6
BYLAYER
 10
48.6012559616
 20
55.8680718584
 11
47.7012559616
 21
56.3540841314
  0
LINE
  5
25D
100
AcDbEntity
  8
0
100
AcDbLine
 62
7
  6
BYLAYER
 10
53.6012559616
 20
55.8680718585
 11
52.7012559616
 21
56.3540841314
  0
LINE
  5
25E
100
AcDbEntity
  8
0
100
AcDbLine
 62
7
  6
BYLAYER
 10
56.4484792119
 20
46.6335043987
 11
60.2012559614
 21
42.4123550432
  0
LINE
  5
25F
100
AcDbEntity
  8
0
100
AcDbLine
 62
7
  6
BYLAYER
 10
44.5697551499
 20
59.8027495795
 11
45.1012559616
 21
58.9543433407
  0
LINE
  5
260
100
AcDbEntity
  8
0
100
AcDbLine
 62
7
  6
BYLAYER
 10
42.7012559616
 20
56.3540841313
 11
42.7012559616
 21
58.9543433407
  0
LINE
  5
261
100
AcDbEntity
  8
0
100
AcDbLine
 62
7
  6
BYLAYER
 10
42.7012559616
 20
77.9332702929
 11
42.7012559616
 21
80.5335295022
  0
LINE
  5
262
100
AcDbEntity
  8
0
100
AcDbLine
 62
7
  6
BYLAYER
 10
42.7012559616
 20
99.5353093608
 11
42.7012559616
 21
102.1355685701
  0
LINE
  5
263
100
AcDbEntity
  8
0
100
AcDbLine
 62
7
  6
BYLAYER
 10
42.8012559617
 20
13.6526832832
 11
42.8012559617
 21
11.2335043989
  0
LINE
  5
264
100
AcDbEntity
  8
0
100
AcDbLine
 62
7
  6
BYLAYER
 10
43.3012559617
 20
13.6526832832
 11
43.3012559617
 21
11.2335043989
  0
LINE
  5
265
100
AcDbEntity
  8
0
100
AcDbLine
 62
7
  6
BYLAYER
 10
43.6012559616
 20
54.8575544428
 11
43.6012559616
 21
59.8027495795
  0
LINE
  5
266
100
AcDbEntity
  8
0
100
AcDbLine
 62
7
  6
BYLAYER
 10
43.6012559616
 20
76.4367406044
 11
43.6012559616
 21
81.381935741
  0
LINE
  5
267
100
AcDbEntity
  8
0
100
AcDbLine
 62
7
  6
BYLAYER
 10
43.6012559616
 20
98.0387796723
 11
43.6012559616
 21
102.9839748089
  0
LINE
  5
268
100
AcDbEntity
  8
0
100
AcDbLine
 62
7
  6
BYLAYER
 10
44.2012559616
 20
102.9839748089
 11
44.2012559616
 21
98.0387796723
  0
LINE
  5
269
100
AcDbEntity
  8
0
100
AcDbLine
 62
7
  6
BYLAYER
 10
44.2012559616
 20
81.381935741
 11
44.2012559616
 21
76.4367406044
  0
LINE
  5
26A
100
AcDbEntity
  8
0
100
AcDbLine
 62
7
  6
BYLAYER
 10
44.2012559616
 20
59.8027495795
 11
44.2012559616
 21
54.8575544428
  0
LINE
  5
26B
100
AcDbEntity
  8
0
100
AcDbLine
 62
7
  6
BYLAYER
 10
44.3012559617
 20
13.6526832832
 11
44.3012559617
 21
11.2335043989
  0
LINE
  5
26C
100
AcDbEntity
  8
0
100
AcDbLine
 62
7
  6
BYLAYER
 10
45.1012559616
 20
56.3540841314
 11
45.1012559616
 21
58.9543433407
  0
LINE
  5
26D
100
AcDbEntity
  8
0
100
AcDbLine
 62
7
  6
BYLAYER
 10
45.1012559616
 20
77.9332702929
 11
45.1012559616
 21
80.5335295022
  0
LINE
  5
26E
100
AcDbEntity
  8
0
100
AcDbLine
 62
7
  6
BYLAYER
 10
45.1012559616
 20
99.5353093608
 11
45.1012559616
 21
102.1355685702
  0
LINE
  5
26F
100
AcDbEntity
  8
0
100
AcDbLine
 62
7
  6
BYLAYER
 10
58.0669600155
 20
102.983974809
 11
57.7012559616
 21
102.1355685702
  0
LINE
  5
270
100
AcDbEntity
  8
0
100
AcDbLine
 62
7
  6
BYLAYER
 10
53.2327567733
 20
81.381935741
 11
52.7012559616
 21
80.5335295022
  0
LINE
  5
271
100
AcDbEntity
  8
0
100
AcDbLine
 62
7
  6
BYLAYER
 10
55.1012559616
 20
77.9332702929
 11
54.2012559616
 21
77.44725802
  0
LINE
  5
272
100
AcDbEntity
  8
0
100
AcDbLine
 62
7
  6
BYLAYER
 10
38.8512559617
 20
61.0220434343
 11
58.9512559615
 21
61.0220434343
  0
LINE
  5
273
100
AcDbEntity
  8
0
100
AcDbLine
 62
7
  6
BYLAYER
 10
58.3730527313
 20
55.8268338797
 11
57.7012559616
 21
56.3540841314
  0
LINE
  5
274
100
AcDbEntity
  8
0
100
AcDbLine
 62
7
  6
BYLAYER
 10
50.1012559616
 20
58.9543433407
 11
49.5697551498
 21
59.8027495795
  0
LINE
  5
275
100
AcDbEntity
  8
0
100
AcDbLine
 62
7
  6
BYLAYER
 10
47.7012559616
 20
102.1355685702
 11
47.7012559616
 21
99.5353093608
  0
LINE
  5
276
100
AcDbEntity
  8
0
100
AcDbLine
 62
7
  6
BYLAYER
 10
47.7012559616
 20
80.5335295022
 11
47.7012559616
 21
77.9332702929
  0
LINE
  5
277
100
AcDbEntity
  8
0
100
AcDbLine
 62
7
  6
BYLAYER
 10
47.7012559616
 20
58.9543433407
 11
47.7012559616
 21
56.3540841314
  0
LINE
  5
278
100
AcDbEntity
  8
0
100
AcDbLine
 62
7
  6
BYLAYER
 10
48.6012559616
 20
54.8575544429
 11
48.6012559616
 21
59.8027495795
  0
LINE
  5
279
100
AcDbEntity
  8
0
100
AcDbLine
 62
7
  6
BYLAYER
 10
48.6012559616
 20
76.4367406044
 11
48.6012559616
 21
81.381935741
  0
LINE
  5
27A
100
AcDbEntity
  8
0
100
AcDbLine
 62
7
  6
BYLAYER
 10
48.6012559616
 20
98.0387796723
 11
48.6012559616
 21
102.9839748089
  0
LINE
  5
27B
100
AcDbEntity
  8
0
100
AcDbLine
 62
7
  6
BYLAYER
 10
49.2012559616
 20
102.9839748089
 11
49.2012559616
 21
98.0387796723
  0
LINE
  5
27C
100
AcDbEntity
  8
0
100
AcDbLine
 62
7
  6
BYLAYER
 10
49.2012559616
 20
81.381935741
 11
49.2012559616
 21
76.4367406044
  0
LINE
  5
27D
100
AcDbEntity
  8
0
100
AcDbLine
 62
7
  6
BYLAYER
 10
49.2012559616
 20
59.8027495795
 11
49.2012559616
 21
54.8575544428
  0
LINE
  5
27E
100
AcDbEntity
  8
0
100
AcDbLine
 62
7
  6
BYLAYER
 10
42.7012559616
 20
58.9543433407
 11
43.2327567733
 21
59.8027495795
  0
LINE
  5
27F
100
AcDbEntity
  8
0
100
AcDbLine
 62
7
  6
BYLAYER
 10
38.8512559617
 20
66.5565479047
 11
58.9512559615
 21
66.5565479047
  0
LINE
  5
280
100
AcDbEntity
  8
0
100
AcDbLine
 62
7
  6
BYLAYER
 10
38.8512559617
 20
67.898617174
 11
58.9512559615
 21
67.898617174
  0
LINE
  5
281
100
AcDbEntity
  8
0
100
AcDbLine
 62
7
  6
BYLAYER
 10
55.1012559616
 20
58.9543433407
 11
54.5697551498
 21
59.8027495795
  0
LINE
  5
282
100
AcDbEntity
  8
0
100
AcDbLine
 62
7
  6
BYLAYER
 10
40.1012559616
 20
80.5335295022
 11
39.7355519077
 21
81.381935741
  0
LINE
  5
283
100
AcDbEntity
  8
0
100
AcDbLine
 62
7
  6
BYLAYER
 10
50.1012559616
 20
56.3540841314
 11
50.1012559616
 21
58.9543433407
  0
LINE
  5
284
100
AcDbEntity
  8
0
100
AcDbLine
 62
7
  6
BYLAYER
 10
50.1012559616
 20
77.9332702929
 11
50.1012559616
 21
80.5335295022
  0
LINE
  5
285
100
AcDbEntity
  8
0
100
AcDbLine
 62
7
  6
BYLAYER
 10
50.1012559616
 20
99.5353093608
 11
50.1012559616
 21
102.1355685702
  0
LINE
  5
286
100
AcDbEntity
  8
0
100
AcDbLine
 62
7
  6
BYLAYER
 10
52.7012559616
 20
102.1355685702
 11
52.7012559616
 21
99.5353093608
  0
LINE
  5
287
100
AcDbEntity
  8
0
100
AcDbLine
 62
7
  6
BYLAYER
 10
52.7012559616
 20
80.5335295022
 11
52.7012559616
 21
77.9332702929
  0
LINE
  5
288
100
AcDbEntity
  8
0
100
AcDbLine
 62
7
  6
BYLAYER
 10
52.7012559616
 20
58.9543433407
 11
52.7012559616
 21
56.3540841314
  0
LINE
  5
289
100
AcDbEntity
  8
0
100
AcDbLine
 62
7
  6
BYLAYER
 10
58.0669600155
 20
81.381935741
 11
57.7012559616
 21
80.5335295022
  0
LINE
  5
28A
100
AcDbEntity
  8
0
100
AcDbLine
 62
7
  6
BYLAYER
 10
47.7012559616
 20
58.9543433407
 11
48.2327567733
 21
59.8027495795
  0
LINE
  5
28B
100
AcDbEntity
  8
0
100
AcDbLine
 62
7
  6
BYLAYER
 10
40.1012559616
 20
56.3540841314
 11
39.4294591919
 21
55.8268338797
  0
LINE
  5
28C
100
AcDbEntity
  8
0
100
AcDbLine
 62
7
  6
BYLAYER
 10
38.3512559617
 20
70.9648911011
 11
38.8512559617
 21
70.9648911011
  0
LINE
  5
28D
100
AcDbEntity
  8
0
100
AcDbLine
 62
7
  6
BYLAYER
 10
58.9512559615
 20
70.9648911011
 11
59.4512559617
 21
70.9648911011
  0
LINE
  5
28E
100
AcDbEntity
  8
0
100
AcDbLine
 62
7
  6
BYLAYER
 10
38.8512559617
 20
71.8250193271
 11
58.9512559615
 21
71.8250193271
  0
LINE
  5
28F
100
AcDbEntity
  8
0
100
AcDbLine
 62
7
  6
BYLAYER
 10
44.5697551499
 20
81.381935741
 11
45.1012559616
 21
80.5335295022
  0
LINE
  5
290
100
AcDbEntity
  8
0
100
AcDbLine
 62
7
  6
BYLAYER
 10
53.5012559617
 20
13.6526832832
 11
53.5012559617
 21
11.2335043989
  0
LINE
  5
291
100
AcDbEntity
  8
0
100
AcDbLine
 62
7
  6
BYLAYER
 10
53.6012559616
 20
54.8575544429
 11
53.6012559616
 21
59.8027495795
  0
LINE
  5
292
100
AcDbEntity
  8
0
100
AcDbLine
 62
7
  6
BYLAYER
 10
53.6012559616
 20
76.4367406044
 11
53.6012559616
 21
81.381935741
  0
LINE
  5
293
100
AcDbEntity
  8
0
100
AcDbLine
 62
7
  6
BYLAYER
 10
53.6012559616
 20
98.0387796723
 11
53.6012559616
 21
102.983974809
  0
LINE
  5
294
100
AcDbEntity
  8
0
100
AcDbLine
 62
7
  6
BYLAYER
 10
54.2012559616
 20
102.9839748089
 11
54.2012559616
 21
98.0387796723
  0
LINE
  5
295
100
AcDbEntity
  8
0
100
AcDbLine
 62
7
  6
BYLAYER
 10
54.2012559616
 20
81.381935741
 11
54.2012559616
 21
76.4367406044
  0
LINE
  5
296
100
AcDbEntity
  8
0
100
AcDbLine
 62
7
  6
BYLAYER
 10
54.2012559616
 20
59.8027495795
 11
54.2012559616
 21
54.8575544429
  0
LINE
  5
297
100
AcDbEntity
  8
0
100
AcDbLine
 62
7
  6
BYLAYER
 10
54.5012559617
 20
13.6526832832
 11
54.5012559617
 21
11.2335043989
  0
LINE
  5
298
100
AcDbEntity
  8
0
100
AcDbLine
 62
7
  6
BYLAYER
 10
55.0012559617
 20
13.6526832832
 11
55.0012559617
 21
11.2335043989
  0
LINE
  5
299
100
AcDbEntity
  8
0
100
AcDbLine
 62
7
  6
BYLAYER
 10
55.1012559616
 20
56.3540841314
 11
55.1012559616
 21
58.9543433407
  0
LINE
  5
29A
100
AcDbEntity
  8
0
100
AcDbLine
 62
7
  6
BYLAYER
 10
55.1012559616
 20
77.9332702929
 11
55.1012559616
 21
80.5335295022
  0
LINE
  5
29B
100
AcDbEntity
  8
0
100
AcDbLine
 62
7
  6
BYLAYER
 10
55.1012559616
 20
99.5353093608
 11
55.1012559616
 21
102.1355685702
  0
LINE
  5
29C
100
AcDbEntity
  8
0
100
AcDbLine
 62
7
  6
BYLAYER
 10
56.4484792119
 20
46.6335043987
 11
56.4484792119
 21
25.033504399
  0
LINE
  5
29D
100
AcDbEntity
  8
0
100
AcDbLine
 62
7
  6
BYLAYER
 10
56.8512559617
 20
13.6526832832
 11
56.8512559617
 21
12.5335043988
  0
LINE
  5
29E
100
AcDbEntity
  8
0
100
AcDbLine
 62
7
  6
BYLAYER
 10
53.2327567733
 20
59.8027495795
 11
52.7012559616
 21
58.9543433407
  0
LINE
  5
29F
100
AcDbEntity
  8
0
100
AcDbLine
 62
7
  6
BYLAYER
 10
38.8512559617
 20
73.7063626629
 11
58.9512559615
 21
73.7063626629
  0
LINE
  5
2A0
100
AcDbEntity
  8
0
100
AcDbLine
 62
7
  6
BYLAYER
 10
59.4512559617
 20
75.0865136893
 11
58.9512559615
 21
75.0865136893
  0
LINE
  5
2A1
100
AcDbEntity
  8
0
100
AcDbLine
 62
7
  6
BYLAYER
 10
38.8512559617
 20
75.0865136893
 11
38.3512559617
 21
75.0865136893
  0
LINE
  5
2A2
100
AcDbEntity
  8
0
100
AcDbLine
 62
7
  6
BYLAYER
 10
42.7012559616
 20
77.9332702929
 11
43.6012559616
 21
77.44725802
  0
LINE
  5
2A3
100
AcDbEntity
  8
0
100
AcDbLine
 62
7
  6
BYLAYER
 10
48.6012559616
 20
77.4472580199
 11
47.7012559616
 21
77.9332702929
  0
LINE
  5
2A4
100
AcDbEntity
  8
0
100
AcDbLine
 62
7
  6
BYLAYER
 10
50.1012559616
 20
80.5335295022
 11
49.5697551498
 21
81.381935741
  0
LINE
  5
2A5
100
AcDbEntity
  8
0
100
AcDbLine
 62
7
  6
BYLAYER
 10
40.1012559616
 20
102.1355685702
 11
39.7355519077
 21
102.9839748089
  0
LINE
  5
2A6
100
AcDbEntity
  8
0
100
AcDbLine
 62
7
  6
BYLAYER
 10
57.6512559617
 20
12.5335043988
 11
57.6512559617
 21
13.6526832832
  0
LINE
  5
2A7
100
AcDbEntity
  8
0
100
AcDbLine
 62
7
  6
BYLAYER
 10
57.7012559616
 20
102.1355685702
 11
57.7012559616
 21
99.5353093608
  0
LINE
  5
2A8
100
AcDbEntity
  8
0
100
AcDbLine
 62
7
  6
BYLAYER
 10
57.7012559616
 20
80.5335295022
 11
57.7012559616
 21
77.9332702929
  0
LINE
  5
2A9
100
AcDbEntity
  8
0
100
AcDbLine
 62
7
  6
BYLAYER
 10
57.7012559616
 20
58.9543433407
 11
57.7012559616
 21
56.3540841314
  0
LINE
  5
2AA
100
AcDbEntity
  8
0
100
AcDbLine
 62
7
  6
BYLAYER
 10
58.3012559614
 20
13.6526832832
 11
58.3012559614
 21
13.5137601202
  0
LINE
  5
2AB
100
AcDbEntity
  8
0
100
AcDbLine
 62
7
  6
BYLAYER
 10
58.3730527313
 20
54.8575544429
 11
58.3730527313
 21
59.8027495795
  0
LINE
  5
2AC
100
AcDbEntity
  8
0
100
AcDbLine
 62
7
  6
BYLAYER
 10
58.3730527313
 20
76.4367406044
 11
58.3730527313
 21
81.381935741
  0
LINE
  5
2AD
100
AcDbEntity
  8
0
100
AcDbLine
 62
7
  6
BYLAYER
 10
58.3730527313
 20
98.0387796723
 11
58.3730527313
 21
102.983974809
  0
LINE
  5
2AE
100
AcDbEntity
  8
0
100
AcDbLine
 62
7
  6
BYLAYER
 10
58.9512559615
 20
49.3908936479
 11
58.9512559615
 21
117.0649275874
  0
LINE
  5
2AF
100
AcDbEntity
  8
0
100
AcDbLine
 62
7
  6
BYLAYER
 10
59.4512559617
 20
114.2950540345
 11
59.4512559617
 21
96.6835043989
  0
LINE
  5
2B0
100
AcDbEntity
  8
0
100
AcDbLine
 62
7
  6
BYLAYER
 10
59.4512559617
 20
92.5648911011
 11
59.4512559617
 21
75.0865136893
  0
LINE
  5
2B1
100
AcDbEntity
  8
0
100
AcDbLine
 62
7
  6
BYLAYER
 10
59.4512559617
 20
70.9648911011
 11
59.4512559617
 21
53.4865136893
  0
LINE
  5
2B2
100
AcDbEntity
  8
0
100
AcDbLine
 62
7
  6
BYLAYER
 10
60.2012559614
 20
13.5137601202
 11
60.2012559614
 21
124.7335043989
  0
LINE
  5
2B3
100
AcDbEntity
  8
0
100
AcDbLine
 62
7
  6
BYLAYER
 10
58.0669600155
 20
59.8027495795
 11
57.7012559616
 21
58.9543433407
  0
LINE
  5
2B4
100
AcDbEntity
  8
0
100
AcDbLine
 62
7
  6
BYLAYER
 10
37.6012559614
 20
42.4123550426
 11
41.3540327115
 21
46.6335043987
  0
LINE
  5
2B5
100
AcDbEntity
  8
0
100
AcDbLine
 62
7
  6
BYLAYER
 10
45.1012559616
 20
56.3540841314
 11
44.2012559616
 21
55.8680718584
  0
LINE
  5
2B6
100
AcDbEntity
  8
0
100
AcDbLine
 62
7
  6
BYLAYER
 10
50.1012559616
 20
56.3540841314
 11
49.2012559616
 21
55.8680718585
  0
LINE
  5
2B7
100
AcDbEntity
  8
0
100
AcDbLine
 62
7
  6
BYLAYER
 10
58.3730527313
 20
76.4367406044
 11
54.2012559616
 21
76.4367406044
  0
LINE
  5
2B8
100
AcDbEntity
  8
0
100
AcDbLine
 62
7
  6
BYLAYER
 10
53.6012559616
 20
76.4367406044
 11
49.2012559616
 21
76.4367406044
  0
LINE
  5
2B9
100
AcDbEntity
  8
0
100
AcDbLine
 62
7
  6
BYLAYER
 10
48.6012559616
 20
76.4367406044
 11
44.2012559616
 21
76.4367406044
  0
LINE
  5
2BA
100
AcDbEntity
  8
0
100
AcDbLine
 62
7
  6
BYLAYER
 10
43.6012559616
 20
76.4367406044
 11
39.4294591919
 21
76.4367406044
  0
LINE
  5
2BB
100
AcDbEntity
  8
0
100
AcDbLine
 62
7
  6
BYLAYER
 10
57.7012559616
 20
77.9332702929
 11
55.1012559616
 21
77.9332702929
  0
LINE
  5
2BC
100
AcDbEntity
  8
0
100
AcDbLine
 62
7
  6
BYLAYER
 10
52.7012559616
 20
77.9332702929
 11
50.1012559616
 21
77.9332702929
  0
LINE
  5
2BD
100
AcDbEntity
  8
0
100
AcDbLine
 62
7
  6
BYLAYER
 10
47.7012559616
 20
77.9332702929
 11
45.1012559616
 21
77.9332702929
  0
LINE
  5
2BE
100
AcDbEntity
  8
0
100
AcDbLine
 62
7
  6
BYLAYER
 10
40.1012559616
 20
77.9332702929
 11
42.7012559616
 21
77.9332702929
  0
LINE
  5
2BF
100
AcDbEntity
  8
0
100
AcDbLine
 62
7
  6
BYLAYER
 10
57.7012559616
 20
78.6955003039
 11
55.1012559616
 21
78.6955003039
  0
LINE
  5
2C0
100
AcDbEntity
  8
0
100
AcDbLine
 62
7
  6
BYLAYER
 10
52.7012559616
 20
78.6955003039
 11
50.1012559616
 21
78.6955003039
  0
LINE
  5
2C1
100
AcDbEntity
  8
0
100
AcDbLine
 62
7
  6
BYLAYER
 10
42.7012559616
 20
78.6955003039
 11
40.1012559616
 21
78.6955003039
  0
LINE
  5
2C2
100
AcDbEntity
  8
0
100
AcDbLine
 62
7
  6
BYLAYER
 10
45.1012559616
 20
78.6955003039
 11
47.7012559616
 21
78.6955003039
  0
LINE
  5
2C3
100
AcDbEntity
  8
0
100
AcDbLine
 62
7
  6
BYLAYER
 10
53.6012559616
 20
77.44725802
 11
52.7012559616
 21
77.9332702929
  0
LINE
  5
2C4
100
AcDbEntity
  8
0
100
AcDbLine
 62
7
  6
BYLAYER
 10
55.1012559616
 20
80.5335295022
 11
54.5697551498
 21
81.381935741
  0
LINE
  5
2C5
100
AcDbEntity
  8
0
100
AcDbLine
 62
7
  6
BYLAYER
 10
55.1012559616
 20
56.3540841314
 11
54.2012559616
 21
55.8680718584
  0
LINE
  5
2C6
100
AcDbEntity
  8
0
100
AcDbLine
 62
7
  6
BYLAYER
 10
42.7012559616
 20
80.5335295022
 11
40.1012559616
 21
80.5335295022
  0
LINE
  5
2C7
100
AcDbEntity
  8
0
100
AcDbLine
 62
7
  6
BYLAYER
 10
45.1012559616
 20
80.5335295022
 11
47.7012559616
 21
80.5335295022
  0
LINE
  5
2C8
100
AcDbEntity
  8
0
100
AcDbLine
 62
7
  6
BYLAYER
 10
50.1012559616
 20
80.5335295022
 11
52.7012559616
 21
80.5335295022
  0
LINE
  5
2C9
100
AcDbEntity
  8
0
100
AcDbLine
 62
7
  6
BYLAYER
 10
55.1012559616
 20
80.5335295022
 11
57.7012559616
 21
80.5335295022
  0
LINE
  5
2CA
100
AcDbEntity
  8
0
100
AcDbLine
 62
7
  6
BYLAYER
 10
38.3512559617
 20
81.1276841154
 11
38.8512559617
 21
81.1276841154
  0
LINE
  5
2CB
100
AcDbEntity
  8
0
100
AcDbLine
 62
7
  6
BYLAYER
 10
58.9512559615
 20
81.1276841154
 11
59.4512559617
 21
81.1276841154
  0
LINE
  5
2CC
100
AcDbEntity
  8
0
100
AcDbLine
 62
7
  6
BYLAYER
 10
58.3730527313
 20
81.381935741
 11
54.2012559616
 21
81.381935741
  0
LINE
  5
2CD
100
AcDbEntity
  8
0
100
AcDbLine
 62
7
  6
BYLAYER
 10
53.6012559616
 20
81.381935741
 11
49.2012559616
 21
81.381935741
  0
LINE
  5
2CE
100
AcDbEntity
  8
0
100
AcDbLine
 62
7
  6
BYLAYER
 10
48.6012559616
 20
81.381935741
 11
44.2012559616
 21
81.381935741
  0
LINE
  5
2CF
100
AcDbEntity
  8
0
100
AcDbLine
 62
7
  6
BYLAYER
 10
43.6012559616
 20
81.381935741
 11
39.4294591918
 21
81.381935741
  0
LINE
  5
2D0
100
AcDbEntity
  8
0
100
AcDbLine
 62
7
  6
BYLAYER
 10
38.8512559617
 20
82.2201145903
 11
58.9512559615
 21
82.2201145903
  0
LINE
  5
2D1
100
AcDbEntity
  8
0
100
AcDbLine
 62
7
  6
BYLAYER
 10
38.8512559617
 20
82.6012295958
 11
58.9512559615
 21
82.6012295958
  0
LINE
  5
2D2
100
AcDbEntity
  8
0
100
AcDbLine
 62
7
  6
BYLAYER
 10
58.3730527313
 20
77.4060200412
 11
57.7012559616
 21
77.9332702929
  0
LINE
  5
2D3
100
AcDbEntity
  8
0
100
AcDbLine
 62
7
  6
BYLAYER
 10
44.5697551499
 20
102.9839748089
 11
45.1012559616
 21
102.1355685702
  0
LINE
  5
2D4
100
AcDbEntity
  8
0
100
AcDbLine
 62
7
  6
BYLAYER
 10
50.1012559616
 20
102.1355685702
 11
49.5697551498
 21
102.9839748089
  0
LINE
  5
2D5
100
AcDbEntity
  8
0
100
AcDbLine
 62
7
  6
BYLAYER
 10
38.8512559617
 20
88.1357340662
 11
58.9512559615
 21
88.1357340662
  0
LINE
  5
2D6
100
AcDbEntity
  8
0
100
AcDbLine
 62
7
  6
BYLAYER
 10
38.8512559617
 20
89.4778033355
 11
58.9512559615
 21
89.4778033356
  0
LINE
  5
2D7
100
AcDbEntity
  8
0
100
AcDbLine
 62
7
  6
BYLAYER
 10
55.1012559616
 20
102.1355685702
 11
54.5697551498
 21
102.9839748089
  0
LINE
  5
2D8
100
AcDbEntity
  8
0
100
AcDbLine
 62
7
  6
BYLAYER
 10
38.3512559617
 20
92.5648911011
 11
38.8512559617
 21
92.5648911011
  0
LINE
  5
2D9
100
AcDbEntity
  8
0
100
AcDbLine
 62
7
  6
BYLAYER
 10
58.9512559615
 20
92.5648911011
 11
59.4512559617
 21
92.5648911011
  0
LINE
  5
2DA
100
AcDbEntity
  8
0
100
AcDbLine
 62
7
  6
BYLAYER
 10
38.8512559617
 20
93.4250193271
 11
58.9512559615
 21
93.4250193271
  0
LINE
  5
2DB
100
AcDbEntity
  8
0
100
AcDbLine
 62
7
  6
BYLAYER
 10
38.8512559617
 20
95.3084017309
 11
58.9512559615
 21
95.3084017309
  0
LINE
  5
2DC
100
AcDbEntity
  8
0
100
AcDbLine
 62
7
  6
BYLAYER
 10
42.7012559616
 20
99.5353093608
 11
43.6012559616
 21
99.0492970879
  0
LINE
  5
2DD
100
AcDbEntity
  8
0
100
AcDbLine
 62
7
  6
BYLAYER
 10
48.6012559616
 20
99.0492970879
 11
47.7012559616
 21
99.5353093608
  0
LINE
  5
2DE
100
AcDbEntity
  8
0
100
AcDbLine
 62
7
  6
BYLAYER
 10
59.4512559617
 20
96.6835043989
 11
58.9512559615
 21
96.6835043989
  0
LINE
  5
2DF
100
AcDbEntity
  8
0
100
AcDbLine
 62
7
  6
BYLAYER
 10
38.8512559617
 20
96.6835043989
 11
38.3512559617
 21
96.6835043989
  0
LINE
  5
2E0
100
AcDbEntity
  8
0
100
AcDbLine
 62
7
  6
BYLAYER
 10
58.3730527313
 20
98.0387796723
 11
54.2012559616
 21
98.0387796723
  0
LINE
  5
2E1
100
AcDbEntity
  8
0
100
AcDbLine
 62
7
  6
BYLAYER
 10
53.6012559616
 20
98.0387796723
 11
49.2012559616
 21
98.0387796723
  0
LINE
  5
2E2
100
AcDbEntity
  8
0
100
AcDbLine
 62
7
  6
BYLAYER
 10
48.6012559616
 20
98.0387796723
 11
44.2012559616
 21
98.0387796723
  0
LINE
  5
2E3
100
AcDbEntity
  8
0
100
AcDbLine
 62
7
  6
BYLAYER
 10
43.6012559616
 20
98.0387796723
 11
39.4294591919
 21
98.0387796723
  0
LINE
  5
2E4
100
AcDbEntity
  8
0
100
AcDbLine
 62
7
  6
BYLAYER
 10
53.6012559616
 20
99.0492970879
 11
52.7012559616
 21
99.5353093608
  0
LINE
  5
2E5
100
AcDbEntity
  8
0
100
AcDbLine
 62
7
  6
BYLAYER
 10
58.3730527313
 20
99.0080591092
 11
57.7012559616
 21
99.5353093608
  0
LINE
  5
2E6
100
AcDbEntity
  8
0
100
AcDbLine
 62
7
  6
BYLAYER
 10
60.2012559614
 20
29.2546537545
 11
56.4484792119
 21
25.033504399
  0
LINE
  5
2E7
100
AcDbEntity
  8
0
100
AcDbLine
 62
7
  6
BYLAYER
 10
57.7012559616
 20
99.5353093608
 11
55.1012559616
 21
99.5353093608
  0
LINE
  5
2E8
100
AcDbEntity
  8
0
100
AcDbLine
 62
7
  6
BYLAYER
 10
52.7012559616
 20
99.5353093608
 11
50.1012559616
 21
99.5353093608
  0
LINE
  5
2E9
100
AcDbEntity
  8
0
100
AcDbLine
 62
7
  6
BYLAYER
 10
47.7012559616
 20
99.5353093608
 11
45.1012559616
 21
99.5353093608
  0
LINE
  5
2EA
100
AcDbEntity
  8
0
100
AcDbLine
 62
7
  6
BYLAYER
 10
40.1012559616
 20
99.5353093608
 11
42.7012559616
 21
99.5353093608
  0
LINE
  5
2EB
100
AcDbEntity
  8
0
100
AcDbLine
 62
7
  6
BYLAYER
 10
57.7012559616
 20
100.2975393718
 11
55.1012559616
 21
100.2975393718
  0
LINE
  5
2EC
100
AcDbEntity
  8
0
100
AcDbLine
 62
7
  6
BYLAYER
 10
52.7012559616
 20
100.2975393718
 11
50.1012559616
 21
100.2975393718
  0
LINE
  5
2ED
100
AcDbEntity
  8
0
100
AcDbLine
 62
7
  6
BYLAYER
 10
42.7012559616
 20
100.2975393718
 11
40.1012559616
 21
100.2975393718
  0
LINE
  5
2EE
100
AcDbEntity
  8
0
100
AcDbLine
 62
7
  6
BYLAYER
 10
45.1012559616
 20
100.2975393718
 11
47.7012559616
 21
100.2975393718
  0
LINE
  5
2EF
100
AcDbEntity
  8
0
100
AcDbLine
 62
7
  6
BYLAYER
 10
42.7012559616
 20
102.1355685702
 11
40.1012559616
 21
102.1355685702
  0
LINE
  5
2F0
100
AcDbEntity
  8
0
100
AcDbLine
 62
7
  6
BYLAYER
 10
45.1012559616
 20
102.1355685702
 11
47.7012559616
 21
102.1355685702
  0
LINE
  5
2F1
100
AcDbEntity
  8
0
100
AcDbLine
 62
7
  6
BYLAYER
 10
50.1012559616
 20
102.1355685702
 11
52.7012559616
 21
102.1355685702
  0
LINE
  5
2F2
100
AcDbEntity
  8
0
100
AcDbLine
 62
7
  6
BYLAYER
 10
55.1012559616
 20
102.1355685702
 11
57.7012559616
 21
102.1355685702
  0
LINE
  5
2F3
100
AcDbEntity
  8
0
100
AcDbLine
 62
7
  6
BYLAYER
 10
38.3512559617
 20
102.7292801688
 11
38.8512559617
 21
102.7292801688
  0
LINE
  5
2F4
100
AcDbEntity
  8
0
100
AcDbLine
 62
7
  6
BYLAYER
 10
58.9512559615
 20
102.7292801688
 11
59.4512559617
 21
102.7292801688
  0
LINE
  5
2F5
100
AcDbEntity
  8
0
100
AcDbLine
 62
7
  6
BYLAYER
 10
58.3730527313
 20
102.983974809
 11
54.2012559616
 21
102.9839748089
  0
LINE
  5
2F6
100
AcDbEntity
  8
0
100
AcDbLine
 62
7
  6
BYLAYER
 10
53.6012559616
 20
102.983974809
 11
49.2012559616
 21
102.9839748089
  0
LINE
  5
2F7
100
AcDbEntity
  8
0
100
AcDbLine
 62
7
  6
BYLAYER
 10
48.6012559616
 20
102.9839748089
 11
44.2012559616
 21
102.9839748089
  0
LINE
  5
2F8
100
AcDbEntity
  8
0
100
AcDbLine
 62
7
  6
BYLAYER
 10
43.6012559616
 20
102.9839748089
 11
39.4294591918
 21
102.9839748089
  0
LINE
  5
2F9
100
AcDbEntity
  8
0
100
AcDbLine
 62
7
  6
BYLAYER
 10
38.8512559617
 20
103.8221536582
 11
58.9512559615
 21
103.8221536583
  0
LINE
  5
2FA
100
AcDbEntity
  8
0
100
AcDbLine
 62
7
  6
BYLAYER
 10
38.8512559617
 20
104.2032686637
 11
58.9512559615
 21
104.2032686638
  0
LINE
  5
2FB
100
AcDbEntity
  8
0
100
AcDbLine
 62
7
  6
BYLAYER
 10
38.8512559617
 20
109.7377731341
 11
58.9512559615
 21
109.7377731342
  0
LINE
  5
2FC
100
AcDbEntity
  8
0
100
AcDbLine
 62
7
  6
BYLAYER
 10
38.8512559617
 20
111.0798424035
 11
58.9512559615
 21
111.0798424035
  0
LINE
  5
2FD
100
AcDbEntity
  8
0
100
AcDbLine
 62
7
  6
BYLAYER
 10
38.3512559617
 20
114.2950540345
 11
38.8512559617
 21
114.2950540345
  0
LINE
  5
2FE
100
AcDbEntity
  8
0
100
AcDbLine
 62
7
  6
BYLAYER
 10
58.9512559615
 20
114.2950540345
 11
59.4512559617
 21
114.2950540345
  0
LINE
  5
2FF
100
AcDbEntity
  8
0
100
AcDbLine
 62
7
  6
BYLAYER
 10
58.9512559615
 20
117.0649275874
 11
38.8512559617
 21
117.0649275874
  0
LINE
  5
300
100
AcDbEntity
  8
0
100
AcDbLine
 62
7
  6
BYLAYER
 10
37.6012559614
 20
117.3951985959
 11
60.2012559614
 21
117.3951985959
  0
LINE
  5
301
100
AcDbEntity
  8
0
100
AcDbLine
 62
7
  6
BYLAYER
 10
37.6012559614
 20
124.7335043989
 11
60.2012559614
 21
124.7335043989
  0
ARC
  5
302
100
AcDbEntity
  8
0
100
AcDbCircle
 62
7
  6
BYLAYER
 10
41.5012739851
 20
108.0538583986
 40
3.4898950707
100
AcDbArc
 50
90.0080175859
 51
91.4203205042
  0
ARC
  5
303
100
AcDbEntity
  8
0
100
AcDbCircle
 62
7
  6
BYLAYER
 10
46.4012739851
 20
108.0538583985
 40
3.4898950708
100
AcDbArc
 50
90.008017586
 51
91.4203205042
  0
ARC
  5
304
100
AcDbEntity
  8
0
100
AcDbCircle
 62
7
  6
BYLAYER
 10
56.3012739851
 20
64.8726331691
 40
3.4898950709
100
AcDbArc
 50
90.008017586
 51
91.4203205044
  0
ARC
  5
305
100
AcDbEntity
  8
0
100
AcDbCircle
 62
7
  6
BYLAYER
 10
51.4012739851
 20
108.0538583987
 40
3.4898950707
100
AcDbArc
 50
90.0080175859
 51
91.4203205049
  0
ARC
  5
306
100
AcDbEntity
  8
0
100
AcDbCircle
 62
7
  6
BYLAYER
 10
46.4012739851
 20
86.4518193306
 40
3.4898950708
100
AcDbArc
 50
90.008017586
 51
91.4203205042
  0
ARC
  5
307
100
AcDbEntity
  8
0
100
AcDbCircle
 62
7
  6
BYLAYER
 10
56.3012739851
 20
86.4518193307
 40
3.4898950708
100
AcDbArc
 50
90.008017586
 51
91.4203205045
  0
ARC
  5
308
100
AcDbEntity
  8
0
100
AcDbCircle
 62
7
  6
BYLAYER
 10
46.4012739851
 20
64.8726331692
 40
3.4898950707
100
AcDbArc
 50
90.0080175859
 51
91.4203205042
  0
ARC
  5
309
100
AcDbEntity
  8
0
100
AcDbCircle
 62
7
  6
BYLAYER
 10
51.4012739851
 20
64.8726331692
 40
3.4898950707
100
AcDbArc
 50
90.0080175859
 51
91.4203205049
  0
ARC
  5
30A
100
AcDbEntity
  8
0
100
AcDbCircle
 62
7
  6
BYLAYER
 10
56.3012739851
 20
108.0538583989
 40
3.4898950705
100
AcDbArc
 50
90.0080175859
 51
91.4203205045
  0
ARC
  5
30B
100
AcDbEntity
  8
0
100
AcDbCircle
 62
7
  6
BYLAYER
 10
41.5012739851
 20
86.4518193308
 40
3.4898950706
100
AcDbArc
 50
90.0080175859
 51
91.4203205042
  0
ARC
  5
30C
100
AcDbEntity
  8
0
100
AcDbCircle
 62
7
  6
BYLAYER
 10
51.4012739851
 20
86.4518193309
 40
3.4898950705
100
AcDbArc
 50
90.0080175859
 51
91.4203205049
  0
ARC
  5
30D
100
AcDbEntity
  8
0
100
AcDbCircle
 62
7
  6
BYLAYER
 10
41.5012739851
 20
64.8726331692
 40
3.4898950707
100
AcDbArc
 50
90.0080175859
 51
91.4203205042
  0
ARC
  5
30E
100
AcDbEntity
  8
0
100
AcDbCircle
 62
7
  6
BYLAYER
 10
41.5013249373
 20
108.0602387363
 40
3.4835147407
100
AcDbArc
 50
87.6630746109
 51
90.0088703175
  0
ARC
  5
30F
100
AcDbEntity
  8
0
100
AcDbCircle
 62
7
  6
BYLAYER
 10
46.4013249373
 20
108.0602387363
 40
3.4835147407
100
AcDbArc
 50
87.6630746109
 51
90.0088703175
  0
ARC
  5
310
100
AcDbEntity
  8
0
100
AcDbCircle
 62
7
  6
BYLAYER
 10
51.4013249373
 20
108.0602387363
 40
3.4835147407
100
AcDbArc
 50
87.6630746104
 51
90.0088703175
  0
ARC
  5
311
100
AcDbEntity
  8
0
100
AcDbCircle
 62
7
  6
BYLAYER
 10
56.3013249373
 20
108.0602387362
 40
3.4835147408
100
AcDbArc
 50
87.6630746107
 51
90.0088703174
  0
ARC
  5
312
100
AcDbEntity
  8
0
100
AcDbCircle
 62
7
  6
BYLAYER
 10
41.5013249373
 20
86.4581996683
 40
3.4835147407
100
AcDbArc
 50
87.6630746109
 51
90.0088703175
  0
ARC
  5
313
100
AcDbEntity
  8
0
100
AcDbCircle
 62
7
  6
BYLAYER
 10
46.4013249373
 20
86.4581996683
 40
3.4835147408
100
AcDbArc
 50
87.6630746109
 51
90.0088703175
  0
ARC
  5
314
100
AcDbEntity
  8
0
100
AcDbCircle
 62
7
  6
BYLAYER
 10
51.4013249373
 20
86.4581996682
 40
3.4835147408
100
AcDbArc
 50
87.6630746104
 51
90.0088703174
  0
ARC
  5
315
100
AcDbEntity
  8
0
100
AcDbCircle
 62
7
  6
BYLAYER
 10
56.3013249373
 20
86.4581996683
 40
3.4835147408
100
AcDbArc
 50
87.6630746107
 51
90.0088703174
  0
ARC
  5
316
100
AcDbEntity
  8
0
100
AcDbCircle
 62
7
  6
BYLAYER
 10
41.5013249373
 20
64.8790135068
 40
3.4835147407
100
AcDbArc
 50
87.6630746109
 51
90.0088703175
  0
ARC
  5
317
100
AcDbEntity
  8
0
100
AcDbCircle
 62
7
  6
BYLAYER
 10
46.4013249373
 20
64.8790135069
 40
3.4835147406
100
AcDbArc
 50
87.6630746109
 51
90.0088703175
  0
ARC
  5
318
100
AcDbEntity
  8
0
100
AcDbCircle
 62
7
  6
BYLAYER
 10
51.4013249373
 20
64.8790135068
 40
3.4835147407
100
AcDbArc
 50
87.6630746104
 51
90.0088703175
  0
ARC
  5
319
100
AcDbEntity
  8
0
100
AcDbCircle
 62
7
  6
BYLAYER
 10
56.3013249373
 20
64.8790135068
 40
3.4835147407
100
AcDbArc
 50
87.6630746107
 51
90.0088703175
  0
ARC
  5
31A
100
AcDbEntity
  8
0
100
AcDbCircle
 62
7
  6
BYLAYER
 10
56.3512559617
 20
12.5335043989
 40
1.3
100
AcDbArc
 50
270.0
 51
360.0
  0
ARC
  5
31B
100
AcDbEntity
  8
0
100
AcDbCircle
 62
7
  6
BYLAYER
 10
41.4512559617
 20
12.5335043989
 40
1.3
100
AcDbArc
 50
180.0
 51
270.0
  0
SPLINE
  5
31C
100
AcDbEntity
  8
0
100
AcDbSpline
 62
7
  6
BYLAYER
 70
0
 71
3
 72
18
 73
14
 74
0
 42
0.0000001
 43
0.0000001
 44
0.0000000001
 40
0.0
 40
0.0
 40
0.0
 40
0.0
 40
0.043261923
 40
0.0874901032
 40
0.1335517225
 40
0.1821560677
 40
0.2338121928
 40
0.288844528
 40
0.4093407935
 40
0.5433505103
 40
0.6887290937
 40
0.8422588989
 40
1.0
 40
1.0
 40
1.0
 40
1.0
 10
54.3262706222
 20
112.6043024276
 30
0.0
 10
54.3262705239
 20
112.5690283636
 30
0.0
 10
54.3327727199
 20
112.4975297237
 30
0.0
 10
54.3618634857
 20
112.3920605702
 30
0.0
 10
54.4097731563
 20
112.2889139893
 30
0.0
 10
54.4759505509
 20
112.1891669572
 30
0.0
 10
54.5595720695
 20
112.0936428157
 30
0.0
 10
54.6974119404
 20
111.9693654871
 30
0.0
 10
54.9105621353
 20
111.8312141031
 30
0.0
 10
55.2101477702
 20
111.6998671577
 30
0.0
 10
55.5503972931
 20
111.6023972583
 30
0.0
 10
55.9186234705
 20
111.5424518649
 30
0.0
 10
56.1726400953
 20
111.52901366
 30
0.0
 10
56.3012559616
 20
111.52901366
 30
0.0
  0
SPLINE
  5
31D
100
AcDbEntity
  8
0
100
AcDbSpline
 62
7
  6
BYLAYER
 70
0
 71
3
 72
18
 73
14
 74
0
 42
0.0000001
 43
0.0000001
 44
0.0000000001
 40
0.0
 40
0.0
 40
0.0
 40
0.0
 40
0.157739513
 40
0.3112661572
 40
0.4566436916
 40
0.5906531521
 40
0.7111509823
 40
0.7661842171
 40
0.817841535
 40
0.8664467572
 40
0.9125091344
 40
0.9567377839
 40
1.0
 40
1.0
 40
1.0
 40
1.0
 10
41.5012559616
 20
111.52901366
 30
0.0
 10
41.6298705513
 20
111.52901366
 30
0.0
 10
41.8838833798
 20
111.5424511075
 30
0.0
 10
42.2521049043
 20
111.6023954542
 30
0.0
 10
42.5923517156
 20
111.6998618137
 30
0.0
 10
42.891938073
 20
111.831207454
 30
0.0
 10
43.1050915444
 20
111.96935747
 30
0.0
 10
43.2429334522
 20
112.093636965
 30
0.0
 10
43.3265580986
 20
112.189161632
 30
0.0
 10
43.3927366757
 20
112.2889107108
 30
0.0
 10
43.4406479317
 20
112.3920584438
 30
0.0
 10
43.469739087
 20
112.497528867
 30
0.0
 10
43.4762412027
 20
112.5690281152
 30
0.0
 10
43.4762413009
 20
112.6043024233
 30
0.0
  0
SPLINE
  5
31E
100
AcDbEntity
  8
0
100
AcDbSpline
 62
7
  6
BYLAYER
 70
0
 71
3
 72
18
 73
14
 74
0
 42
0.0000001
 43
0.0000001
 44
0.0000000001
 40
0.0
 40
0.0
 40
0.0
 40
0.0
 40
0.157739513
 40
0.3112661572
 40
0.4566436916
 40
0.5906531521
 40
0.7111509823
 40
0.7661842171
 40
0.817841535
 40
0.8664467572
 40
0.9125091344
 40
0.9567377839
 40
1.0
 40
1.0
 40
1.0
 40
1.0
 10
51.4012559616
 20
111.52901366
 30
0.0
 10
51.5298705513
 20
111.52901366
 30
0.0
 10
51.7838833798
 20
111.5424511076
 30
0.0
 10
52.1521049043
 20
111.6023954542
 30
0.0
 10
52.4923517156
 20
111.6998618137
 30
0.0
 10
52.791938073
 20
111.831207454
 30
0.0
 10
53.0050915444
 20
111.96935747
 30
0.0
 10
53.1429334522
 20
112.093636965
 30
0.0
 10
53.2265580986
 20
112.189161632
 30
0.0
 10
53.2927366757
 20
112.2889107108
 30
0.0
 10
53.3406479317
 20
112.3920584438
 30
0.0
 10
53.369739087
 20
112.497528867
 30
0.0
 10
53.3762412027
 20
112.5690281152
 30
0.0
 10
53.3762413009
 20
112.6043024233
 30
0.0
  0
SPLINE
  5
31F
100
AcDbEntity
  8
0
100
AcDbSpline
 62
7
  6
BYLAYER
 70
0
 71
3
 72
18
 73
14
 74
0
 42
0.0000001
 43
0.0000001
 44
0.0000000001
 40
0.0
 40
0.0
 40
0.0
 40
0.0
 40
0.157739513
 40
0.3112661572
 40
0.4566436916
 40
0.5906531521
 40
0.7111509823
 40
0.7661842171
 40
0.817841535
 40
0.8664467572
 40
0.9125091344
 40
0.9567377839
 40
1.0
 40
1.0
 40
1.0
 40
1.0
 10
46.4012559616
 20
111.52901366
 30
0.0
 10
46.5298705513
 20
111.52901366
 30
0.0
 10
46.7838833798
 20
111.5424511076
 30
0.0
 10
47.1521049043
 20
111.6023954542
 30
0.0
 10
47.4923517156
 20
111.6998618137
 30
0.0
 10
47.791938073
 20
111.831207454
 30
0.0
 10
48.0050915444
 20
111.96935747
 30
0.0
 10
48.1429334522
 20
112.093636965
 30
0.0
 10
48.2265580986
 20
112.189161632
 30
0.0
 10
48.2927366757
 20
112.2889107108
 30
0.0
 10
48.3406479317
 20
112.3920584438
 30
0.0
 10
48.369739087
 20
112.497528867
 30
0.0
 10
48.3762412027
 20
112.5690281152
 30
0.0
 10
48.3762413009
 20
112.6043024233
 30
0.0
  0
SPLINE
  5
320
100
AcDbEntity
  8
0
100
AcDbSpline
 62
7
  6
BYLAYER
 70
0
 71
3
 72
18
 73
14
 74
0
 42
0.0000001
 43
0.0000001
 44
0.0000000001
 40
0.0
 40
0.0
 40
0.0
 40
0.0
 40
0.157739513
 40
0.3112661572
 40
0.4566436916
 40
0.5906531521
 40
0.7111509823
 40
0.7661842171
 40
0.817841535
 40
0.8664467572
 40
0.9125091344
 40
0.9567377839
 40
1.0
 40
1.0
 40
1.0
 40
1.0
 10
56.3012559616
 20
111.52901366
 30
0.0
 10
56.4298705513
 20
111.52901366
 30
0.0
 10
56.6838833798
 20
111.5424511076
 30
0.0
 10
57.0521049043
 20
111.6023954542
 30
0.0
 10
57.3923517156
 20
111.6998618137
 30
0.0
 10
57.691938073
 20
111.831207454
 30
0.0
 10
57.9050915444
 20
111.96935747
 30
0.0
 10
58.0429334522
 20
112.093636965
 30
0.0
 10
58.1265580986
 20
112.189161632
 30
0.0
 10
58.1927366757
 20
112.2889107108
 30
0.0
 10
58.2406479317
 20
112.3920584438
 30
0.0
 10
58.269739087
 20
112.497528867
 30
0.0
 10
58.2762412027
 20
112.5690281153
 30
0.0
 10
58.2762413009
 20
112.6043024233
 30
0.0
  0
SPLINE
  5
321
100
AcDbEntity
  8
0
100
AcDbSpline
 62
7
  6
BYLAYER
 70
0
 71
3
 72
18
 73
14
 74
0
 42
0.0000001
 43
0.0000001
 44
0.0000000001
 40
0.0
 40
0.0
 40
0.0
 40
0.0
 40
0.043261923
 40
0.0874901032
 40
0.1335517225
 40
0.1821560677
 40
0.2338121928
 40
0.288844528
 40
0.4093407935
 40
0.5433505103
 40
0.6887290937
 40
0.8422588989
 40
1.0
 40
1.0
 40
1.0
 40
1.0
 10
44.4262706222
 20
112.6043024276
 30
0.0
 10
44.4262705239
 20
112.5690283636
 30
0.0
 10
44.4327727199
 20
112.4975297237
 30
0.0
 10
44.4618634857
 20
112.3920605702
 30
0.0
 10
44.5097731563
 20
112.2889139893
 30
0.0
 10
44.5759505509
 20
112.1891669571
 30
0.0
 10
44.6595720695
 20
112.0936428157
 30
0.0
 10
44.7974119404
 20
111.9693654871
 30
0.0
 10
45.0105621353
 20
111.831214103
 30
0.0
 10
45.3101477702
 20
111.6998671577
 30
0.0
 10
45.6503972931
 20
111.6023972583
 30
0.0
 10
46.0186234705
 20
111.5424518649
 30
0.0
 10
46.2726400953
 20
111.52901366
 30
0.0
 10
46.4012559616
 20
111.52901366
 30
0.0
  0
SPLINE
  5
322
100
AcDbEntity
  8
0
100
AcDbSpline
 62
7
  6
BYLAYER
 70
0
 71
3
 72
18
 73
14
 74
0
 42
0.0000001
 43
0.0000001
 44
0.0000000001
 40
0.0
 40
0.0
 40
0.0
 40
0.0
 40
0.043261923
 40
0.0874901032
 40
0.1335517225
 40
0.1821560677
 40
0.2338121928
 40
0.288844528
 40
0.4093407935
 40
0.5433505103
 40
0.6887290937
 40
0.8422588989
 40
1.0
 40
1.0
 40
1.0
 40
1.0
 10
49.4262706222
 20
112.6043024276
 30
0.0
 10
49.4262705239
 20
112.5690283636
 30
0.0
 10
49.4327727199
 20
112.4975297237
 30
0.0
 10
49.4618634857
 20
112.3920605702
 30
0.0
 10
49.5097731563
 20
112.2889139893
 30
0.0
 10
49.5759505509
 20
112.1891669571
 30
0.0
 10
49.6595720695
 20
112.0936428157
 30
0.0
 10
49.7974119404
 20
111.9693654871
 30
0.0
 10
50.0105621353
 20
111.831214103
 30
0.0
 10
50.3101477702
 20
111.6998671577
 30
0.0
 10
50.6503972931
 20
111.6023972582
 30
0.0
 10
51.0186234705
 20
111.5424518649
 30
0.0
 10
51.2726400953
 20
111.52901366
 30
0.0
 10
51.4012559616
 20
111.52901366
 30
0.0
  0
SPLINE
  5
323
100
AcDbEntity
  8
0
100
AcDbSpline
 62
7
  6
BYLAYER
 70
0
 71
3
 72
18
 73
14
 74
0
 42
0.0000001
 43
0.0000001
 44
0.0000000001
 40
0.0
 40
0.0
 40
0.0
 40
0.0
 40
0.043261923
 40
0.0874901032
 40
0.1335517225
 40
0.1821560677
 40
0.2338121928
 40
0.288844528
 40
0.4093407935
 40
0.5433505103
 40
0.6887290937
 40
0.8422588989
 40
1.0
 40
1.0
 40
1.0
 40
1.0
 10
39.5262706222
 20
112.6043024276
 30
0.0
 10
39.5262705239
 20
112.5690283636
 30
0.0
 10
39.5327727199
 20
112.4975297237
 30
0.0
 10
39.5618634857
 20
112.3920605702
 30
0.0
 10
39.6097731563
 20
112.2889139892
 30
0.0
 10
39.6759505509
 20
112.1891669571
 30
0.0
 10
39.7595720695
 20
112.0936428157
 30
0.0
 10
39.8974119404
 20
111.9693654871
 30
0.0
 10
40.1105621353
 20
111.831214103
 30
0.0
 10
40.4101477702
 20
111.6998671577
 30
0.0
 10
40.7503972931
 20
111.6023972582
 30
0.0
 10
41.1186234705
 20
111.5424518649
 30
0.0
 10
41.3726400953
 20
111.52901366
 30
0.0
 10
41.5012559616
 20
111.52901366
 30
0.0
  0
SPLINE
  5
324
100
AcDbEntity
  8
0
100
AcDbSpline
 62
7
  6
BYLAYER
 70
0
 71
3
 72
18
 73
14
 74
0
 42
0.0000001
 43
0.0000001
 44
0.0000000001
 40
0.0
 40
0.0
 40
0.0
 40
0.0
 40
0.043261923
 40
0.0874901032
 40
0.1335517225
 40
0.1821560677
 40
0.2338121928
 40
0.288844528
 40
0.4093407935
 40
0.5433505103
 40
0.6887290937
 40
0.8422588989
 40
1.0
 40
1.0
 40
1.0
 40
1.0
 10
53.3762413009
 20
112.6043024233
 30
0.0
 10
53.3762413992
 20
112.6395764873
 30
0.0
 10
53.3697392032
 20
112.7110751273
 30
0.0
 10
53.3406484374
 20
112.8165442807
 30
0.0
 10
53.2927387669
 20
112.9196908617
 30
0.0
 10
53.2265613723
 20
113.0194378938
 30
0.0
 10
53.1429398536
 20
113.1149620353
 30
0.0
 10
53.0050999828
 20
113.2392393638
 30
0.0
 10
52.7919497878
 20
113.3773907479
 30
0.0
 10
52.492364153
 20
113.5087376932
 30
0.0
 10
52.15211463
 20
113.6062075927
 30
0.0
 10
51.7838884527
 20
113.6661529861
 30
0.0
 10
51.5298718279
 20
113.679591191
 30
0.0
 10
51.4012559616
 20
113.679591191
 30
0.0
  0
SPLINE
  5
325
100
AcDbEntity
  8
0
100
AcDbSpline
 62
7
  6
BYLAYER
 70
0
 71
3
 72
18
 73
14
 74
0
 42
0.0000001
 43
0.0000001
 44
0.0000000001
 40
0.0
 40
0.0
 40
0.0
 40
0.0
 40
0.043261923
 40
0.0874901032
 40
0.1335517225
 40
0.1821560677
 40
0.2338121928
 40
0.288844528
 40
0.4093407935
 40
0.5433505103
 40
0.6887290937
 40
0.8422588989
 40
1.0
 40
1.0
 40
1.0
 40
1.0
 10
43.4762413009
 20
112.6043024233
 30
0.0
 10
43.4762413992
 20
112.6395764873
 30
0.0
 10
43.4697392032
 20
112.7110751272
 30
0.0
 10
43.4406484374
 20
112.8165442807
 30
0.0
 10
43.3927387669
 20
112.9196908617
 30
0.0
 10
43.3265613723
 20
113.0194378938
 30
0.0
 10
43.2429398536
 20
113.1149620353
 30
0.0
 10
43.1050999828
 20
113.2392393638
 30
0.0
 10
42.8919497878
 20
113.3773907479
 30
0.0
 10
42.592364153
 20
113.5087376932
 30
0.0
 10
42.25211463
 20
113.6062075927
 30
0.0
 10
41.8838884527
 20
113.6661529861
 30
0.0
 10
41.6298718279
 20
113.679591191
 30
0.0
 10
41.5012559616
 20
113.679591191
 30
0.0
  0
SPLINE
  5
326
100
AcDbEntity
  8
0
100
AcDbSpline
 62
7
  6
BYLAYER
 70
0
 71
3
 72
18
 73
14
 74
0
 42
0.0000001
 43
0.0000001
 44
0.0000000001
 40
0.0
 40
0.0
 40
0.0
 40
0.0
 40
0.157739513
 40
0.3112661572
 40
0.4566436916
 40
0.5906531521
 40
0.7111509823
 40
0.7661842171
 40
0.817841535
 40
0.8664467572
 40
0.9125091344
 40
0.9567377839
 40
1.0
 40
1.0
 40
1.0
 40
1.0
 10
51.4012559616
 20
113.679591191
 30
0.0
 10
51.2726413718
 20
113.679591191
 30
0.0
 10
51.0186285433
 20
113.6661537434
 30
0.0
 10
50.6504070189
 20
113.6062093967
 30
0.0
 10
50.3101602075
 20
113.5087430373
 30
0.0
 10
50.0105738501
 20
113.377397397
 30
0.0
 10
49.7974203787
 20
113.239247381
 30
0.0
 10
49.659578471
 20
113.1149678859
 30
0.0
 10
49.5759538246
 20
113.0194432189
 30
0.0
 10
49.5097752474
 20
112.9196941401
 30
0.0
 10
49.4618639914
 20
112.8165464072
 30
0.0
 10
49.4327728361
 20
112.711075984
 30
0.0
 10
49.4262707205
 20
112.6395767357
 30
0.0
 10
49.4262706222
 20
112.6043024276
 30
0.0
  0
SPLINE
  5
327
100
AcDbEntity
  8
0
100
AcDbSpline
 62
7
  6
BYLAYER
 70
0
 71
3
 72
18
 73
14
 74
0
 42
0.0000001
 43
0.0000001
 44
0.0000000001
 40
0.0
 40
0.0
 40
0.0
 40
0.0
 40
0.043261923
 40
0.0874901032
 40
0.1335517225
 40
0.1821560677
 40
0.2338121928
 40
0.288844528
 40
0.4093407935
 40
0.5433505103
 40
0.6887290937
 40
0.8422588989
 40
1.0
 40
1.0
 40
1.0
 40
1.0
 10
58.2762413009
 20
112.6043024233
 30
0.0
 10
58.2762413992
 20
112.6395764873
 30
0.0
 10
58.2697392032
 20
112.7110751273
 30
0.0
 10
58.2406484374
 20
112.8165442807
 30
0.0
 10
58.1927387669
 20
112.9196908617
 30
0.0
 10
58.1265613723
 20
113.0194378938
 30
0.0
 10
58.0429398536
 20
113.1149620353
 30
0.0
 10
57.9050999828
 20
113.2392393638
 30
0.0
 10
57.6919497878
 20
113.3773907479
 30
0.0
 10
57.392364153
 20
113.5087376932
 30
0.0
 10
57.05211463
 20
113.6062075927
 30
0.0
 10
56.6838884527
 20
113.6661529861
 30
0.0
 10
56.4298718279
 20
113.679591191
 30
0.0
 10
56.3012559616
 20
113.679591191
 30
0.0
  0
SPLINE
  5
328
100
AcDbEntity
  8
0
100
AcDbSpline
 62
7
  6
BYLAYER
 70
0
 71
3
 72
18
 73
14
 74
0
 42
0.0000001
 43
0.0000001
 44
0.0000000001
 40
0.0
 40
0.0
 40
0.0
 40
0.0
 40
0.157739513
 40
0.3112661572
 40
0.4566436916
 40
0.5906531521
 40
0.7111509823
 40
0.7661842171
 40
0.817841535
 40
0.8664467572
 40
0.9125091344
 40
0.9567377839
 40
1.0
 40
1.0
 40
1.0
 40
1.0
 10
46.4012559616
 20
113.679591191
 30
0.0
 10
46.2726413718
 20
113.679591191
 30
0.0
 10
46.0186285433
 20
113.6661537434
 30
0.0
 10
45.6504070189
 20
113.6062093967
 30
0.0
 10
45.3101602075
 20
113.5087430373
 30
0.0
 10
45.0105738501
 20
113.377397397
 30
0.0
 10
44.7974203787
 20
113.239247381
 30
0.0
 10
44.659578471
 20
113.1149678859
 30
0.0
 10
44.5759538246
 20
113.0194432189
 30
0.0
 10
44.5097752474
 20
112.9196941401
 30
0.0
 10
44.4618639914
 20
112.8165464072
 30
0.0
 10
44.4327728361
 20
112.711075984
 30
0.0
 10
44.4262707205
 20
112.6395767357
 30
0.0
 10
44.4262706222
 20
112.6043024276
 30
0.0
  0
SPLINE
  5
329
100
AcDbEntity
  8
0
100
AcDbSpline
 62
7
  6
BYLAYER
 70
0
 71
3
 72
18
 73
14
 74
0
 42
0.0000001
 43
0.0000001
 44
0.0000000001
 40
0.0
 40
0.0
 40
0.0
 40
0.0
 40
0.157739513
 40
0.3112661572
 40
0.4566436916
 40
0.5906531521
 40
0.7111509823
 40
0.7661842171
 40
0.817841535
 40
0.8664467572
 40
0.9125091344
 40
0.9567377839
 40
1.0
 40
1.0
 40
1.0
 40
1.0
 10
41.5012559616
 20
113.679591191
 30
0.0
 10
41.3726413718
 20
113.679591191
 30
0.0
 10
41.1186285433
 20
113.6661537434
 30
0.0
 10
40.7504070189
 20
113.6062093967
 30
0.0
 10
40.4101602075
 20
113.5087430372
 30
0.0
 10
40.1105738501
 20
113.377397397
 30
0.0
 10
39.8974203787
 20
113.239247381
 30
0.0
 10
39.759578471
 20
113.1149678859
 30
0.0
 10
39.6759538246
 20
113.0194432189
 30
0.0
 10
39.6097752474
 20
112.9196941401
 30
0.0
 10
39.5618639914
 20
112.8165464072
 30
0.0
 10
39.5327728361
 20
112.711075984
 30
0.0
 10
39.5262707205
 20
112.6395767357
 30
0.0
 10
39.5262706222
 20
112.6043024276
 30
0.0
  0
SPLINE
  5
32A
100
AcDbEntity
  8
0
100
AcDbSpline
 62
7
  6
BYLAYER
 70
0
 71
3
 72
18
 73
14
 74
0
 42
0.0000001
 43
0.0000001
 44
0.0000000001
 40
0.0
 40
0.0
 40
0.0
 40
0.0
 40
0.157739513
 40
0.3112661572
 40
0.4566436916
 40
0.5906531521
 40
0.7111509823
 40
0.7661842171
 40
0.817841535
 40
0.8664467572
 40
0.9125091344
 40
0.9567377839
 40
1.0
 40
1.0
 40
1.0
 40
1.0
 10
56.3012559616
 20
113.679591191
 30
0.0
 10
56.1726413718
 20
113.679591191
 30
0.0
 10
55.9186285433
 20
113.6661537434
 30
0.0
 10
55.5504070189
 20
113.6062093967
 30
0.0
 10
55.2101602075
 20
113.5087430373
 30
0.0
 10
54.9105738501
 20
113.377397397
 30
0.0
 10
54.6974203787
 20
113.239247381
 30
0.0
 10
54.559578471
 20
113.1149678859
 30
0.0
 10
54.4759538246
 20
113.019443219
 30
0.0
 10
54.4097752474
 20
112.9196941401
 30
0.0
 10
54.3618639914
 20
112.8165464072
 30
0.0
 10
54.3327728361
 20
112.711075984
 30
0.0
 10
54.3262707205
 20
112.6395767357
 30
0.0
 10
54.3262706222
 20
112.6043024276
 30
0.0
  0
SPLINE
  5
32B
100
AcDbEntity
  8
0
100
AcDbSpline
 62
7
  6
BYLAYER
 70
0
 71
3
 72
18
 73
14
 74
0
 42
0.0000001
 43
0.0000001
 44
0.0000000001
 40
0.0
 40
0.0
 40
0.0
 40
0.0
 40
0.043261923
 40
0.0874901032
 40
0.1335517225
 40
0.1821560677
 40
0.2338121928
 40
0.288844528
 40
0.4093407935
 40
0.5433505103
 40
0.6887290937
 40
0.8422588989
 40
1.0
 40
1.0
 40
1.0
 40
1.0
 10
48.3762413009
 20
112.6043024233
 30
0.0
 10
48.3762413992
 20
112.6395764873
 30
0.0
 10
48.3697392032
 20
112.7110751273
 30
0.0
 10
48.3406484374
 20
112.8165442807
 30
0.0
 10
48.2927387669
 20
112.9196908617
 30
0.0
 10
48.2265613723
 20
113.0194378938
 30
0.0
 10
48.1429398536
 20
113.1149620353
 30
0.0
 10
48.0050999828
 20
113.2392393638
 30
0.0
 10
47.7919497878
 20
113.3773907479
 30
0.0
 10
47.492364153
 20
113.5087376932
 30
0.0
 10
47.15211463
 20
113.6062075927
 30
0.0
 10
46.7838884527
 20
113.6661529861
 30
0.0
 10
46.5298718279
 20
113.679591191
 30
0.0
 10
46.4012559616
 20
113.679591191
 30
0.0
  0
SPLINE
  5
32C
100
AcDbEntity
  8
0
100
AcDbSpline
 62
7
  6
BYLAYER
 70
0
 71
3
 72
18
 73
14
 74
0
 42
0.0000001
 43
0.0000001
 44
0.0000000001
 40
0.0
 40
0.0
 40
0.0
 40
0.0
 40
0.043261923
 40
0.0874901032
 40
0.1335517225
 40
0.1821560677
 40
0.2338121928
 40
0.288844528
 40
0.4093407935
 40
0.5433505103
 40
0.6887290937
 40
0.8422588989
 40
1.0
 40
1.0
 40
1.0
 40
1.0
 10
54.3262706222
 20
91.0022633597
 30
0.0
 10
54.3262705239
 20
90.9669892957
 30
0.0
 10
54.3327727199
 20
90.8954906558
 30
0.0
 10
54.3618634857
 20
90.7900215023
 30
0.0
 10
54.4097731563
 20
90.6868749213
 30
0.0
 10
54.4759505509
 20
90.5871278892
 30
0.0
 10
54.5595720695
 20
90.4916037477
 30
0.0
 10
54.6974119404
 20
90.3673264192
 30
0.0
 10
54.9105621353
 20
90.2291750351
 30
0.0
 10
55.2101477702
 20
90.0978280898
 30
0.0
 10
55.5503972931
 20
90.0003581903
 30
0.0
 10
55.9186234705
 20
89.9404127969
 30
0.0
 10
56.1726400953
 20
89.926974592
 30
0.0
 10
56.3012559616
 20
89.926974592
 30
0.0
  0
SPLINE
  5
32D
100
AcDbEntity
  8
0
100
AcDbSpline
 62
7
  6
BYLAYER
 70
0
 71
3
 72
18
 73
14
 74
0
 42
0.0000001
 43
0.0000001
 44
0.0000000001
 40
0.0
 40
0.0
 40
0.0
 40
0.0
 40
0.157739513
 40
0.3112661572
 40
0.4566436916
 40
0.5906531521
 40
0.7111509823
 40
0.7661842171
 40
0.817841535
 40
0.8664467572
 40
0.9125091344
 40
0.9567377839
 40
1.0
 40
1.0
 40
1.0
 40
1.0
 10
41.5012559616
 20
89.926974592
 30
0.0
 10
41.6298705513
 20
89.926974592
 30
0.0
 10
41.8838833798
 20
89.9404120396
 30
0.0
 10
42.2521049043
 20
90.0003563863
 30
0.0
 10
42.5923517156
 20
90.0978227458
 30
0.0
 10
42.891938073
 20
90.229168386
 30
0.0
 10
43.1050915444
 20
90.367318402
 30
0.0
 10
43.2429334522
 20
90.4915978971
 30
0.0
 10
43.3265580986
 20
90.5871225641
 30
0.0
 10
43.3927366757
 20
90.6868716429
 30
0.0
 10
43.4406479317
 20
90.7900193758
 30
0.0
 10
43.469739087
 20
90.895489799
 30
0.0
 10
43.4762412027
 20
90.9669890473
 30
0.0
 10
43.4762413009
 20
91.0022633554
 30
0.0
  0
SPLINE
  5
32E
100
AcDbEntity
  8
0
100
AcDbSpline
 62
7
  6
BYLAYER
 70
0
 71
3
 72
18
 73
14
 74
0
 42
0.0000001
 43
0.0000001
 44
0.0000000001
 40
0.0
 40
0.0
 40
0.0
 40
0.0
 40
0.157739513
 40
0.3112661572
 40
0.4566436916
 40
0.5906531521
 40
0.7111509823
 40
0.7661842171
 40
0.817841535
 40
0.8664467572
 40
0.9125091344
 40
0.9567377839
 40
1.0
 40
1.0
 40
1.0
 40
1.0
 10
51.4012559616
 20
89.926974592
 30
0.0
 10
51.5298705513
 20
89.926974592
 30
0.0
 10
51.7838833798
 20
89.9404120396
 30
0.0
 10
52.1521049043
 20
90.0003563863
 30
0.0
 10
52.4923517156
 20
90.0978227458
 30
0.0
 10
52.791938073
 20
90.229168386
 30
0.0
 10
53.0050915444
 20
90.367318402
 30
0.0
 10
53.1429334522
 20
90.4915978971
 30
0.0
 10
53.2265580986
 20
90.5871225641
 30
0.0
 10
53.2927366757
 20
90.6868716429
 30
0.0
 10
53.3406479317
 20
90.7900193758
 30
0.0
 10
53.369739087
 20
90.895489799
 30
0.0
 10
53.3762412027
 20
90.9669890473
 30
0.0
 10
53.3762413009
 20
91.0022633554
 30
0.0
  0
SPLINE
  5
32F
100
AcDbEntity
  8
0
100
AcDbSpline
 62
7
  6
BYLAYER
 70
0
 71
3
 72
18
 73
14
 74
0
 42
0.0000001
 43
0.0000001
 44
0.0000000001
 40
0.0
 40
0.0
 40
0.0
 40
0.0
 40
0.157739513
 40
0.3112661572
 40
0.4566436916
 40
0.5906531521
 40
0.7111509823
 40
0.7661842171
 40
0.817841535
 40
0.8664467572
 40
0.9125091344
 40
0.9567377839
 40
1.0
 40
1.0
 40
1.0
 40
1.0
 10
46.4012559616
 20
89.926974592
 30
0.0
 10
46.5298705513
 20
89.926974592
 30
0.0
 10
46.7838833798
 20
89.9404120396
 30
0.0
 10
47.1521049043
 20
90.0003563863
 30
0.0
 10
47.4923517156
 20
90.0978227458
 30
0.0
 10
47.791938073
 20
90.229168386
 30
0.0
 10
48.0050915444
 20
90.367318402
 30
0.0
 10
48.1429334522
 20
90.4915978971
 30
0.0
 10
48.2265580986
 20
90.5871225641
 30
0.0
 10
48.2927366757
 20
90.6868716429
 30
0.0
 10
48.3406479317
 20
90.7900193758
 30
0.0
 10
48.369739087
 20
90.895489799
 30
0.0
 10
48.3762412027
 20
90.9669890473
 30
0.0
 10
48.3762413009
 20
91.0022633554
 30
0.0
  0
SPLINE
  5
330
100
AcDbEntity
  8
0
100
AcDbSpline
 62
7
  6
BYLAYER
 70
0
 71
3
 72
18
 73
14
 74
0
 42
0.0000001
 43
0.0000001
 44
0.0000000001
 40
0.0
 40
0.0
 40
0.0
 40
0.0
 40
0.157739513
 40
0.3112661572
 40
0.4566436916
 40
0.5906531521
 40
0.7111509823
 40
0.7661842171
 40
0.817841535
 40
0.8664467572
 40
0.9125091344
 40
0.9567377839
 40
1.0
 40
1.0
 40
1.0
 40
1.0
 10
56.3012559616
 20
89.926974592
 30
0.0
 10
56.4298705513
 20
89.926974592
 30
0.0
 10
56.6838833798
 20
89.9404120396
 30
0.0
 10
57.0521049043
 20
90.0003563863
 30
0.0
 10
57.3923517156
 20
90.0978227458
 30
0.0
 10
57.691938073
 20
90.229168386
 30
0.0
 10
57.9050915444
 20
90.367318402
 30
0.0
 10
58.0429334522
 20
90.4915978971
 30
0.0
 10
58.1265580986
 20
90.5871225641
 30
0.0
 10
58.1927366757
 20
90.6868716429
 30
0.0
 10
58.2406479317
 20
90.7900193758
 30
0.0
 10
58.269739087
 20
90.8954897991
 30
0.0
 10
58.2762412027
 20
90.9669890473
 30
0.0
 10
58.2762413009
 20
91.0022633554
 30
0.0
  0
SPLINE
  5
331
100
AcDbEntity
  8
0
100
AcDbSpline
 62
7
  6
BYLAYER
 70
0
 71
3
 72
18
 73
14
 74
0
 42
0.0000001
 43
0.0000001
 44
0.0000000001
 40
0.0
 40
0.0
 40
0.0
 40
0.0
 40
0.043261923
 40
0.0874901032
 40
0.1335517225
 40
0.1821560677
 40
0.2338121928
 40
0.288844528
 40
0.4093407935
 40
0.5433505103
 40
0.6887290937
 40
0.8422588989
 40
1.0
 40
1.0
 40
1.0
 40
1.0
 10
44.4262706222
 20
91.0022633597
 30
0.0
 10
44.4262705239
 20
90.9669892957
 30
0.0
 10
44.4327727199
 20
90.8954906558
 30
0.0
 10
44.4618634857
 20
90.7900215023
 30
0.0
 10
44.5097731563
 20
90.6868749213
 30
0.0
 10
44.5759505509
 20
90.5871278892
 30
0.0
 10
44.6595720695
 20
90.4916037477
 30
0.0
 10
44.7974119404
 20
90.3673264192
 30
0.0
 10
45.0105621353
 20
90.2291750351
 30
0.0
 10
45.3101477702
 20
90.0978280898
 30
0.0
 10
45.6503972931
 20
90.0003581903
 30
0.0
 10
46.0186234705
 20
89.9404127969
 30
0.0
 10
46.2726400953
 20
89.926974592
 30
0.0
 10
46.4012559616
 20
89.926974592
 30
0.0
  0
SPLINE
  5
332
100
AcDbEntity
  8
0
100
AcDbSpline
 62
7
  6
BYLAYER
 70
0
 71
3
 72
18
 73
14
 74
0
 42
0.0000001
 43
0.0000001
 44
0.0000000001
 40
0.0
 40
0.0
 40
0.0
 40
0.0
 40
0.043261923
 40
0.0874901032
 40
0.1335517225
 40
0.1821560677
 40
0.2338121928
 40
0.288844528
 40
0.4093407935
 40
0.5433505103
 40
0.6887290937
 40
0.8422588989
 40
1.0
 40
1.0
 40
1.0
 40
1.0
 10
49.4262706222
 20
91.0022633597
 30
0.0
 10
49.4262705239
 20
90.9669892957
 30
0.0
 10
49.4327727199
 20
90.8954906558
 30
0.0
 10
49.4618634857
 20
90.7900215023
 30
0.0
 10
49.5097731563
 20
90.6868749213
 30
0.0
 10
49.5759505509
 20
90.5871278892
 30
0.0
 10
49.6595720695
 20
90.4916037477
 30
0.0
 10
49.7974119404
 20
90.3673264192
 30
0.0
 10
50.0105621353
 20
90.2291750351
 30
0.0
 10
50.3101477702
 20
90.0978280898
 30
0.0
 10
50.6503972931
 20
90.0003581903
 30
0.0
 10
51.0186234705
 20
89.9404127969
 30
0.0
 10
51.2726400953
 20
89.926974592
 30
0.0
 10
51.4012559616
 20
89.926974592
 30
0.0
  0
SPLINE
  5
333
100
AcDbEntity
  8
0
100
AcDbSpline
 62
7
  6
BYLAYER
 70
0
 71
3
 72
18
 73
14
 74
0
 42
0.0000001
 43
0.0000001
 44
0.0000000001
 40
0.0
 40
0.0
 40
0.0
 40
0.0
 40
0.043261923
 40
0.0874901032
 40
0.1335517225
 40
0.1821560677
 40
0.2338121928
 40
0.288844528
 40
0.4093407935
 40
0.5433505103
 40
0.6887290937
 40
0.8422588989
 40
1.0
 40
1.0
 40
1.0
 40
1.0
 10
39.5262706222
 20
91.0022633597
 30
0.0
 10
39.5262705239
 20
90.9669892957
 30
0.0
 10
39.5327727199
 20
90.8954906558
 30
0.0
 10
39.5618634857
 20
90.7900215023
 30
0.0
 10
39.6097731563
 20
90.6868749213
 30
0.0
 10
39.6759505509
 20
90.5871278892
 30
0.0
 10
39.7595720695
 20
90.4916037477
 30
0.0
 10
39.8974119404
 20
90.3673264192
 30
0.0
 10
40.1105621353
 20
90.2291750351
 30
0.0
 10
40.4101477702
 20
90.0978280898
 30
0.0
 10
40.7503972931
 20
90.0003581903
 30
0.0
 10
41.1186234705
 20
89.9404127969
 30
0.0
 10
41.3726400953
 20
89.926974592
 30
0.0
 10
41.5012559616
 20
89.926974592
 30
0.0
  0
SPLINE
  5
334
100
AcDbEntity
  8
0
100
AcDbSpline
 62
7
  6
BYLAYER
 70
0
 71
3
 72
18
 73
14
 74
0
 42
0.0000001
 43
0.0000001
 44
0.0000000001
 40
0.0
 40
0.0
 40
0.0
 40
0.0
 40
0.043261923
 40
0.0874901032
 40
0.1335517225
 40
0.1821560677
 40
0.2338121928
 40
0.288844528
 40
0.4093407935
 40
0.5433505103
 40
0.6887290937
 40
0.8422588989
 40
1.0
 40
1.0
 40
1.0
 40
1.0
 10
53.3762413009
 20
91.0022633554
 30
0.0
 10
53.3762413992
 20
91.0375374194
 30
0.0
 10
53.3697392032
 20
91.1090360593
 30
0.0
 10
53.3406484374
 20
91.2145052128
 30
0.0
 10
53.2927387669
 20
91.3176517938
 30
0.0
 10
53.2265613723
 20
91.4173988259
 30
0.0
 10
53.1429398536
 20
91.5129229673
 30
0.0
 10
53.0050999828
 20
91.6372002959
 30
0.0
 10
52.7919497878
 20
91.77535168
 30
0.0
 10
52.492364153
 20
91.9066986253
 30
0.0
 10
52.15211463
 20
92.0041685248
 30
0.0
 10
51.7838884527
 20
92.0641139181
 30
0.0
 10
51.5298718279
 20
92.077552123
 30
0.0
 10
51.4012559616
 20
92.077552123
 30
0.0
  0
SPLINE
  5
335
100
AcDbEntity
  8
0
100
AcDbSpline
 62
7
  6
BYLAYER
 70
0
 71
3
 72
18
 73
14
 74
0
 42
0.0000001
 43
0.0000001
 44
0.0000000001
 40
0.0
 40
0.0
 40
0.0
 40
0.0
 40
0.043261923
 40
0.0874901032
 40
0.1335517225
 40
0.1821560677
 40
0.2338121928
 40
0.288844528
 40
0.4093407935
 40
0.5433505103
 40
0.6887290937
 40
0.8422588989
 40
1.0
 40
1.0
 40
1.0
 40
1.0
 10
43.4762413009
 20
91.0022633554
 30
0.0
 10
43.4762413992
 20
91.0375374194
 30
0.0
 10
43.4697392032
 20
91.1090360593
 30
0.0
 10
43.4406484374
 20
91.2145052128
 30
0.0
 10
43.3927387669
 20
91.3176517938
 30
0.0
 10
43.3265613723
 20
91.4173988259
 30
0.0
 10
43.2429398536
 20
91.5129229673
 30
0.0
 10
43.1050999828
 20
91.6372002959
 30
0.0
 10
42.8919497878
 20
91.77535168
 30
0.0
 10
42.592364153
 20
91.9066986253
 30
0.0
 10
42.25211463
 20
92.0041685248
 30
0.0
 10
41.8838884527
 20
92.0641139181
 30
0.0
 10
41.6298718279
 20
92.077552123
 30
0.0
 10
41.5012559616
 20
92.077552123
 30
0.0
  0
SPLINE
  5
336
100
AcDbEntity
  8
0
100
AcDbSpline
 62
7
  6
BYLAYER
 70
0
 71
3
 72
18
 73
14
 74
0
 42
0.0000001
 43
0.0000001
 44
0.0000000001
 40
0.0
 40
0.0
 40
0.0
 40
0.0
 40
0.157739513
 40
0.3112661572
 40
0.4566436916
 40
0.5906531521
 40
0.7111509823
 40
0.7661842171
 40
0.817841535
 40
0.8664467572
 40
0.9125091344
 40
0.9567377839
 40
1.0
 40
1.0
 40
1.0
 40
1.0
 10
51.4012559616
 20
92.077552123
 30
0.0
 10
51.2726413718
 20
92.077552123
 30
0.0
 10
51.0186285433
 20
92.0641146755
 30
0.0
 10
50.6504070189
 20
92.0041703288
 30
0.0
 10
50.3101602075
 20
91.9067039693
 30
0.0
 10
50.0105738501
 20
91.775358329
 30
0.0
 10
49.7974203787
 20
91.637208313
 30
0.0
 10
49.659578471
 20
91.512928818
 30
0.0
 10
49.5759538246
 20
91.417404151
 30
0.0
 10
49.5097752474
 20
91.3176550722
 30
0.0
 10
49.4618639914
 20
91.2145073392
 30
0.0
 10
49.4327728361
 20
91.109036916
 30
0.0
 10
49.4262707205
 20
91.0375376678
 30
0.0
 10
49.4262706222
 20
91.0022633597
 30
0.0
  0
SPLINE
  5
337
100
AcDbEntity
  8
0
100
AcDbSpline
 62
7
  6
BYLAYER
 70
0
 71
3
 72
18
 73
14
 74
0
 42
0.0000001
 43
0.0000001
 44
0.0000000001
 40
0.0
 40
0.0
 40
0.0
 40
0.0
 40
0.043261923
 40
0.0874901032
 40
0.1335517225
 40
0.1821560677
 40
0.2338121928
 40
0.288844528
 40
0.4093407935
 40
0.5433505103
 40
0.6887290937
 40
0.8422588989
 40
1.0
 40
1.0
 40
1.0
 40
1.0
 10
58.2762413009
 20
91.0022633554
 30
0.0
 10
58.2762413992
 20
91.0375374194
 30
0.0
 10
58.2697392032
 20
91.1090360593
 30
0.0
 10
58.2406484374
 20
91.2145052128
 30
0.0
 10
58.1927387669
 20
91.3176517938
 30
0.0
 10
58.1265613723
 20
91.4173988259
 30
0.0
 10
58.0429398536
 20
91.5129229674
 30
0.0
 10
57.9050999828
 20
91.6372002959
 30
0.0
 10
57.6919497878
 20
91.77535168
 30
0.0
 10
57.392364153
 20
91.9066986253
 30
0.0
 10
57.05211463
 20
92.0041685248
 30
0.0
 10
56.6838884527
 20
92.0641139181
 30
0.0
 10
56.4298718279
 20
92.077552123
 30
0.0
 10
56.3012559616
 20
92.077552123
 30
0.0
  0
SPLINE
  5
338
100
AcDbEntity
  8
0
100
AcDbSpline
 62
7
  6
BYLAYER
 70
0
 71
3
 72
18
 73
14
 74
0
 42
0.0000001
 43
0.0000001
 44
0.0000000001
 40
0.0
 40
0.0
 40
0.0
 40
0.0
 40
0.157739513
 40
0.3112661572
 40
0.4566436916
 40
0.5906531521
 40
0.7111509823
 40
0.7661842171
 40
0.817841535
 40
0.8664467572
 40
0.9125091344
 40
0.9567377839
 40
1.0
 40
1.0
 40
1.0
 40
1.0
 10
46.4012559616
 20
92.077552123
 30
0.0
 10
46.2726413718
 20
92.077552123
 30
0.0
 10
46.0186285433
 20
92.0641146755
 30
0.0
 10
45.6504070189
 20
92.0041703288
 30
0.0
 10
45.3101602075
 20
91.9067039693
 30
0.0
 10
45.0105738501
 20
91.775358329
 30
0.0
 10
44.7974203787
 20
91.637208313
 30
0.0
 10
44.659578471
 20
91.512928818
 30
0.0
 10
44.5759538246
 20
91.417404151
 30
0.0
 10
44.5097752474
 20
91.3176550722
 30
0.0
 10
44.4618639914
 20
91.2145073392
 30
0.0
 10
44.4327728361
 20
91.109036916
 30
0.0
 10
44.4262707205
 20
91.0375376678
 30
0.0
 10
44.4262706222
 20
91.0022633597
 30
0.0
  0
SPLINE
  5
339
100
AcDbEntity
  8
0
100
AcDbSpline
 62
7
  6
BYLAYER
 70
0
 71
3
 72
18
 73
14
 74
0
 42
0.0000001
 43
0.0000001
 44
0.0000000001
 40
0.0
 40
0.0
 40
0.0
 40
0.0
 40
0.157739513
 40
0.3112661572
 40
0.4566436916
 40
0.5906531521
 40
0.7111509823
 40
0.7661842171
 40
0.817841535
 40
0.8664467572
 40
0.9125091344
 40
0.9567377839
 40
1.0
 40
1.0
 40
1.0
 40
1.0
 10
41.5012559616
 20
92.077552123
 30
0.0
 10
41.3726413718
 20
92.077552123
 30
0.0
 10
41.1186285433
 20
92.0641146755
 30
0.0
 10
40.7504070189
 20
92.0041703288
 30
0.0
 10
40.4101602075
 20
91.9067039693
 30
0.0
 10
40.1105738501
 20
91.775358329
 30
0.0
 10
39.8974203787
 20
91.637208313
 30
0.0
 10
39.759578471
 20
91.512928818
 30
0.0
 10
39.6759538246
 20
91.417404151
 30
0.0
 10
39.6097752474
 20
91.3176550722
 30
0.0
 10
39.5618639914
 20
91.2145073392
 30
0.0
 10
39.5327728361
 20
91.109036916
 30
0.0
 10
39.5262707205
 20
91.0375376678
 30
0.0
 10
39.5262706222
 20
91.0022633597
 30
0.0
  0
SPLINE
  5
33A
100
AcDbEntity
  8
0
100
AcDbSpline
 62
7
  6
BYLAYER
 70
0
 71
3
 72
18
 73
14
 74
0
 42
0.0000001
 43
0.0000001
 44
0.0000000001
 40
0.0
 40
0.0
 40
0.0
 40
0.0
 40
0.157739513
 40
0.3112661572
 40
0.4566436916
 40
0.5906531521
 40
0.7111509823
 40
0.7661842171
 40
0.817841535
 40
0.8664467572
 40
0.9125091344
 40
0.9567377839
 40
1.0
 40
1.0
 40
1.0
 40
1.0
 10
56.3012559616
 20
92.077552123
 30
0.0
 10
56.1726413718
 20
92.077552123
 30
0.0
 10
55.9186285433
 20
92.0641146755
 30
0.0
 10
55.5504070189
 20
92.0041703288
 30
0.0
 10
55.2101602075
 20
91.9067039693
 30
0.0
 10
54.9105738501
 20
91.775358329
 30
0.0
 10
54.6974203787
 20
91.6372083131
 30
0.0
 10
54.559578471
 20
91.512928818
 30
0.0
 10
54.4759538246
 20
91.417404151
 30
0.0
 10
54.4097752474
 20
91.3176550722
 30
0.0
 10
54.3618639914
 20
91.2145073392
 30
0.0
 10
54.3327728361
 20
91.109036916
 30
0.0
 10
54.3262707205
 20
91.0375376678
 30
0.0
 10
54.3262706222
 20
91.0022633597
 30
0.0
  0
SPLINE
  5
33B
100
AcDbEntity
  8
0
100
AcDbSpline
 62
7
  6
BYLAYER
 70
0
 71
3
 72
18
 73
14
 74
0
 42
0.0000001
 43
0.0000001
 44
0.0000000001
 40
0.0
 40
0.0
 40
0.0
 40
0.0
 40
0.043261923
 40
0.0874901032
 40
0.1335517225
 40
0.1821560677
 40
0.2338121928
 40
0.288844528
 40
0.4093407935
 40
0.5433505103
 40
0.6887290937
 40
0.8422588989
 40
1.0
 40
1.0
 40
1.0
 40
1.0
 10
48.3762413009
 20
91.0022633554
 30
0.0
 10
48.3762413992
 20
91.0375374194
 30
0.0
 10
48.3697392032
 20
91.1090360593
 30
0.0
 10
48.3406484374
 20
91.2145052128
 30
0.0
 10
48.2927387669
 20
91.3176517938
 30
0.0
 10
48.2265613723
 20
91.4173988259
 30
0.0
 10
48.1429398536
 20
91.5129229674
 30
0.0
 10
48.0050999828
 20
91.6372002959
 30
0.0
 10
47.7919497878
 20
91.77535168
 30
0.0
 10
47.492364153
 20
91.9066986253
 30
0.0
 10
47.15211463
 20
92.0041685248
 30
0.0
 10
46.7838884527
 20
92.0641139181
 30
0.0
 10
46.5298718279
 20
92.077552123
 30
0.0
 10
46.4012559616
 20
92.077552123
 30
0.0
  0
SPLINE
  5
33C
100
AcDbEntity
  8
0
100
AcDbSpline
 62
7
  6
BYLAYER
 70
0
 71
3
 72
18
 73
14
 74
0
 42
0.0000001
 43
0.0000001
 44
0.0000000001
 40
0.0
 40
0.0
 40
0.0
 40
0.0
 40
0.043261923
 40
0.0874901032
 40
0.1335517225
 40
0.1821560677
 40
0.2338121928
 40
0.288844528
 40
0.4093407935
 40
0.5433505103
 40
0.6887290937
 40
0.8422588989
 40
1.0
 40
1.0
 40
1.0
 40
1.0
 10
54.3262706222
 20
69.4230771982
 30
0.0
 10
54.3262705239
 20
69.3878031342
 30
0.0
 10
54.3327727199
 20
69.3163044943
 30
0.0
 10
54.3618634857
 20
69.2108353408
 30
0.0
 10
54.4097731563
 20
69.1076887598
 30
0.0
 10
54.4759505509
 20
69.0079417277
 30
0.0
 10
54.5595720695
 20
68.9124175862
 30
0.0
 10
54.6974119404
 20
68.7881402577
 30
0.0
 10
54.9105621353
 20
68.6499888736
 30
0.0
 10
55.2101477702
 20
68.5186419283
 30
0.0
 10
55.5503972931
 20
68.4211720288
 30
0.0
 10
55.9186234705
 20
68.3612266354
 30
0.0
 10
56.1726400953
 20
68.3477884305
 30
0.0
 10
56.3012559616
 20
68.3477884305
 30
0.0
  0
SPLINE
  5
33D
100
AcDbEntity
  8
0
100
AcDbSpline
 62
7
  6
BYLAYER
 70
0
 71
3
 72
18
 73
14
 74
0
 42
0.0000001
 43
0.0000001
 44
0.0000000001
 40
0.0
 40
0.0
 40
0.0
 40
0.0
 40
0.157739513
 40
0.3112661572
 40
0.4566436916
 40
0.5906531521
 40
0.7111509823
 40
0.7661842171
 40
0.817841535
 40
0.8664467572
 40
0.9125091344
 40
0.9567377839
 40
1.0
 40
1.0
 40
1.0
 40
1.0
 10
41.5012559616
 20
68.3477884305
 30
0.0
 10
41.6298705513
 20
68.3477884305
 30
0.0
 10
41.8838833798
 20
68.3612258781
 30
0.0
 10
42.2521049043
 20
68.4211702248
 30
0.0
 10
42.5923517156
 20
68.5186365842
 30
0.0
 10
42.891938073
 20
68.6499822245
 30
0.0
 10
43.1050915444
 20
68.7881322405
 30
0.0
 10
43.2429334522
 20
68.9124117356
 30
0.0
 10
43.3265580986
 20
69.0079364025
 30
0.0
 10
43.3927366757
 20
69.1076854814
 30
0.0
 10
43.4406479317
 20
69.2108332143
 30
0.0
 10
43.469739087
 20
69.3163036375
 30
0.0
 10
43.4762412027
 20
69.3878028858
 30
0.0
 10
43.4762413009
 20
69.4230771939
 30
0.0
  0
SPLINE
  5
33E
100
AcDbEntity
  8
0
100
AcDbSpline
 62
7
  6
BYLAYER
 70
0
 71
3
 72
18
 73
14
 74
0
 42
0.0000001
 43
0.0000001
 44
0.0000000001
 40
0.0
 40
0.0
 40
0.0
 40
0.0
 40
0.157739513
 40
0.3112661572
 40
0.4566436916
 40
0.5906531521
 40
0.7111509823
 40
0.7661842171
 40
0.817841535
 40
0.8664467572
 40
0.9125091344
 40
0.9567377839
 40
1.0
 40
1.0
 40
1.0
 40
1.0
 10
51.4012559616
 20
68.3477884305
 30
0.0
 10
51.5298705513
 20
68.3477884305
 30
0.0
 10
51.7838833798
 20
68.3612258781
 30
0.0
 10
52.1521049043
 20
68.4211702248
 30
0.0
 10
52.4923517156
 20
68.5186365842
 30
0.0
 10
52.791938073
 20
68.6499822245
 30
0.0
 10
53.0050915444
 20
68.7881322405
 30
0.0
 10
53.1429334522
 20
68.9124117356
 30
0.0
 10
53.2265580986
 20
69.0079364025
 30
0.0
 10
53.2927366757
 20
69.1076854814
 30
0.0
 10
53.3406479317
 20
69.2108332143
 30
0.0
 10
53.369739087
 20
69.3163036375
 30
0.0
 10
53.3762412027
 20
69.3878028858
 30
0.0
 10
53.3762413009
 20
69.4230771939
 30
0.0
  0
SPLINE
  5
33F
100
AcDbEntity
  8
0
100
AcDbSpline
 62
7
  6
BYLAYER
 70
0
 71
3
 72
18
 73
14
 74
0
 42
0.0000001
 43
0.0000001
 44
0.0000000001
 40
0.0
 40
0.0
 40
0.0
 40
0.0
 40
0.157739513
 40
0.3112661572
 40
0.4566436916
 40
0.5906531521
 40
0.7111509823
 40
0.7661842171
 40
0.817841535
 40
0.8664467572
 40
0.9125091344
 40
0.9567377839
 40
1.0
 40
1.0
 40
1.0
 40
1.0
 10
46.4012559616
 20
68.3477884305
 30
0.0
 10
46.5298705513
 20
68.3477884305
 30
0.0
 10
46.7838833798
 20
68.3612258781
 30
0.0
 10
47.1521049043
 20
68.4211702248
 30
0.0
 10
47.4923517156
 20
68.5186365842
 30
0.0
 10
47.791938073
 20
68.6499822245
 30
0.0
 10
48.0050915444
 20
68.7881322405
 30
0.0
 10
48.1429334522
 20
68.9124117356
 30
0.0
 10
48.2265580986
 20
69.0079364026
 30
0.0
 10
48.2927366757
 20
69.1076854814
 30
0.0
 10
48.3406479317
 20
69.2108332143
 30
0.0
 10
48.369739087
 20
69.3163036375
 30
0.0
 10
48.3762412027
 20
69.3878028858
 30
0.0
 10
48.3762413009
 20
69.4230771939
 30
0.0
  0
SPLINE
  5
340
100
AcDbEntity
  8
0
100
AcDbSpline
 62
7
  6
BYLAYER
 70
0
 71
3
 72
18
 73
14
 74
0
 42
0.0000001
 43
0.0000001
 44
0.0000000001
 40
0.0
 40
0.0
 40
0.0
 40
0.0
 40
0.157739513
 40
0.3112661572
 40
0.4566436916
 40
0.5906531521
 40
0.7111509823
 40
0.7661842171
 40
0.817841535
 40
0.8664467572
 40
0.9125091344
 40
0.9567377839
 40
1.0
 40
1.0
 40
1.0
 40
1.0
 10
56.3012559616
 20
68.3477884305
 30
0.0
 10
56.4298705513
 20
68.3477884305
 30
0.0
 10
56.6838833798
 20
68.3612258781
 30
0.0
 10
57.0521049043
 20
68.4211702248
 30
0.0
 10
57.3923517156
 20
68.5186365843
 30
0.0
 10
57.691938073
 20
68.6499822245
 30
0.0
 10
57.9050915444
 20
68.7881322405
 30
0.0
 10
58.0429334522
 20
68.9124117356
 30
0.0
 10
58.1265580986
 20
69.0079364026
 30
0.0
 10
58.1927366757
 20
69.1076854814
 30
0.0
 10
58.2406479317
 20
69.2108332143
 30
0.0
 10
58.269739087
 20
69.3163036375
 30
0.0
 10
58.2762412027
 20
69.3878028858
 30
0.0
 10
58.2762413009
 20
69.4230771939
 30
0.0
  0
SPLINE
  5
341
100
AcDbEntity
  8
0
100
AcDbSpline
 62
7
  6
BYLAYER
 70
0
 71
3
 72
18
 73
14
 74
0
 42
0.0000001
 43
0.0000001
 44
0.0000000001
 40
0.0
 40
0.0
 40
0.0
 40
0.0
 40
0.043261923
 40
0.0874901032
 40
0.1335517225
 40
0.1821560677
 40
0.2338121928
 40
0.288844528
 40
0.4093407935
 40
0.5433505103
 40
0.6887290937
 40
0.8422588989
 40
1.0
 40
1.0
 40
1.0
 40
1.0
 10
44.4262706222
 20
69.4230771982
 30
0.0
 10
44.4262705239
 20
69.3878031342
 30
0.0
 10
44.4327727199
 20
69.3163044942
 30
0.0
 10
44.4618634857
 20
69.2108353408
 30
0.0
 10
44.5097731563
 20
69.1076887598
 30
0.0
 10
44.5759505509
 20
69.0079417277
 30
0.0
 10
44.6595720695
 20
68.9124175862
 30
0.0
 10
44.7974119404
 20
68.7881402577
 30
0.0
 10
45.0105621353
 20
68.6499888736
 30
0.0
 10
45.3101477702
 20
68.5186419283
 30
0.0
 10
45.6503972931
 20
68.4211720288
 30
0.0
 10
46.0186234705
 20
68.3612266354
 30
0.0
 10
46.2726400953
 20
68.3477884305
 30
0.0
 10
46.4012559616
 20
68.3477884305
 30
0.0
  0
SPLINE
  5
342
100
AcDbEntity
  8
0
100
AcDbSpline
 62
7
  6
BYLAYER
 70
0
 71
3
 72
18
 73
14
 74
0
 42
0.0000001
 43
0.0000001
 44
0.0000000001
 40
0.0
 40
0.0
 40
0.0
 40
0.0
 40
0.043261923
 40
0.0874901032
 40
0.1335517225
 40
0.1821560677
 40
0.2338121928
 40
0.288844528
 40
0.4093407935
 40
0.5433505103
 40
0.6887290937
 40
0.8422588989
 40
1.0
 40
1.0
 40
1.0
 40
1.0
 10
49.4262706222
 20
69.4230771982
 30
0.0
 10
49.4262705239
 20
69.3878031342
 30
0.0
 10
49.4327727199
 20
69.3163044942
 30
0.0
 10
49.4618634857
 20
69.2108353408
 30
0.0
 10
49.5097731563
 20
69.1076887598
 30
0.0
 10
49.5759505509
 20
69.0079417277
 30
0.0
 10
49.6595720695
 20
68.9124175862
 30
0.0
 10
49.7974119404
 20
68.7881402577
 30
0.0
 10
50.0105621353
 20
68.6499888736
 30
0.0
 10
50.3101477702
 20
68.5186419283
 30
0.0
 10
50.6503972931
 20
68.4211720288
 30
0.0
 10
51.0186234705
 20
68.3612266354
 30
0.0
 10
51.2726400953
 20
68.3477884305
 30
0.0
 10
51.4012559616
 20
68.3477884305
 30
0.0
  0
SPLINE
  5
343
100
AcDbEntity
  8
0
100
AcDbSpline
 62
7
  6
BYLAYER
 70
0
 71
3
 72
18
 73
14
 74
0
 42
0.0000001
 43
0.0000001
 44
0.0000000001
 40
0.0
 40
0.0
 40
0.0
 40
0.0
 40
0.043261923
 40
0.0874901032
 40
0.1335517225
 40
0.1821560677
 40
0.2338121928
 40
0.288844528
 40
0.4093407935
 40
0.5433505103
 40
0.6887290937
 40
0.8422588989
 40
1.0
 40
1.0
 40
1.0
 40
1.0
 10
39.5262706222
 20
69.4230771982
 30
0.0
 10
39.5262705239
 20
69.3878031342
 30
0.0
 10
39.5327727199
 20
69.3163044942
 30
0.0
 10
39.5618634857
 20
69.2108353408
 30
0.0
 10
39.6097731563
 20
69.1076887598
 30
0.0
 10
39.6759505509
 20
69.0079417277
 30
0.0
 10
39.7595720695
 20
68.9124175862
 30
0.0
 10
39.8974119404
 20
68.7881402577
 30
0.0
 10
40.1105621353
 20
68.6499888736
 30
0.0
 10
40.4101477702
 20
68.5186419283
 30
0.0
 10
40.7503972931
 20
68.4211720288
 30
0.0
 10
41.1186234705
 20
68.3612266354
 30
0.0
 10
41.3726400953
 20
68.3477884305
 30
0.0
 10
41.5012559616
 20
68.3477884305
 30
0.0
  0
SPLINE
  5
344
100
AcDbEntity
  8
0
100
AcDbSpline
 62
7
  6
BYLAYER
 70
0
 71
3
 72
18
 73
14
 74
0
 42
0.0000001
 43
0.0000001
 44
0.0000000001
 40
0.0
 40
0.0
 40
0.0
 40
0.0
 40
0.043261923
 40
0.0874901032
 40
0.1335517225
 40
0.1821560677
 40
0.2338121928
 40
0.288844528
 40
0.4093407935
 40
0.5433505103
 40
0.6887290937
 40
0.8422588989
 40
1.0
 40
1.0
 40
1.0
 40
1.0
 10
53.3762413009
 20
69.4230771939
 30
0.0
 10
53.3762413992
 20
69.4583512579
 30
0.0
 10
53.3697392032
 20
69.5298498978
 30
0.0
 10
53.3406484374
 20
69.6353190513
 30
0.0
 10
53.2927387669
 20
69.7384656322
 30
0.0
 10
53.2265613723
 20
69.8382126644
 30
0.0
 10
53.1429398536
 20
69.9337368058
 30
0.0
 10
53.0050999828
 20
70.0580141344
 30
0.0
 10
52.7919497878
 20
70.1961655184
 30
0.0
 10
52.492364153
 20
70.3275124638
 30
0.0
 10
52.15211463
 20
70.4249823632
 30
0.0
 10
51.7838884527
 20
70.4849277566
 30
0.0
 10
51.5298718279
 20
70.4983659615
 30
0.0
 10
51.4012559616
 20
70.4983659615
 30
0.0
  0
SPLINE
  5
345
100
AcDbEntity
  8
0
100
AcDbSpline
 62
7
  6
BYLAYER
 70
0
 71
3
 72
18
 73
14
 74
0
 42
0.0000001
 43
0.0000001
 44
0.0000000001
 40
0.0
 40
0.0
 40
0.0
 40
0.0
 40
0.043261923
 40
0.0874901032
 40
0.1335517225
 40
0.1821560677
 40
0.2338121928
 40
0.288844528
 40
0.4093407935
 40
0.5433505103
 40
0.6887290937
 40
0.8422588989
 40
1.0
 40
1.0
 40
1.0
 40
1.0
 10
43.4762413009
 20
69.4230771939
 30
0.0
 10
43.4762413992
 20
69.4583512579
 30
0.0
 10
43.4697392032
 20
69.5298498978
 30
0.0
 10
43.4406484374
 20
69.6353190513
 30
0.0
 10
43.3927387669
 20
69.7384656322
 30
0.0
 10
43.3265613723
 20
69.8382126643
 30
0.0
 10
43.2429398536
 20
69.9337368058
 30
0.0
 10
43.1050999828
 20
70.0580141344
 30
0.0
 10
42.8919497878
 20
70.1961655184
 30
0.0
 10
42.592364153
 20
70.3275124638
 30
0.0
 10
42.25211463
 20
70.4249823632
 30
0.0
 10
41.8838884527
 20
70.4849277566
 30
0.0
 10
41.6298718279
 20
70.4983659615
 30
0.0
 10
41.5012559616
 20
70.4983659615
 30
0.0
  0
SPLINE
  5
346
100
AcDbEntity
  8
0
100
AcDbSpline
 62
7
  6
BYLAYER
 70
0
 71
3
 72
18
 73
14
 74
0
 42
0.0000001
 43
0.0000001
 44
0.0000000001
 40
0.0
 40
0.0
 40
0.0
 40
0.0
 40
0.157739513
 40
0.3112661572
 40
0.4566436916
 40
0.5906531521
 40
0.7111509823
 40
0.7661842171
 40
0.817841535
 40
0.8664467572
 40
0.9125091344
 40
0.9567377839
 40
1.0
 40
1.0
 40
1.0
 40
1.0
 10
51.4012559616
 20
70.4983659615
 30
0.0
 10
51.2726413718
 20
70.4983659615
 30
0.0
 10
51.0186285433
 20
70.4849285139
 30
0.0
 10
50.6504070189
 20
70.4249841673
 30
0.0
 10
50.3101602075
 20
70.3275178078
 30
0.0
 10
50.0105738501
 20
70.1961721675
 30
0.0
 10
49.7974203787
 20
70.0580221515
 30
0.0
 10
49.659578471
 20
69.9337426565
 30
0.0
 10
49.5759538246
 20
69.8382179895
 30
0.0
 10
49.5097752474
 20
69.7384689107
 30
0.0
 10
49.4618639914
 20
69.6353211777
 30
0.0
 10
49.4327728361
 20
69.5298507545
 30
0.0
 10
49.4262707205
 20
69.4583515062
 30
0.0
 10
49.4262706222
 20
69.4230771982
 30
0.0
  0
SPLINE
  5
347
100
AcDbEntity
  8
0
100
AcDbSpline
 62
7
  6
BYLAYER
 70
0
 71
3
 72
18
 73
14
 74
0
 42
0.0000001
 43
0.0000001
 44
0.0000000001
 40
0.0
 40
0.0
 40
0.0
 40
0.0
 40
0.043261923
 40
0.0874901032
 40
0.1335517225
 40
0.1821560677
 40
0.2338121928
 40
0.288844528
 40
0.4093407935
 40
0.5433505103
 40
0.6887290937
 40
0.8422588989
 40
1.0
 40
1.0
 40
1.0
 40
1.0
 10
58.2762413009
 20
69.4230771939
 30
0.0
 10
58.2762413992
 20
69.4583512579
 30
0.0
 10
58.2697392032
 20
69.5298498978
 30
0.0
 10
58.2406484374
 20
69.6353190513
 30
0.0
 10
58.1927387669
 20
69.7384656323
 30
0.0
 10
58.1265613723
 20
69.8382126644
 30
0.0
 10
58.0429398536
 20
69.9337368058
 30
0.0
 10
57.9050999828
 20
70.0580141344
 30
0.0
 10
57.6919497878
 20
70.1961655185
 30
0.0
 10
57.392364153
 20
70.3275124638
 30
0.0
 10
57.05211463
 20
70.4249823633
 30
0.0
 10
56.6838884527
 20
70.4849277566
 30
0.0
 10
56.4298718279
 20
70.4983659615
 30
0.0
 10
56.3012559616
 20
70.4983659615
 30
0.0
  0
SPLINE
  5
348
100
AcDbEntity
  8
0
100
AcDbSpline
 62
7
  6
BYLAYER
 70
0
 71
3
 72
18
 73
14
 74
0
 42
0.0000001
 43
0.0000001
 44
0.0000000001
 40
0.0
 40
0.0
 40
0.0
 40
0.0
 40
0.157739513
 40
0.3112661572
 40
0.4566436916
 40
0.5906531521
 40
0.7111509823
 40
0.7661842171
 40
0.817841535
 40
0.8664467572
 40
0.9125091344
 40
0.9567377839
 40
1.0
 40
1.0
 40
1.0
 40
1.0
 10
46.4012559616
 20
70.4983659615
 30
0.0
 10
46.2726413718
 20
70.4983659615
 30
0.0
 10
46.0186285433
 20
70.4849285139
 30
0.0
 10
45.6504070189
 20
70.4249841673
 30
0.0
 10
45.3101602075
 20
70.3275178078
 30
0.0
 10
45.0105738501
 20
70.1961721675
 30
0.0
 10
44.7974203787
 20
70.0580221515
 30
0.0
 10
44.659578471
 20
69.9337426565
 30
0.0
 10
44.5759538246
 20
69.8382179895
 30
0.0
 10
44.5097752474
 20
69.7384689107
 30
0.0
 10
44.4618639914
 20
69.6353211777
 30
0.0
 10
44.4327728361
 20
69.5298507545
 30
0.0
 10
44.4262707205
 20
69.4583515062
 30
0.0
 10
44.4262706222
 20
69.4230771982
 30
0.0
  0
SPLINE
  5
349
100
AcDbEntity
  8
0
100
AcDbSpline
 62
7
  6
BYLAYER
 70
0
 71
3
 72
18
 73
14
 74
0
 42
0.0000001
 43
0.0000001
 44
0.0000000001
 40
0.0
 40
0.0
 40
0.0
 40
0.0
 40
0.157739513
 40
0.3112661572
 40
0.4566436916
 40
0.5906531521
 40
0.7111509823
 40
0.7661842171
 40
0.817841535
 40
0.8664467572
 40
0.9125091344
 40
0.9567377839
 40
1.0
 40
1.0
 40
1.0
 40
1.0
 10
41.5012559616
 20
70.4983659615
 30
0.0
 10
41.3726413718
 20
70.4983659615
 30
0.0
 10
41.1186285433
 20
70.4849285139
 30
0.0
 10
40.7504070189
 20
70.4249841673
 30
0.0
 10
40.4101602075
 20
70.3275178078
 30
0.0
 10
40.1105738501
 20
70.1961721675
 30
0.0
 10
39.8974203787
 20
70.0580221515
 30
0.0
 10
39.759578471
 20
69.9337426565
 30
0.0
 10
39.6759538246
 20
69.8382179895
 30
0.0
 10
39.6097752474
 20
69.7384689107
 30
0.0
 10
39.5618639914
 20
69.6353211777
 30
0.0
 10
39.5327728361
 20
69.5298507545
 30
0.0
 10
39.5262707205
 20
69.4583515062
 30
0.0
 10
39.5262706222
 20
69.4230771982
 30
0.0
  0
SPLINE
  5
34A
100
AcDbEntity
  8
0
100
AcDbSpline
 62
7
  6
BYLAYER
 70
0
 71
3
 72
18
 73
14
 74
0
 42
0.0000001
 43
0.0000001
 44
0.0000000001
 40
0.0
 40
0.0
 40
0.0
 40
0.0
 40
0.157739513
 40
0.3112661572
 40
0.4566436916
 40
0.5906531521
 40
0.7111509823
 40
0.7661842171
 40
0.817841535
 40
0.8664467572
 40
0.9125091344
 40
0.9567377839
 40
1.0
 40
1.0
 40
1.0
 40
1.0
 10
56.3012559616
 20
70.4983659615
 30
0.0
 10
56.1726413718
 20
70.4983659615
 30
0.0
 10
55.9186285433
 20
70.484928514
 30
0.0
 10
55.5504070189
 20
70.4249841673
 30
0.0
 10
55.2101602075
 20
70.3275178078
 30
0.0
 10
54.9105738501
 20
70.1961721675
 30
0.0
 10
54.6974203787
 20
70.0580221515
 30
0.0
 10
54.559578471
 20
69.9337426565
 30
0.0
 10
54.4759538246
 20
69.8382179895
 30
0.0
 10
54.4097752474
 20
69.7384689107
 30
0.0
 10
54.3618639914
 20
69.6353211777
 30
0.0
 10
54.3327728361
 20
69.5298507545
 30
0.0
 10
54.3262707205
 20
69.4583515063
 30
0.0
 10
54.3262706222
 20
69.4230771982
 30
0.0
  0
SPLINE
  5
34B
100
AcDbEntity
  8
0
100
AcDbSpline
 62
7
  6
BYLAYER
 70
0
 71
3
 72
18
 73
14
 74
0
 42
0.0000001
 43
0.0000001
 44
0.0000000001
 40
0.0
 40
0.0
 40
0.0
 40
0.0
 40
0.043261923
 40
0.0874901032
 40
0.1335517225
 40
0.1821560677
 40
0.2338121928
 40
0.288844528
 40
0.4093407935
 40
0.5433505103
 40
0.6887290937
 40
0.8422588989
 40
1.0
 40
1.0
 40
1.0
 40
1.0
 10
48.3762413009
 20
69.4230771939
 30
0.0
 10
48.3762413992
 20
69.4583512579
 30
0.0
 10
48.3697392032
 20
69.5298498978
 30
0.0
 10
48.3406484374
 20
69.6353190513
 30
0.0
 10
48.2927387669
 20
69.7384656322
 30
0.0
 10
48.2265613723
 20
69.8382126644
 30
0.0
 10
48.1429398536
 20
69.9337368058
 30
0.0
 10
48.0050999828
 20
70.0580141344
 30
0.0
 10
47.7919497878
 20
70.1961655185
 30
0.0
 10
47.492364153
 20
70.3275124638
 30
0.0
 10
47.15211463
 20
70.4249823632
 30
0.0
 10
46.7838884527
 20
70.4849277566
 30
0.0
 10
46.5298718279
 20
70.4983659615
 30
0.0
 10
46.4012559616
 20
70.4983659615
 30
0.0
  0
ENDSEC
  0
SECTION
  2
OBJECTS
  0
DICTIONARY
  5
C
100
AcDbDictionary
280
0
281
1
  3
ACAD_GROUP
350
D
  3
ACAD_MLINESTYLE
350
17
  3
ACAD_LAYOUT
350
1A
  3
ACAD_PLOTSETTINGS
350
19
  3
ACAD_PLOTSTYLENAME
350
E
  0
DICTIONARY
  5
D
102
{ACAD_REACTORS
330
C
102
}
100
AcDbDictionary
280
0
281
1
  0
ACDBDICTIONARYWDFLT
  5
E
102
{ACAD_REACTORS
330
C
102
}
100
AcDbDictionary
281
1
  3
Normal
350
F
100
AcDbDictionaryWithDefault
340
F
  0
DICTIONARY
  5
17
102
{ACAD_REACTORS
330
C
102
}
100
AcDbDictionary
280
0
281
1
  3
Standard
350
18
  0
DICTIONARY
  5
19
102
{ACAD_REACTORS
330
C
102
}
100
AcDbDictionary
281
1
  0
DICTIONARY
  5
1A
102
{ACAD_REACTORS
330
C
102
}
100
AcDbDictionary
281
1
  3
Model
350
34C
  3
Layout1
350
34D
  0
ACDBPLACEHOLDER
  5
F
102
{ACAD_REACTORS
330
E
102
}
  0
MLINESTYLE
  5
18
102
{ACAD_REACTORS
330
17
102
}
100
AcDbMlineStyle
  2
STANDARD
 70
0
  3

 62
256
 51
90.0
 52
90.0
 71
2
 49
0.5
 62
256
  6
BYLAYER
 49
-0.5
 62
256
  6
BYLAYER
  0
LAYOUT
  5
34C
102
{ACAD_REACTORS
330
1A
102
}
100
AcDbPlotSettings
  1

  2
none_device
  4

  6

 40
0.0
 41
0.0
 42
0.0
 43
0.0
 44
210.0
 45
297.0
 46
0.0
 47
0.0
 48
0.0
 49
0.0
140
0.0
141
0.0
142
1.0
143
1.0
 70
1024
 72
1
 73
0
 74
0
  7

 75
0
147
1.0
148
0.0
149
0.0
100
AcDbLayout
  1
Model
 70
0
 71
0
 10
0.0
 20
0.0
 11
210.0
 21
297.0
 12
0.0
 22
0.0
 32
0.0
 14
0.0
 24
0.0
 34
0.0
 15
0.0
 25
0.0
 35
0.0
146
0.0
 13
0.0
 23
0.0
 33
0.0
 16
1.0
 26
0.0
 36
0.0
 17
0.0
 27
1.0
 37
0.0
 76
0
330
210
345
0
346
0
  0
LAYOUT
  5
34D
102
{ACAD_REACTORS
330
1A
102
}
100
AcDbPlotSettings
  1

  2
none_device
  4

  6

 40
0.0
 41
0.0
 42
0.0
 43
0.0
 44
210.0
 45
297.0
 46
0.0
 47
0.0
 48
0.0
 49
0.0
140
0.0
141
0.0
142
1.0
143
1.0
 70
0
 72
1
 73
0
 74
0
  7

 75
0
147
1.0
148
0.0
149
0.0
100
AcDbLayout
  1
Layout1
 70
0
 71
1
 10
0.0
 20
0.0
 11
210.0
 21
297.0
 12
0.0
 22
0.0
 32
0.0
 14
0.0
 24
0.0
 34
0.0
 15
0.0
 25
0.0
 35
0.0
146
0.0
 13
0.0
 23
0.0
 33
0.0
 16
1.0
 26
0.0
 36
0.0
 17
0.0
 27
1.0
 37
0.0
 76
0
330
211
345
0
346
0
  0
ENDSEC
  0
EOF
