999
DXF file: C:\Gen2D\CAD\GVAS025_3D-CAD\drw0001_5.dxf
999
Pro/ENGINEER 2019471 by Parametric Technology Corporation
  0
SECTION
  2
HEADER
  9
$ACADVER
  1
AC1024
  9
$DWGCODEPAGE
  3
ANSI_1252
  9
$EXTMAX
 10
82.6241389934
 20
116.8541394336
 30
0.0
  9
$EXTMIN
 10
0.0
 20
0.0
 30
0.0
  9
$LIMMIN
 10
0.0
 20
0.0
  9
$LIMMAX
 10
82.6241389934
 20
116.8541394336
  9
$VIEWCTR
 10
41.3120694967
 20
58.4270697168
  9
$VIEWSIZE
 40
116.8541394336
  9
$CLAYER
  8
0
  9
$LTSCALE
 40
7.6171587186
  9
$CELTYPE
  6
BYLAYER
  9
$DIMSCALE
 40
1.0
  9
$DIMASZ
 40
0.9836207023
  9
$DIMEXO
 40
1.0
  9
$DIMDLI
 40
5.2627642056
  9
$DIMEXE
 40
1.0
  9
$DIMCEN
 40
1.246444154
  9
$DIMLFAC
 40
1.0
  9
$DIMBLK
  1
_FILLED
  9
$DIMALT
 70
0
  9
$DIMALTF
 40
0.0393700787
  9
$DIMTXT
 40
1.3770689832
  9
$DIMTOL
 70
1
  9
$DIMLIM
 70
0
  9
$DIMTFAC
 40
1.0
  9
$DIMTP
 40
0.01
  9
$DIMTM
 40
0.01
  9
$DIMGAP
 40
0.625
  9
$DIMDSEP
 70
46
  9
$AUNITS
 70
0
  9
$PDMODE
 70
3
  9
$PDSIZE
 40
0.3125
  9
$HANDSEED
  5
366
  9
$TILEMODE
 70
1
  9
$MEASUREMENT
 70
1
  9
$INSUNITS
 70
4
  0
ENDSEC
  0
SECTION
  2
CLASSES
  0
CLASS
  1
ACDBDICTIONARYWDFLT
  2
AcDbDictionaryWithDefault
  3
AutoCAD 2000
 90
0
 91
1
280
0
281
0
  0
CLASS
  1
ACDBPLACEHOLDER
  2
AcDbPlaceHolder
  3
AutoCAD 2000
 90
0
 91
1
280
0
281
0
  0
CLASS
  1
LAYOUT
  2
AcDbLayout
  3
AutoCAD 2000
 90
0
 91
0
280
0
281
0
  0
ENDSEC
  0
SECTION
  2
TABLES
  0
TABLE
  2
VPORT
  5
8
100
AcDbSymbolTable
 70
2
  0
VPORT
  5
1F4
100
AcDbSymbolTableRecord
100
AcDbViewportTableRecord
  2
*ACTIVE
 70
0
 10
0.0
 20
0.0
 11
1.0
 21
1.0
 12
41.3120694967
 22
58.4270697168
 13
0.0
 23
0.0
 14
1.0
 24
1.0
 15
0.0
 25
0.0
 16
0.0
 26
0.0
 36
1.0
 17
0.0
 27
0.0
 37
0.0
 40
116.8541394336
 41
0.7070707071
 42
50.0
 43
0.0
 44
0.0
 50
0.0
 51
0.0
 71
0
 72
100
 73
1
 74
1
 75
0
 76
0
 77
0
 78
0
  0
ENDTAB
  0
TABLE
  2
LTYPE
  5
5
100
AcDbSymbolTable
 70
6
  0
LTYPE
  5
14
100
AcDbSymbolTableRecord
100
AcDbLinetypeTableRecord
  2
BYBLOCK
 70
0
  3

 72
65
 73
0
 40
0.0
  0
LTYPE
  5
15
100
AcDbSymbolTableRecord
100
AcDbLinetypeTableRecord
  2
BYLAYER
 70
0
  3

 72
65
 73
0
 40
0.0
  0
LTYPE
  5
16
100
AcDbSymbolTableRecord
100
AcDbLinetypeTableRecord
  2
CONTINUOUS
 70
64
  3
Solid line
 72
65
 73
0
 40
0.0
  0
LTYPE
  5
1F5
100
AcDbSymbolTableRecord
100
AcDbLinetypeTableRecord
  2
CENTER
 70
64
  3
____ _ ____ _ ____ _ ____ _ ____ _ ____ _ ____
 72
65
 73
4
 40
0.6
 49
0.375
 74
0
 49
-0.075
 74
0
 49
0.075
 74
0
 49
-0.075
 74
0
  0
LTYPE
  5
1F6
100
AcDbSymbolTableRecord
100
AcDbLinetypeTableRecord
  2
HIDDEN
 70
64
  3
- - - - - - - - - - - - - - - - - - - -
 72
65
 73
2
 40
0.2
 49
0.1
 74
0
 49
-0.1
 74
0
  0
LTYPE
  5
1F7
100
AcDbSymbolTableRecord
100
AcDbLinetypeTableRecord
  2
PHANTOM
 70
64
  3
_____ _ _ _____ _ _ _____ _ _ _____
 72
65
 73
6
 40
0.8
 49
0.45
 74
0
 49
-0.05
 74
0
 49
0.1
 74
0
 49
-0.05
 74
0
 49
0.1
 74
0
 49
-0.05
 74
0
  0
LTYPE
  5
1F8
100
AcDbSymbolTableRecord
100
AcDbLinetypeTableRecord
  2
DOT
 70
64
  3
. . . . . . . . . . . . . . . . . . . .
 72
65
 73
2
 40
0.2
 49
0.1
 74
0
 49
-0.1
 74
0
  0
LTYPE
  5
1F9
100
AcDbSymbolTableRecord
100
AcDbLinetypeTableRecord
  2
DASHED
 70
64
  3
- - - - - - - - - - - - - - - - - - - -
 72
65
 73
2
 40
0.2
 49
0.1
 74
0
 49
-0.1
 74
0
  0
ENDTAB
  0
TABLE
  2
LAYER
  5
2
100
AcDbSymbolTable
 70
36
  0
LAYER
  5
10
100
AcDbSymbolTableRecord
100
AcDbLayerTableRecord
  2
0
 70
0
 62
7
  6
CONTINUOUS
370
-3
390
F
  0
LAYER
  5
1FA
100
AcDbSymbolTableRecord
100
AcDbLayerTableRecord
  2
DEFAULT_1
 70
0
 62
7
  6
CENTER
370
-3
390
F
  0
LAYER
  5
1FB
100
AcDbSymbolTableRecord
100
AcDbLayerTableRecord
  2
DEFAULT_2
 70
0
 62
8
  6
HIDDEN
370
-3
390
F
  0
LAYER
  5
1FC
100
AcDbSymbolTableRecord
100
AcDbLayerTableRecord
  2
DEFAULT_3
 70
0
 62
7
  6
PHANTOM
370
-3
390
F
  0
LAYER
  5
1FD
100
AcDbSymbolTableRecord
100
AcDbLayerTableRecord
  2
00_COMPONENTS
 70
0
 62
7
  6
CONTINUOUS
370
-3
390
F
  0
LAYER
  5
1FE
100
AcDbSymbolTableRecord
100
AcDbLayerTableRecord
  2
01_1_DEFAULT_DATUMS
 70
0
 62
7
  6
CONTINUOUS
370
-3
390
F
  0
LAYER
  5
1FF
100
AcDbSymbolTableRecord
100
AcDbLayerTableRecord
  2
01_PLANES
 70
0
 62
7
  6
CONTINUOUS
370
-3
390
F
  0
LAYER
  5
200
100
AcDbSymbolTableRecord
100
AcDbLayerTableRecord
  2
02_COORD_SYS
 70
0
 62
7
  6
CONTINUOUS
370
-3
390
F
  0
LAYER
  5
201
100
AcDbSymbolTableRecord
100
AcDbLayerTableRecord
  2
03_AXES
 70
0
 62
7
  6
CONTINUOUS
370
-3
390
F
  0
LAYER
  5
202
100
AcDbSymbolTableRecord
100
AcDbLayerTableRecord
  2
04_POINTS
 70
0
 62
7
  6
CONTINUOUS
370
-3
390
F
  0
LAYER
  5
203
100
AcDbSymbolTableRecord
100
AcDbLayerTableRecord
  2
05_CURVES
 70
0
 62
7
  6
CONTINUOUS
370
-3
390
F
  0
LAYER
  5
204
100
AcDbSymbolTableRecord
100
AcDbLayerTableRecord
  2
06_SURFS
 70
0
 62
7
  6
CONTINUOUS
370
-3
390
F
  0
LAYER
  5
205
100
AcDbSymbolTableRecord
100
AcDbLayerTableRecord
  2
07_COSMETICS
 70
0
 62
7
  6
CONTINUOUS
370
-3
390
F
  0
LAYER
  5
206
100
AcDbSymbolTableRecord
100
AcDbLayerTableRecord
  2
10_NOTES
 70
0
 62
7
  6
CONTINUOUS
370
-3
390
F
  0
LAYER
  5
207
100
AcDbSymbolTableRecord
100
AcDbLayerTableRecord
  2
11_NOTES_PUB
 70
0
 62
7
  6
CONTINUOUS
370
-3
390
F
  0
LAYER
  5
208
100
AcDbSymbolTableRecord
100
AcDbLayerTableRecord
  2
13_REF_GTOL
 70
0
 62
7
  6
CONTINUOUS
370
-3
390
F
  0
LAYER
  5
209
100
AcDbSymbolTableRecord
100
AcDbLayerTableRecord
  2
16_MISC
 70
0
 62
7
  6
CONTINUOUS
370
-3
390
F
  0
LAYER
  5
20A
100
AcDbSymbolTableRecord
100
AcDbLayerTableRecord
  2
17_NO_PRINT
 70
0
 62
7
  6
CONTINUOUS
370
-3
390
F
  0
LAYER
  5
20B
100
AcDbSymbolTableRecord
100
AcDbLayerTableRecord
  2
18_DATUM_CAMS_JOINTS
 70
0
 62
7
  6
CONTINUOUS
370
-3
390
F
  0
LAYER
  5
20C
100
AcDbSymbolTableRecord
100
AcDbLayerTableRecord
  2
19_DATUM_FUNCTIONAL
 70
0
 62
7
  6
CONTINUOUS
370
-3
390
F
  0
LAYER
  5
20D
100
AcDbSymbolTableRecord
100
AcDbLayerTableRecord
  2
20_DATUM_KINEMATIC_SCHEME
 70
0
 62
7
  6
CONTINUOUS
370
-3
390
F
  0
LAYER
  5
20E
100
AcDbSymbolTableRecord
100
AcDbLayerTableRecord
  2
INTFCLR_74
 70
0
 62
7
  6
CONTINUOUS
370
-3
390
F
  0
LAYER
  5
20F
100
AcDbSymbolTableRecord
100
AcDbLayerTableRecord
  2
INTFCLR_76
 70
0
 62
7
  6
CONTINUOUS
370
-3
390
F
  0
ENDTAB
  0
TABLE
  2
STYLE
  5
3
100
AcDbSymbolTable
 70
1
  0
STYLE
  5
11
100
AcDbSymbolTableRecord
100
AcDbTextStyleTableRecord
  2
STANDARD
 70
0
 40
0.0
 41
0.8
 50
0.0
 71
0
 42
0.2
  3
txt
  4

  0
STYLE
  5
210
100
AcDbSymbolTableRecord
100
AcDbTextStyleTableRecord
  2
TEXTSTYLE_1
 70
0
 40
0.0
 41
0.8
 50
0.0
 71
0
 42
0.2
  3
gdt
  4

  0
ENDTAB
  0
TABLE
  2
VIEW
  5
6
100
AcDbSymbolTable
 70
0
  0
ENDTAB
  0
TABLE
  2
UCS
  5
7
100
AcDbSymbolTable
 70
0
  0
ENDTAB
  0
TABLE
  2
APPID
  5
9
100
AcDbSymbolTable
 70
1
  0
APPID
  5
211
100
AcDbSymbolTableRecord
100
AcDbRegAppTableRecord
  2
ACAD
 70
0
  0
ENDTAB
  0
TABLE
  2
BLOCK_RECORD
  5
1
100
AcDbSymbolTable
 70
0
  0
BLOCK_RECORD
  5
212
100
AcDbSymbolTableRecord
100
AcDbBlockTableRecord
  2
*Model_Space
  0
BLOCK_RECORD
  5
213
100
AcDbSymbolTableRecord
100
AcDbBlockTableRecord
  2
*Paper_Space
  0
BLOCK_RECORD
  5
214
100
AcDbSymbolTableRecord
100
AcDbBlockTableRecord
  2
_FILLED
  0
ENDTAB
  0
TABLE
  2
DIMSTYLE
  5
A
100
AcDbSymbolTable
 70
1
100
AcDbDimStyleTable
 71
0
  0
DIMSTYLE
105
215
100
AcDbSymbolTableRecord
100
AcDbDimStyleTableRecord
  2
STANDARD
 70
0
  3

  4

 40
1.0
 41
0.9836207023
 42
1.0
 43
0.38
 44
1.0
 45
0.0
 46
0.0
 47
0.01
 48
0.01
140
1.3770689832
141
0.09
142
0.0
143
25.4
144
1.0
145
0.0
146
1.0
147
0.625
 71
1
 72
0
 73
0
 74
0
 75
0
 76
0
 77
1
 78
8
 79
2
170
0
171
1
172
0
173
0
174
0
175
0
176
0
177
0
178
0
270
2
179
2
271
2
272
2
273
2
274
2
275
0
280
0
281
0
282
0
283
1
284
8
285
0
286
0
287
3
288
0
340
11
278
46
341
214
342
214
343
214
344
214
  0
ENDTAB
  0
ENDSEC
  0
SECTION
  2
BLOCKS
  0
BLOCK
  5
20
100
AcDbEntity
  8
0
100
AcDbBlockBegin
  2
*Model_Space
 70
0
 10
0.0
 20
0.0
 30
0.0
  3
*Model_Space
  1

  0
ENDBLK
  5
21
100
AcDbEntity
  8
0
100
AcDbBlockEnd
  0
BLOCK
  5
1C
100
AcDbEntity
  8
0
100
AcDbBlockBegin
  2
*Paper_Space
 70
0
 10
0.0
 20
0.0
 30
0.0
  3
*Paper_Space
  1

  0
ENDBLK
  5
1D
100
AcDbEntity
  8
0
100
AcDbBlockEnd
  0
BLOCK
  5
216
100
AcDbEntity
  8
0
100
AcDbBlockBegin
  2
_FILLED
 70
64
 10
0.0
 20
0.0
  3
_FILLED
  1

  0
SOLID
  5
217
100
AcDbEntity
  8
0
  6
BYBLOCK
 62
0
100
AcDbTrace
 10
0.0
 20
0.0
 11
-1.0
 21
0.25
 12
-1.0
 22
-0.25
 13
-1.0
 23
-0.25
  0
ENDBLK
  5
218
100
AcDbEntity
  8
0
  6
BYBLOCK
 62
0
100
AcDbBlockEnd
  0
ENDSEC
  0
SECTION
  2
ENTITIES
  0
LINE
  5
219
100
AcDbEntity
  8
0
100
AcDbLine
 62
7
  6
CONTINUOUS
 10
15.6808761176
 20
100.474322789
 11
15.5827953606
 21
100.3913506012
  0
LINE
  5
21A
100
AcDbEntity
  8
0
100
AcDbLine
 62
7
  6
CONTINUOUS
 10
14.741272819
 20
14.3575457798
 11
14.5652253256
 21
14.5824714324
  0
LINE
  5
21B
100
AcDbEntity
  8
0
100
AcDbLine
 62
7
  6
CONTINUOUS
 10
15.6518980793
 20
14.6543046782
 11
15.4758505859
 21
14.8792303309
  0
LINE
  5
21C
100
AcDbEntity
  8
0
100
AcDbLine
 62
7
  6
CONTINUOUS
 10
16.5625233396
 20
14.9510635766
 11
16.3864758462
 21
15.1759892293
  0
LINE
  5
21D
100
AcDbEntity
  8
INTFCLR_74
100
AcDbLine
 62
7
420
48875
  6
CONTINUOUS
 10
9.6312960762
 20
16.1646851584
 11
20.2675244678
 21
16.1646851584
  0
LINE
  5
21E
100
AcDbEntity
  8
0
100
AcDbLine
 62
7
  6
CONTINUOUS
 10
9.6312960762
 20
16.1646851584
 11
58.9312960762
 21
16.1646851584
  0
LINE
  5
21F
100
AcDbEntity
  8
INTFCLR_74
100
AcDbLine
 62
7
420
48875
  6
CONTINUOUS
 10
25.3130947598
 20
16.1646851584
 11
58.9312960762
 21
16.1646851584
  0
LINE
  5
220
100
AcDbEntity
  8
0
100
AcDbLine
 62
7
  6
CONTINUOUS
 10
34.7712960762
 20
17.1146851584
 11
33.0012960762
 21
17.1146851584
  0
LINE
  5
221
100
AcDbEntity
  8
0
100
AcDbLine
 62
7
  6
CONTINUOUS
 10
57.4412960762
 20
17.1646851584
 11
52.9112960762
 21
17.1646851584
  0
LINE
  5
222
100
AcDbEntity
  8
0
100
AcDbLine
 62
7
  6
CONTINUOUS
 10
41.6712960762
 20
17.1646851584
 11
37.2712960762
 21
17.1646851584
  0
LINE
  5
223
100
AcDbEntity
  8
0
100
AcDbLine
 62
7
  6
CONTINUOUS
 10
19.6812960762
 20
18.3646851584
 11
21.2273763233
 21
18.3646851584
  0
LINE
  5
224
100
AcDbEntity
  8
0
100
AcDbLine
 62
7
  6
CONTINUOUS
 10
25.444742282
 20
18.3646851584
 11
25.3134888275
 21
18.3658672903
  0
LINE
  5
225
100
AcDbEntity
  8
0
100
AcDbLine
 62
7
  6
CONTINUOUS
 10
13.1059907323
 20
14.5276334497
 11
12.5725005219
 21
16.1646851584
  0
LINE
  5
226
100
AcDbEntity
  8
INTFCLR_74
100
AcDbLine
 62
7
420
48875
  6
CONTINUOUS
 10
11.3076300989
 20
103.1646851584
 11
9.6343816128
 21
91.2646851584
  0
LINE
  5
227
100
AcDbEntity
  8
0
100
AcDbLine
 62
7
  6
CONTINUOUS
 10
9.6343816128
 20
91.2646851584
 11
11.3075898917
 21
103.1643992077
  0
LINE
  5
228
100
AcDbEntity
  8
0
100
AcDbLine
 62
7
  6
CONTINUOUS
 10
25.5312960762
 20
18.4646851584
 11
25.4273215578
 21
18.4646851584
  0
LINE
  5
229
100
AcDbEntity
  8
0
100
AcDbLine
 62
7
  6
CONTINUOUS
 10
21.2273763233
 20
18.4646851584
 11
19.6812960762
 21
18.4646851584
  0
LINE
  5
22A
100
AcDbEntity
  8
0
100
AcDbLine
 62
7
  6
CONTINUOUS
 10
25.3209148922
 20
19.0754902209
 11
25.1900673748
 21
19.0754902209
  0
LINE
  5
22B
100
AcDbEntity
  8
0
100
AcDbLine
 62
7
  6
CONTINUOUS
 10
37.2712960762
 20
19.2646851584
 11
41.6712960762
 21
19.2646851584
  0
LINE
  5
22C
100
AcDbEntity
  8
0
100
AcDbLine
 62
7
  6
CONTINUOUS
 10
52.9112960762
 20
19.2646851584
 11
57.4412960762
 21
19.2646851584
  0
LINE
  5
22D
100
AcDbEntity
  8
0
100
AcDbLine
 62
7
  6
CONTINUOUS
 10
25.2180070754
 20
19.4686525727
 11
25.087159558
 21
19.4686525727
  0
LINE
  5
22E
100
AcDbEntity
  8
0
100
AcDbLine
 62
7
  6
CONTINUOUS
 10
38.7399270579
 20
20.5146851584
 11
34.9399270579
 21
20.5146851584
  0
LINE
  5
22F
100
AcDbEntity
  8
0
100
AcDbLine
 62
7
  6
CONTINUOUS
 10
19.2512960762
 20
21.1646851584
 11
17.1512960762
 21
21.1646851584
  0
LINE
  5
230
100
AcDbEntity
  8
0
100
AcDbLine
 62
7
  6
CONTINUOUS
 10
32.6326650946
 20
21.5146851584
 11
28.6326650946
 21
21.5146851584
  0
LINE
  5
231
100
AcDbEntity
  8
0
100
AcDbLine
 62
7
  6
CONTINUOUS
 10
25.2012960762
 20
23.0235642271
 11
28.1132483616
 21
22.2433089638
  0
LINE
  5
232
100
AcDbEntity
  8
INTFCLR_74
100
AcDbLine
 62
7
420
48875
  6
CONTINUOUS
 10
9.6312960762
 20
39.7665648235
 11
9.6312960762
 21
16.1646851584
  0
LINE
  5
233
100
AcDbEntity
  8
0
100
AcDbLine
 62
7
  6
CONTINUOUS
 10
9.6312960762
 20
16.1646851584
 11
9.6312960762
 21
39.7665648235
  0
LINE
  5
234
100
AcDbEntity
  8
INTFCLR_74
100
AcDbLine
 62
7
420
48875
  6
CONTINUOUS
 10
9.6343816128
 20
91.2646851584
 11
9.6336685059
 21
79.3646851584
  0
LINE
  5
235
100
AcDbEntity
  8
0
100
AcDbLine
 62
7
  6
CONTINUOUS
 10
9.6336685059
 20
79.3646851584
 11
9.6343816128
 21
91.2646851584
  0
LINE
  5
236
100
AcDbEntity
  8
0
100
AcDbLine
 62
7
  6
CONTINUOUS
 10
15.5476706449
 20
100.1646851584
 11
15.5827953606
 21
100.3913506012
  0
LINE
  5
237
100
AcDbEntity
  8
0
100
AcDbLine
 62
7
  6
CONTINUOUS
 10
24.7317160352
 20
102.4637804215
 11
24.829796873
 21
102.7091268164
  0
LINE
  5
238
100
AcDbEntity
  8
0
100
AcDbLine
 62
7
  6
CONTINUOUS
 10
35.1312960762
 20
101.3426204052
 11
34.7275480307
 21
100.9388723597
  0
LINE
  5
239
100
AcDbEntity
  8
0
100
AcDbLine
 62
7
  6
CONTINUOUS
 10
21.1738387338
 20
18.7856975897
 11
25.087159558
 21
19.4686525727
  0
LINE
  5
23A
100
AcDbEntity
  8
0
100
AcDbLine
 62
7
  6
CONTINUOUS
 10
17.1512960762
 20
24.5846851584
 11
19.2512960762
 21
24.5846851584
  0
LINE
  5
23B
100
AcDbEntity
  8
0
100
AcDbLine
 62
7
  6
CONTINUOUS
 10
35.1212960762
 20
17.974075493
 11
34.7275480307
 21
18.3678235385
  0
LINE
  5
23C
100
AcDbEntity
  8
0
100
AcDbLine
 62
7
  6
CONTINUOUS
 10
24.0605404612
 20
99.9620107398
 11
24.1303268601
 21
100.1646851584
  0
LINE
  5
23D
100
AcDbEntity
  8
0
100
AcDbLine
 62
7
  6
CONTINUOUS
 10
32.8133985247
 20
90.0820107398
 11
33.6371465702
 21
90.9057587853
  0
LINE
  5
23E
100
AcDbEntity
  8
0
100
AcDbLine
 62
7
  6
CONTINUOUS
 10
28.6326650946
 20
27.2246851584
 11
30.9326650946
 21
27.2246851584
  0
LINE
  5
23F
100
AcDbEntity
  8
0
100
AcDbLine
 62
7
  6
CONTINUOUS
 10
33.8453772085
 20
28.3246851584
 11
38.7353772085
 21
28.3246851584
  0
LINE
  5
240
100
AcDbEntity
  8
0
100
AcDbLine
 62
7
  6
CONTINUOUS
 10
31.5312960762
 20
29.3246851584
 11
32.6012960762
 21
29.3246851584
  0
LINE
  5
241
100
AcDbEntity
  8
0
100
AcDbLine
 62
7
  6
CONTINUOUS
 10
17.8056484355
 20
16.1414158599
 11
17.8184337197
 21
15.8363682188
  0
LINE
  5
242
100
AcDbEntity
  8
0
100
AcDbLine
 62
7
  6
CONTINUOUS
 10
15.4200303606
 20
101.1943384215
 11
15.4141252238
 21
101.5039146039
  0
LINE
  5
243
100
AcDbEntity
  8
0
100
AcDbLine
 62
7
  6
CONTINUOUS
 10
15.5383377619
 20
100.1646851584
 11
15.5224626104
 21
100.9969383259
  0
LINE
  5
244
100
AcDbEntity
  8
0
100
AcDbLine
 62
7
  6
CONTINUOUS
 10
15.4312956957
 20
102.8087649403
 11
15.4312956957
 21
102.963754405
  0
LINE
  5
245
100
AcDbEntity
  8
0
100
AcDbLine
 62
7
  6
CONTINUOUS
 10
15.5827953606
 20
100.3913506012
 11
15.5827953606
 21
102.7096807401
  0
LINE
  5
246
100
AcDbEntity
  8
0
100
AcDbLine
 62
7
  6
CONTINUOUS
 10
15.6808761176
 20
100.474322789
 11
15.6808761176
 21
102.4643227926
  0
LINE
  5
247
100
AcDbEntity
  8
0
100
AcDbLine
 62
7
  6
CONTINUOUS
 10
15.9312960762
 20
89.8820107398
 11
15.9312960762
 21
96.2820107398
  0
LINE
  5
248
100
AcDbEntity
  8
0
100
AcDbLine
 62
7
  6
CONTINUOUS
 10
17.0912960762
 20
80.9120107398
 11
17.0912960762
 21
85.3020107398
  0
LINE
  5
249
100
AcDbEntity
  8
INTFCLR_74
100
AcDbLine
 62
7
420
48875
  6
CONTINUOUS
 10
15.3936685163
 20
79.3646851584
 11
15.3914153383
 21
41.7646851584
  0
LINE
  5
24A
100
AcDbEntity
  8
0
100
AcDbLine
 62
7
  6
CONTINUOUS
 10
15.3914153383
 20
41.7646851584
 11
15.3936685163
 21
79.3646851584
  0
LINE
  5
24B
100
AcDbEntity
  8
0
100
AcDbLine
 62
7
  6
CONTINUOUS
 10
14.4617571152
 20
14.5487527191
 11
14.4520378967
 21
14.2632885253
  0
LINE
  5
24C
100
AcDbEntity
  8
0
100
AcDbLine
 62
7
  6
CONTINUOUS
 10
15.3723823755
 20
14.8455116175
 11
15.362663157
 21
14.5600474237
  0
LINE
  5
24D
100
AcDbEntity
  8
0
100
AcDbLine
 62
7
  6
CONTINUOUS
 10
51.6608761169
 20
100.4721666894
 11
51.5627952791
 21
100.3891944332
  0
LINE
  5
24E
100
AcDbEntity
  8
0
100
AcDbLine
 62
7
  6
CONTINUOUS
 10
28.1132483616
 20
26.496061353
 11
25.2012960762
 21
25.7158060897
  0
LINE
  5
24F
100
AcDbEntity
  8
0
100
AcDbLine
 62
7
  6
CONTINUOUS
 10
42.5512960762
 20
30.7146851584
 11
39.1212960762
 21
30.7146851584
  0
LINE
  5
250
100
AcDbEntity
  8
0
100
AcDbLine
 62
7
  6
CONTINUOUS
 10
37.0312960762
 20
31.2246851584
 11
34.9312960762
 21
31.2246851584
  0
LINE
  5
251
100
AcDbEntity
  8
0
100
AcDbLine
 62
7
  6
CONTINUOUS
 10
39.1212960762
 20
32.8146851584
 11
42.5512960762
 21
32.8146851584
  0
LINE
  5
252
100
AcDbEntity
  8
0
100
AcDbLine
 62
7
  6
CONTINUOUS
 10
34.9312960762
 20
33.2246851584
 11
37.0312960762
 21
33.2246851584
  0
LINE
  5
253
100
AcDbEntity
  8
0
100
AcDbLine
 62
7
  6
CONTINUOUS
 10
33.6371465702
 20
28.4109371129
 11
32.8133985247
 21
29.2346851584
  0
LINE
  5
254
100
AcDbEntity
  8
0
100
AcDbLine
 62
7
  6
CONTINUOUS
 10
25.087159558
 20
19.4686525727
 11
25.1900673748
 21
19.0754902209
  0
LINE
  5
255
100
AcDbEntity
  8
0
100
AcDbLine
 62
7
  6
CONTINUOUS
 10
25.3209148922
 20
19.0754902209
 11
25.2180070754
 21
19.4686525727
  0
LINE
  5
256
100
AcDbEntity
  8
0
100
AcDbLine
 62
7
  6
CONTINUOUS
 10
21.2273763233
 20
18.3646851584
 11
21.1738387338
 21
18.7856975897
  0
LINE
  5
257
100
AcDbEntity
  8
0
100
AcDbLine
 62
7
  6
CONTINUOUS
 10
15.5827953606
 20
102.7096807401
 11
15.5589495934
 21
103.1646851584
  0
LINE
  5
258
100
AcDbEntity
  8
0
100
AcDbLine
 62
7
  6
CONTINUOUS
 10
17.1512960762
 20
21.1646851584
 11
17.1512960762
 21
24.5846851584
  0
LINE
  5
259
100
AcDbEntity
  8
0
100
AcDbLine
 62
7
  6
CONTINUOUS
 10
17.8056484355
 20
16.1646851584
 11
17.8056484355
 21
16.1414158599
  0
LINE
  5
25A
100
AcDbEntity
  8
0
100
AcDbLine
 62
7
  6
CONTINUOUS
 10
18.0312960762
 20
96.2820107398
 11
18.0312960762
 21
89.8820107398
  0
LINE
  5
25B
100
AcDbEntity
  8
0
100
AcDbLine
 62
7
  6
CONTINUOUS
 10
19.2512960762
 20
24.5846851584
 11
19.2512960762
 21
21.1646851584
  0
LINE
  5
25C
100
AcDbEntity
  8
0
100
AcDbLine
 62
7
  6
CONTINUOUS
 10
19.6812960762
 20
18.4646851584
 11
19.6812960762
 21
16.1646851584
  0
LINE
  5
25D
100
AcDbEntity
  8
0
100
AcDbLine
 62
7
  6
CONTINUOUS
 10
20.0676999017
 20
16.1646851584
 11
20.0676999017
 21
18.3646851584
  0
LINE
  5
25E
100
AcDbEntity
  8
0
100
AcDbLine
 62
7
  6
CONTINUOUS
 10
20.0812960762
 20
85.3020107398
 11
20.0812960762
 21
80.9120107398
  0
LINE
  5
25F
100
AcDbEntity
  8
0
100
AcDbLine
 62
7
  6
CONTINUOUS
 10
20.2675244678
 20
18.3646851584
 11
20.2675244678
 21
16.1646851584
  0
LINE
  5
260
100
AcDbEntity
  8
0
100
AcDbLine
 62
7
  6
CONTINUOUS
 10
16.2830076358
 20
15.1422705159
 11
16.2732884173
 21
14.8568063221
  0
LINE
  5
261
100
AcDbEntity
  8
0
100
AcDbLine
 62
7
  6
CONTINUOUS
 10
25.444742282
 20
18.3646851584
 11
25.3209148922
 21
19.0754902209
  0
LINE
  5
262
100
AcDbEntity
  8
0
100
AcDbLine
 62
7
  6
CONTINUOUS
 10
25.1900673748
 20
19.0754902209
 11
25.3134947622
 21
18.3658332233
  0
LINE
  5
263
100
AcDbEntity
  8
0
100
AcDbLine
 62
7
  6
CONTINUOUS
 10
24.8901294333
 20
100.9963769689
 11
24.8742650005
 21
100.1646851584
  0
LINE
  5
264
100
AcDbEntity
  8
0
100
AcDbLine
 62
7
  6
CONTINUOUS
 10
24.9984664978
 20
101.5033402628
 11
24.9925613786
 21
101.1937647881
  0
LINE
  5
265
100
AcDbEntity
  8
0
100
AcDbLine
 62
7
  6
CONTINUOUS
 10
24.829796873
 20
102.7091268164
 11
24.8536717491
 21
103.1646851584
  0
LINE
  5
266
100
AcDbEntity
  8
0
100
AcDbLine
 62
7
  6
CONTINUOUS
 10
75.1312960762
 20
37.2846851584
 11
58.9312960762
 21
37.1648999802
  0
LINE
  5
267
100
AcDbEntity
  8
INTFCLR_74
100
AcDbLine
 62
7
420
48875
  6
CONTINUOUS
 10
58.9312960762
 20
37.1648999802
 11
75.1312960762
 21
37.2846851584
  0
LINE
  5
268
100
AcDbEntity
  8
0
100
AcDbLine
 62
7
  6
CONTINUOUS
 10
73.9912960762
 20
38.0646851584
 11
70.5212960762
 21
38.0646851584
  0
LINE
  5
269
100
AcDbEntity
  8
0
100
AcDbLine
 62
7
  6
CONTINUOUS
 10
70.5212960762
 20
40.1646851584
 11
73.9912960762
 21
40.1646851584
  0
LINE
  5
26A
100
AcDbEntity
  8
0
100
AcDbLine
 62
7
  6
CONTINUOUS
 10
24.7317160352
 20
100.4737804179
 11
24.7317160352
 21
102.4637804215
  0
LINE
  5
26B
100
AcDbEntity
  8
0
100
AcDbLine
 62
7
  6
CONTINUOUS
 10
24.829796873
 20
100.3907964067
 11
24.829796873
 21
102.7091268164
  0
LINE
  5
26C
100
AcDbEntity
  8
0
100
AcDbLine
 62
7
  6
CONTINUOUS
 10
24.8312960762
 20
23.5046851584
 11
24.8312960762
 21
25.2346851584
  0
LINE
  5
26D
100
AcDbEntity
  8
0
100
AcDbLine
 62
7
  6
CONTINUOUS
 10
24.8412960762
 20
94.1020107398
 11
24.8412960762
 21
95.8120107398
  0
LINE
  5
26E
100
AcDbEntity
  8
0
100
AcDbLine
 62
7
  6
CONTINUOUS
 10
24.981296077
 20
102.808192657
 11
24.981296077
 21
102.9631821217
  0
LINE
  5
26F
100
AcDbEntity
  8
0
100
AcDbLine
 62
7
  6
CONTINUOUS
 10
25.5312960762
 20
18.4646851584
 11
25.5312960762
 21
16.1646851584
  0
LINE
  5
270
100
AcDbEntity
  8
0
100
AcDbLine
 62
7
  6
CONTINUOUS
 10
25.9312960762
 20
95.8220107398
 11
25.9312960762
 21
94.0620107398
  0
LINE
  5
271
100
AcDbEntity
  8
0
100
AcDbLine
 62
7
  6
CONTINUOUS
 10
25.3134947622
 20
18.3658332233
 11
25.3130947598
 21
16.1646851584
  0
LINE
  5
272
100
AcDbEntity
  8
0
100
AcDbLine
 62
7
  6
CONTINUOUS
 10
75.2812960762
 20
41.5146851584
 11
75.1312960762
 21
41.5146851584
  0
LINE
  5
273
100
AcDbEntity
  8
INTFCLR_74
100
AcDbLine
 62
7
420
48875
  6
CONTINUOUS
 10
15.3914153383
 20
41.7646851584
 11
11.6297265203
 21
41.7646851584
  0
LINE
  5
274
100
AcDbEntity
  8
0
100
AcDbLine
 62
7
  6
CONTINUOUS
 10
11.6297265203
 20
41.7646851584
 11
15.3914153383
 21
41.7646851584
  0
LINE
  5
275
100
AcDbEntity
  8
0
100
AcDbLine
 62
7
  6
CONTINUOUS
 10
28.3312960762
 20
21.8191436496
 11
28.3312960762
 21
21.9591436496
  0
LINE
  5
276
100
AcDbEntity
  8
0
100
AcDbLine
 62
7
  6
CONTINUOUS
 10
28.3312960762
 20
26.7802266672
 11
28.3312960762
 21
26.9202266672
  0
LINE
  5
277
100
AcDbEntity
  8
0
100
AcDbLine
 62
7
  6
CONTINUOUS
 10
29.0412960762
 20
92.4420107398
 11
29.0412960762
 21
97.3020107398
  0
LINE
  5
278
100
AcDbEntity
  8
0
100
AcDbLine
 62
7
  6
CONTINUOUS
 10
31.2312960762
 20
27.52331614
 11
31.2312960762
 21
29.02331614
  0
LINE
  5
279
100
AcDbEntity
  8
0
100
AcDbLine
 62
7
  6
CONTINUOUS
 10
31.2312960762
 20
90.2933797582
 11
31.2312960762
 21
91.7933797582
  0
LINE
  5
27A
100
AcDbEntity
  8
0
100
AcDbLine
 62
7
  6
CONTINUOUS
 10
75.2812960762
 20
46.1146851584
 11
75.1312960762
 21
46.1146851584
  0
LINE
  5
27B
100
AcDbEntity
  8
0
100
AcDbLine
 62
7
  6
CONTINUOUS
 10
16.3108868601
 20
100.1646851584
 11
16.3805404612
 21
99.9620107398
  0
LINE
  5
27C
100
AcDbEntity
  8
0
100
AcDbLine
 62
7
  6
CONTINUOUS
 10
24.8648349543
 20
100.1646851584
 11
24.829796873
 21
100.3907964067
  0
LINE
  5
27D
100
AcDbEntity
  8
0
100
AcDbLine
 62
7
  6
CONTINUOUS
 10
32.9312960762
 20
18.3860541768
 11
32.9312960762
 21
21.2160541768
  0
LINE
  5
27E
100
AcDbEntity
  8
0
100
AcDbLine
 62
7
  6
CONTINUOUS
 10
32.9312960762
 20
98.1006417214
 11
32.9312960762
 21
100.9206417214
  0
LINE
  5
27F
100
AcDbEntity
  8
0
100
AcDbLine
 62
7
  6
CONTINUOUS
 10
34.6412960762
 20
100.7306417214
 11
34.6412960762
 21
99.1006417214
  0
LINE
  5
280
100
AcDbEntity
  8
0
100
AcDbLine
 62
7
  6
CONTINUOUS
 10
34.6412960762
 20
20.2160541768
 11
34.6412960762
 21
18.5760541768
  0
LINE
  5
281
100
AcDbEntity
  8
INTFCLR_74
100
AcDbLine
 62
7
420
48875
  6
CONTINUOUS
 10
11.6297265203
 20
41.7646851584
 11
9.6312960762
 21
39.7665648235
  0
LINE
  5
282
100
AcDbEntity
  8
0
100
AcDbLine
 62
7
  6
CONTINUOUS
 10
9.6312960762
 20
39.7665648235
 11
11.6297265203
 21
41.7646851584
  0
LINE
  5
283
100
AcDbEntity
  8
0
100
AcDbLine
 62
7
  6
CONTINUOUS
 10
15.5827953606
 20
102.7096807401
 11
15.6808761176
 21
102.4643227926
  0
LINE
  5
284
100
AcDbEntity
  8
0
100
AcDbLine
 62
7
  6
CONTINUOUS
 10
37.2712960762
 20
17.1646851584
 11
37.2712960762
 21
19.2646851584
  0
LINE
  5
285
100
AcDbEntity
  8
0
100
AcDbLine
 62
7
  6
CONTINUOUS
 10
37.2712960762
 20
100.0520107398
 11
37.2712960762
 21
102.1520107398
  0
LINE
  5
286
100
AcDbEntity
  8
0
100
AcDbLine
 62
7
  6
CONTINUOUS
 10
37.5412960762
 20
85.1044580671
 11
37.5412960762
 21
88.9244580671
  0
LINE
  5
287
100
AcDbEntity
  8
0
100
AcDbLine
 62
7
  6
CONTINUOUS
 10
39.1212960762
 20
30.7146851584
 11
39.1212960762
 21
32.8146851584
  0
LINE
  5
288
100
AcDbEntity
  8
0
100
AcDbLine
 62
7
  6
CONTINUOUS
 10
39.2412960762
 20
98.3020107398
 11
39.2412960762
 21
91.4920107398
  0
LINE
  5
289
100
AcDbEntity
  8
0
100
AcDbLine
 62
7
  6
CONTINUOUS
 10
39.2412960762
 20
27.8246851584
 11
39.2412960762
 21
21.0146851584
  0
LINE
  5
28A
100
AcDbEntity
  8
0
100
AcDbLine
 62
7
  6
CONTINUOUS
 10
49.7071769756
 20
55.4145779351
 11
48.128989133
 21
55.3966822107
  0
LINE
  5
28B
100
AcDbEntity
  8
0
100
AcDbLine
 62
7
  6
CONTINUOUS
 10
54.6812960762
 20
55.0546851584
 11
46.9812960762
 21
55.0546851584
  0
LINE
  5
28C
100
AcDbEntity
  8
0
100
AcDbLine
 62
7
  6
CONTINUOUS
 10
50.2813846743
 20
55.3597852492
 11
47.0812269323
 21
55.3597852492
  0
LINE
  5
28D
100
AcDbEntity
  8
0
100
AcDbLine
 62
7
  6
CONTINUOUS
 10
40.1912960762
 20
86.2744580671
 11
40.1912960762
 21
84.7479609513
  0
LINE
  5
28E
100
AcDbEntity
  8
0
100
AcDbLine
 62
7
  6
CONTINUOUS
 10
41.6712960762
 20
19.2646851584
 11
41.6712960762
 21
17.1646851584
  0
LINE
  5
28F
100
AcDbEntity
  8
0
100
AcDbLine
 62
7
  6
CONTINUOUS
 10
41.6712960762
 20
100.0520107398
 11
41.6712960762
 21
102.1520107398
  0
LINE
  5
290
100
AcDbEntity
  8
0
100
AcDbLine
 62
7
  6
CONTINUOUS
 10
42.5512960762
 20
32.8146851584
 11
42.5512960762
 21
30.7146851584
  0
LINE
  5
291
100
AcDbEntity
  8
0
100
AcDbLine
 62
7
  6
CONTINUOUS
 10
55.9512960762
 20
100.0346851584
 11
55.996058666
 21
100.1646851584
  0
LINE
  5
292
100
AcDbEntity
  8
0
100
AcDbLine
 62
7
  6
CONTINUOUS
 10
56.6017160351
 20
102.4618706134
 11
56.699796873
 21
102.7072170084
  0
LINE
  5
293
100
AcDbEntity
  8
0
100
AcDbLine
 62
7
  6
CONTINUOUS
 10
50.2143263542
 20
56.0546851584
 11
47.7127522198
 21
56.0546851584
  0
LINE
  5
294
100
AcDbEntity
  8
0
100
AcDbLine
 62
7
  6
CONTINUOUS
 10
50.2143263542
 20
57.6546851584
 11
47.7127522198
 21
57.6546851584
  0
LINE
  5
295
100
AcDbEntity
  8
0
100
AcDbLine
 62
7
  6
CONTINUOUS
 10
47.0812076086
 20
58.3495850371
 11
50.2813846277
 21
58.3495850371
  0
LINE
  5
296
100
AcDbEntity
  8
0
100
AcDbLine
 62
7
  6
CONTINUOUS
 10
46.9812960762
 20
58.6546851584
 11
54.6812960762
 21
58.6546851584
  0
LINE
  5
297
100
AcDbEntity
  8
0
100
AcDbLine
 62
7
  6
CONTINUOUS
 10
48.1289892863
 20
58.3126882853
 11
49.7071528254
 21
58.2948039798
  0
LINE
  5
298
100
AcDbEntity
  8
0
100
AcDbLine
 62
7
  6
CONTINUOUS
 10
51.5280047919
 20
100.1646851584
 11
51.5627952791
 21
100.3891944332
  0
LINE
  5
299
100
AcDbEntity
  8
0
100
AcDbLine
 62
7
  6
CONTINUOUS
 10
61.0012960762
 20
61.5546851584
 11
58.9012960762
 21
61.5546851584
  0
LINE
  5
29A
100
AcDbEntity
  8
0
100
AcDbLine
 62
7
  6
CONTINUOUS
 10
46.6812960762
 20
55.3546851584
 11
46.6812960762
 21
58.3546851584
  0
LINE
  5
29B
100
AcDbEntity
  8
0
100
AcDbLine
 62
7
  6
CONTINUOUS
 10
48.6812960762
 20
56.0546851584
 11
48.6812960762
 21
57.6546851584
  0
LINE
  5
29C
100
AcDbEntity
  8
0
100
AcDbLine
 62
7
  6
CONTINUOUS
 10
49.1812960762
 20
57.6546851584
 11
49.1812960762
 21
56.0546851584
  0
LINE
  5
29D
100
AcDbEntity
  8
0
100
AcDbLine
 62
7
  6
CONTINUOUS
 10
58.9012960762
 20
64.9746851584
 11
61.0012960762
 21
64.9746851584
  0
LINE
  5
29E
100
AcDbEntity
  8
0
100
AcDbLine
 62
7
  6
CONTINUOUS
 10
51.5627952791
 20
102.7075248429
 11
51.5388365968
 21
103.1646851584
  0
LINE
  5
29F
100
AcDbEntity
  8
0
100
AcDbLine
 62
7
  6
CONTINUOUS
 10
51.4000307699
 20
101.1921823219
 11
51.3941256505
 21
101.5017585043
  0
LINE
  5
2A0
100
AcDbEntity
  8
0
100
AcDbLine
 62
7
  6
CONTINUOUS
 10
51.5182966948
 20
100.1646851584
 11
51.5024627175
 21
100.9947822263
  0
LINE
  5
2A1
100
AcDbEntity
  8
0
100
AcDbLine
 62
7
  6
CONTINUOUS
 10
50.6812959043
 20
57.949231862
 11
50.6812959043
 21
55.7601391899
  0
LINE
  5
2A2
100
AcDbEntity
  8
0
100
AcDbLine
 62
7
  6
CONTINUOUS
 10
51.4112960717
 20
102.8066088407
 11
51.4112960717
 21
102.9615983054
  0
LINE
  5
2A3
100
AcDbEntity
  8
0
100
AcDbLine
 62
7
  6
CONTINUOUS
 10
51.5627952791
 20
100.3891944332
 11
51.5627952791
 21
102.7075248429
  0
LINE
  5
2A4
100
AcDbEntity
  8
0
100
AcDbLine
 62
7
  6
CONTINUOUS
 10
51.6608761169
 20
100.4721666894
 11
51.6608761169
 21
102.462166693
  0
LINE
  5
2A5
100
AcDbEntity
  8
0
100
AcDbLine
 62
7
  6
CONTINUOUS
 10
52.5912960762
 20
98.8846851584
 11
52.5912960762
 21
100.0346851584
  0
LINE
  5
2A6
100
AcDbEntity
  8
0
100
AcDbLine
 62
7
  6
CONTINUOUS
 10
52.9112960762
 20
17.1646851584
 11
52.9112960762
 21
19.2646851584
  0
LINE
  5
2A7
100
AcDbEntity
  8
0
100
AcDbLine
 62
7
  6
CONTINUOUS
 10
53.9912960762
 20
86.6346851584
 11
53.9912960762
 21
90.0646851584
  0
LINE
  5
2A8
100
AcDbEntity
  8
0
100
AcDbLine
 62
7
  6
CONTINUOUS
 10
54.9812960762
 20
58.3546851584
 11
54.9812960762
 21
55.3546851584
  0
LINE
  5
2A9
100
AcDbEntity
  8
0
100
AcDbLine
 62
7
  6
CONTINUOUS
 10
55.7112960762
 20
100.0346851584
 11
55.7112960762
 21
98.8846851584
  0
LINE
  5
2AA
100
AcDbEntity
  8
0
100
AcDbLine
 62
7
  6
CONTINUOUS
 10
56.0912960762
 20
90.0646851584
 11
56.0912960762
 21
86.6346851584
  0
LINE
  5
2AB
100
AcDbEntity
  8
0
100
AcDbLine
 62
7
  6
CONTINUOUS
 10
56.6017160351
 20
100.4718706099
 11
56.6017160351
 21
102.4618706134
  0
LINE
  5
2AC
100
AcDbEntity
  8
0
100
AcDbLine
 62
7
  6
CONTINUOUS
 10
56.699796873
 20
100.3888865987
 11
56.699796873
 21
102.7072170084
  0
LINE
  5
2AD
100
AcDbEntity
  8
0
100
AcDbLine
 62
7
  6
CONTINUOUS
 10
56.851296077
 20
102.806282849
 11
56.851296077
 21
102.9612723136
  0
LINE
  5
2AE
100
AcDbEntity
  8
0
100
AcDbLine
 62
7
  6
CONTINUOUS
 10
57.4412960762
 20
19.2646851584
 11
57.4412960762
 21
17.1646851584
  0
LINE
  5
2AF
100
AcDbEntity
  8
0
100
AcDbLine
 62
7
  6
CONTINUOUS
 10
56.7601294333
 20
100.9944671609
 11
56.7443014299
 21
100.1646851584
  0
LINE
  5
2B0
100
AcDbEntity
  8
0
100
AcDbLine
 62
7
  6
CONTINUOUS
 10
56.8684664978
 20
101.5014304547
 11
56.8625613785
 21
101.19185498
  0
LINE
  5
2B1
100
AcDbEntity
  8
0
100
AcDbLine
 62
7
  6
CONTINUOUS
 10
56.699796873
 20
102.7072170084
 11
56.7237718382
 21
103.1646851584
  0
LINE
  5
2B2
100
AcDbEntity
  8
0
100
AcDbLine
 62
7
  6
CONTINUOUS
 10
58.9012960762
 20
61.5546851584
 11
58.9012960762
 21
64.9746851584
  0
LINE
  5
2B3
100
AcDbEntity
  8
0
100
AcDbLine
 62
7
  6
CONTINUOUS
 10
58.9312960762
 20
37.1648999802
 11
58.9312960762
 21
16.1646851584
  0
LINE
  5
2B4
100
AcDbEntity
  8
INTFCLR_74
100
AcDbLine
 62
7
420
48875
  6
CONTINUOUS
 10
58.9312960762
 20
16.1646851584
 11
58.9312960762
 21
37.1648999802
  0
LINE
  5
2B5
100
AcDbEntity
  8
0
100
AcDbLine
 62
7
  6
CONTINUOUS
 10
61.0012960762
 20
64.9746851584
 11
61.0012960762
 21
61.5546851584
  0
LINE
  5
2B6
100
AcDbEntity
  8
0
100
AcDbLine
 62
7
  6
CONTINUOUS
 10
58.9337889581
 20
82.164677106
 11
58.9351567675
 21
103.1632112363
  0
LINE
  5
2B7
100
AcDbEntity
  8
INTFCLR_74
100
AcDbLine
 62
7
420
48875
  6
CONTINUOUS
 10
58.9337889581
 20
82.164677106
 11
58.9351568635
 21
103.1646851584
  0
LINE
  5
2B8
100
AcDbEntity
  8
0
100
AcDbLine
 62
7
  6
CONTINUOUS
 10
37.5412960762
 20
85.1044580671
 11
38.5695446341
 21
84.0762095092
  0
LINE
  5
2B9
100
AcDbEntity
  8
0
100
AcDbLine
 62
7
  6
CONTINUOUS
 10
40.1912960762
 20
86.2744580671
 11
37.5412960762
 21
88.9244580671
  0
LINE
  5
2BA
100
AcDbEntity
  8
0
100
AcDbLine
 62
7
  6
CONTINUOUS
 10
70.0990879792
 20
49.7551654452
 11
71.5392768364
 21
47.694537648
  0
LINE
  5
2BB
100
AcDbEntity
  8
0
100
AcDbLine
 62
7
  6
CONTINUOUS
 10
64.9112960762
 20
78.0746851584
 11
64.9112960762
 21
80.1746851584
  0
LINE
  5
2BC
100
AcDbEntity
  8
0
100
AcDbLine
 62
7
  6
CONTINUOUS
 10
32.8450441218
 20
18.1778235385
 11
32.6412960762
 21
17.974075493
  0
LINE
  5
2BD
100
AcDbEntity
  8
0
100
AcDbLine
 62
7
  6
CONTINUOUS
 10
71.3212960762
 20
78.0746851584
 11
64.9112960762
 21
78.0746851584
  0
LINE
  5
2BE
100
AcDbEntity
  8
0
100
AcDbLine
 62
7
  6
CONTINUOUS
 10
15.3936685163
 20
79.3646851584
 11
9.6336685059
 21
79.3646851584
  0
LINE
  5
2BF
100
AcDbEntity
  8
INTFCLR_74
100
AcDbLine
 62
7
420
48875
  6
CONTINUOUS
 10
9.6336685059
 20
79.3646851584
 11
15.3936685163
 21
79.3646851584
  0
LINE
  5
2C0
100
AcDbEntity
  8
0
100
AcDbLine
 62
7
  6
CONTINUOUS
 10
64.9112960762
 20
80.1746851584
 11
71.3212960762
 21
80.1746851584
  0
LINE
  5
2C1
100
AcDbEntity
  8
0
100
AcDbLine
 62
7
  6
CONTINUOUS
 10
19.8812960762
 20
80.7120107398
 11
17.2912960762
 21
80.7120107398
  0
LINE
  5
2C2
100
AcDbEntity
  8
0
100
AcDbLine
 62
7
  6
CONTINUOUS
 10
24.829796873
 20
100.3907964067
 11
24.7317160352
 21
100.4737804179
  0
LINE
  5
2C3
100
AcDbEntity
  8
0
100
AcDbLine
 62
7
  6
CONTINUOUS
 10
56.7345390114
 20
100.1646851584
 11
56.699796873
 21
100.3888865987
  0
LINE
  5
2C4
100
AcDbEntity
  8
INTFCLR_74
100
AcDbLine
 62
7
420
48875
  6
CONTINUOUS
 10
75.1312960762
 20
82.0946851584
 11
58.9337889581
 21
82.164677106
  0
LINE
  5
2C5
100
AcDbEntity
  8
0
100
AcDbLine
 62
7
  6
CONTINUOUS
 10
58.9337889581
 20
82.164677106
 11
75.1312960762
 21
82.0946851584
  0
LINE
  5
2C6
100
AcDbEntity
  8
0
100
AcDbLine
 62
7
  6
CONTINUOUS
 10
32.8450441218
 20
101.1288723597
 11
32.6312960762
 21
101.3426204052
  0
LINE
  5
2C7
100
AcDbEntity
  8
0
100
AcDbLine
 62
7
  6
CONTINUOUS
 10
51.5627952791
 20
102.7075248429
 11
51.6608761169
 21
102.462166693
  0
LINE
  5
2C8
100
AcDbEntity
  8
0
100
AcDbLine
 62
7
  6
CONTINUOUS
 10
52.286618666
 20
100.1646851584
 11
52.3312960762
 21
100.0346851584
  0
LINE
  5
2C9
100
AcDbEntity
  8
0
100
AcDbLine
 62
7
  6
CONTINUOUS
 10
70.5212960762
 20
38.0646851584
 11
70.5212960762
 21
40.1646851584
  0
LINE
  5
2CA
100
AcDbEntity
  8
0
100
AcDbLine
 62
7
  6
CONTINUOUS
 10
71.3212960762
 20
80.1746851584
 11
71.3212960762
 21
78.0746851584
  0
LINE
  5
2CB
100
AcDbEntity
  8
0
100
AcDbLine
 62
7
  6
CONTINUOUS
 10
17.2912960762
 20
85.5020107398
 11
19.8812960762
 21
85.5020107398
  0
LINE
  5
2CC
100
AcDbEntity
  8
0
100
AcDbLine
 62
7
  6
CONTINUOUS
 10
56.0912960762
 20
86.6346851584
 11
53.9912960762
 21
86.6346851584
  0
LINE
  5
2CD
100
AcDbEntity
  8
0
100
AcDbLine
 62
7
  6
CONTINUOUS
 10
25.2112960762
 20
93.637073001
 11
25.3012960762
 21
93.6129575736
  0
LINE
  5
2CE
100
AcDbEntity
  8
0
100
AcDbLine
 62
7
  6
CONTINUOUS
 10
73.9912960762
 20
40.1646851584
 11
73.9912960762
 21
38.0646851584
  0
LINE
  5
2CF
100
AcDbEntity
  8
0
100
AcDbLine
 62
7
  6
CONTINUOUS
 10
75.1312960762
 20
82.0946851584
 11
75.1312960762
 21
37.2846851584
  0
LINE
  5
2D0
100
AcDbEntity
  8
INTFCLR_74
100
AcDbLine
 62
7
420
48875
  6
CONTINUOUS
 10
75.1312960762
 20
37.2846851584
 11
75.1312960762
 21
82.0946851584
  0
LINE
  5
2D1
100
AcDbEntity
  8
0
100
AcDbLine
 62
7
  6
CONTINUOUS
 10
75.2812960762
 20
41.5146851584
 11
75.2812960762
 21
46.1146851584
  0
LINE
  5
2D2
100
AcDbEntity
  8
0
100
AcDbLine
 62
7
  6
CONTINUOUS
 10
16.3864758462
 20
15.1759892293
 11
16.2830076358
 21
15.1422705159
  0
LINE
  5
2D3
100
AcDbEntity
  8
0
100
AcDbLine
 62
7
  6
CONTINUOUS
 10
15.4758505859
 20
14.8792303309
 11
15.3723823755
 21
14.8455116175
  0
LINE
  5
2D4
100
AcDbEntity
  8
0
100
AcDbLine
 62
7
  6
CONTINUOUS
 10
14.5652253256
 20
14.5824714324
 11
14.4617571152
 21
14.5487527191
  0
LINE
  5
2D5
100
AcDbEntity
  8
0
100
AcDbLine
 62
7
  6
CONTINUOUS
 10
17.2670129196
 20
15.0422385071
 11
16.781987343
 21
14.8841760613
  0
LINE
  5
2D6
100
AcDbEntity
  8
0
100
AcDbLine
 62
7
  6
CONTINUOUS
 10
16.135373603
 20
14.673454495
 11
15.8713620827
 21
14.5874171629
  0
LINE
  5
2D7
100
AcDbEntity
  8
0
100
AcDbLine
 62
7
  6
CONTINUOUS
 10
15.2247483427
 20
14.3766955966
 11
14.9607368224
 21
14.2906582645
  0
LINE
  5
2D8
100
AcDbEntity
  8
0
100
AcDbLine
 62
7
  6
CONTINUOUS
 10
14.3141230823
 20
14.0799366982
 11
14.1144973851
 21
14.0148817249
  0
LINE
  5
2D9
100
AcDbEntity
  8
0
100
AcDbLine
 62
7
  6
CONTINUOUS
 10
18.0312960762
 20
89.8820107398
 11
15.9312960762
 21
89.8820107398
  0
LINE
  5
2DA
100
AcDbEntity
  8
0
100
AcDbLine
 62
7
  6
CONTINUOUS
 10
32.6012960762
 20
89.9920107398
 11
31.5312960762
 21
89.9920107398
  0
LINE
  5
2DB
100
AcDbEntity
  8
0
100
AcDbLine
 62
7
  6
CONTINUOUS
 10
53.9912960762
 20
90.0646851584
 11
56.0912960762
 21
90.0646851584
  0
LINE
  5
2DC
100
AcDbEntity
  8
0
100
AcDbLine
 62
7
  6
CONTINUOUS
 10
38.7353772085
 20
90.9920107398
 11
33.8453772085
 21
90.9920107398
  0
LINE
  5
2DD
100
AcDbEntity
  8
0
100
AcDbLine
 62
7
  6
CONTINUOUS
 10
30.9326650946
 20
92.0920107398
 11
29.3912960762
 21
92.0920107398
  0
LINE
  5
2DE
100
AcDbEntity
  8
0
100
AcDbLine
 62
7
  6
CONTINUOUS
 10
25.3012960762
 20
96.3277309893
 11
25.2112960762
 21
96.303615562
  0
LINE
  5
2DF
100
AcDbEntity
  8
0
100
AcDbLine
 62
7
  6
CONTINUOUS
 10
15.9312960762
 20
96.2820107398
 11
18.0312960762
 21
96.2820107398
  0
LINE
  5
2E0
100
AcDbEntity
  8
0
100
AcDbLine
 62
7
  6
CONTINUOUS
 10
29.5426650946
 20
97.8020107398
 11
32.6326650946
 21
97.8020107398
  0
LINE
  5
2E1
100
AcDbEntity
  8
0
100
AcDbLine
 62
7
  6
CONTINUOUS
 10
34.9399270579
 20
98.8020107398
 11
38.7399270579
 21
98.8020107398
  0
LINE
  5
2E2
100
AcDbEntity
  8
0
100
AcDbLine
 62
7
  6
CONTINUOUS
 10
55.7112960762
 20
98.8846851584
 11
52.5912960762
 21
98.8846851584
  0
LINE
  5
2E3
100
AcDbEntity
  8
0
100
AcDbLine
 62
7
  6
CONTINUOUS
 10
24.0605404612
 20
99.9620107398
 11
16.3805404612
 21
99.9620107398
  0
LINE
  5
2E4
100
AcDbEntity
  8
0
100
AcDbLine
 62
7
  6
CONTINUOUS
 10
55.9512960762
 20
100.0346851584
 11
55.7112960762
 21
100.0346851584
  0
LINE
  5
2E5
100
AcDbEntity
  8
0
100
AcDbLine
 62
7
  6
CONTINUOUS
 10
52.5912960762
 20
100.0346851584
 11
52.3312960762
 21
100.0346851584
  0
LINE
  5
2E6
100
AcDbEntity
  8
0
100
AcDbLine
 62
7
  6
CONTINUOUS
 10
41.6712960762
 20
100.0520107398
 11
37.2712960762
 21
100.0520107398
  0
LINE
  5
2E7
100
AcDbEntity
  8
0
100
AcDbLine
 62
7
  6
CONTINUOUS
 10
56.7345390114
 20
100.1646851584
 11
51.5280047919
 21
100.1646851584
  0
LINE
  5
2E8
100
AcDbEntity
  8
0
100
AcDbLine
 62
7
  6
CONTINUOUS
 10
24.8648349543
 20
100.1646851584
 11
15.5476706449
 21
100.1646851584
  0
LINE
  5
2E9
100
AcDbEntity
  8
0
100
AcDbLine
 62
7
  6
CONTINUOUS
 10
37.2712960762
 20
102.1520107398
 11
41.6712960762
 21
102.1520107398
  0
LINE
  5
2EA
100
AcDbEntity
  8
0
100
AcDbLine
 62
7
  6
CONTINUOUS
 10
32.9912960762
 20
102.2020107398
 11
34.7812960762
 21
102.2020107398
  0
LINE
  5
2EB
100
AcDbEntity
  8
INTFCLR_74
100
AcDbLine
 62
7
420
48875
  6
CONTINUOUS
 10
58.9351568635
 20
103.1646851584
 11
56.8618449023
 21
103.1646851584
  0
LINE
  5
2EC
100
AcDbEntity
  8
INTFCLR_74
100
AcDbLine
 62
7
420
48875
  6
CONTINUOUS
 10
51.4007530975
 20
103.1646851584
 11
24.9918090554
 21
103.1646851584
  0
LINE
  5
2ED
100
AcDbEntity
  8
INTFCLR_74
100
AcDbLine
 62
7
420
48875
  6
CONTINUOUS
 10
15.4207943129
 20
103.1646851584
 11
11.3076300989
 21
103.1646851584
  0
LINE
  5
2EE
100
AcDbEntity
  8
0
100
AcDbLine
 62
7
  6
CONTINUOUS
 10
11.3075820365
 20
103.1646851584
 11
58.9351567483
 21
103.1646851584
  0
LINE
  5
2EF
100
AcDbEntity
  8
0
100
AcDbLine
 62
7
  6
CONTINUOUS
 10
56.6017160351
 20
100.4718706099
 11
51.6608761169
 21
100.4721666894
  0
LINE
  5
2F0
100
AcDbEntity
  8
0
100
AcDbLine
 62
7
  6
CONTINUOUS
 10
24.7317160352
 20
100.4737804179
 11
15.6808761176
 21
100.474322789
  0
LINE
  5
2F1
100
AcDbEntity
  8
0
100
AcDbLine
 62
7
  6
CONTINUOUS
 10
58.9349877116
 20
100.5678757862
 11
56.7519947435
 21
100.5680066019
  0
LINE
  5
2F2
100
AcDbEntity
  8
0
100
AcDbLine
 62
7
  6
CONTINUOUS
 10
51.5105974074
 20
100.5683206923
 11
41.6712960762
 21
100.568910312
  0
LINE
  5
2F3
100
AcDbEntity
  8
0
100
AcDbLine
 62
7
  6
CONTINUOUS
 10
32.9312960762
 20
100.569434056
 11
24.8819947435
 21
100.5699164099
  0
LINE
  5
2F4
100
AcDbEntity
  8
0
100
AcDbLine
 62
7
  6
CONTINUOUS
 10
15.5305973243
 20
100.5704767919
 11
10.9428994085
 21
100.5707517095
  0
LINE
  5
2F5
100
AcDbEntity
  8
0
100
AcDbLine
 62
7
  6
CONTINUOUS
 10
34.6412960762
 20
100.5693315843
 11
37.2712960762
 21
100.5691739817
  0
LINE
  5
2F6
100
AcDbEntity
  8
0
100
AcDbLine
 62
7
  6
CONTINUOUS
 10
11.0306183702
 20
101.1946014568
 11
15.5076884053
 21
101.1943331686
  0
LINE
  5
2F7
100
AcDbEntity
  8
0
100
AcDbLine
 62
7
  6
CONTINUOUS
 10
24.9049035944
 20
101.193770041
 11
32.7806183923
 21
101.1932980892
  0
LINE
  5
2F8
100
AcDbEntity
  8
0
100
AcDbLine
 62
7
  6
CONTINUOUS
 10
34.981841852
 20
101.193166181
 11
37.2712960762
 21
101.1930289855
  0
LINE
  5
2F9
100
AcDbEntity
  8
0
100
AcDbLine
 62
7
  6
CONTINUOUS
 10
41.6712960762
 20
101.1927653158
 11
51.487688556
 21
101.192177069
  0
LINE
  5
2FA
100
AcDbEntity
  8
0
100
AcDbLine
 62
7
  6
CONTINUOUS
 10
56.7749035944
 20
101.1918602329
 11
58.9350283485
 21
101.1917307875
  0
LINE
  5
2FB
100
AcDbEntity
  8
0
100
AcDbLine
 62
7
  6
CONTINUOUS
 10
58.9350485138
 20
101.5013066149
 11
56.8684664978
 21
101.5014304547
  0
LINE
  5
2FC
100
AcDbEntity
  8
0
100
AcDbLine
 62
7
  6
CONTINUOUS
 10
51.3941256505
 20
101.5017585043
 11
41.6712960762
 21
101.5023411444
  0
LINE
  5
2FD
100
AcDbEntity
  8
0
100
AcDbLine
 62
7
  6
CONTINUOUS
 10
37.2712960762
 20
101.5026048141
 11
35.2403029242
 21
101.5027265213
  0
LINE
  5
2FE
100
AcDbEntity
  8
0
100
AcDbLine
 62
7
  6
CONTINUOUS
 10
32.5240919129
 20
101.5028892901
 11
24.9984664978
 21
101.5033402628
  0
LINE
  5
2FF
100
AcDbEntity
  8
0
100
AcDbLine
 62
7
  6
CONTINUOUS
 10
15.4141252238
 20
101.5039146039
 11
11.0741471872
 21
101.5041746769
  0
LINE
  5
300
100
AcDbEntity
  8
0
100
AcDbLine
 62
7
  6
CONTINUOUS
 10
56.6017160351
 20
102.4618706134
 11
51.6608761169
 21
102.462166693
  0
LINE
  5
301
100
AcDbEntity
  8
0
100
AcDbLine
 62
7
  6
CONTINUOUS
 10
24.7317160352
 20
102.4637804215
 11
15.6808761176
 21
102.4643227926
  0
LINE
  5
302
100
AcDbEntity
  8
0
100
AcDbLine
 62
7
  6
CONTINUOUS
 10
11.2576196389
 20
102.8090150476
 11
15.4312956957
 21
102.8087649403
  0
LINE
  5
303
100
AcDbEntity
  8
0
100
AcDbLine
 62
7
  6
CONTINUOUS
 10
24.981296077
 20
102.808192657
 11
51.4112960717
 21
102.8066088407
  0
LINE
  5
304
100
AcDbEntity
  8
0
100
AcDbLine
 62
7
  6
CONTINUOUS
 10
56.851296077
 20
102.806282849
 11
58.9351335096
 21
102.8061579751
  0
LINE
  5
305
100
AcDbEntity
  8
0
100
AcDbLine
 62
7
  6
CONTINUOUS
 10
11.279412387
 20
102.9640032063
 11
15.4312956957
 21
102.963754405
  0
LINE
  5
306
100
AcDbEntity
  8
0
100
AcDbLine
 62
7
  6
CONTINUOUS
 10
24.981296077
 20
102.9631821217
 11
51.4112960717
 21
102.9615983054
  0
LINE
  5
307
100
AcDbEntity
  8
0
100
AcDbLine
 62
7
  6
CONTINUOUS
 10
56.851296077
 20
102.9612723136
 11
58.9351436054
 21
102.9611474392
  0
LINE
  5
308
100
AcDbEntity
  8
0
100
AcDbLine
 62
7
  6
CONTINUOUS
 10
56.699796873
 20
100.3888865987
 11
56.6017160351
 21
100.4718706099
  0
ARC
  5
309
100
AcDbEntity
  8
0
100
AcDbCircle
 62
7
  6
CONTINUOUS
 10
35.9812960762
 20
32.2246851584
 40
1.45
100
AcDbArc
 50
316.3971810273
 51
43.6028189727
  0
ARC
  5
30A
100
AcDbEntity
  8
0
100
AcDbCircle
 62
7
  6
CONTINUOUS
 10
35.9812960762
 20
32.2246851584
 40
1.45
100
AcDbArc
 50
136.3971810273
 51
223.6028189727
  0
ARC
  5
30B
100
AcDbEntity
  8
0
100
AcDbCircle
 62
7
  6
CONTINUOUS
 10
17.0191354557
 20
15.8028676959
 40
0.8
100
AcDbArc
 50
288.0499999998
 51
2.399999996
  0
ARC
  5
30C
100
AcDbEntity
  8
0
100
AcDbCircle
 62
7
  6
CONTINUOUS
 10
13.8666199211
 20
14.7755109137
 40
0.8
100
AcDbArc
 50
198.0500000001
 51
288.0500000002
  0
ARC
  5
30D
100
AcDbEntity
  8
0
100
AcDbCircle
 62
7
  6
CONTINUOUS
 10
25.3298008456
 20
25.2341487249
 40
0.498505058
100
AcDbArc
 50
104.9383919914
 51
179.9383448949
  0
ARC
  5
30E
100
AcDbEntity
  8
0
100
AcDbCircle
 62
7
  6
CONTINUOUS
 10
25.3298008456
 20
23.5052215919
 40
0.498505058
100
AcDbArc
 50
180.0616551085
 51
255.0616080038
  0
ARC
  5
30F
100
AcDbEntity
  8
0
100
AcDbCircle
 62
7
  6
CONTINUOUS
 10
16.7200179771
 20
15.0743333586
 40
0.2
100
AcDbArc
 50
218.0499999999
 51
288.0499999545
  0
ARC
  5
310
100
AcDbEntity
  8
0
100
AcDbCircle
 62
7
  6
CONTINUOUS
 10
16.0734042369
 20
14.8636117922
 40
0.2
100
AcDbArc
 50
288.0500000459
 51
358.0499999994
  0
ARC
  5
311
100
AcDbEntity
  8
0
100
AcDbCircle
 62
7
  6
CONTINUOUS
 10
15.8093927168
 20
14.7775744602
 40
0.2
100
AcDbArc
 50
218.0500000002
 51
288.0499999532
  0
ARC
  5
312
100
AcDbEntity
  8
0
100
AcDbCircle
 62
7
  6
CONTINUOUS
 10
15.1627789766
 20
14.5668528938
 40
0.2
100
AcDbArc
 50
288.0500000457
 51
358.0499999996
  0
ARC
  5
313
100
AcDbEntity
  8
0
100
AcDbCircle
 62
7
  6
CONTINUOUS
 10
14.8987674566
 20
14.4808155618
 40
0.2
100
AcDbArc
 50
218.0499999993
 51
288.0499999559
  0
ARC
  5
314
100
AcDbEntity
  8
0
100
AcDbCircle
 62
7
  6
CONTINUOUS
 10
14.2521537163
 20
14.2700939954
 40
0.2
100
AcDbArc
 50
288.0499999998
 51
358.0499999996
  0
ARC
  5
315
100
AcDbEntity
  8
0
100
AcDbCircle
 62
7
  6
CONTINUOUS
 10
36.7430785993
 20
101.9061876523
 40
21.3327465578
100
AcDbArc
 50
179.9781069883
 51
181.0804944413
  0
ARC
  5
316
100
AcDbEntity
  8
0
100
AcDbCircle
 62
7
  6
CONTINUOUS
 10
3.6812566105
 20
101.9055035612
 40
21.3210030885
100
AcDbArc
 50
358.9192053417
 51
0.0221987795
  0
ARC
  5
317
100
AcDbEntity
  8
0
100
AcDbCircle
 62
7
  6
CONTINUOUS
 10
35.5512566111
 20
101.9035937531
 40
21.3210030878
100
AcDbArc
 50
358.9192053416
 51
0.0221987796
  0
CIRCLE
  5
318
100
AcDbEntity
  8
0
100
AcDbCircle
 62
7
  6
CONTINUOUS
 10
35.9812960762
 20
88.2746851584
 40
1.45
  0
ARC
  5
319
100
AcDbEntity
  8
0
100
AcDbCircle
 62
7
  6
CONTINUOUS
 10
32.9889380665
 20
101.6978795329
 40
0.5040857394
100
AcDbArc
 50
154.6928711635
 51
202.7567161367
  0
ARC
  5
31A
100
AcDbEntity
  8
0
100
AcDbCircle
 62
7
  6
CONTINUOUS
 10
29.5419752413
 20
97.3013315893
 40
0.5006796257
100
AcDbArc
 50
89.9210559187
 51
179.9222807039
  0
ARC
  5
31B
100
AcDbEntity
  8
0
100
AcDbCircle
 62
7
  6
CONTINUOUS
 10
29.3912960762
 20
92.4420107398
 40
0.35
100
AcDbArc
 50
180.0
 51
270.0
  0
ARC
  5
31C
100
AcDbEntity
  8
0
100
AcDbCircle
 62
7
  6
CONTINUOUS
 10
34.9366494681
 20
100.7305140586
 40
0.2953534195
100
AcDbArc
 50
135.0247653927
 51
179.9752346054
  0
ARC
  5
31D
100
AcDbEntity
  8
0
100
AcDbCircle
 62
7
  6
CONTINUOUS
 10
32.6359426843
 20
100.9205140586
 40
0.2953534195
100
AcDbArc
 50
0.0247653946
 51
44.9752346071
  0
ARC
  5
31E
100
AcDbEntity
  8
0
100
AcDbCircle
 62
7
  6
CONTINUOUS
 10
17.2912111452
 20
85.3020967021
 40
0.1999150844
100
AcDbArc
 50
89.9771092399
 51
180.0246206625
  0
ARC
  5
31F
100
AcDbEntity
  8
0
100
AcDbCircle
 62
7
  6
CONTINUOUS
 10
17.2912090295
 20
80.9119247252
 40
0.1999140011
100
AcDbArc
 50
179.9768207388
 51
270.024952448
  0
ARC
  5
320
100
AcDbEntity
  8
0
100
AcDbCircle
 62
7
  6
CONTINUOUS
 10
19.8813831229
 20
85.3020967544
 40
0.1999140011
100
AcDbArc
 50
359.9768014255
 51
90.0249302758
  0
ARC
  5
321
100
AcDbEntity
  8
0
100
AcDbCircle
 62
7
  6
CONTINUOUS
 10
19.8813832175
 20
80.9119225669
 40
0.199912875
100
AcDbArc
 50
269.9764935199
 51
0.0252675517
  0
ARC
  5
322
100
AcDbEntity
  8
0
100
AcDbCircle
 62
7
  6
CONTINUOUS
 10
59.6278633948
 20
45.5977384948
 40
14.2
100
AcDbArc
 50
12.0147718538
 51
23.0397700957
  0
ARC
  5
323
100
AcDbEntity
  8
0
100
AcDbCircle
 62
7
  6
CONTINUOUS
 10
72.4512960762
 20
48.3246851584
 40
3.62
100
AcDbArc
 50
107.752790162
 51
125.1438467753
  0
ARC
  5
324
100
AcDbEntity
  8
0
100
AcDbCircle
 62
7
  6
CONTINUOUS
 10
50.0812960762
 20
56.8546851584
 40
2.5
100
AcDbArc
 50
146.1776473701
 51
213.8223489542
  0
ARC
  5
325
100
AcDbEntity
  8
0
100
AcDbCircle
 62
7
  6
CONTINUOUS
 10
48.3812960762
 20
56.8546851584
 40
2.0
100
AcDbArc
 50
315.7819187506
 51
44.2172777288
  0
ARC
  5
326
100
AcDbEntity
  8
0
100
AcDbCircle
 62
7
  6
CONTINUOUS
 10
71.0007054786
 20
50.3853129555
 40
1.1
100
AcDbArc
 50
125.1438467759
 51
214.9499999998
  0
ARC
  5
327
100
AcDbEntity
  8
0
100
AcDbCircle
 62
7
  6
CONTINUOUS
 10
72.4408943358
 20
48.3246851584
 40
1.1
100
AcDbArc
 50
214.9500000021
 51
12.0147718585
  0
ARC
  5
328
100
AcDbEntity
  8
0
100
AcDbCircle
 62
7
  6
CONTINUOUS
 10
71.6829211677
 20
50.7246851584
 40
1.1
100
AcDbArc
 50
23.0397700959
 51
107.7527901621
  0
ARC
  5
329
100
AcDbEntity
  8
0
100
AcDbCircle
 62
7
  6
CONTINUOUS
 10
38.7406169111
 20
21.0153643089
 40
0.5006796257
100
AcDbArc
 50
269.9210559194
 51
359.922280704
  0
ARC
  5
32A
100
AcDbEntity
  8
0
100
AcDbCircle
 62
7
  6
CONTINUOUS
 10
47.0814499446
 20
55.7599117458
 40
0.4001416264
100
AcDbArc
 50
179.9701521956
 51
269.9680659394
  0
ARC
  5
32B
100
AcDbEntity
  8
0
100
AcDbCircle
 62
7
  6
CONTINUOUS
 10
50.2811413022
 20
55.7599088479
 40
0.4001401081
100
AcDbArc
 50
270.034849712
 51
0.0329812995
  0
ARC
  5
32C
100
AcDbEntity
  8
0
100
AcDbCircle
 62
7
  6
CONTINUOUS
 10
47.0814509178
 20
57.9494615439
 40
0.400140002
100
AcDbArc
 50
90.0348407051
 51
180.0319579007
  0
ARC
  5
32D
100
AcDbEntity
  8
0
100
AcDbCircle
 62
7
  6
CONTINUOUS
 10
50.281150042
 20
57.9494698863
 40
0.4001294173
100
AcDbArc
 50
359.9659179638
 51
89.9664077396
  0
ARC
  5
32E
100
AcDbEntity
  8
0
100
AcDbCircle
 62
7
  6
CONTINUOUS
 10
46.9812960762
 20
55.3546851584
 40
0.3
100
AcDbArc
 50
179.9999999982
 51
270.0
  0
ARC
  5
32F
100
AcDbEntity
  8
0
100
AcDbCircle
 62
7
  6
CONTINUOUS
 10
54.6812960762
 20
55.3546851584
 40
0.3
100
AcDbArc
 50
270.0
 51
360.0
  0
ARC
  5
330
100
AcDbEntity
  8
0
100
AcDbCircle
 62
7
  6
CONTINUOUS
 10
72.7231419258
 20
101.9040315527
 40
21.3328094464
100
AcDbArc
 50
179.9781070527
 51
181.0804912555
  0
ARC
  5
331
100
AcDbEntity
  8
0
100
AcDbCircle
 62
7
  6
CONTINUOUS
 10
39.2412960762
 20
84.7479609513
 40
0.95
100
AcDbArc
 50
225.0000000011
 51
360.0
  0
ARC
  5
332
100
AcDbEntity
  8
0
100
AcDbCircle
 62
7
  6
CONTINUOUS
 10
38.7406169111
 20
98.3013315893
 40
0.5006796257
100
AcDbArc
 50
0.0777192962
 51
90.078944081
  0
ARC
  5
333
100
AcDbEntity
  8
0
100
AcDbCircle
 62
7
  6
CONTINUOUS
 10
54.6812960762
 20
58.3546851584
 40
0.3
100
AcDbArc
 50
0.0
 51
90.0
  0
ARC
  5
334
100
AcDbEntity
  8
0
100
AcDbCircle
 62
7
  6
CONTINUOUS
 10
46.9812960762
 20
58.3546851584
 40
0.3
100
AcDbArc
 50
90.0
 51
180.0
  0
SPLINE
  5
335
100
AcDbEntity
  8
0
100
AcDbSpline
 62
7
  6
CONTINUOUS
 70
0
 71
3
 72
8
 73
4
 74
0
 42
0.0000001
 43
0.0000001
 44
0.0000000001
 40
0.0
 40
0.0
 40
0.0
 40
0.0
 40
1.0
 40
1.0
 40
1.0
 40
1.0
 10
49.7071528254
 20
58.2948039798
 30
0.0
 10
49.7460581841
 20
58.294836245
 30
0.0
 10
49.7875679704
 20
58.2773349773
 30
0.0
 10
49.8146967615
 20
58.2494476742
 30
0.0
  0
SPLINE
  5
336
100
AcDbEntity
  8
0
100
AcDbSpline
 62
7
  6
CONTINUOUS
 70
0
 71
3
 72
9
 73
5
 74
0
 42
0.0000001
 43
0.0000001
 44
0.0000000001
 40
0.0
 40
0.0
 40
0.0
 40
0.0
 40
0.7385102801
 40
1.0
 40
1.0
 40
1.0
 40
1.0
 10
48.004377626
 20
58.246234565
 30
0.0
 10
48.0241504773
 20
58.2757466448
 30
0.0
 10
48.0685623966
 20
58.3056232008
 30
0.0
 10
48.1164112227
 20
58.3126944941
 30
0.0
 10
48.1289892863
 20
58.3126882853
 30
0.0
  0
SPLINE
  5
337
100
AcDbEntity
  8
0
100
AcDbSpline
 62
7
  6
CONTINUOUS
 70
0
 71
3
 72
9
 73
5
 74
0
 42
0.0000001
 43
0.0000001
 44
0.0000000001
 40
0.0
 40
0.0
 40
0.0
 40
0.0
 40
0.2614897501
 40
1.0
 40
1.0
 40
1.0
 40
1.0
 10
48.128989133
 20
55.3966822107
 30
0.0
 10
48.1164110748
 20
55.3966760021
 30
0.0
 10
48.0685622752
 20
55.4037472871
 30
0.0
 10
48.0241503744
 20
55.4336238216
 30
0.0
 10
48.0043775367
 20
55.4631358851
 30
0.0
  0
SPLINE
  5
338
100
AcDbEntity
  8
0
100
AcDbSpline
 62
7
  6
CONTINUOUS
 70
0
 71
3
 72
9
 73
5
 74
0
 42
0.0000001
 43
0.0000001
 44
0.0000000001
 40
0.0
 40
0.0
 40
0.0
 40
0.0
 40
0.7455766329
 40
1.0
 40
1.0
 40
1.0
 40
1.0
 10
49.8146772011
 20
55.4599025407
 30
0.0
 10
49.7941659236
 20
55.4388203142
 30
0.0
 10
49.7565345234
 20
55.4190203647
 30
0.0
 10
49.7172142231
 20
55.4145683645
 30
0.0
 10
49.7071769756
 20
55.4145779351
 30
0.0
  0
SPLINE
  5
339
100
AcDbEntity
  8
0
100
AcDbSpline
 62
7
  6
CONTINUOUS
 70
0
 71
3
 72
11
 73
7
 74
0
 42
0.0000001
 43
0.0000001
 44
0.0000000001
 40
0.0
 40
0.0
 40
0.0
 40
0.0
 40
0.2520180103
 40
0.5
 40
0.7479819896
 40
1.0
 40
1.0
 40
1.0
 40
1.0
 10
31.2312960762
 20
90.2933797582
 30
0.0
 10
31.2312960762
 20
90.2539567787
 30
0.0
 10
31.2467682684
 20
90.1748326349
 30
0.0
 10
31.3134677096
 20
90.0751531545
 30
0.0
 10
31.4128144469
 20
90.0081044719
 30
0.0
 10
31.4918730967
 20
89.9920107398
 30
0.0
 10
31.5312960762
 20
89.9920107398
 30
0.0
  0
SPLINE
  5
33A
100
AcDbEntity
  8
0
100
AcDbSpline
 62
7
  6
CONTINUOUS
 70
0
 71
3
 72
10
 73
6
 74
0
 42
0.0000001
 43
0.0000001
 44
0.0000000001
 40
0.0
 40
0.0
 40
0.0
 40
0.0
 40
0.3373906447
 40
0.6626093553
 40
1.0
 40
1.0
 40
1.0
 40
1.0
 10
32.6012960762
 20
89.9920107398
 30
0.0
 10
32.627855028
 20
89.9920107398
 30
0.0
 10
32.680291374
 20
89.9988168079
 30
0.0
 10
32.7537611389
 20
90.0297259944
 30
0.0
 10
32.7946185098
 20
90.0632307249
 30
0.0
 10
32.8133985247
 20
90.0820107398
 30
0.0
  0
SPLINE
  5
33B
100
AcDbEntity
  8
0
100
AcDbSpline
 62
7
  6
CONTINUOUS
 70
0
 71
3
 72
11
 73
7
 74
0
 42
0.0000001
 43
0.0000001
 44
0.0000000001
 40
0.0
 40
0.0
 40
0.0
 40
0.0
 40
0.2520180104
 40
0.5
 40
0.7479819896
 40
1.0
 40
1.0
 40
1.0
 40
1.0
 10
38.7353772085
 20
90.9920107398
 30
0.0
 10
38.8013215811
 20
90.9920107398
 30
0.0
 10
38.933759098
 20
91.0170675739
 30
0.0
 10
39.1009360088
 20
91.1281736931
 30
0.0
 10
39.2135520523
 20
91.293912009
 30
0.0
 10
39.2412960762
 20
91.4260663672
 30
0.0
 10
39.2412960762
 20
91.4920107398
 30
0.0
  0
SPLINE
  5
33C
100
AcDbEntity
  8
0
100
AcDbSpline
 62
7
  6
CONTINUOUS
 70
0
 71
3
 72
11
 73
7
 74
0
 42
0.0000001
 43
0.0000001
 44
0.0000000001
 40
0.0
 40
0.0
 40
0.0
 40
0.0
 40
0.2514161537
 40
0.5
 40
0.7485838463
 40
1.0
 40
1.0
 40
1.0
 40
1.0
 10
25.2112960762
 20
96.303615562
 30
0.0
 10
25.1579854455
 20
96.2893310215
 30
0.0
 10
25.0564942487
 20
96.2413523938
 30
0.0
 10
24.9357476103
 20
96.1260595208
 30
0.0
 10
24.8578220698
 20
95.9779582689
 30
0.0
 10
24.8412960762
 20
95.8672019659
 30
0.0
 10
24.8412960762
 20
95.8120107398
 30
0.0
  0
SPLINE
  5
33D
100
AcDbEntity
  8
0
100
AcDbSpline
 62
7
  6
CONTINUOUS
 70
0
 71
3
 72
11
 73
7
 74
0
 42
0.0000001
 43
0.0000001
 44
0.0000000001
 40
0.0
 40
0.0
 40
0.0
 40
0.0
 40
0.2514161537
 40
0.5
 40
0.7485838463
 40
1.0
 40
1.0
 40
1.0
 40
1.0
 10
24.8412960762
 20
94.1020107398
 30
0.0
 10
24.8412960762
 20
94.048711314
 30
0.0
 10
24.8622223221
 20
93.9421998651
 30
0.0
 10
24.9405285906
 20
93.8014678151
 30
0.0
 10
25.0601210144
 20
93.6925063295
 30
0.0
 10
25.1598127844
 20
93.6508679074
 30
0.0
 10
25.2112960762
 20
93.637073001
 30
0.0
  0
SPLINE
  5
33E
100
AcDbEntity
  8
0
100
AcDbSpline
 62
7
  6
CONTINUOUS
 70
0
 71
3
 72
12
 73
8
 74
0
 42
0.0000001
 43
0.0000001
 44
0.0000000001
 40
0.0
 40
0.0
 40
0.0
 40
0.0
 40
0.2008587996
 40
0.4004036781
 40
0.5995463793
 40
0.7991079854
 40
1.0
 40
1.0
 40
1.0
 40
1.0
 10
25.3012960762
 20
93.6129575736
 30
0.0
 10
25.3587623616
 20
93.5975595289
 30
0.0
 10
25.4789336952
 20
93.5807814753
 30
0.0
 10
25.6547594384
 20
93.6276150726
 30
0.0
 10
25.8025843324
 20
93.7324826266
 30
0.0
 10
25.9018377795
 20
93.8836755731
 30
0.0
 10
25.9312960762
 20
94.0025074253
 30
0.0
 10
25.9312960762
 20
94.0620107398
 30
0.0
  0
SPLINE
  5
33F
100
AcDbEntity
  8
0
100
AcDbSpline
 62
7
  6
CONTINUOUS
 70
0
 71
3
 72
12
 73
8
 74
0
 42
0.0000001
 43
0.0000001
 44
0.0000000001
 40
0.0
 40
0.0
 40
0.0
 40
0.0
 40
0.2008548777
 40
0.40040237
 40
0.5995476866
 40
0.7991119064
 40
1.0
 40
1.0
 40
1.0
 40
1.0
 10
25.9312960762
 20
95.8220107398
 30
0.0
 10
25.9312960762
 20
95.8841334456
 30
0.0
 10
25.9128549955
 20
96.0096416958
 30
0.0
 10
25.8163835095
 20
96.1730866149
 30
0.0
 10
25.6689642661
 20
96.2917673492
 30
0.0
 10
25.4887741489
 20
96.3490860119
 30
0.0
 10
25.3613119255
 20
96.3438121876
 30
0.0
 10
25.3012960762
 20
96.3277309893
 30
0.0
  0
SPLINE
  5
340
100
AcDbEntity
  8
0
100
AcDbSpline
 62
7
  6
CONTINUOUS
 70
0
 71
3
 72
11
 73
7
 74
0
 42
0.0000001
 43
0.0000001
 44
0.0000000001
 40
0.0
 40
0.0
 40
0.0
 40
0.0
 40
0.2520180104
 40
0.5
 40
0.7479819896
 40
1.0
 40
1.0
 40
1.0
 40
1.0
 10
39.2412960762
 20
27.8246851584
 30
0.0
 10
39.2412960762
 20
27.890629531
 30
0.0
 10
39.2135520523
 20
28.0227838892
 30
0.0
 10
39.1009360088
 20
28.1885222051
 30
0.0
 10
38.933759098
 20
28.2996283243
 30
0.0
 10
38.8013215811
 20
28.3246851584
 30
0.0
 10
38.7353772085
 20
28.3246851584
 30
0.0
  0
SPLINE
  5
341
100
AcDbEntity
  8
0
100
AcDbSpline
 62
7
  6
CONTINUOUS
 70
0
 71
3
 72
10
 73
6
 74
0
 42
0.0000001
 43
0.0000001
 44
0.0000000001
 40
0.0
 40
0.0
 40
0.0
 40
0.0
 40
0.3373906446
 40
0.6626093552
 40
1.0
 40
1.0
 40
1.0
 40
1.0
 10
32.8133985247
 20
29.2346851584
 30
0.0
 10
32.7946185098
 20
29.2534651733
 30
0.0
 10
32.7537611389
 20
29.2869699038
 30
0.0
 10
32.680291374
 20
29.3178790903
 30
0.0
 10
32.627855028
 20
29.3246851584
 30
0.0
 10
32.6012960762
 20
29.3246851584
 30
0.0
  0
SPLINE
  5
342
100
AcDbEntity
  8
0
100
AcDbSpline
 62
7
  6
CONTINUOUS
 70
0
 71
3
 72
11
 73
7
 74
0
 42
0.0000001
 43
0.0000001
 44
0.0000000001
 40
0.0
 40
0.0
 40
0.0
 40
0.0
 40
0.2520180104
 40
0.5
 40
0.7479819896
 40
1.0
 40
1.0
 40
1.0
 40
1.0
 10
31.5312960762
 20
29.3246851584
 30
0.0
 10
31.4918730967
 20
29.3246851584
 30
0.0
 10
31.4128144469
 20
29.3085914263
 30
0.0
 10
31.3134677096
 20
29.2415427437
 30
0.0
 10
31.2467682684
 20
29.1418632633
 30
0.0
 10
31.2312960762
 20
29.0627391195
 30
0.0
 10
31.2312960762
 20
29.02331614
 30
0.0
  0
SPLINE
  5
343
100
AcDbEntity
  8
0
100
AcDbSpline
 62
7
  6
CONTINUOUS
 70
0
 71
3
 72
11
 73
7
 74
0
 42
0.0000001
 43
0.0000001
 44
0.0000000001
 40
0.0
 40
0.0
 40
0.0
 40
0.0
 40
0.2520180104
 40
0.5
 40
0.7479819897
 40
1.0
 40
1.0
 40
1.0
 40
1.0
 10
28.6326650946
 20
27.2246851584
 30
0.0
 10
28.5929494235
 20
27.2246851584
 30
0.0
 10
28.5133461533
 20
27.2080838517
 30
0.0
 10
28.4134704765
 20
27.1403199894
 30
0.0
 10
28.3464947498
 20
27.0396934089
 30
0.0
 10
28.3312960762
 20
26.9599423383
 30
0.0
 10
28.3312960762
 20
26.9202266672
 30
0.0
  0
SPLINE
  5
344
100
AcDbEntity
  8
0
100
AcDbSpline
 62
7
  6
CONTINUOUS
 70
0
 71
3
 72
11
 73
7
 74
0
 42
0.0000001
 43
0.0000001
 44
0.0000000001
 40
0.0
 40
0.0
 40
0.0
 40
0.0
 40
0.2520180104
 40
0.5
 40
0.7479819896
 40
1.0
 40
1.0
 40
1.0
 40
1.0
 10
28.3312960762
 20
21.8191436496
 30
0.0
 10
28.3312960762
 20
21.7794279785
 30
0.0
 10
28.3464947498
 20
21.6996769079
 30
0.0
 10
28.4134704765
 20
21.5990503274
 30
0.0
 10
28.5133461533
 20
21.5312864651
 30
0.0
 10
28.5929494235
 20
21.5146851584
 30
0.0
 10
28.6326650946
 20
21.5146851584
 30
0.0
  0
SPLINE
  5
345
100
AcDbEntity
  8
0
100
AcDbSpline
 62
7
  6
CONTINUOUS
 70
0
 71
3
 72
13
 73
9
 74
0
 42
0.0000001
 43
0.0000001
 44
0.0000000001
 40
0.0
 40
0.0
 40
0.0
 40
0.0
 40
0.1677249862
 40
0.3341991628
 40
0.5000239042
 40
0.6658432989
 40
0.8323014873
 40
1.0
 40
1.0
 40
1.0
 40
1.0
 10
32.6412960762
 20
17.974075493
 30
0.0
 10
32.5946154637
 20
17.9273948805
 30
0.0
 10
32.5199450459
 20
17.8140987085
 30
0.0
 10
32.4818273317
 20
17.6160955456
 30
0.0
 10
32.5220030611
 20
17.418958946
 30
0.0
 10
32.6343266137
 20
17.2521610125
 30
0.0
 10
32.8021851797
 20
17.1401558947
 30
0.0
 10
32.9352901408
 20
17.1146851584
 30
0.0
 10
33.0012960762
 20
17.1146851584
 30
0.0
  0
SPLINE
  5
346
100
AcDbEntity
  8
0
100
AcDbSpline
 62
7
  6
CONTINUOUS
 70
0
 71
3
 72
13
 73
9
 74
0
 42
0.0000001
 43
0.0000001
 44
0.0000000001
 40
0.0
 40
0.0
 40
0.0
 40
0.0
 40
0.1677246303
 40
0.3341989856
 40
0.5000239043
 40
0.6658434762
 40
0.8323018432
 40
1.0
 40
1.0
 40
1.0
 40
1.0
 10
34.7712960762
 20
17.1146851584
 30
0.0
 10
34.8370417831
 20
17.1146851584
 30
0.0
 10
34.9693562985
 20
17.1423312645
 30
0.0
 10
35.1354139897
 20
17.2551723637
 30
0.0
 10
35.2456250634
 20
17.422529019
 30
0.0
 10
35.2835889707
 20
17.6191442032
 30
0.0
 10
35.2439249526
 20
17.8162041312
 30
0.0
 10
35.1677779735
 20
17.9275935957
 30
0.0
 10
35.1212960762
 20
17.974075493
 30
0.0
  0
SPLINE
  5
347
100
AcDbEntity
  8
0
100
AcDbSpline
 62
7
  6
CONTINUOUS
 70
0
 71
3
 72
8
 73
4
 74
0
 42
0.0000001
 43
0.0000001
 44
0.0000000001
 40
0.0
 40
0.0
 40
0.0
 40
0.0
 40
1.0
 40
1.0
 40
1.0
 40
1.0
 10
32.6312960762
 20
101.3426204052
 30
0.0
 10
32.5858617381
 20
101.3880547434
 30
0.0
 10
32.5491481258
 20
101.4431321481
 30
0.0
 10
32.5240919129
 20
101.5028892901
 30
0.0
  0
SPLINE
  5
348
100
AcDbEntity
  8
0
100
AcDbSpline
 62
7
  6
CONTINUOUS
 70
0
 71
3
 72
10
 73
6
 74
0
 42
0.0000001
 43
0.0000001
 44
0.0000000001
 40
0.0
 40
0.0
 40
0.0
 40
0.0
 40
0.3049385127
 40
0.650915408
 40
1.0
 40
1.0
 40
1.0
 40
1.0
 10
32.5332323524
 20
101.91336001
 30
0.0
 10
32.5581012198
 20
101.9658871407
 30
0.0
 10
32.6307023978
 20
102.06878074
 30
0.0
 10
32.7922394213
 20
102.1765871083
 30
0.0
 10
32.9254745367
 20
102.2020479972
 30
0.0
 10
32.9915848055
 20
102.2020106583
 30
0.0
  0
SPLINE
  5
349
100
AcDbEntity
  8
0
100
AcDbSpline
 62
7
  6
CONTINUOUS
 70
0
 71
3
 72
8
 73
4
 74
0
 42
0.0000001
 43
0.0000001
 44
0.0000000001
 40
0.0
 40
0.0
 40
0.0
 40
0.0
 40
1.0
 40
1.0
 40
1.0
 40
1.0
 10
35.2403029242
 20
101.5027265213
 30
0.0
 10
35.2146119909
 20
101.4429912701
 30
0.0
 10
35.1769399382
 20
101.3882642672
 30
0.0
 10
35.1312960762
 20
101.3426204052
 30
0.0
  0
SPLINE
  5
34A
100
AcDbEntity
  8
0
100
AcDbSpline
 62
7
  6
CONTINUOUS
 70
0
 71
3
 72
11
 73
7
 74
0
 42
0.0000001
 43
0.0000001
 44
0.0000000001
 40
0.0
 40
0.0
 40
0.0
 40
0.0
 40
0.0616375283
 40
0.5256430153
 40
0.9914657327
 40
1.0
 40
1.0
 40
1.0
 40
1.0
 10
35.2331174546
 20
101.9132217222
 30
0.0
 10
35.236812371
 20
101.9053560958
 30
0.0
 10
35.2665699777
 20
101.8374599294
 30
0.0
 10
35.2935908738
 20
101.697599752
 30
0.0
 10
35.2669978345
 20
101.5654228111
 30
0.0
 10
35.2407787478
 20
101.5038328821
 30
0.0
 10
35.2403029242
 20
101.5027265213
 30
0.0
  0
SPLINE
  5
34B
100
AcDbEntity
  8
0
100
AcDbSpline
 62
7
  6
CONTINUOUS
 70
0
 71
3
 72
10
 73
6
 74
0
 42
0.0000001
 43
0.0000001
 44
0.0000000001
 40
0.0
 40
0.0
 40
0.0
 40
0.0
 40
0.3505463603
 40
0.6989974722
 40
1.0
 40
1.0
 40
1.0
 40
1.0
 10
34.7815769812
 20
102.2020106554
 30
0.0
 10
34.8472205388
 20
102.2019712014
 30
0.0
 10
34.979407973
 20
102.1743186886
 30
0.0
 10
35.1380632407
 20
102.06652701
 30
0.0
 10
35.2089980464
 20
101.9645663893
 30
0.0
 10
35.2331174546
 20
101.9132217222
 30
0.0
  0
SPLINE
  5
34C
100
AcDbEntity
  8
0
100
AcDbSpline
 62
7
  6
CONTINUOUS
 70
0
 71
3
 72
9
 73
5
 74
0
 42
0.0000001
 43
0.0000001
 44
0.0000000001
 40
0.0
 40
0.0
 40
0.0
 40
0.0
 40
0.5476711943
 40
1.0
 40
1.0
 40
1.0
 40
1.0
 10
25.0022580987
 20
101.9137642087
 30
0.0
 10
25.0022580987
 20
102.0771081149
 30
0.0
 10
24.999111169
 20
102.3753561026
 30
0.0
 10
24.9891872632
 20
102.6735157754
 30
0.0
 10
24.981296077
 20
102.808192657
 30
0.0
  0
SPLINE
  5
34D
100
AcDbEntity
  8
0
100
AcDbSpline
 62
7
  6
CONTINUOUS
 70
0
 71
3
 72
17
 73
13
 74
0
 42
0.0000001
 43
0.0000001
 44
0.0000000001
 40
0.0
 40
0.0
 40
0.0
 40
0.0
 40
0.1934789597
 40
0.3803236927
 40
0.5522924048
 40
0.7025482576
 40
0.8252989512
 40
0.9176124933
 40
0.9516339247
 40
0.9769066561
 40
0.9929215591
 40
1.0
 40
1.0
 40
1.0
 40
1.0
 10
24.981296077
 20
102.9631821217
 30
0.0
 10
24.981296077
 20
102.9761986571
 30
0.0
 10
24.9814284673
 20
103.0017853235
 30
0.0
 10
24.982005264
 20
103.0389388427
 30
0.0
 10
24.9829442429
 20
103.0731715502
 30
0.0
 10
24.9841969474
 20
103.1030939692
 30
0.0
 10
24.9857059165
 20
103.1275967256
 30
0.0
 10
24.987259408
 20
103.1443538274
 30
0.0
 10
24.9885974499
 20
103.1543723728
 30
0.0
 10
24.9896248185
 20
103.1595107743
 30
0.0
 10
24.9903373175
 20
103.1623478858
 30
0.0
 10
24.9913345157
 20
103.1640984186
 30
0.0
 10
24.9918090554
 20
103.1640585586
 30
0.0
  0
SPLINE
  5
34E
100
AcDbEntity
  8
0
100
AcDbSpline
 62
7
  6
CONTINUOUS
 70
0
 71
3
 72
17
 73
13
 74
0
 42
0.0000001
 43
0.0000001
 44
0.0000000001
 40
0.0
 40
0.0
 40
0.0
 40
0.0
 40
0.0073626648
 40
0.0242803875
 40
0.0505989373
 40
0.0853691018
 40
0.1775214304
 40
0.2991711196
 40
0.4488013739
 40
0.6204717478
 40
0.8069388685
 40
1.0
 40
1.0
 40
1.0
 40
1.0
 10
51.4007530975
 20
103.1633989389
 30
0.0
 10
51.4012488615
 20
103.1634405222
 30
0.0
 10
51.4022166824
 20
103.1615041719
 30
0.0
 10
51.4029378084
 20
103.1585655125
 30
0.0
 10
51.4039537153
 20
103.1531855105
 30
0.0
 10
51.4052895936
 20
103.1430253496
 30
0.0
 10
51.4068619017
 20
103.1262227111
 30
0.0
 10
51.4083863596
 20
103.1017441205
 30
0.0
 10
51.4096412975
 20
103.0718259516
 30
0.0
 10
51.4105832483
 20
103.0375314969
 30
0.0
 10
51.4111629817
 20
103.0002888073
 30
0.0
 10
51.4112960717
 20
102.9746436981
 30
0.0
 10
51.4112960717
 20
102.9615983054
 30
0.0
  0
SPLINE
  5
34F
100
AcDbEntity
  8
0
100
AcDbSpline
 62
7
  6
CONTINUOUS
 70
0
 71
3
 72
9
 73
5
 74
0
 42
0.0000001
 43
0.0000001
 44
0.0000000001
 40
0.0
 40
0.0
 40
0.0
 40
0.0
 40
0.5476884915
 40
1.0
 40
1.0
 40
1.0
 40
1.0
 10
15.4103335988
 20
101.9143390042
 30
0.0
 10
15.4103335988
 20
102.0776876173
 30
0.0
 10
15.4134782101
 20
102.3759348284
 30
0.0
 10
15.4234047544
 20
102.6740935861
 30
0.0
 10
15.4312956957
 20
102.8087649403
 30
0.0
  0
SPLINE
  5
350
100
AcDbEntity
  8
0
100
AcDbSpline
 62
7
  6
CONTINUOUS
 70
0
 71
3
 72
17
 73
13
 74
0
 42
0.0000001
 43
0.0000001
 44
0.0000000001
 40
0.0
 40
0.0
 40
0.0
 40
0.0
 40
0.0070943811
 40
0.0227960167
 40
0.0476206517
 40
0.0812866415
 40
0.1736152495
 40
0.2968139853
 40
0.4473185088
 40
0.6193895657
 40
0.8063684903
 40
1.0
 40
1.0
 40
1.0
 40
1.0
 10
15.4207943129
 20
103.1642975779
 30
0.0
 10
15.4212705864
 20
103.1643124913
 30
0.0
 10
15.4222464619
 20
103.1626338597
 30
0.0
 10
15.4229881015
 20
103.1598167593
 30
0.0
 10
15.424005379
 20
103.1547832886
 30
0.0
 10
15.4253541754
 20
103.1448250126
 30
0.0
 10
15.4268930379
 20
103.128093478
 30
0.0
 10
15.4283988415
 20
103.1035798309
 30
0.0
 10
15.4296496945
 20
103.0736534175
 30
0.0
 10
15.4305880048
 20
103.0394434697
 30
0.0
 10
15.431163555
 20
103.0023243459
 30
0.0
 10
15.4312956957
 20
102.9767600145
 30
0.0
 10
15.4312956957
 20
102.963754405
 30
0.0
  0
SPLINE
  5
351
100
AcDbEntity
  8
0
100
AcDbSpline
 62
7
  6
CONTINUOUS
 70
0
 71
3
 72
9
 73
5
 74
0
 42
0.0000001
 43
0.0000001
 44
0.0000000001
 40
0.0
 40
0.0
 40
0.0
 40
0.0
 40
0.5476711943
 40
1.0
 40
1.0
 40
1.0
 40
1.0
 10
56.8722580987
 20
101.9118544006
 30
0.0
 10
56.8722580987
 20
102.0751983068
 30
0.0
 10
56.869111169
 20
102.3734462946
 30
0.0
 10
56.8591872632
 20
102.6716059674
 30
0.0
 10
56.8512960769
 20
102.806282849
 30
0.0
  0
SPLINE
  5
352
100
AcDbEntity
  8
0
100
AcDbSpline
 62
7
  6
CONTINUOUS
 70
0
 71
3
 72
17
 73
13
 74
0
 42
0.0000001
 43
0.0000001
 44
0.0000000001
 40
0.0
 40
0.0
 40
0.0
 40
0.0
 40
0.1929696382
 40
0.3793602947
 40
0.5509700331
 40
0.7004539577
 40
0.8218364032
 40
0.913982268
 40
0.948972805
 40
0.9755654647
 40
0.9926664698
 40
1.0
 40
1.0
 40
1.0
 40
1.0
 10
56.8512960769
 20
102.9612723136
 30
0.0
 10
56.8512960769
 20
102.9743236412
 30
0.0
 10
56.8514293433
 20
102.9999812051
 30
0.0
 10
56.8520097664
 20
103.037243113
 30
0.0
 10
56.8529520087
 20
103.0715500324
 30
0.0
 10
56.8542079468
 20
103.1014646458
 30
0.0
 10
56.8557338848
 20
103.1259355391
 30
0.0
 10
56.8573155691
 20
103.1427541975
 30
0.0
 10
56.8586432756
 20
103.1529501926
 30
0.0
 10
56.8596677498
 20
103.1583969663
 30
0.0
 10
56.8603658545
 20
103.1613403161
 30
0.0
 10
56.8613526399
 20
103.1633232732
 30
0.0
 10
56.8618449023
 20
103.1632625238
 30
0.0
  0
SPLINE
  5
353
100
AcDbEntity
  8
0
100
AcDbSpline
 62
7
  6
CONTINUOUS
 70
0
 71
3
 72
9
 73
5
 74
0
 42
0.0000001
 43
0.0000001
 44
0.0000000001
 40
0.0
 40
0.0
 40
0.0
 40
0.0
 40
0.5476884917
 40
1.0
 40
1.0
 40
1.0
 40
1.0
 10
51.3903340367
 20
101.9121829046
 30
0.0
 10
51.3903340367
 20
102.0755315174
 30
0.0
 10
51.3934786388
 20
102.3737787279
 30
0.0
 10
51.4034051537
 20
102.6719374855
 30
0.0
 10
51.4112960717
 20
102.8066088407
 30
0.0
  0
ELLIPSE
  5
354
100
AcDbEntity
  8
0
100
AcDbEllipse
 62
7
  6
CONTINUOUS
 10
32.6357578375
 20
98.0975489785
 30
0.0
 11
0.2100676966
 21
0.2100676966
 31
0.0
 40
0.9895894063
 41
-2.3614269762
 42
-0.7801656774
  0
ELLIPSE
  5
355
100
AcDbEntity
  8
0
100
AcDbEllipse
 62
7
  6
CONTINUOUS
 10
30.9357578375
 20
91.7964725011
 30
0.0
 11
0.2100676966
 21
-0.2100676966
 31
0.0
 40
0.9895894063
 41
0.7801656774
 42
2.3614269762
  0
ELLIPSE
  5
356
100
AcDbEntity
  8
0
100
AcDbEllipse
 62
7
  6
CONTINUOUS
 10
33.84753895
 20
90.6923092413
 30
0.0
 11
-0.1148620021
 21
0.2773014032
 31
0.0
 40
0.9897774386
 41
-0.3890794574
 42
0.3890794574
  0
ELLIPSE
  5
357
100
AcDbEntity
  8
0
100
AcDbEllipse
 62
7
  6
CONTINUOUS
 10
34.9368343149
 20
99.0975489785
 30
0.0
 11
0.2100676966
 21
-0.2100676966
 31
0.0
 40
0.9895894063
 41
-2.3614269762
 42
-0.7801656774
  0
ELLIPSE
  5
358
100
AcDbEntity
  8
0
100
AcDbEllipse
 62
7
  6
CONTINUOUS
 10
33.84753895
 20
28.6243866569
 30
0.0
 11
0.1148620021
 21
0.2773014032
 31
0.0
 40
0.9897774386
 41
-3.530672111
 42
-2.7525131962
  0
ELLIPSE
  5
359
100
AcDbEntity
  8
0
100
AcDbEllipse
 62
7
  6
CONTINUOUS
 10
30.9357578375
 20
27.5202233971
 30
0.0
 11
0.2100676966
 21
0.2100676966
 31
0.0
 40
0.9895894063
 41
-2.3614269762
 42
-0.7801656774
  0
ELLIPSE
  5
35A
100
AcDbEntity
  8
0
100
AcDbEllipse
 62
7
  6
CONTINUOUS
 10
28.0312960762
 20
26.7846851584
 30
0.0
 11
0.2393592338
 21
-0.1836667999
 31
0.0
 40
0.9846700759
 41
-0.6470525201
 42
0.6470525202
  0
ELLIPSE
  5
35B
100
AcDbEntity
  8
0
100
AcDbEllipse
 62
7
  6
CONTINUOUS
 10
28.0312960762
 20
21.9546851584
 30
0.0
 11
0.2393592338
 21
0.1836667999
 31
0.0
 40
0.9846700759
 41
-0.6470525202
 42
0.6470525201
  0
ELLIPSE
  5
35C
100
AcDbEntity
  8
0
100
AcDbEllipse
 62
7
  6
CONTINUOUS
 10
32.6357578375
 20
21.2191469197
 30
0.0
 11
0.2100676966
 21
-0.2100676966
 31
0.0
 40
0.9895894063
 41
0.7801656774
 42
2.3614269762
  0
ELLIPSE
  5
35D
100
AcDbEntity
  8
0
100
AcDbEllipse
 62
7
  6
CONTINUOUS
 10
32.6315945777
 20
18.3882159183
 30
0.0
 11
0.2773014032
 21
-0.1148620021
 31
0.0
 40
0.9897774386
 41
-0.3890794574
 42
0.3890794574
  0
ELLIPSE
  5
35E
100
AcDbEntity
  8
0
100
AcDbEllipse
 62
7
  6
CONTINUOUS
 10
34.9409975747
 20
18.5782159183
 30
0.0
 11
0.2773014032
 21
0.1148620021
 31
0.0
 40
0.9897774386
 41
2.7525131962
 42
3.530672111
  0
ELLIPSE
  5
35F
100
AcDbEntity
  8
0
100
AcDbEllipse
 62
7
  6
CONTINUOUS
 10
34.9368343149
 20
20.2191469197
 30
0.0
 11
0.2100676966
 21
0.2100676966
 31
0.0
 40
0.9895894063
 41
0.7801656774
 42
2.3614269762
  0
ELLIPSE
  5
360
100
AcDbEntity
  8
0
100
AcDbEllipse
 62
7
  6
CONTINUOUS
 10
24.9049035944
 20
100.8937700404
 30
0.0
 11
-0.0000000495
 21
0.3000000005
 31
0.0
 40
0.0524077794
 41
-0.0000031492
 42
1.2217273272
  0
ELLIPSE
  5
361
100
AcDbEntity
  8
0
100
AcDbEllipse
 62
7
  6
CONTINUOUS
 10
15.5076884053
 20
100.894333168
 30
0.0
 11
-0.0000000495
 21
0.3000000005
 31
0.0
 40
0.0524079352
 41
-1.2217336256
 42
-0.0000031491
  0
ELLIPSE
  5
362
100
AcDbEntity
  8
0
100
AcDbEllipse
 62
7
  6
CONTINUOUS
 10
56.7749035944
 20
100.8918602324
 30
0.0
 11
-0.0000000495
 21
0.3000000005
 31
0.0
 40
0.0524077794
 41
-0.0000031492
 42
1.2217273272
  0
ELLIPSE
  5
363
100
AcDbEntity
  8
0
100
AcDbEllipse
 62
7
  6
CONTINUOUS
 10
51.487688556
 20
100.8921770684
 30
0.0
 11
-0.0000000495
 21
0.3000000005
 31
0.0
 40
0.0524077806
 41
-1.2217336255
 42
-0.0000031492
  0
ENDSEC
  0
SECTION
  2
OBJECTS
  0
DICTIONARY
  5
C
100
AcDbDictionary
280
0
281
1
  3
ACAD_GROUP
350
D
  3
ACAD_MLINESTYLE
350
17
  3
ACAD_LAYOUT
350
1A
  3
ACAD_PLOTSETTINGS
350
19
  3
ACAD_PLOTSTYLENAME
350
E
  0
DICTIONARY
  5
D
102
{ACAD_REACTORS
330
C
102
}
100
AcDbDictionary
280
0
281
1
  0
ACDBDICTIONARYWDFLT
  5
E
102
{ACAD_REACTORS
330
C
102
}
100
AcDbDictionary
281
1
  3
Normal
350
F
100
AcDbDictionaryWithDefault
340
F
  0
DICTIONARY
  5
17
102
{ACAD_REACTORS
330
C
102
}
100
AcDbDictionary
280
0
281
1
  3
Standard
350
18
  0
DICTIONARY
  5
19
102
{ACAD_REACTORS
330
C
102
}
100
AcDbDictionary
281
1
  0
DICTIONARY
  5
1A
102
{ACAD_REACTORS
330
C
102
}
100
AcDbDictionary
281
1
  3
Model
350
364
  3
Layout1
350
365
  0
ACDBPLACEHOLDER
  5
F
102
{ACAD_REACTORS
330
E
102
}
  0
MLINESTYLE
  5
18
102
{ACAD_REACTORS
330
17
102
}
100
AcDbMlineStyle
  2
STANDARD
 70
0
  3

 62
256
 51
90.0
 52
90.0
 71
2
 49
0.5
 62
256
  6
BYLAYER
 49
-0.5
 62
256
  6
BYLAYER
  0
LAYOUT
  5
364
102
{ACAD_REACTORS
330
1A
102
}
100
AcDbPlotSettings
  1

  2
none_device
  4

  6

 40
0.0
 41
0.0
 42
0.0
 43
0.0
 44
210.0
 45
297.0
 46
0.0
 47
0.0
 48
0.0
 49
0.0
140
0.0
141
0.0
142
1.0
143
1.0
 70
1024
 72
1
 73
0
 74
0
  7

 75
0
147
1.0
148
0.0
149
0.0
100
AcDbLayout
  1
Model
 70
0
 71
0
 10
0.0
 20
0.0
 11
210.0
 21
297.0
 12
0.0
 22
0.0
 32
0.0
 14
0.0
 24
0.0
 34
0.0
 15
0.0
 25
0.0
 35
0.0
146
0.0
 13
0.0
 23
0.0
 33
0.0
 16
1.0
 26
0.0
 36
0.0
 17
0.0
 27
1.0
 37
0.0
 76
0
330
212
345
0
346
0
  0
LAYOUT
  5
365
102
{ACAD_REACTORS
330
1A
102
}
100
AcDbPlotSettings
  1

  2
none_device
  4

  6

 40
0.0
 41
0.0
 42
0.0
 43
0.0
 44
210.0
 45
297.0
 46
0.0
 47
0.0
 48
0.0
 49
0.0
140
0.0
141
0.0
142
1.0
143
1.0
 70
0
 72
1
 73
0
 74
0
  7

 75
0
147
1.0
148
0.0
149
0.0
100
AcDbLayout
  1
Layout1
 70
0
 71
1
 10
0.0
 20
0.0
 11
210.0
 21
297.0
 12
0.0
 22
0.0
 32
0.0
 14
0.0
 24
0.0
 34
0.0
 15
0.0
 25
0.0
 35
0.0
146
0.0
 13
0.0
 23
0.0
 33
0.0
 16
1.0
 26
0.0
 36
0.0
 17
0.0
 27
1.0
 37
0.0
 76
0
330
213
345
0
346
0
  0
ENDSEC
  0
EOF
