999
DXF file: C:\Users\sesa63760\Dev\_Creo\CAD\MCADID0004120_3D-CAD\drw0001_7.dxf
999
Pro/ENGINEER 2019471 by Parametric Technology Corporation
  0
SECTION
  2
HEADER
  9
$ACADVER
  1
AC1024
  9
$DWGCODEPAGE
  3
ANSI_1252
  9
$EXTMAX
 10
75.8073253123
 20
107.2132172274
 30
0.0
  9
$EXTMIN
 10
0.0
 20
0.0
 30
0.0
  9
$LIMMIN
 10
0.0
 20
0.0
  9
$LIMMAX
 10
75.8073253123
 20
107.2132172274
  9
$VIEWCTR
 10
37.9036626561
 20
53.6066086137
  9
$VIEWSIZE
 40
107.2132172274
  9
$CLAYER
  8
0
  9
$LTSCALE
 40
6.9887134193
  9
$CELTYPE
  6
BYLAYER
  9
$DIMSCALE
 40
1.0
  9
$DIMASZ
 40
0.9024681585
  9
$DIMEXO
 40
1.0
  9
$DIMDLI
 40
4.8285656351
  9
$DIMEXE
 40
1.0
  9
$DIMCEN
 40
1.1436076504
  9
$DIMLFAC
 40
1.0
  9
$DIMBLK
  1
_FILLED
  9
$DIMALT
 70
0
  9
$DIMALTF
 40
0.0393700787
  9
$DIMTXT
 40
1.2634554219
  9
$DIMTOL
 70
1
  9
$DIMLIM
 70
0
  9
$DIMTFAC
 40
1.0
  9
$DIMTP
 40
0.01
  9
$DIMTM
 40
0.01
  9
$DIMGAP
 40
0.625
  9
$DIMDSEP
 70
46
  9
$AUNITS
 70
0
  9
$PDMODE
 70
3
  9
$PDSIZE
 40
0.3125
  9
$HANDSEED
  5
293
  9
$TILEMODE
 70
1
  9
$MEASUREMENT
 70
1
  9
$INSUNITS
 70
4
  0
ENDSEC
  0
SECTION
  2
CLASSES
  0
CLASS
  1
ACDBDICTIONARYWDFLT
  2
AcDbDictionaryWithDefault
  3
AutoCAD 2000
 90
0
 91
1
280
0
281
0
  0
CLASS
  1
ACDBPLACEHOLDER
  2
AcDbPlaceHolder
  3
AutoCAD 2000
 90
0
 91
1
280
0
281
0
  0
CLASS
  1
LAYOUT
  2
AcDbLayout
  3
AutoCAD 2000
 90
0
 91
0
280
0
281
0
  0
ENDSEC
  0
SECTION
  2
TABLES
  0
TABLE
  2
VPORT
  5
8
100
AcDbSymbolTable
 70
2
  0
VPORT
  5
1F4
100
AcDbSymbolTableRecord
100
AcDbViewportTableRecord
  2
*ACTIVE
 70
0
 10
0.0
 20
0.0
 11
1.0
 21
1.0
 12
37.9036626561
 22
53.6066086137
 13
0.0
 23
0.0
 14
1.0
 24
1.0
 15
0.0
 25
0.0
 16
0.0
 26
0.0
 36
1.0
 17
0.0
 27
0.0
 37
0.0
 40
107.2132172274
 41
0.7070707071
 42
50.0
 43
0.0
 44
0.0
 50
0.0
 51
0.0
 71
0
 72
100
 73
1
 74
1
 75
0
 76
0
 77
0
 78
0
  0
ENDTAB
  0
TABLE
  2
LTYPE
  5
5
100
AcDbSymbolTable
 70
6
  0
LTYPE
  5
14
100
AcDbSymbolTableRecord
100
AcDbLinetypeTableRecord
  2
BYBLOCK
 70
0
  3

 72
65
 73
0
 40
0.0
  0
LTYPE
  5
15
100
AcDbSymbolTableRecord
100
AcDbLinetypeTableRecord
  2
BYLAYER
 70
0
  3

 72
65
 73
0
 40
0.0
  0
LTYPE
  5
16
100
AcDbSymbolTableRecord
100
AcDbLinetypeTableRecord
  2
CONTINUOUS
 70
64
  3
Solid line
 72
65
 73
0
 40
0.0
  0
LTYPE
  5
1F5
100
AcDbSymbolTableRecord
100
AcDbLinetypeTableRecord
  2
CENTER
 70
64
  3
____ _ ____ _ ____ _ ____ _ ____ _ ____ _ ____
 72
65
 73
4
 40
0.6
 49
0.375
 74
0
 49
-0.075
 74
0
 49
0.075
 74
0
 49
-0.075
 74
0
  0
LTYPE
  5
1F6
100
AcDbSymbolTableRecord
100
AcDbLinetypeTableRecord
  2
HIDDEN
 70
64
  3
- - - - - - - - - - - - - - - - - - - -
 72
65
 73
2
 40
0.2
 49
0.1
 74
0
 49
-0.1
 74
0
  0
LTYPE
  5
1F7
100
AcDbSymbolTableRecord
100
AcDbLinetypeTableRecord
  2
PHANTOM
 70
64
  3
_____ _ _ _____ _ _ _____ _ _ _____
 72
65
 73
6
 40
0.8
 49
0.45
 74
0
 49
-0.05
 74
0
 49
0.1
 74
0
 49
-0.05
 74
0
 49
0.1
 74
0
 49
-0.05
 74
0
  0
LTYPE
  5
1F8
100
AcDbSymbolTableRecord
100
AcDbLinetypeTableRecord
  2
DOT
 70
64
  3
. . . . . . . . . . . . . . . . . . . .
 72
65
 73
2
 40
0.2
 49
0.1
 74
0
 49
-0.1
 74
0
  0
LTYPE
  5
1F9
100
AcDbSymbolTableRecord
100
AcDbLinetypeTableRecord
  2
DASHED
 70
64
  3
- - - - - - - - - - - - - - - - - - - -
 72
65
 73
2
 40
0.2
 49
0.1
 74
0
 49
-0.1
 74
0
  0
ENDTAB
  0
TABLE
  2
LAYER
  5
2
100
AcDbSymbolTable
 70
36
  0
LAYER
  5
10
100
AcDbSymbolTableRecord
100
AcDbLayerTableRecord
  2
0
 70
0
 62
7
  6
CONTINUOUS
370
-3
390
F
  0
LAYER
  5
1FA
100
AcDbSymbolTableRecord
100
AcDbLayerTableRecord
  2
DEFAULT_1
 70
0
 62
7
  6
CENTER
370
-3
390
F
  0
LAYER
  5
1FB
100
AcDbSymbolTableRecord
100
AcDbLayerTableRecord
  2
DEFAULT_2
 70
0
 62
7
  6
HIDDEN
370
-3
390
F
  0
LAYER
  5
1FC
100
AcDbSymbolTableRecord
100
AcDbLayerTableRecord
  2
DEFAULT_3
 70
0
 62
7
  6
PHANTOM
370
-3
390
F
  0
LAYER
  5
1FD
100
AcDbSymbolTableRecord
100
AcDbLayerTableRecord
  2
00_COMPONENTS
 70
0
 62
7
  6
CONTINUOUS
370
-3
390
F
  0
LAYER
  5
1FE
100
AcDbSymbolTableRecord
100
AcDbLayerTableRecord
  2
01_1_DEFAULT_DATUMS
 70
0
 62
7
  6
CONTINUOUS
370
-3
390
F
  0
LAYER
  5
1FF
100
AcDbSymbolTableRecord
100
AcDbLayerTableRecord
  2
01_PLANES
 70
0
 62
7
  6
CONTINUOUS
370
-3
390
F
  0
LAYER
  5
200
100
AcDbSymbolTableRecord
100
AcDbLayerTableRecord
  2
02_COORD_SYS
 70
0
 62
7
  6
CONTINUOUS
370
-3
390
F
  0
LAYER
  5
201
100
AcDbSymbolTableRecord
100
AcDbLayerTableRecord
  2
03_AXES
 70
0
 62
7
  6
CONTINUOUS
370
-3
390
F
  0
LAYER
  5
202
100
AcDbSymbolTableRecord
100
AcDbLayerTableRecord
  2
04_POINTS
 70
0
 62
7
  6
CONTINUOUS
370
-3
390
F
  0
LAYER
  5
203
100
AcDbSymbolTableRecord
100
AcDbLayerTableRecord
  2
05_CURVES
 70
0
 62
7
  6
CONTINUOUS
370
-3
390
F
  0
LAYER
  5
204
100
AcDbSymbolTableRecord
100
AcDbLayerTableRecord
  2
06_SURFS
 70
0
 62
7
  6
CONTINUOUS
370
-3
390
F
  0
LAYER
  5
205
100
AcDbSymbolTableRecord
100
AcDbLayerTableRecord
  2
07_COSMETICS
 70
0
 62
7
  6
CONTINUOUS
370
-3
390
F
  0
LAYER
  5
206
100
AcDbSymbolTableRecord
100
AcDbLayerTableRecord
  2
10_NOTES
 70
0
 62
7
  6
CONTINUOUS
370
-3
390
F
  0
LAYER
  5
207
100
AcDbSymbolTableRecord
100
AcDbLayerTableRecord
  2
11_NOTES_PUB
 70
0
 62
7
  6
CONTINUOUS
370
-3
390
F
  0
LAYER
  5
208
100
AcDbSymbolTableRecord
100
AcDbLayerTableRecord
  2
13_REF_GTOL
 70
0
 62
7
  6
CONTINUOUS
370
-3
390
F
  0
LAYER
  5
209
100
AcDbSymbolTableRecord
100
AcDbLayerTableRecord
  2
16_MISC
 70
0
 62
7
  6
CONTINUOUS
370
-3
390
F
  0
LAYER
  5
20A
100
AcDbSymbolTableRecord
100
AcDbLayerTableRecord
  2
17_NO_PRINT
 70
0
 62
7
  6
CONTINUOUS
370
-3
390
F
  0
LAYER
  5
20B
100
AcDbSymbolTableRecord
100
AcDbLayerTableRecord
  2
18_DATUM_CAMS_JOINTS
 70
0
 62
7
  6
CONTINUOUS
370
-3
390
F
  0
LAYER
  5
20C
100
AcDbSymbolTableRecord
100
AcDbLayerTableRecord
  2
19_DATUM_FUNCTIONAL
 70
0
 62
7
  6
CONTINUOUS
370
-3
390
F
  0
LAYER
  5
20D
100
AcDbSymbolTableRecord
100
AcDbLayerTableRecord
  2
20_DATUM_KINEMATIC_SCHEME
 70
0
 62
7
  6
CONTINUOUS
370
-3
390
F
  0
ENDTAB
  0
TABLE
  2
STYLE
  5
3
100
AcDbSymbolTable
 70
1
  0
STYLE
  5
11
100
AcDbSymbolTableRecord
100
AcDbTextStyleTableRecord
  2
STANDARD
 70
0
 40
0.0
 41
1.0
 50
0.0
 71
0
 42
0.2
  3
ARIAL.TTF
  4

  0
STYLE
  5
20E
100
AcDbSymbolTableRecord
100
AcDbTextStyleTableRecord
  2
TEXTSTYLE_1
 70
0
 40
0.0
 41
0.8
 50
0.0
 71
0
 42
0.2
  3
gdt
  4

  0
ENDTAB
  0
TABLE
  2
VIEW
  5
6
100
AcDbSymbolTable
 70
0
  0
ENDTAB
  0
TABLE
  2
UCS
  5
7
100
AcDbSymbolTable
 70
0
  0
ENDTAB
  0
TABLE
  2
APPID
  5
9
100
AcDbSymbolTable
 70
1
  0
APPID
  5
20F
100
AcDbSymbolTableRecord
100
AcDbRegAppTableRecord
  2
ACAD
 70
0
  0
ENDTAB
  0
TABLE
  2
BLOCK_RECORD
  5
1
100
AcDbSymbolTable
 70
0
  0
BLOCK_RECORD
  5
210
100
AcDbSymbolTableRecord
100
AcDbBlockTableRecord
  2
*Model_Space
  0
BLOCK_RECORD
  5
211
100
AcDbSymbolTableRecord
100
AcDbBlockTableRecord
  2
*Paper_Space
  0
BLOCK_RECORD
  5
212
100
AcDbSymbolTableRecord
100
AcDbBlockTableRecord
  2
_FILLED
  0
ENDTAB
  0
TABLE
  2
DIMSTYLE
  5
A
100
AcDbSymbolTable
 70
1
100
AcDbDimStyleTable
 71
0
  0
DIMSTYLE
105
213
100
AcDbSymbolTableRecord
100
AcDbDimStyleTableRecord
  2
STANDARD
 70
0
  3

  4

 40
1.0
 41
0.9024681585
 42
1.0
 43
0.38
 44
1.0
 45
0.0
 46
0.0
 47
0.01
 48
0.01
140
1.2634554219
141
0.09
142
0.0
143
25.4
144
1.0
145
0.0
146
1.0
147
0.625
 71
1
 72
0
 73
0
 74
0
 75
0
 76
0
 77
1
 78
8
 79
2
170
0
171
1
172
0
173
0
174
0
175
0
176
0
177
0
178
0
270
2
179
2
271
2
272
2
273
2
274
2
275
0
280
0
281
0
282
0
283
1
284
8
285
0
286
0
287
3
288
0
340
11
278
46
341
212
342
212
343
212
344
212
  0
ENDTAB
  0
ENDSEC
  0
SECTION
  2
BLOCKS
  0
BLOCK
  5
20
100
AcDbEntity
  8
0
100
AcDbBlockBegin
  2
*Model_Space
 70
0
 10
0.0
 20
0.0
 30
0.0
  3
*Model_Space
  1

  0
ENDBLK
  5
21
100
AcDbEntity
  8
0
100
AcDbBlockEnd
  0
BLOCK
  5
1C
100
AcDbEntity
  8
0
100
AcDbBlockBegin
  2
*Paper_Space
 70
0
 10
0.0
 20
0.0
 30
0.0
  3
*Paper_Space
  1

  0
ENDBLK
  5
1D
100
AcDbEntity
  8
0
100
AcDbBlockEnd
  0
BLOCK
  5
214
100
AcDbEntity
  8
0
100
AcDbBlockBegin
  2
_FILLED
 70
64
 10
0.0
 20
0.0
  3
_FILLED
  1

  0
SOLID
  5
215
100
AcDbEntity
  8
0
  6
BYBLOCK
 62
0
100
AcDbTrace
 10
0.0
 20
0.0
 11
-1.0
 21
0.25
 12
-1.0
 22
-0.25
 13
-1.0
 23
-0.25
  0
ENDBLK
  5
216
100
AcDbEntity
  8
0
  6
BYBLOCK
 62
0
100
AcDbBlockEnd
  0
ENDSEC
  0
SECTION
  2
ENTITIES
  0
LINE
  5
217
100
AcDbEntity
  8
0
100
AcDbLine
 62
7
  6
BYLAYER
 10
8.0493090218
 20
48.7224796457
 11
8.0493090218
 21
59.015649294
  0
LINE
  5
218
100
AcDbEntity
  8
0
100
AcDbLine
 62
7
  6
BYLAYER
 10
8.1508863539
 20
48.6209023136
 11
8.1508863539
 21
59.117226626
  0
LINE
  5
219
100
AcDbEntity
  8
0
100
AcDbLine
 62
7
  6
BYLAYER
 10
8.5496714353
 20
59.117226626
 11
8.5496714353
 21
48.6209023136
  0
LINE
  5
21A
100
AcDbEntity
  8
0
100
AcDbLine
 62
7
  6
BYLAYER
 10
9.2983339938
 20
47.8722397551
 11
9.2983339938
 21
59.8658891845
  0
LINE
  5
21B
100
AcDbEntity
  8
0
100
AcDbLine
 62
7
  6
BYLAYER
 10
8.5496714353
 20
59.117226626
 11
9.2983339938
 21
59.8658891845
  0
LINE
  5
21C
100
AcDbEntity
  8
0
100
AcDbLine
 62
7
  6
BYLAYER
 10
8.5496714353
 20
48.6209023136
 11
9.2983339938
 21
47.8722397551
  0
LINE
  5
21D
100
AcDbEntity
  8
0
100
AcDbLine
 62
7
  6
BYLAYER
 10
16.9493090218
 20
59.865732838
 11
16.9493090218
 21
47.8723961017
  0
LINE
  5
21E
100
AcDbEntity
  8
0
100
AcDbLine
 62
7
  6
BYLAYER
 10
17.6984494244
 20
47.8722397551
 11
17.6984494244
 21
59.8658891845
  0
LINE
  5
21F
100
AcDbEntity
  8
0
100
AcDbLine
 62
7
  6
BYLAYER
 10
17.9118854149
 20
46.9717947849
 11
17.9118854149
 21
60.7663149
  0
LINE
  5
220
100
AcDbEntity
  8
0
100
AcDbLine
 62
7
  6
BYLAYER
 10
20.2474282614
 20
60.7665717383
 11
20.2474282614
 21
58.2143425286
  0
LINE
  5
221
100
AcDbEntity
  8
0
100
AcDbLine
 62
7
  6
BYLAYER
 10
20.2474282614
 20
49.523786411
 11
20.2474282614
 21
46.9715572013
  0
LINE
  5
222
100
AcDbEntity
  8
0
100
AcDbLine
 62
7
  6
BYLAYER
 10
16.9493090218
 20
59.1167487819
 11
17.6984494244
 21
59.8658891845
  0
LINE
  5
223
100
AcDbEntity
  8
0
100
AcDbLine
 62
7
  6
BYLAYER
 10
16.9493090218
 20
48.6213801577
 11
17.6984494244
 21
47.8722397551
  0
LINE
  5
224
100
AcDbEntity
  8
0
100
AcDbLine
 62
7
  6
BYLAYER
 10
22.1541623366
 20
58.3650294737
 11
22.1541623366
 21
49.3730994659
  0
LINE
  5
225
100
AcDbEntity
  8
0
100
AcDbLine
 62
7
  6
BYLAYER
 10
26.2962602105
 20
57.8113965802
 11
26.2962602105
 21
49.9267323594
  0
LINE
  5
226
100
AcDbEntity
  8
0
100
AcDbLine
 62
7
  6
BYLAYER
 10
44.2204721466
 20
41.8640644698
 11
47.2204721466
 21
41.8640644698
  0
LINE
  5
227
100
AcDbEntity
  8
0
100
AcDbLine
 62
7
  6
BYLAYER
 10
54.2204721466
 20
41.8640644698
 11
57.2204721466
 21
41.8640644698
  0
LINE
  5
228
100
AcDbEntity
  8
0
100
AcDbLine
 62
7
  6
BYLAYER
 10
56.3573334941
 20
42.5189031819
 11
55.083610799
 21
42.5189031819
  0
LINE
  5
229
100
AcDbEntity
  8
0
100
AcDbLine
 62
7
  6
BYLAYER
 10
46.3573334941
 20
42.5189031819
 11
45.083610799
 21
42.5189031819
  0
LINE
  5
22A
100
AcDbEntity
  8
0
100
AcDbLine
 62
7
  6
BYLAYER
 10
64.718597988
 20
44.8757084595
 11
57.2204721466
 21
44.8757084595
  0
LINE
  5
22B
100
AcDbEntity
  8
0
100
AcDbLine
 62
7
  6
BYLAYER
 10
53.5218300936
 20
44.8757084595
 11
47.9191141996
 21
44.8757084595
  0
LINE
  5
22C
100
AcDbEntity
  8
0
100
AcDbLine
 62
7
  6
BYLAYER
 10
44.2204721466
 20
44.8757084595
 11
38.5927612828
 21
44.8757084595
  0
LINE
  5
22D
100
AcDbEntity
  8
0
100
AcDbLine
 62
7
  6
BYLAYER
 10
20.2474282614
 20
46.9715572013
 11
30.5401981338
 21
45.624371018
  0
LINE
  5
22E
100
AcDbEntity
  8
0
100
AcDbLine
 62
7
  6
BYLAYER
 10
30.5401981338
 20
45.624371018
 11
30.5401981338
 21
62.1137579217
  0
LINE
  5
22F
100
AcDbEntity
  8
0
100
AcDbLine
 62
7
  6
BYLAYER
 10
31.5430662603
 20
62.1137466067
 11
31.5430662603
 21
45.6243823329
  0
LINE
  5
230
100
AcDbEntity
  8
0
100
AcDbLine
 62
7
  6
BYLAYER
 10
31.8440361331
 20
45.6243823329
 11
31.8440361331
 21
62.1137466067
  0
LINE
  5
231
100
AcDbEntity
  8
0
100
AcDbLine
 62
7
  6
BYLAYER
 10
66.3241057301
 20
45.5754634136
 11
65.3205377335
 21
45.5754634136
  0
LINE
  5
232
100
AcDbEntity
  8
0
100
AcDbLine
 62
7
  6
BYLAYER
 10
37.8440987244
 20
45.624371018
 11
31.8440361331
 21
45.624371018
  0
LINE
  5
233
100
AcDbEntity
  8
0
100
AcDbLine
 62
7
  6
BYLAYER
 10
31.5430662603
 20
45.624371018
 11
30.5401981338
 21
45.624371018
  0
LINE
  5
234
100
AcDbEntity
  8
0
100
AcDbLine
 62
7
  6
BYLAYER
 10
31.8440361331
 20
46.4257033042
 11
31.5430662603
 21
46.4257033042
  0
LINE
  5
235
100
AcDbEntity
  8
0
100
AcDbLine
 62
7
  6
BYLAYER
 10
20.2474282614
 20
46.9715572013
 11
17.9118854149
 21
46.9715572013
  0
LINE
  5
236
100
AcDbEntity
  8
0
100
AcDbLine
 62
7
  6
BYLAYER
 10
67.8225297409
 20
47.0649943919
 11
66.7219699655
 21
47.0649943919
  0
LINE
  5
237
100
AcDbEntity
  8
0
100
AcDbLine
 62
7
  6
BYLAYER
 10
37.8440987244
 20
62.1137579217
 11
38.5927612828
 21
62.8624204801
  0
LINE
  5
238
100
AcDbEntity
  8
0
100
AcDbLine
 62
7
  6
BYLAYER
 10
53.5218300936
 20
64.9179001983
 11
54.2204721466
 21
65.1694925231
  0
LINE
  5
239
100
AcDbEntity
  8
0
100
AcDbLine
 62
7
  6
BYLAYER
 10
17.9118854149
 20
47.8722397551
 11
17.6984494244
 21
47.8722397551
  0
LINE
  5
23A
100
AcDbEntity
  8
0
100
AcDbLine
 62
7
  6
BYLAYER
 10
16.9493090218
 20
47.8722397551
 11
9.2983339938
 21
47.8722397551
  0
LINE
  5
23B
100
AcDbEntity
  8
0
100
AcDbLine
 62
7
  6
BYLAYER
 10
8.5496714353
 20
48.6209023136
 11
8.1508863539
 21
48.6209023136
  0
LINE
  5
23C
100
AcDbEntity
  8
0
100
AcDbLine
 62
7
  6
BYLAYER
 10
20.2474282614
 20
49.523786411
 11
22.1541623366
 21
49.3730994659
  0
LINE
  5
23D
100
AcDbEntity
  8
0
100
AcDbLine
 62
7
  6
BYLAYER
 10
53.5218300936
 20
42.8202287414
 11
54.2204721466
 21
42.5686364165
  0
LINE
  5
23E
100
AcDbEntity
  8
0
100
AcDbLine
 62
7
  6
BYLAYER
 10
37.8440987244
 20
45.624371018
 11
38.5927612828
 21
44.8757084595
  0
LINE
  5
23F
100
AcDbEntity
  8
0
100
AcDbLine
 62
7
  6
BYLAYER
 10
37.8440987244
 20
62.1137579217
 11
37.8440987244
 21
45.624371018
  0
LINE
  5
240
100
AcDbEntity
  8
0
100
AcDbLine
 62
7
  6
BYLAYER
 10
45.083610799
 20
53.2142257577
 11
46.3573334941
 21
53.2142257577
  0
LINE
  5
241
100
AcDbEntity
  8
0
100
AcDbLine
 62
7
  6
BYLAYER
 10
55.083610799
 20
53.2142257577
 11
56.3573334941
 21
53.2142257577
  0
LINE
  5
242
100
AcDbEntity
  8
0
100
AcDbLine
 62
7
  6
BYLAYER
 10
38.5927612828
 20
44.8757084595
 11
38.5927612828
 21
62.8624204801
  0
LINE
  5
243
100
AcDbEntity
  8
0
100
AcDbLine
 62
7
  6
BYLAYER
 10
56.3573334941
 20
54.5239031819
 11
55.083610799
 21
54.5239031819
  0
LINE
  5
244
100
AcDbEntity
  8
0
100
AcDbLine
 62
7
  6
BYLAYER
 10
46.3573334941
 20
54.5239031819
 11
45.083610799
 21
54.5239031819
  0
LINE
  5
245
100
AcDbEntity
  8
0
100
AcDbLine
 62
7
  6
BYLAYER
 10
44.2204721466
 20
41.8640644698
 11
44.2204721466
 21
65.8740644698
  0
LINE
  5
246
100
AcDbEntity
  8
0
100
AcDbLine
 62
7
  6
BYLAYER
 10
22.1541623366
 20
58.3650294737
 11
20.2474282614
 21
58.2143425286
  0
LINE
  5
247
100
AcDbEntity
  8
0
100
AcDbLine
 62
7
  6
BYLAYER
 10
8.5496714353
 20
59.117226626
 11
8.1508863539
 21
59.117226626
  0
LINE
  5
248
100
AcDbEntity
  8
0
100
AcDbLine
 62
7
  6
BYLAYER
 10
17.9118854149
 20
59.8658891845
 11
17.6984494244
 21
59.8658891845
  0
LINE
  5
249
100
AcDbEntity
  8
0
100
AcDbLine
 62
7
  6
BYLAYER
 10
16.9493090218
 20
59.8658891845
 11
9.2983339938
 21
59.8658891845
  0
LINE
  5
24A
100
AcDbEntity
  8
0
100
AcDbLine
 62
7
  6
BYLAYER
 10
45.083610799
 20
41.8640644698
 11
45.083610799
 21
42.5189031819
  0
LINE
  5
24B
100
AcDbEntity
  8
0
100
AcDbLine
 62
7
  6
BYLAYER
 10
45.083610799
 20
53.2142257577
 11
45.083610799
 21
54.5239031819
  0
LINE
  5
24C
100
AcDbEntity
  8
0
100
AcDbLine
 62
7
  6
BYLAYER
 10
45.083610799
 20
65.2192257577
 11
45.083610799
 21
65.8740644698
  0
LINE
  5
24D
100
AcDbEntity
  8
0
100
AcDbLine
 62
7
  6
BYLAYER
 10
46.3573334941
 20
65.8740644698
 11
46.3573334941
 21
65.2192257577
  0
LINE
  5
24E
100
AcDbEntity
  8
0
100
AcDbLine
 62
7
  6
BYLAYER
 10
46.3573334941
 20
54.5239031819
 11
46.3573334941
 21
53.2142257577
  0
LINE
  5
24F
100
AcDbEntity
  8
0
100
AcDbLine
 62
7
  6
BYLAYER
 10
46.3573334941
 20
42.5189031819
 11
46.3573334941
 21
41.8640644698
  0
LINE
  5
250
100
AcDbEntity
  8
0
100
AcDbLine
 62
7
  6
BYLAYER
 10
67.8225297409
 20
60.6731345477
 11
66.7219699655
 21
60.6731345477
  0
LINE
  5
251
100
AcDbEntity
  8
0
100
AcDbLine
 62
7
  6
BYLAYER
 10
20.2474282614
 20
60.7665717383
 11
17.9118854149
 21
60.7665717383
  0
LINE
  5
252
100
AcDbEntity
  8
0
100
AcDbLine
 62
7
  6
BYLAYER
 10
31.8440361331
 20
61.3124256354
 11
31.5430662603
 21
61.3124256354
  0
LINE
  5
253
100
AcDbEntity
  8
0
100
AcDbLine
 62
7
  6
BYLAYER
 10
37.8440987244
 20
62.1137579217
 11
31.8440361331
 21
62.1137579217
  0
LINE
  5
254
100
AcDbEntity
  8
0
100
AcDbLine
 62
7
  6
BYLAYER
 10
31.5430662603
 20
62.1137579217
 11
30.5401981338
 21
62.1137579217
  0
LINE
  5
255
100
AcDbEntity
  8
0
100
AcDbLine
 62
7
  6
BYLAYER
 10
66.3241057301
 20
62.162665526
 11
65.3205377335
 21
62.162665526
  0
LINE
  5
256
100
AcDbEntity
  8
0
100
AcDbLine
 62
7
  6
BYLAYER
 10
47.2204721466
 20
65.8740644698
 11
47.2204721466
 21
41.8640644698
  0
LINE
  5
257
100
AcDbEntity
  8
0
100
AcDbLine
 62
7
  6
BYLAYER
 10
47.9191141996
 20
64.917894059
 11
47.9191141996
 21
42.8202348806
  0
LINE
  5
258
100
AcDbEntity
  8
0
100
AcDbLine
 62
7
  6
BYLAYER
 10
20.2474282614
 20
60.7665717383
 11
30.5401981338
 21
62.1137579217
  0
LINE
  5
259
100
AcDbEntity
  8
0
100
AcDbLine
 62
7
  6
BYLAYER
 10
64.718597988
 20
62.8624204801
 11
57.2204721466
 21
62.8624204801
  0
LINE
  5
25A
100
AcDbEntity
  8
0
100
AcDbLine
 62
7
  6
BYLAYER
 10
53.5218300936
 20
62.8624204801
 11
47.9191141996
 21
62.8624204801
  0
LINE
  5
25B
100
AcDbEntity
  8
0
100
AcDbLine
 62
7
  6
BYLAYER
 10
44.2204721466
 20
62.8624204801
 11
38.5927612828
 21
62.8624204801
  0
LINE
  5
25C
100
AcDbEntity
  8
0
100
AcDbLine
 62
7
  6
BYLAYER
 10
45.083610799
 20
65.2192257577
 11
46.3573334941
 21
65.2192257577
  0
LINE
  5
25D
100
AcDbEntity
  8
0
100
AcDbLine
 62
7
  6
BYLAYER
 10
55.083610799
 20
65.2192257577
 11
56.3573334941
 21
65.2192257577
  0
LINE
  5
25E
100
AcDbEntity
  8
0
100
AcDbLine
 62
7
  6
BYLAYER
 10
57.2204721466
 20
65.8740644698
 11
54.2204721466
 21
65.8740644698
  0
LINE
  5
25F
100
AcDbEntity
  8
0
100
AcDbLine
 62
7
  6
BYLAYER
 10
47.2204721466
 20
65.8740644698
 11
44.2204721466
 21
65.8740644698
  0
LINE
  5
260
100
AcDbEntity
  8
0
100
AcDbLine
 62
7
  6
BYLAYER
 10
47.9191141996
 20
42.8202287414
 11
47.2204721466
 21
42.5686364165
  0
LINE
  5
261
100
AcDbEntity
  8
0
100
AcDbLine
 62
7
  6
BYLAYER
 10
47.9191141996
 20
64.9179001983
 11
47.2204721466
 21
65.1694925231
  0
LINE
  5
262
100
AcDbEntity
  8
0
100
AcDbLine
 62
7
  6
BYLAYER
 10
53.5218300936
 20
42.8202348806
 11
53.5218300936
 21
64.917894059
  0
LINE
  5
263
100
AcDbEntity
  8
0
100
AcDbLine
 62
7
  6
BYLAYER
 10
54.2204721466
 20
41.8640644698
 11
54.2204721466
 21
65.8740644698
  0
LINE
  5
264
100
AcDbEntity
  8
0
100
AcDbLine
 62
7
  6
BYLAYER
 10
55.083610799
 20
41.8640644698
 11
55.083610799
 21
42.5189031819
  0
LINE
  5
265
100
AcDbEntity
  8
0
100
AcDbLine
 62
7
  6
BYLAYER
 10
55.083610799
 20
53.2142257577
 11
55.083610799
 21
54.5239031819
  0
LINE
  5
266
100
AcDbEntity
  8
0
100
AcDbLine
 62
7
  6
BYLAYER
 10
55.083610799
 20
65.2192257577
 11
55.083610799
 21
65.8740644698
  0
LINE
  5
267
100
AcDbEntity
  8
0
100
AcDbLine
 62
7
  6
BYLAYER
 10
56.3573334941
 20
65.8740644698
 11
56.3573334941
 21
65.2192257577
  0
LINE
  5
268
100
AcDbEntity
  8
0
100
AcDbLine
 62
7
  6
BYLAYER
 10
56.3573334941
 20
54.5239031819
 11
56.3573334941
 21
53.2142257577
  0
LINE
  5
269
100
AcDbEntity
  8
0
100
AcDbLine
 62
7
  6
BYLAYER
 10
56.3573334941
 20
42.5189031819
 11
56.3573334941
 21
41.8640644698
  0
LINE
  5
26A
100
AcDbEntity
  8
0
100
AcDbLine
 62
7
  6
BYLAYER
 10
57.2204721466
 20
65.8740644698
 11
57.2204721466
 21
41.8640644698
  0
LINE
  5
26B
100
AcDbEntity
  8
0
100
AcDbLine
 62
7
  6
BYLAYER
 10
65.3205377335
 20
45.4738860816
 11
64.718597988
 21
44.8757084595
  0
LINE
  5
26C
100
AcDbEntity
  8
0
100
AcDbLine
 62
7
  6
BYLAYER
 10
65.3205377335
 20
62.264242858
 11
64.718597988
 21
62.8624204801
  0
LINE
  5
26D
100
AcDbEntity
  8
0
100
AcDbLine
 62
7
  6
BYLAYER
 10
64.718597988
 20
62.8624204801
 11
64.718597988
 21
44.8757084595
  0
LINE
  5
26E
100
AcDbEntity
  8
0
100
AcDbLine
 62
7
  6
BYLAYER
 10
65.3205377335
 20
62.2642312784
 11
65.3205377335
 21
45.4738976612
  0
LINE
  5
26F
100
AcDbEntity
  8
0
100
AcDbLine
 62
7
  6
BYLAYER
 10
66.3241057301
 20
62.162665526
 11
66.3241057301
 21
45.5754634136
  0
LINE
  5
270
100
AcDbEntity
  8
0
100
AcDbLine
 62
7
  6
BYLAYER
 10
66.5200687117
 20
61.9647231203
 11
66.5200687117
 21
45.7734058193
  0
LINE
  5
271
100
AcDbEntity
  8
0
100
AcDbLine
 62
7
  6
BYLAYER
 10
66.7219699655
 20
47.0649943919
 11
66.7219699655
 21
60.6731345477
  0
LINE
  5
272
100
AcDbEntity
  8
0
100
AcDbLine
 62
7
  6
BYLAYER
 10
67.8225297409
 20
60.6731345477
 11
67.8225297409
 21
47.0649943919
  0
LINE
  5
273
100
AcDbEntity
  8
0
100
AcDbLine
 62
7
  6
BYLAYER
 10
68.0204721466
 20
60.4751921421
 11
68.0204721466
 21
47.2629367976
  0
ARC
  5
274
100
AcDbEntity
  8
0
100
AcDbCircle
 62
7
  6
BYLAYER
 10
67.8175811808
 20
47.2678853577
 40
0.2029513051
100
AcDbArc
 50
271.3971810273
 51
358.6028189727
  0
ARC
  5
275
100
AcDbEntity
  8
0
100
AcDbCircle
 62
7
  6
BYLAYER
 10
67.8175811808
 20
60.4702435819
 40
0.2029513051
100
AcDbArc
 50
1.3971810273
 51
88.6028189727
  0
ARC
  5
276
100
AcDbEntity
  8
0
100
AcDbCircle
 62
7
  6
BYLAYER
 10
66.7228182901
 20
60.8758841261
 40
0.2027513531
100
AcDbArc
 50
180.2397298961
 51
269.7602701039
  0
ARC
  5
277
100
AcDbEntity
  8
0
100
AcDbCircle
 62
7
  6
BYLAYER
 10
66.7228182901
 20
46.8622448135
 40
0.2027513531
100
AcDbArc
 50
90.2397298961
 51
179.7602701039
  0
ARC
  5
278
100
AcDbEntity
  8
0
100
AcDbCircle
 62
7
  6
BYLAYER
 10
66.3241057301
 20
61.9667025444
 40
0.1959729784
100
AcDbArc
 50
359.4212744344
 51
90.0
  0
ARC
  5
279
100
AcDbEntity
  8
0
100
AcDbCircle
 62
7
  6
BYLAYER
 10
66.3241057301
 20
45.7714263952
 40
0.1959729784
100
AcDbArc
 50
270.0
 51
0.5787255656
  0
ARC
  5
27A
100
AcDbEntity
  8
0
100
AcDbCircle
 62
7
  6
BYLAYER
 10
8.1520833932
 20
59.0144522547
 40
0.1027813422
100
AcDbArc
 50
90.6673083559
 51
179.3326916442
  0
ARC
  5
27B
100
AcDbEntity
  8
0
100
AcDbCircle
 62
7
  6
BYLAYER
 10
8.1520833932
 20
48.7236766849
 40
0.1027813422
100
AcDbArc
 50
180.6673083558
 51
269.3326916441
  0
SPLINE
  5
27C
100
AcDbEntity
  8
0
100
AcDbSpline
 62
7
  6
BYLAYER
 70
0
 71
3
 72
11
 73
7
 74
0
 42
0.0000001
 43
0.0000001
 44
0.0000000001
 40
0.0
 40
0.0
 40
0.0
 40
0.0
 40
0.249047688
 40
0.4985365606
 40
0.7487968618
 40
1.0
 40
1.0
 40
1.0
 40
1.0
 10
54.2204721466
 20
59.8715644698
 30
0.0
 10
54.2204721466
 20
60.3228312958
 30
0.0
 10
54.2598645823
 20
61.2266409371
 30
0.0
 10
54.4333516944
 20
62.5737158244
 30
0.0
 10
54.7090233484
 20
63.9073437095
 30
0.0
 10
54.9508478366
 20
64.7838455302
 30
0.0
 10
55.083610799
 20
65.2192257577
 30
0.0
  0
SPLINE
  5
27D
100
AcDbEntity
  8
0
100
AcDbSpline
 62
7
  6
BYLAYER
 70
0
 71
3
 72
11
 73
7
 74
0
 42
0.0000001
 43
0.0000001
 44
0.0000000001
 40
0.0
 40
0.0
 40
0.0
 40
0.0
 40
0.2511976629
 40
0.5014566469
 40
0.750949112
 40
1.0
 40
1.0
 40
1.0
 40
1.0
 10
56.3573334941
 20
53.2142257577
 30
0.0
 10
56.490093554
 20
52.778855049
 30
0.0
 10
56.7318370068
 20
51.9023459538
 30
0.0
 10
57.007650127
 20
50.5687536102
 30
0.0
 10
57.1810624716
 20
49.2216561171
 30
0.0
 10
57.2204721466
 20
48.3178370641
 30
0.0
 10
57.2204721466
 20
47.8665644698
 30
0.0
  0
SPLINE
  5
27E
100
AcDbEntity
  8
0
100
AcDbSpline
 62
7
  6
BYLAYER
 70
0
 71
3
 72
11
 73
7
 74
0
 42
0.0000001
 43
0.0000001
 44
0.0000000001
 40
0.0
 40
0.0
 40
0.0
 40
0.0
 40
0.249047688
 40
0.4985365606
 40
0.7487968618
 40
1.0
 40
1.0
 40
1.0
 40
1.0
 10
57.2204721466
 20
59.8715644698
 30
0.0
 10
57.2204721466
 20
59.4202976438
 30
0.0
 10
57.1810797108
 20
58.5164880025
 30
0.0
 10
57.0075925988
 20
57.1694131153
 30
0.0
 10
56.7319209447
 20
55.8357852302
 30
0.0
 10
56.4900964566
 20
54.9592834094
 30
0.0
 10
56.3573334941
 20
54.5239031819
 30
0.0
  0
SPLINE
  5
27F
100
AcDbEntity
  8
0
100
AcDbSpline
 62
7
  6
BYLAYER
 70
0
 71
3
 72
11
 73
7
 74
0
 42
0.0000001
 43
0.0000001
 44
0.0000000001
 40
0.0
 40
0.0
 40
0.0
 40
0.0
 40
0.2511976629
 40
0.5014566469
 40
0.750949112
 40
1.0
 40
1.0
 40
1.0
 40
1.0
 10
55.083610799
 20
42.5189031819
 30
0.0
 10
54.9508507392
 20
42.9542738906
 30
0.0
 10
54.7091072863
 20
43.8307829859
 30
0.0
 10
54.4332941662
 20
45.1643753295
 30
0.0
 10
54.2598818216
 20
46.5114728225
 30
0.0
 10
54.2204721466
 20
47.4152918756
 30
0.0
 10
54.2204721466
 20
47.8665644698
 30
0.0
  0
SPLINE
  5
280
100
AcDbEntity
  8
0
100
AcDbSpline
 62
7
  6
BYLAYER
 70
0
 71
3
 72
11
 73
7
 74
0
 42
0.0000001
 43
0.0000001
 44
0.0000000001
 40
0.0
 40
0.0
 40
0.0
 40
0.0
 40
0.249047688
 40
0.4985365606
 40
0.7487968618
 40
1.0
 40
1.0
 40
1.0
 40
1.0
 10
57.2204721466
 20
47.8665644698
 30
0.0
 10
57.2204721466
 20
47.4152976438
 30
0.0
 10
57.1810797108
 20
46.5114880025
 30
0.0
 10
57.0075925988
 20
45.1644131153
 30
0.0
 10
56.7319209447
 20
43.8307852302
 30
0.0
 10
56.4900964566
 20
42.9542834094
 30
0.0
 10
56.3573334941
 20
42.5189031819
 30
0.0
  0
SPLINE
  5
281
100
AcDbEntity
  8
0
100
AcDbSpline
 62
7
  6
BYLAYER
 70
0
 71
3
 72
11
 73
7
 74
0
 42
0.0000001
 43
0.0000001
 44
0.0000000001
 40
0.0
 40
0.0
 40
0.0
 40
0.0
 40
0.2511976629
 40
0.5014566469
 40
0.750949112
 40
1.0
 40
1.0
 40
1.0
 40
1.0
 10
56.3573334941
 20
65.2192257577
 30
0.0
 10
56.490093554
 20
64.783855049
 30
0.0
 10
56.7318370068
 20
63.9073459538
 30
0.0
 10
57.007650127
 20
62.5737536102
 30
0.0
 10
57.1810624716
 20
61.2266561171
 30
0.0
 10
57.2204721466
 20
60.3228370641
 30
0.0
 10
57.2204721466
 20
59.8715644698
 30
0.0
  0
SPLINE
  5
282
100
AcDbEntity
  8
0
100
AcDbSpline
 62
7
  6
BYLAYER
 70
0
 71
3
 72
11
 73
7
 74
0
 42
0.0000001
 43
0.0000001
 44
0.0000000001
 40
0.0
 40
0.0
 40
0.0
 40
0.0
 40
0.249047688
 40
0.4985365606
 40
0.7487968618
 40
1.0
 40
1.0
 40
1.0
 40
1.0
 10
54.2204721466
 20
47.8665644698
 30
0.0
 10
54.2204721466
 20
48.3178312958
 30
0.0
 10
54.2598645823
 20
49.2216409371
 30
0.0
 10
54.4333516944
 20
50.5687158244
 30
0.0
 10
54.7090233484
 20
51.9023437095
 30
0.0
 10
54.9508478366
 20
52.7788455302
 30
0.0
 10
55.083610799
 20
53.2142257577
 30
0.0
  0
SPLINE
  5
283
100
AcDbEntity
  8
0
100
AcDbSpline
 62
7
  6
BYLAYER
 70
0
 71
3
 72
11
 73
7
 74
0
 42
0.0000001
 43
0.0000001
 44
0.0000000001
 40
0.0
 40
0.0
 40
0.0
 40
0.0
 40
0.2511976629
 40
0.5014566469
 40
0.750949112
 40
1.0
 40
1.0
 40
1.0
 40
1.0
 10
55.083610799
 20
54.5239031819
 30
0.0
 10
54.9508507392
 20
54.9592738906
 30
0.0
 10
54.7091072863
 20
55.8357829859
 30
0.0
 10
54.4332941662
 20
57.1693753295
 30
0.0
 10
54.2598818216
 20
58.5164728225
 30
0.0
 10
54.2204721466
 20
59.4202918756
 30
0.0
 10
54.2204721466
 20
59.8715644698
 30
0.0
  0
SPLINE
  5
284
100
AcDbEntity
  8
0
100
AcDbSpline
 62
7
  6
BYLAYER
 70
0
 71
3
 72
11
 73
7
 74
0
 42
0.0000001
 43
0.0000001
 44
0.0000000001
 40
0.0
 40
0.0
 40
0.0
 40
0.0
 40
0.249047688
 40
0.4985365606
 40
0.7487968618
 40
1.0
 40
1.0
 40
1.0
 40
1.0
 10
47.2204721466
 20
47.8665644698
 30
0.0
 10
47.2204721466
 20
47.4152976438
 30
0.0
 10
47.1810797108
 20
46.5114880025
 30
0.0
 10
47.0075925988
 20
45.1644131153
 30
0.0
 10
46.7319209447
 20
43.8307852302
 30
0.0
 10
46.4900964566
 20
42.9542834094
 30
0.0
 10
46.3573334941
 20
42.5189031819
 30
0.0
  0
SPLINE
  5
285
100
AcDbEntity
  8
0
100
AcDbSpline
 62
7
  6
BYLAYER
 70
0
 71
3
 72
11
 73
7
 74
0
 42
0.0000001
 43
0.0000001
 44
0.0000000001
 40
0.0
 40
0.0
 40
0.0
 40
0.0
 40
0.2511976629
 40
0.5014566469
 40
0.750949112
 40
1.0
 40
1.0
 40
1.0
 40
1.0
 10
45.083610799
 20
54.5239031819
 30
0.0
 10
44.9508507392
 20
54.9592738906
 30
0.0
 10
44.7091072863
 20
55.8357829859
 30
0.0
 10
44.4332941662
 20
57.1693753295
 30
0.0
 10
44.2598818216
 20
58.5164728225
 30
0.0
 10
44.2204721466
 20
59.4202918756
 30
0.0
 10
44.2204721466
 20
59.8715644698
 30
0.0
  0
SPLINE
  5
286
100
AcDbEntity
  8
0
100
AcDbSpline
 62
7
  6
BYLAYER
 70
0
 71
3
 72
11
 73
7
 74
0
 42
0.0000001
 43
0.0000001
 44
0.0000000001
 40
0.0
 40
0.0
 40
0.0
 40
0.0
 40
0.249047688
 40
0.4985365606
 40
0.7487968618
 40
1.0
 40
1.0
 40
1.0
 40
1.0
 10
44.2204721466
 20
47.8665644698
 30
0.0
 10
44.2204721466
 20
48.3178312958
 30
0.0
 10
44.2598645823
 20
49.2216409371
 30
0.0
 10
44.4333516944
 20
50.5687158244
 30
0.0
 10
44.7090233484
 20
51.9023437095
 30
0.0
 10
44.9508478366
 20
52.7788455302
 30
0.0
 10
45.083610799
 20
53.2142257577
 30
0.0
  0
SPLINE
  5
287
100
AcDbEntity
  8
0
100
AcDbSpline
 62
7
  6
BYLAYER
 70
0
 71
3
 72
11
 73
7
 74
0
 42
0.0000001
 43
0.0000001
 44
0.0000000001
 40
0.0
 40
0.0
 40
0.0
 40
0.0
 40
0.2511976629
 40
0.5014566469
 40
0.750949112
 40
1.0
 40
1.0
 40
1.0
 40
1.0
 10
46.3573334941
 20
65.2192257577
 30
0.0
 10
46.490093554
 20
64.783855049
 30
0.0
 10
46.7318370068
 20
63.9073459538
 30
0.0
 10
47.007650127
 20
62.5737536102
 30
0.0
 10
47.1810624716
 20
61.2266561171
 30
0.0
 10
47.2204721466
 20
60.3228370641
 30
0.0
 10
47.2204721466
 20
59.8715644698
 30
0.0
  0
SPLINE
  5
288
100
AcDbEntity
  8
0
100
AcDbSpline
 62
7
  6
BYLAYER
 70
0
 71
3
 72
11
 73
7
 74
0
 42
0.0000001
 43
0.0000001
 44
0.0000000001
 40
0.0
 40
0.0
 40
0.0
 40
0.0
 40
0.249047688
 40
0.4985365606
 40
0.7487968618
 40
1.0
 40
1.0
 40
1.0
 40
1.0
 10
44.2204721466
 20
59.8715644698
 30
0.0
 10
44.2204721466
 20
60.3228312958
 30
0.0
 10
44.2598645823
 20
61.2266409371
 30
0.0
 10
44.4333516944
 20
62.5737158244
 30
0.0
 10
44.7090233484
 20
63.9073437095
 30
0.0
 10
44.9508478366
 20
64.7838455302
 30
0.0
 10
45.083610799
 20
65.2192257577
 30
0.0
  0
SPLINE
  5
289
100
AcDbEntity
  8
0
100
AcDbSpline
 62
7
  6
BYLAYER
 70
0
 71
3
 72
11
 73
7
 74
0
 42
0.0000001
 43
0.0000001
 44
0.0000000001
 40
0.0
 40
0.0
 40
0.0
 40
0.0
 40
0.2511976629
 40
0.5014566469
 40
0.750949112
 40
1.0
 40
1.0
 40
1.0
 40
1.0
 10
45.083610799
 20
42.5189031819
 30
0.0
 10
44.9508507392
 20
42.9542738906
 30
0.0
 10
44.7091072863
 20
43.8307829859
 30
0.0
 10
44.4332941662
 20
45.1643753295
 30
0.0
 10
44.2598818216
 20
46.5114728225
 30
0.0
 10
44.2204721466
 20
47.4152918756
 30
0.0
 10
44.2204721466
 20
47.8665644698
 30
0.0
  0
SPLINE
  5
28A
100
AcDbEntity
  8
0
100
AcDbSpline
 62
7
  6
BYLAYER
 70
0
 71
3
 72
11
 73
7
 74
0
 42
0.0000001
 43
0.0000001
 44
0.0000000001
 40
0.0
 40
0.0
 40
0.0
 40
0.0
 40
0.249047688
 40
0.4985365606
 40
0.7487968618
 40
1.0
 40
1.0
 40
1.0
 40
1.0
 10
47.2204721466
 20
59.8715644698
 30
0.0
 10
47.2204721466
 20
59.4202976438
 30
0.0
 10
47.1810797108
 20
58.5164880025
 30
0.0
 10
47.0075925988
 20
57.1694131153
 30
0.0
 10
46.7319209447
 20
55.8357852302
 30
0.0
 10
46.4900964566
 20
54.9592834094
 30
0.0
 10
46.3573334941
 20
54.5239031819
 30
0.0
  0
SPLINE
  5
28B
100
AcDbEntity
  8
0
100
AcDbSpline
 62
7
  6
BYLAYER
 70
0
 71
3
 72
11
 73
7
 74
0
 42
0.0000001
 43
0.0000001
 44
0.0000000001
 40
0.0
 40
0.0
 40
0.0
 40
0.0
 40
0.2511976629
 40
0.5014566469
 40
0.750949112
 40
1.0
 40
1.0
 40
1.0
 40
1.0
 10
46.3573334941
 20
53.2142257577
 30
0.0
 10
46.490093554
 20
52.778855049
 30
0.0
 10
46.7318370068
 20
51.9023459538
 30
0.0
 10
47.007650127
 20
50.5687536102
 30
0.0
 10
47.1810624716
 20
49.2216561171
 30
0.0
 10
47.2204721466
 20
48.3178370641
 30
0.0
 10
47.2204721466
 20
47.8665644698
 30
0.0
  0
ELLIPSE
  5
28C
100
AcDbEntity
  8
0
100
AcDbEllipse
 62
7
  6
BYLAYER
 10
15.0510165044
 20
53.8690644698
 30
0.0
 11
15.1279696969
 21
-0.0
 31
0.0
 40
0.3895859727
 41
-0.7327447057
 42
0.7327447057
  0
ELLIPSE
  5
28D
100
AcDbEntity
  8
0
100
AcDbEllipse
 62
7
  6
BYLAYER
 10
12.1298514478
 20
53.8690644698
 30
0.0
 11
23.1092170068
 21
-0.0
 31
0.0
 40
0.2159254218
 41
-1.1221127677
 42
-0.9109191084
  0
ELLIPSE
  5
28E
100
AcDbEntity
  8
0
100
AcDbEllipse
 62
7
  6
BYLAYER
 10
12.1298514478
 20
53.8690644698
 30
0.0
 11
23.1092170068
 21
-0.0
 31
0.0
 40
0.2159254218
 41
0.9109191084
 42
1.1221127677
  0
ELLIPSE
  5
28F
100
AcDbEntity
  8
0
100
AcDbEllipse
 62
7
  6
BYLAYER
 10
-31.0497212297
 20
53.8690644698
 30
0.0
 11
66.0524001135
 21
-0.0
 31
0.0
 40
0.1044247788
 41
-0.7358596444
 42
-0.6815249251
  0
ELLIPSE
  5
290
100
AcDbEntity
  8
0
100
AcDbEllipse
 62
7
  6
BYLAYER
 10
-31.0497212297
 20
53.8690644698
 30
0.0
 11
66.0524001135
 21
-0.0
 31
0.0
 40
0.1044247788
 41
0.6815249251
 42
0.7358596444
  0
ENDSEC
  0
SECTION
  2
OBJECTS
  0
DICTIONARY
  5
C
100
AcDbDictionary
280
0
281
1
  3
ACAD_GROUP
350
D
  3
ACAD_MLINESTYLE
350
17
  3
ACAD_LAYOUT
350
1A
  3
ACAD_PLOTSETTINGS
350
19
  3
ACAD_PLOTSTYLENAME
350
E
  0
DICTIONARY
  5
D
102
{ACAD_REACTORS
330
C
102
}
100
AcDbDictionary
280
0
281
1
  0
ACDBDICTIONARYWDFLT
  5
E
102
{ACAD_REACTORS
330
C
102
}
100
AcDbDictionary
281
1
  3
Normal
350
F
100
AcDbDictionaryWithDefault
340
F
  0
DICTIONARY
  5
17
102
{ACAD_REACTORS
330
C
102
}
100
AcDbDictionary
280
0
281
1
  3
Standard
350
18
  0
DICTIONARY
  5
19
102
{ACAD_REACTORS
330
C
102
}
100
AcDbDictionary
281
1
  0
DICTIONARY
  5
1A
102
{ACAD_REACTORS
330
C
102
}
100
AcDbDictionary
281
1
  3
Model
350
291
  3
Layout1
350
292
  0
ACDBPLACEHOLDER
  5
F
102
{ACAD_REACTORS
330
E
102
}
  0
MLINESTYLE
  5
18
102
{ACAD_REACTORS
330
17
102
}
100
AcDbMlineStyle
  2
STANDARD
 70
0
  3

 62
256
 51
90.0
 52
90.0
 71
2
 49
0.5
 62
256
  6
BYLAYER
 49
-0.5
 62
256
  6
BYLAYER
  0
LAYOUT
  5
291
102
{ACAD_REACTORS
330
1A
102
}
100
AcDbPlotSettings
  1

  2
none_device
  4

  6

 40
0.0
 41
0.0
 42
0.0
 43
0.0
 44
210.0
 45
297.0
 46
0.0
 47
0.0
 48
0.0
 49
0.0
140
0.0
141
0.0
142
1.0
143
1.0
 70
1024
 72
1
 73
0
 74
0
  7

 75
0
147
1.0
148
0.0
149
0.0
100
AcDbLayout
  1
Model
 70
0
 71
0
 10
0.0
 20
0.0
 11
210.0
 21
297.0
 12
0.0
 22
0.0
 32
0.0
 14
0.0
 24
0.0
 34
0.0
 15
0.0
 25
0.0
 35
0.0
146
0.0
 13
0.0
 23
0.0
 33
0.0
 16
1.0
 26
0.0
 36
0.0
 17
0.0
 27
1.0
 37
0.0
 76
0
330
210
345
0
346
0
  0
LAYOUT
  5
292
102
{ACAD_REACTORS
330
1A
102
}
100
AcDbPlotSettings
  1

  2
none_device
  4

  6

 40
0.0
 41
0.0
 42
0.0
 43
0.0
 44
210.0
 45
297.0
 46
0.0
 47
0.0
 48
0.0
 49
0.0
140
0.0
141
0.0
142
1.0
143
1.0
 70
0
 72
1
 73
0
 74
0
  7

 75
0
147
1.0
148
0.0
149
0.0
100
AcDbLayout
  1
Layout1
 70
0
 71
1
 10
0.0
 20
0.0
 11
210.0
 21
297.0
 12
0.0
 22
0.0
 32
0.0
 14
0.0
 24
0.0
 34
0.0
 15
0.0
 25
0.0
 35
0.0
146
0.0
 13
0.0
 23
0.0
 33
0.0
 16
1.0
 26
0.0
 36
0.0
 17
0.0
 27
1.0
 37
0.0
 76
0
330
211
345
0
346
0
  0
ENDSEC
  0
EOF
