999
DXF file: C:\Users\sesa63760\Dev\_Creo\CAD\MCADPP0003365_3D-CAD\drw0001_7.dxf
999
Pro/ENGINEER 2019471 by Parametric Technology Corporation
  0
SECTION
  2
HEADER
  9
$ACADVER
  1
AC1024
  9
$DWGCODEPAGE
  3
ANSI_1252
  9
$EXTMAX
 10
56.8828327034
 20
80.4485776805
 30
0.0
  9
$EXTMIN
 10
0.0
 20
0.0
 30
0.0
  9
$LIMMIN
 10
0.0
 20
0.0
  9
$LIMMAX
 10
56.8828327034
 20
80.4485776805
  9
$VIEWCTR
 10
28.4414163517
 20
40.2242888403
  9
$VIEWSIZE
 40
80.4485776805
  9
$CLAYER
  8
0
  9
$LTSCALE
 40
5.244055434
  9
$CELTYPE
  6
BYLAYER
  9
$DIMSCALE
 40
1.0
  9
$DIMASZ
 40
0.6771765798
  9
$DIMEXO
 40
1.0
  9
$DIMDLI
 40
3.6231655726
  9
$DIMEXE
 40
1.0
  9
$DIMCEN
 40
0.8581181619
  9
$DIMLFAC
 40
1.0
  9
$DIMBLK
  1
_FILLED
  9
$DIMALT
 70
0
  9
$DIMALTF
 40
0.0393700787
  9
$DIMTXT
 40
0.9480472117
  9
$DIMTOL
 70
1
  9
$DIMLIM
 70
0
  9
$DIMTFAC
 40
1.0
  9
$DIMTP
 40
0.01
  9
$DIMTM
 40
0.01
  9
$DIMGAP
 40
0.625
  9
$DIMDSEP
 70
46
  9
$AUNITS
 70
0
  9
$PDMODE
 70
3
  9
$PDSIZE
 40
0.3125
  9
$HANDSEED
  5
28F
  9
$TILEMODE
 70
1
  9
$MEASUREMENT
 70
1
  9
$INSUNITS
 70
4
  0
ENDSEC
  0
SECTION
  2
CLASSES
  0
CLASS
  1
ACDBDICTIONARYWDFLT
  2
AcDbDictionaryWithDefault
  3
AutoCAD 2000
 90
0
 91
1
280
0
281
0
  0
CLASS
  1
ACDBPLACEHOLDER
  2
AcDbPlaceHolder
  3
AutoCAD 2000
 90
0
 91
1
280
0
281
0
  0
CLASS
  1
LAYOUT
  2
AcDbLayout
  3
AutoCAD 2000
 90
0
 91
0
280
0
281
0
  0
ENDSEC
  0
SECTION
  2
TABLES
  0
TABLE
  2
VPORT
  5
8
100
AcDbSymbolTable
 70
2
  0
VPORT
  5
1F4
100
AcDbSymbolTableRecord
100
AcDbViewportTableRecord
  2
*ACTIVE
 70
0
 10
0.0
 20
0.0
 11
1.0
 21
1.0
 12
28.4414163517
 22
40.2242888403
 13
0.0
 23
0.0
 14
1.0
 24
1.0
 15
0.0
 25
0.0
 16
0.0
 26
0.0
 36
1.0
 17
0.0
 27
0.0
 37
0.0
 40
80.4485776805
 41
0.7070707071
 42
50.0
 43
0.0
 44
0.0
 50
0.0
 51
0.0
 71
0
 72
100
 73
1
 74
1
 75
0
 76
0
 77
0
 78
0
  0
ENDTAB
  0
TABLE
  2
LTYPE
  5
5
100
AcDbSymbolTable
 70
6
  0
LTYPE
  5
14
100
AcDbSymbolTableRecord
100
AcDbLinetypeTableRecord
  2
BYBLOCK
 70
0
  3

 72
65
 73
0
 40
0.0
  0
LTYPE
  5
15
100
AcDbSymbolTableRecord
100
AcDbLinetypeTableRecord
  2
BYLAYER
 70
0
  3

 72
65
 73
0
 40
0.0
  0
LTYPE
  5
16
100
AcDbSymbolTableRecord
100
AcDbLinetypeTableRecord
  2
CONTINUOUS
 70
64
  3
Solid line
 72
65
 73
0
 40
0.0
  0
LTYPE
  5
1F5
100
AcDbSymbolTableRecord
100
AcDbLinetypeTableRecord
  2
CENTER
 70
64
  3
____ _ ____ _ ____ _ ____ _ ____ _ ____ _ ____
 72
65
 73
4
 40
0.6
 49
0.375
 74
0
 49
-0.075
 74
0
 49
0.075
 74
0
 49
-0.075
 74
0
  0
LTYPE
  5
1F6
100
AcDbSymbolTableRecord
100
AcDbLinetypeTableRecord
  2
HIDDEN
 70
64
  3
- - - - - - - - - - - - - - - - - - - -
 72
65
 73
2
 40
0.2
 49
0.1
 74
0
 49
-0.1
 74
0
  0
LTYPE
  5
1F7
100
AcDbSymbolTableRecord
100
AcDbLinetypeTableRecord
  2
PHANTOM
 70
64
  3
_____ _ _ _____ _ _ _____ _ _ _____
 72
65
 73
6
 40
0.8
 49
0.45
 74
0
 49
-0.05
 74
0
 49
0.1
 74
0
 49
-0.05
 74
0
 49
0.1
 74
0
 49
-0.05
 74
0
  0
LTYPE
  5
1F8
100
AcDbSymbolTableRecord
100
AcDbLinetypeTableRecord
  2
DOT
 70
64
  3
. . . . . . . . . . . . . . . . . . . .
 72
65
 73
2
 40
0.2
 49
0.1
 74
0
 49
-0.1
 74
0
  0
LTYPE
  5
1F9
100
AcDbSymbolTableRecord
100
AcDbLinetypeTableRecord
  2
DASHED
 70
64
  3
- - - - - - - - - - - - - - - - - - - -
 72
65
 73
2
 40
0.2
 49
0.1
 74
0
 49
-0.1
 74
0
  0
ENDTAB
  0
TABLE
  2
LAYER
  5
2
100
AcDbSymbolTable
 70
36
  0
LAYER
  5
10
100
AcDbSymbolTableRecord
100
AcDbLayerTableRecord
  2
0
 70
0
 62
7
  6
CONTINUOUS
370
-3
390
F
  0
LAYER
  5
1FA
100
AcDbSymbolTableRecord
100
AcDbLayerTableRecord
  2
DEFAULT_1
 70
0
 62
7
  6
CENTER
370
-3
390
F
  0
LAYER
  5
1FB
100
AcDbSymbolTableRecord
100
AcDbLayerTableRecord
  2
DEFAULT_2
 70
0
 62
8
  6
HIDDEN
370
-3
390
F
  0
LAYER
  5
1FC
100
AcDbSymbolTableRecord
100
AcDbLayerTableRecord
  2
DEFAULT_3
 70
0
 62
7
  6
PHANTOM
370
-3
390
F
  0
LAYER
  5
1FD
100
AcDbSymbolTableRecord
100
AcDbLayerTableRecord
  2
00_COMPONENTS
 70
0
 62
7
  6
CONTINUOUS
370
-3
390
F
  0
LAYER
  5
1FE
100
AcDbSymbolTableRecord
100
AcDbLayerTableRecord
  2
01_1_DEFAULT_DATUMS
 70
0
 62
7
  6
CONTINUOUS
370
-3
390
F
  0
LAYER
  5
1FF
100
AcDbSymbolTableRecord
100
AcDbLayerTableRecord
  2
01_PLANES
 70
0
 62
7
  6
CONTINUOUS
370
-3
390
F
  0
LAYER
  5
200
100
AcDbSymbolTableRecord
100
AcDbLayerTableRecord
  2
02_COORD_SYS
 70
0
 62
7
  6
CONTINUOUS
370
-3
390
F
  0
LAYER
  5
201
100
AcDbSymbolTableRecord
100
AcDbLayerTableRecord
  2
03_AXES
 70
0
 62
7
  6
CONTINUOUS
370
-3
390
F
  0
LAYER
  5
202
100
AcDbSymbolTableRecord
100
AcDbLayerTableRecord
  2
04_POINTS
 70
0
 62
7
  6
CONTINUOUS
370
-3
390
F
  0
LAYER
  5
203
100
AcDbSymbolTableRecord
100
AcDbLayerTableRecord
  2
05_CURVES
 70
0
 62
7
  6
CONTINUOUS
370
-3
390
F
  0
LAYER
  5
204
100
AcDbSymbolTableRecord
100
AcDbLayerTableRecord
  2
06_SURFS
 70
0
 62
7
  6
CONTINUOUS
370
-3
390
F
  0
LAYER
  5
205
100
AcDbSymbolTableRecord
100
AcDbLayerTableRecord
  2
07_COSMETICS
 70
0
 62
7
  6
CONTINUOUS
370
-3
390
F
  0
LAYER
  5
206
100
AcDbSymbolTableRecord
100
AcDbLayerTableRecord
  2
10_NOTES
 70
0
 62
7
  6
CONTINUOUS
370
-3
390
F
  0
LAYER
  5
207
100
AcDbSymbolTableRecord
100
AcDbLayerTableRecord
  2
11_NOTES_PUB
 70
0
 62
7
  6
CONTINUOUS
370
-3
390
F
  0
LAYER
  5
208
100
AcDbSymbolTableRecord
100
AcDbLayerTableRecord
  2
13_REF_GTOL
 70
0
 62
7
  6
CONTINUOUS
370
-3
390
F
  0
LAYER
  5
209
100
AcDbSymbolTableRecord
100
AcDbLayerTableRecord
  2
16_MISC
 70
0
 62
7
  6
CONTINUOUS
370
-3
390
F
  0
LAYER
  5
20A
100
AcDbSymbolTableRecord
100
AcDbLayerTableRecord
  2
17_NO_PRINT
 70
0
 62
7
  6
CONTINUOUS
370
-3
390
F
  0
LAYER
  5
20B
100
AcDbSymbolTableRecord
100
AcDbLayerTableRecord
  2
18_DATUM_CAMS_JOINTS
 70
0
 62
7
  6
CONTINUOUS
370
-3
390
F
  0
LAYER
  5
20C
100
AcDbSymbolTableRecord
100
AcDbLayerTableRecord
  2
19_DATUM_FUNCTIONAL
 70
0
 62
7
  6
CONTINUOUS
370
-3
390
F
  0
LAYER
  5
20D
100
AcDbSymbolTableRecord
100
AcDbLayerTableRecord
  2
20_DATUM_KINEMATIC_SCHEME
 70
0
 62
7
  6
CONTINUOUS
370
-3
390
F
  0
ENDTAB
  0
TABLE
  2
STYLE
  5
3
100
AcDbSymbolTable
 70
1
  0
STYLE
  5
11
100
AcDbSymbolTableRecord
100
AcDbTextStyleTableRecord
  2
STANDARD
 70
0
 40
0.0
 41
0.8
 50
0.0
 71
0
 42
0.2
  3
txt
  4

  0
STYLE
  5
20E
100
AcDbSymbolTableRecord
100
AcDbTextStyleTableRecord
  2
TEXTSTYLE_1
 70
0
 40
0.0
 41
0.8
 50
0.0
 71
0
 42
0.2
  3
gdt
  4

  0
ENDTAB
  0
TABLE
  2
VIEW
  5
6
100
AcDbSymbolTable
 70
0
  0
ENDTAB
  0
TABLE
  2
UCS
  5
7
100
AcDbSymbolTable
 70
0
  0
ENDTAB
  0
TABLE
  2
APPID
  5
9
100
AcDbSymbolTable
 70
1
  0
APPID
  5
20F
100
AcDbSymbolTableRecord
100
AcDbRegAppTableRecord
  2
ACAD
 70
0
  0
ENDTAB
  0
TABLE
  2
BLOCK_RECORD
  5
1
100
AcDbSymbolTable
 70
0
  0
BLOCK_RECORD
  5
210
100
AcDbSymbolTableRecord
100
AcDbBlockTableRecord
  2
*Model_Space
  0
BLOCK_RECORD
  5
211
100
AcDbSymbolTableRecord
100
AcDbBlockTableRecord
  2
*Paper_Space
  0
BLOCK_RECORD
  5
212
100
AcDbSymbolTableRecord
100
AcDbBlockTableRecord
  2
_FILLED
  0
ENDTAB
  0
TABLE
  2
DIMSTYLE
  5
A
100
AcDbSymbolTable
 70
1
100
AcDbDimStyleTable
 71
0
  0
DIMSTYLE
105
213
100
AcDbSymbolTableRecord
100
AcDbDimStyleTableRecord
  2
STANDARD
 70
0
  3

  4

 40
1.0
 41
0.6771765798
 42
1.0
 43
0.38
 44
1.0
 45
0.0
 46
0.0
 47
0.01
 48
0.01
140
0.9480472117
141
0.09
142
0.0
143
25.4
144
1.0
145
0.0
146
1.0
147
0.625
 71
1
 72
0
 73
0
 74
0
 75
0
 76
0
 77
1
 78
8
 79
2
170
0
171
1
172
0
173
0
174
0
175
0
176
0
177
0
178
0
270
2
179
2
271
2
272
2
273
2
274
2
275
0
280
0
281
0
282
0
283
1
284
8
285
0
286
0
287
3
288
0
340
11
278
46
341
212
342
212
343
212
344
212
  0
ENDTAB
  0
ENDSEC
  0
SECTION
  2
BLOCKS
  0
BLOCK
  5
20
100
AcDbEntity
  8
0
100
AcDbBlockBegin
  2
*Model_Space
 70
0
 10
0.0
 20
0.0
 30
0.0
  3
*Model_Space
  1

  0
ENDBLK
  5
21
100
AcDbEntity
  8
0
100
AcDbBlockEnd
  0
BLOCK
  5
1C
100
AcDbEntity
  8
0
100
AcDbBlockBegin
  2
*Paper_Space
 70
0
 10
0.0
 20
0.0
 30
0.0
  3
*Paper_Space
  1

  0
ENDBLK
  5
1D
100
AcDbEntity
  8
0
100
AcDbBlockEnd
  0
BLOCK
  5
214
100
AcDbEntity
  8
0
100
AcDbBlockBegin
  2
_FILLED
 70
64
 10
0.0
 20
0.0
  3
_FILLED
  1

  0
SOLID
  5
215
100
AcDbEntity
  8
0
  6
BYBLOCK
 62
0
100
AcDbTrace
 10
0.0
 20
0.0
 11
-1.0
 21
0.25
 12
-1.0
 22
-0.25
 13
-1.0
 23
-0.25
  0
ENDBLK
  5
216
100
AcDbEntity
  8
0
  6
BYBLOCK
 62
0
100
AcDbBlockEnd
  0
ENDSEC
  0
SECTION
  2
ENTITIES
  0
LINE
  5
217
100
AcDbEntity
  8
0
100
AcDbLine
 62
7
  6
CONTINUOUS
 10
51.039884623
 20
12.0755828829
 11
6.039884623
 21
12.0755828829
  0
LINE
  5
218
100
AcDbEntity
  8
0
100
AcDbLine
 62
7
  6
CONTINUOUS
 10
7.429884623
 20
12.2368678829
 11
6.039884623
 21
12.2368678829
  0
LINE
  5
219
100
AcDbEntity
  8
0
100
AcDbLine
 62
7
  6
CONTINUOUS
 10
15.259884623
 20
12.2368678829
 11
16.069884623
 21
12.2368678829
  0
LINE
  5
21A
100
AcDbEntity
  8
0
100
AcDbLine
 62
7
  6
CONTINUOUS
 10
23.899884623
 20
12.2368678829
 11
24.729884623
 21
12.2368678829
  0
LINE
  5
21B
100
AcDbEntity
  8
0
100
AcDbLine
 62
7
  6
CONTINUOUS
 10
32.559884623
 20
12.2368678829
 11
33.369884623
 21
12.2368678829
  0
LINE
  5
21C
100
AcDbEntity
  8
0
100
AcDbLine
 62
7
  6
CONTINUOUS
 10
41.199884623
 20
12.2368678829
 11
42.029884623
 21
12.2368678829
  0
LINE
  5
21D
100
AcDbEntity
  8
0
100
AcDbLine
 62
7
  6
CONTINUOUS
 10
49.859884623
 20
12.2368678829
 11
51.039884623
 21
12.2368678829
  0
LINE
  5
21E
100
AcDbEntity
  8
0
100
AcDbLine
 62
7
  6
CONTINUOUS
 10
6.039884623
 20
12.0755828829
 11
6.039884623
 21
68.7668678829
  0
LINE
  5
21F
100
AcDbEntity
  8
0
100
AcDbLine
 62
7
  6
CONTINUOUS
 10
7.039884623
 20
46.4868678829
 11
7.0398874629
 21
61.4868678829
  0
LINE
  5
220
100
AcDbEntity
  8
0
100
AcDbLine
 62
7
  6
CONTINUOUS
 10
7.429884623
 20
12.2368678829
 11
7.429884623
 21
34.9559612099
  0
LINE
  5
221
100
AcDbEntity
  8
0
100
AcDbLine
 62
7
  6
CONTINUOUS
 10
7.439884623
 20
34.9559612099
 11
7.439884623
 21
46.4868678829
  0
LINE
  5
222
100
AcDbEntity
  8
0
100
AcDbLine
 62
7
  6
CONTINUOUS
 10
7.439884623
 20
61.4868678829
 11
7.439884623
 21
68.7668678829
  0
LINE
  5
223
100
AcDbEntity
  8
0
100
AcDbLine
 62
7
  6
CONTINUOUS
 10
7.579884623
 20
25.5606178829
 11
7.579884623
 21
20.0549208829
  0
LINE
  5
224
100
AcDbEntity
  8
0
100
AcDbLine
 62
7
  6
CONTINUOUS
 10
7.631532123
 20
23.9379778829
 11
7.631532123
 21
21.0096468829
  0
LINE
  5
225
100
AcDbEntity
  8
0
100
AcDbLine
 62
7
  6
CONTINUOUS
 10
7.579884623
 20
20.0549208829
 11
15.079884623
 21
20.0549208829
  0
LINE
  5
226
100
AcDbEntity
  8
0
100
AcDbLine
 62
7
  6
CONTINUOUS
 10
16.222884623
 20
20.0549208829
 11
23.722884623
 21
20.0549208829
  0
LINE
  5
227
100
AcDbEntity
  8
0
100
AcDbLine
 62
7
  6
CONTINUOUS
 10
24.865884623
 20
20.0549208829
 11
32.365884623
 21
20.0549208829
  0
LINE
  5
228
100
AcDbEntity
  8
0
100
AcDbLine
 62
7
  6
CONTINUOUS
 10
33.508884623
 20
20.0549208829
 11
41.008884623
 21
20.0549208829
  0
LINE
  5
229
100
AcDbEntity
  8
0
100
AcDbLine
 62
7
  6
CONTINUOUS
 10
42.189884623
 20
20.0549208829
 11
49.689884623
 21
20.0549208829
  0
LINE
  5
22A
100
AcDbEntity
  8
0
100
AcDbLine
 62
7
  6
CONTINUOUS
 10
7.631532123
 20
21.0096468829
 11
15.035006123
 21
21.0096468829
  0
LINE
  5
22B
100
AcDbEntity
  8
0
100
AcDbLine
 62
7
  6
CONTINUOUS
 10
16.274532123
 20
21.0096468829
 11
23.678006123
 21
21.0096468829
  0
LINE
  5
22C
100
AcDbEntity
  8
0
100
AcDbLine
 62
7
  6
CONTINUOUS
 10
24.917532123
 20
21.0096468829
 11
32.321006123
 21
21.0096468829
  0
LINE
  5
22D
100
AcDbEntity
  8
0
100
AcDbLine
 62
7
  6
CONTINUOUS
 10
33.560532123
 20
21.0096468829
 11
40.964006123
 21
21.0096468829
  0
LINE
  5
22E
100
AcDbEntity
  8
0
100
AcDbLine
 62
7
  6
CONTINUOUS
 10
42.203532123
 20
21.0096468829
 11
49.607006123
 21
21.0096468829
  0
LINE
  5
22F
100
AcDbEntity
  8
0
100
AcDbLine
 62
7
  6
CONTINUOUS
 10
10.0092021384
 20
61.5377370281
 11
10.0092030563
 21
61.7134044531
  0
LINE
  5
230
100
AcDbEntity
  8
0
100
AcDbLine
 62
7
  6
CONTINUOUS
 10
12.2992419231
 20
61.71340507
 11
12.2992429823
 21
61.5377369421
  0
LINE
  5
231
100
AcDbEntity
  8
0
100
AcDbLine
 62
7
  6
CONTINUOUS
 10
13.9216973332
 20
61.4847576581
 11
13.9216973332
 21
46.4868678829
  0
LINE
  5
232
100
AcDbEntity
  8
0
100
AcDbLine
 62
7
  6
CONTINUOUS
 10
49.607006123
 20
23.9379778829
 11
42.203532123
 21
23.9379778829
  0
LINE
  5
233
100
AcDbEntity
  8
0
100
AcDbLine
 62
7
  6
CONTINUOUS
 10
40.964006123
 20
23.9379778829
 11
33.560532123
 21
23.9379778829
  0
LINE
  5
234
100
AcDbEntity
  8
0
100
AcDbLine
 62
7
  6
CONTINUOUS
 10
32.321006123
 20
23.9379778829
 11
24.917532123
 21
23.9379778829
  0
LINE
  5
235
100
AcDbEntity
  8
0
100
AcDbLine
 62
7
  6
CONTINUOUS
 10
23.678006123
 20
23.9379778829
 11
16.274532123
 21
23.9379778829
  0
LINE
  5
236
100
AcDbEntity
  8
0
100
AcDbLine
 62
7
  6
CONTINUOUS
 10
15.035006123
 20
23.9379778829
 11
7.631532123
 21
23.9379778829
  0
LINE
  5
237
100
AcDbEntity
  8
0
100
AcDbLine
 62
7
  6
CONTINUOUS
 10
41.008884623
 20
25.5606178829
 11
33.508884623
 21
25.5606178829
  0
LINE
  5
238
100
AcDbEntity
  8
0
100
AcDbLine
 62
7
  6
CONTINUOUS
 10
32.365884623
 20
25.5606178829
 11
24.865884623
 21
25.5606178829
  0
LINE
  5
239
100
AcDbEntity
  8
0
100
AcDbLine
 62
7
  6
CONTINUOUS
 10
23.722884623
 20
25.5606178829
 11
16.222884623
 21
25.5606178829
  0
LINE
  5
23A
100
AcDbEntity
  8
0
100
AcDbLine
 62
7
  6
CONTINUOUS
 10
15.079884623
 20
25.5606178829
 11
7.579884623
 21
25.5606178829
  0
LINE
  5
23B
100
AcDbEntity
  8
0
100
AcDbLine
 62
7
  6
CONTINUOUS
 10
49.689884623
 20
25.7668678829
 11
42.189884623
 21
25.7668678829
  0
LINE
  5
23C
100
AcDbEntity
  8
0
100
AcDbLine
 62
7
  6
CONTINUOUS
 10
15.035006123
 20
21.0096468829
 11
15.035006123
 21
23.9379778829
  0
LINE
  5
23D
100
AcDbEntity
  8
0
100
AcDbLine
 62
7
  6
CONTINUOUS
 10
15.079884623
 20
20.0549208829
 11
15.079884623
 21
25.5606178829
  0
LINE
  5
23E
100
AcDbEntity
  8
0
100
AcDbLine
 62
7
  6
CONTINUOUS
 10
15.259884623
 20
35.1562294721
 11
15.259884623
 21
12.2368678829
  0
LINE
  5
23F
100
AcDbEntity
  8
0
100
AcDbLine
 62
7
  6
CONTINUOUS
 10
16.069884623
 20
12.2368678829
 11
16.069884623
 21
35.1562294721
  0
LINE
  5
240
100
AcDbEntity
  8
0
100
AcDbLine
 62
7
  6
CONTINUOUS
 10
16.222884623
 20
25.5606178829
 11
16.222884623
 21
20.0549208829
  0
LINE
  5
241
100
AcDbEntity
  8
0
100
AcDbLine
 62
7
  6
CONTINUOUS
 10
16.274532123
 20
23.9379778829
 11
16.274532123
 21
21.0096468829
  0
LINE
  5
242
100
AcDbEntity
  8
0
100
AcDbLine
 62
7
  6
CONTINUOUS
 10
23.678006123
 20
21.0096468829
 11
23.678006123
 21
23.9379778829
  0
LINE
  5
243
100
AcDbEntity
  8
0
100
AcDbLine
 62
7
  6
CONTINUOUS
 10
23.722884623
 20
20.0549208829
 11
23.722884623
 21
25.5606178829
  0
LINE
  5
244
100
AcDbEntity
  8
0
100
AcDbLine
 62
7
  6
CONTINUOUS
 10
23.899884623
 20
35.1562294721
 11
23.899884623
 21
12.2368678829
  0
LINE
  5
245
100
AcDbEntity
  8
0
100
AcDbLine
 62
7
  6
CONTINUOUS
 10
7.429884623
 20
34.8322345056
 11
6.039884623
 21
34.8322345056
  0
LINE
  5
246
100
AcDbEntity
  8
0
100
AcDbLine
 62
7
  6
CONTINUOUS
 10
49.859884623
 20
34.8322345056
 11
51.039884623
 21
34.8322345056
  0
LINE
  5
247
100
AcDbEntity
  8
0
100
AcDbLine
 62
7
  6
CONTINUOUS
 10
7.439884623
 20
34.9559612099
 11
7.429884623
 21
34.9559612099
  0
LINE
  5
248
100
AcDbEntity
  8
0
100
AcDbLine
 62
7
  6
CONTINUOUS
 10
49.639884623
 20
34.9559612099
 11
49.859884623
 21
34.9559612099
  0
LINE
  5
249
100
AcDbEntity
  8
0
100
AcDbLine
 62
7
  6
CONTINUOUS
 10
15.259884623
 20
35.0221404884
 11
16.069884623
 21
35.0221404884
  0
LINE
  5
24A
100
AcDbEntity
  8
0
100
AcDbLine
 62
7
  6
CONTINUOUS
 10
23.899884623
 20
35.0221404884
 11
24.729884623
 21
35.0221404884
  0
LINE
  5
24B
100
AcDbEntity
  8
0
100
AcDbLine
 62
7
  6
CONTINUOUS
 10
32.559884623
 20
35.0221404884
 11
33.369884623
 21
35.0221404884
  0
LINE
  5
24C
100
AcDbEntity
  8
0
100
AcDbLine
 62
7
  6
CONTINUOUS
 10
41.199884623
 20
35.0221404884
 11
42.029884623
 21
35.0221404884
  0
LINE
  5
24D
100
AcDbEntity
  8
0
100
AcDbLine
 62
7
  6
CONTINUOUS
 10
7.439884623
 20
35.0287220273
 11
6.039884623
 21
35.0287220273
  0
LINE
  5
24E
100
AcDbEntity
  8
0
100
AcDbLine
 62
7
  6
CONTINUOUS
 10
49.639884623
 20
35.0287220273
 11
51.039884623
 21
35.0287220273
  0
LINE
  5
24F
100
AcDbEntity
  8
0
100
AcDbLine
 62
7
  6
CONTINUOUS
 10
7.439884623
 20
35.1562294721
 11
15.259884623
 21
35.1562294721
  0
LINE
  5
250
100
AcDbEntity
  8
0
100
AcDbLine
 62
7
  6
CONTINUOUS
 10
16.069884623
 20
35.1562294721
 11
23.899884623
 21
35.1562294721
  0
LINE
  5
251
100
AcDbEntity
  8
0
100
AcDbLine
 62
7
  6
CONTINUOUS
 10
24.729884623
 20
35.1562294721
 11
32.559884623
 21
35.1562294721
  0
LINE
  5
252
100
AcDbEntity
  8
0
100
AcDbLine
 62
7
  6
CONTINUOUS
 10
33.369884623
 20
35.1562294721
 11
41.199884623
 21
35.1562294721
  0
LINE
  5
253
100
AcDbEntity
  8
0
100
AcDbLine
 62
7
  6
CONTINUOUS
 10
42.029884623
 20
35.1562294721
 11
49.639884623
 21
35.1562294721
  0
LINE
  5
254
100
AcDbEntity
  8
0
100
AcDbLine
 62
7
  6
CONTINUOUS
 10
7.439884623
 20
35.2186280101
 11
49.639884623
 21
35.2186280101
  0
LINE
  5
255
100
AcDbEntity
  8
0
100
AcDbLine
 62
7
  6
CONTINUOUS
 10
24.729884623
 20
12.2368678829
 11
24.729884623
 21
35.1562294721
  0
LINE
  5
256
100
AcDbEntity
  8
0
100
AcDbLine
 62
7
  6
CONTINUOUS
 10
24.865884623
 20
25.5606178829
 11
24.865884623
 21
20.0549208829
  0
LINE
  5
257
100
AcDbEntity
  8
0
100
AcDbLine
 62
7
  6
CONTINUOUS
 10
24.917532123
 20
23.9379778829
 11
24.917532123
 21
21.0096468829
  0
LINE
  5
258
100
AcDbEntity
  8
0
100
AcDbLine
 62
7
  6
CONTINUOUS
 10
32.321006123
 20
21.0096468829
 11
32.321006123
 21
23.9379778829
  0
LINE
  5
259
100
AcDbEntity
  8
0
100
AcDbLine
 62
7
  6
CONTINUOUS
 10
32.365884623
 20
20.0549208829
 11
32.365884623
 21
25.5606178829
  0
LINE
  5
25A
100
AcDbEntity
  8
0
100
AcDbLine
 62
7
  6
CONTINUOUS
 10
32.559884623
 20
35.1562294721
 11
32.559884623
 21
12.2368678829
  0
LINE
  5
25B
100
AcDbEntity
  8
0
100
AcDbLine
 62
7
  6
CONTINUOUS
 10
33.369884623
 20
12.2368678829
 11
33.369884623
 21
35.1562294721
  0
LINE
  5
25C
100
AcDbEntity
  8
0
100
AcDbLine
 62
7
  6
CONTINUOUS
 10
33.508884623
 20
25.5606178829
 11
33.508884623
 21
20.0549208829
  0
LINE
  5
25D
100
AcDbEntity
  8
0
100
AcDbLine
 62
7
  6
CONTINUOUS
 10
33.560532123
 20
23.9379778829
 11
33.560532123
 21
21.0096468829
  0
LINE
  5
25E
100
AcDbEntity
  8
0
100
AcDbLine
 62
7
  6
CONTINUOUS
 10
7.039884623
 20
46.4868678829
 11
13.9216973332
 21
46.4868678829
  0
LINE
  5
25F
100
AcDbEntity
  8
0
100
AcDbLine
 62
7
  6
CONTINUOUS
 10
43.1580719129
 20
46.4868678829
 11
50.039884623
 21
46.4868678829
  0
LINE
  5
260
100
AcDbEntity
  8
0
100
AcDbLine
 62
7
  6
CONTINUOUS
 10
40.964006123
 20
21.0096468829
 11
40.964006123
 21
23.9379778829
  0
LINE
  5
261
100
AcDbEntity
  8
0
100
AcDbLine
 62
7
  6
CONTINUOUS
 10
41.008884623
 20
20.0549208829
 11
41.008884623
 21
25.5606178829
  0
LINE
  5
262
100
AcDbEntity
  8
0
100
AcDbLine
 62
7
  6
CONTINUOUS
 10
41.199884623
 20
35.1562294721
 11
41.199884623
 21
12.2368678829
  0
LINE
  5
263
100
AcDbEntity
  8
0
100
AcDbLine
 62
7
  6
CONTINUOUS
 10
42.029884623
 20
12.2368678829
 11
42.029884623
 21
35.1562294721
  0
LINE
  5
264
100
AcDbEntity
  8
0
100
AcDbLine
 62
7
  6
CONTINUOUS
 10
42.189884623
 20
25.7668678829
 11
42.189884623
 21
20.0549208829
  0
LINE
  5
265
100
AcDbEntity
  8
0
100
AcDbLine
 62
7
  6
CONTINUOUS
 10
42.203532123
 20
23.9379778829
 11
42.203532123
 21
21.0096468829
  0
LINE
  5
266
100
AcDbEntity
  8
0
100
AcDbLine
 62
7
  6
CONTINUOUS
 10
43.1580719129
 20
61.4847576581
 11
43.1580719129
 21
46.4868678829
  0
LINE
  5
267
100
AcDbEntity
  8
0
100
AcDbLine
 62
7
  6
CONTINUOUS
 10
43.466062211
 20
61.5410699339
 11
43.466062211
 21
61.6797514318
  0
LINE
  5
268
100
AcDbEntity
  8
0
100
AcDbLine
 62
7
  6
CONTINUOUS
 10
46.856062211
 20
61.6797514318
 11
46.856062211
 21
61.5410699339
  0
LINE
  5
269
100
AcDbEntity
  8
0
100
AcDbLine
 62
7
  6
CONTINUOUS
 10
49.607006123
 20
21.0096468829
 11
49.607006123
 21
23.9379778829
  0
LINE
  5
26A
100
AcDbEntity
  8
0
100
AcDbLine
 62
7
  6
CONTINUOUS
 10
49.639884623
 20
34.9559612099
 11
49.639884623
 21
46.4868678829
  0
LINE
  5
26B
100
AcDbEntity
  8
0
100
AcDbLine
 62
7
  6
CONTINUOUS
 10
49.639884623
 20
61.4844586168
 11
49.639884623
 21
68.7668678829
  0
LINE
  5
26C
100
AcDbEntity
  8
0
100
AcDbLine
 62
7
  6
CONTINUOUS
 10
49.689884623
 20
20.0549208829
 11
49.689884623
 21
25.7668678829
  0
LINE
  5
26D
100
AcDbEntity
  8
0
100
AcDbLine
 62
7
  6
CONTINUOUS
 10
49.859884623
 20
34.9559612099
 11
49.859884623
 21
12.2368678829
  0
LINE
  5
26E
100
AcDbEntity
  8
0
100
AcDbLine
 62
7
  6
CONTINUOUS
 10
50.039884623
 20
61.4868678829
 11
50.039884623
 21
46.4868678829
  0
LINE
  5
26F
100
AcDbEntity
  8
0
100
AcDbLine
 62
7
  6
CONTINUOUS
 10
7.439884623
 20
61.482053579
 11
49.639884623
 21
61.482053579
  0
LINE
  5
270
100
AcDbEntity
  8
0
100
AcDbLine
 62
7
  6
CONTINUOUS
 10
7.439884623
 20
61.4868678829
 11
7.0398874629
 21
61.4868678829
  0
LINE
  5
271
100
AcDbEntity
  8
0
100
AcDbLine
 62
7
  6
CONTINUOUS
 10
49.639884623
 20
61.4868678829
 11
50.039884623
 21
61.4868678829
  0
LINE
  5
272
100
AcDbEntity
  8
0
100
AcDbLine
 62
7
  6
CONTINUOUS
 10
12.2992429823
 20
61.5377369421
 11
10.0092021384
 21
61.5377370281
  0
LINE
  5
273
100
AcDbEntity
  8
0
100
AcDbLine
 62
7
  6
CONTINUOUS
 10
7.439884623
 20
61.6720316236
 11
6.039884623
 21
61.6720316236
  0
LINE
  5
274
100
AcDbEntity
  8
0
100
AcDbLine
 62
7
  6
CONTINUOUS
 10
49.639884623
 20
61.6720316236
 11
51.039884623
 21
61.6720316236
  0
LINE
  5
275
100
AcDbEntity
  8
0
100
AcDbLine
 62
7
  6
CONTINUOUS
 10
10.0092021384
 20
61.713404984
 11
12.2992429823
 21
61.7134050701
  0
LINE
  5
276
100
AcDbEntity
  8
0
100
AcDbLine
 62
7
  6
CONTINUOUS
 10
7.439884623
 20
61.8308563625
 11
49.639884623
 21
61.8308563625
  0
LINE
  5
277
100
AcDbEntity
  8
0
100
AcDbLine
 62
7
  6
CONTINUOUS
 10
7.439884623
 20
62.0208471032
 11
6.039884623
 21
62.0208471032
  0
LINE
  5
278
100
AcDbEntity
  8
0
100
AcDbLine
 62
7
  6
CONTINUOUS
 10
49.639884623
 20
62.0208471032
 11
51.039884623
 21
62.0208471032
  0
LINE
  5
279
100
AcDbEntity
  8
0
100
AcDbLine
 62
7
  6
CONTINUOUS
 10
51.039884623
 20
12.0755828829
 11
51.039884623
 21
68.7668678829
  0
LINE
  5
27A
100
AcDbEntity
  8
0
100
AcDbLine
 62
7
  6
CONTINUOUS
 10
6.039884623
 20
68.7668678829
 11
51.039884623
 21
68.7668678829
  0
SPLINE
  5
27B
100
AcDbEntity
  8
0
100
AcDbSpline
 62
7
  6
CONTINUOUS
 70
0
 71
3
 72
19
 73
15
 74
0
 42
0.0000001
 43
0.0000001
 44
0.0000000001
 40
0.0
 40
0.0
 40
0.0
 40
0.0
 40
0.0081400888
 40
0.0144352913
 40
0.0225455968
 40
0.044534304
 40
0.0744344789
 40
0.1122926807
 40
0.1580056689
 40
0.2723659213
 40
0.4160478528
 40
0.5870153138
 40
0.7828260393
 40
1.0
 40
1.0
 40
1.0
 40
1.0
 10
9.0898343518
 20
61.625571016
 30
0.0
 10
9.0898343567
 20
61.6280925445
 30
0.0
 10
9.0931990666
 20
61.6320807777
 30
0.0
 10
9.0990162797
 20
61.6356414267
 30
0.0
 10
9.1093372486
 20
61.6404204583
 30
0.0
 10
9.1271189753
 20
61.6458411553
 30
0.0
 10
9.1542500329
 20
61.6520199296
 30
0.0
 10
9.1888752793
 20
61.6581028676
 30
0.0
 10
9.2495767552
 20
61.6667954552
 30
0.0
 10
9.3431615351
 20
61.6767860117
 30
0.0
 10
9.4756282116
 20
61.687498697
 30
0.0
 10
9.6334507996
 20
61.6973724261
 30
0.0
 10
9.814126657
 20
61.7062246416
 30
0.0
 10
9.9419642954
 20
61.7111209749
 30
0.0
 10
10.009198791
 20
61.7134044531
 30
0.0
  0
SPLINE
  5
27C
100
AcDbEntity
  8
0
100
AcDbSpline
 62
7
  6
CONTINUOUS
 70
0
 71
3
 72
21
 73
17
 74
0
 42
0.0000001
 43
0.0000001
 44
0.0000000001
 40
0.0
 40
0.0
 40
0.0
 40
0.0
 40
0.0027771869
 40
0.0071668702
 40
0.0136551297
 40
0.0223684512
 40
0.0465846384
 40
0.0797944133
 40
0.1217299511
 40
0.1720678834
 40
0.230340268
 40
0.2959866018
 40
0.4468907478
 40
0.6189754489
 40
0.8058290816
 40
1.0
 40
1.0
 40
1.0
 40
1.0
 10
18.3897506604
 20
61.62557104
 30
0.0
 10
18.3897506698
 20
61.626966644
 30
0.0
 10
18.3919120185
 20
61.6303383899
 30
0.0
 10
18.3978721219
 20
61.6337388567
 30
0.0
 10
18.4070430362
 20
61.6374208859
 30
0.0
 10
18.4261211784
 20
61.6428006667
 30
0.0
 10
18.4588145199
 20
61.6490284398
 30
0.0
 10
18.5082763648
 20
61.6558756984
 30
0.0
 10
18.5709943413
 20
61.6625227225
 30
0.0
 10
18.6463828765
 20
61.6688741187
 30
0.0
 10
18.7337502027
 20
61.674849651
 30
0.0
 10
18.8716409847
 20
61.6825856362
 30
0.0
 10
19.0667880219
 20
61.6905470541
 30
0.0
 10
19.3229096976
 20
61.6974243402
 30
0.0
 10
19.6008337013
 20
61.7016644452
 30
0.0
 10
19.7923091665
 20
61.70262237
 30
0.0
 10
19.889884777
 20
61.70262237
 30
0.0
  0
SPLINE
  5
27D
100
AcDbEntity
  8
0
100
AcDbSpline
 62
7
  6
CONTINUOUS
 70
0
 71
3
 72
21
 73
17
 74
0
 42
0.0000001
 43
0.0000001
 44
0.0000000001
 40
0.0
 40
0.0
 40
0.0
 40
0.0
 40
0.0027771869
 40
0.0071668702
 40
0.0136551297
 40
0.0223684512
 40
0.0465846384
 40
0.0797944133
 40
0.1217299511
 40
0.1720678834
 40
0.230340268
 40
0.2959866018
 40
0.4468907478
 40
0.6189754489
 40
0.8058290816
 40
1.0
 40
1.0
 40
1.0
 40
1.0
 10
27.0397506604
 20
61.62557104
 30
0.0
 10
27.0397506698
 20
61.626966644
 30
0.0
 10
27.0419120185
 20
61.6303383899
 30
0.0
 10
27.0478721219
 20
61.6337388567
 30
0.0
 10
27.0570430362
 20
61.6374208859
 30
0.0
 10
27.0761211784
 20
61.6428006667
 30
0.0
 10
27.1088145199
 20
61.6490284398
 30
0.0
 10
27.1582763647
 20
61.6558756984
 30
0.0
 10
27.2209943413
 20
61.6625227225
 30
0.0
 10
27.2963828765
 20
61.6688741187
 30
0.0
 10
27.3837502027
 20
61.674849651
 30
0.0
 10
27.5216409847
 20
61.6825856362
 30
0.0
 10
27.7167880219
 20
61.6905470541
 30
0.0
 10
27.9729096976
 20
61.6974243402
 30
0.0
 10
28.2508337013
 20
61.7016644452
 30
0.0
 10
28.4423091665
 20
61.70262237
 30
0.0
 10
28.539884777
 20
61.70262237
 30
0.0
  0
SPLINE
  5
27E
100
AcDbEntity
  8
0
100
AcDbSpline
 62
7
  6
CONTINUOUS
 70
0
 71
3
 72
21
 73
17
 74
0
 42
0.0000001
 43
0.0000001
 44
0.0000000001
 40
0.0
 40
0.0
 40
0.0
 40
0.0
 40
0.0027771869
 40
0.0071668702
 40
0.0136551297
 40
0.0223684512
 40
0.0465846384
 40
0.0797944133
 40
0.1217299511
 40
0.1720678835
 40
0.230340268
 40
0.2959866018
 40
0.4468907479
 40
0.6189754489
 40
0.8058290816
 40
1.0
 40
1.0
 40
1.0
 40
1.0
 10
35.7059282483
 20
61.62557104
 30
0.0
 10
35.7059282578
 20
61.626966644
 30
0.0
 10
35.7080896064
 20
61.6303383899
 30
0.0
 10
35.7140497099
 20
61.6337388567
 30
0.0
 10
35.7232206242
 20
61.6374208859
 30
0.0
 10
35.7422987665
 20
61.6428006667
 30
0.0
 10
35.7749921079
 20
61.6490284398
 30
0.0
 10
35.8244539528
 20
61.6558756984
 30
0.0
 10
35.8871719294
 20
61.6625227225
 30
0.0
 10
35.9625604645
 20
61.6688741187
 30
0.0
 10
36.0499277907
 20
61.674849651
 30
0.0
 10
36.1878185727
 20
61.6825856362
 30
0.0
 10
36.3829656099
 20
61.6905470541
 30
0.0
 10
36.6390872856
 20
61.6974243402
 30
0.0
 10
36.9170112893
 20
61.7016644452
 30
0.0
 10
37.1084867545
 20
61.70262237
 30
0.0
 10
37.2060623651
 20
61.70262237
 30
0.0
  0
SPLINE
  5
27F
100
AcDbEntity
  8
0
100
AcDbSpline
 62
7
  6
CONTINUOUS
 70
0
 71
3
 72
15
 73
11
 74
0
 42
0.0000001
 43
0.0000001
 44
0.0000000001
 40
0.0
 40
0.0
 40
0.0
 40
0.0
 40
0.0962980966
 40
0.2166685855
 40
0.3539665983
 40
0.499999997
 40
0.6460333961
 40
0.7833314101
 40
0.9037019011
 40
1.0
 40
1.0
 40
1.0
 40
1.0
 10
43.466062211
 20
61.6797515489
 30
0.0
 10
43.5746207681
 20
61.6880777377
 30
0.0
 10
43.8192614333
 20
61.7016396787
 30
0.0
 10
44.2192356878
 20
61.7155331719
 30
0.0
 10
44.6756073888
 20
61.7242577183
 30
0.0
 10
45.1610622013
 20
61.7272461594
 30
0.0
 10
45.6465170151
 20
61.7242577184
 30
0.0
 10
46.1028887203
 20
61.7155331722
 30
0.0
 10
46.502862981
 20
61.7016396787
 30
0.0
 10
46.7475036514
 20
61.6880777379
 30
0.0
 10
46.856062211
 20
61.6797515489
 30
0.0
  0
SPLINE
  5
280
100
AcDbEntity
  8
0
100
AcDbSpline
 62
7
  6
CONTINUOUS
 70
0
 71
3
 72
19
 73
15
 74
0
 42
0.0000001
 43
0.0000001
 44
0.0000000001
 40
0.0
 40
0.0
 40
0.0
 40
0.0
 40
0.2177501677
 40
0.4137376896
 40
0.5846321129
 40
0.7281012375
 40
0.8422049854
 40
0.8877980401
 40
0.9255546793
 40
0.9553817254
 40
0.9773351298
 40
0.9854466214
 40
0.9917595133
 40
1.0
 40
1.0
 40
1.0
 40
1.0
 10
12.2992487867
 20
61.7134044533
 30
0.0
 10
12.3649605561
 20
61.711067041
 30
0.0
 10
12.4897985744
 20
61.7060818241
 30
0.0
 10
12.6661148425
 20
61.6971345479
 30
0.0
 10
12.8199120737
 20
61.6872153964
 30
0.0
 10
12.9488566523
 20
61.6764995932
 30
0.0
 10
13.0398827557
 20
61.6665357044
 30
0.0
 10
13.0988839996
 20
61.6578834884
 30
0.0
 10
13.1325267114
 20
61.651833713
 30
0.0
 10
13.1588816021
 20
61.645694761
 30
0.0
 10
13.1761547076
 20
61.640306429
 30
0.0
 10
13.1861677716
 20
61.6355656173
 30
0.0
 10
13.1918404396
 20
61.6320117528
 30
0.0
 10
13.195076049
 20
61.6280593597
 30
0.0
 10
13.1950760491
 20
61.6255710061
 30
0.0
  0
SPLINE
  5
281
100
AcDbEntity
  8
0
100
AcDbSpline
 62
7
  6
CONTINUOUS
 70
0
 71
3
 72
21
 73
17
 74
0
 42
0.0000001
 43
0.0000001
 44
0.0000000001
 40
0.0
 40
0.0
 40
0.0
 40
0.0
 40
0.1941708799
 40
0.3810244477
 40
0.5531091664
 40
0.7040133456
 40
0.7696596934
 40
0.8279320966
 40
0.878270035
 40
0.9202055797
 40
0.9534153632
 40
0.9776315564
 40
0.9863448801
 40
0.992833139
 40
0.9972228181
 40
1.0
 40
1.0
 40
1.0
 40
1.0
 10
19.889884777
 20
61.70262237
 30
0.0
 10
19.9874603508
 20
61.70262237
 30
0.0
 10
20.1789357296
 20
61.70166444
 30
0.0
 10
20.4568596402
 20
61.6974243308
 30
0.0
 10
20.7129812628
 20
61.6905470477
 30
0.0
 10
20.9081282976
 20
61.6825856302
 30
0.0
 10
21.0460190877
 20
61.6748496425
 30
0.0
 10
21.1333864177
 20
61.6688741113
 30
0.0
 10
21.2087749551
 20
61.6625227131
 30
0.0
 10
21.2714929309
 20
61.6558756873
 30
0.0
 10
21.3209547777
 20
61.649028428
 30
0.0
 10
21.3536481207
 20
61.642800652
 30
0.0
 10
21.372726264
 20
61.6374208718
 30
0.0
 10
21.3818971739
 20
61.6337388416
 30
0.0
 10
21.3878572735
 20
61.6303383784
 30
0.0
 10
21.390018609
 20
61.6269666258
 30
0.0
 10
21.3900186094
 20
61.6255710246
 30
0.0
  0
SPLINE
  5
282
100
AcDbEntity
  8
0
100
AcDbSpline
 62
7
  6
CONTINUOUS
 70
0
 71
3
 72
21
 73
17
 74
0
 42
0.0000001
 43
0.0000001
 44
0.0000000001
 40
0.0
 40
0.0
 40
0.0
 40
0.0
 40
0.1941708799
 40
0.3810244477
 40
0.5531091664
 40
0.7040133455
 40
0.7696596934
 40
0.8279320966
 40
0.878270035
 40
0.9202055797
 40
0.9534153632
 40
0.9776315564
 40
0.9863448801
 40
0.992833139
 40
0.9972228181
 40
1.0
 40
1.0
 40
1.0
 40
1.0
 10
28.539884777
 20
61.70262237
 30
0.0
 10
28.6374603507
 20
61.70262237
 30
0.0
 10
28.8289357296
 20
61.70166444
 30
0.0
 10
29.1068596402
 20
61.6974243308
 30
0.0
 10
29.3629812628
 20
61.6905470477
 30
0.0
 10
29.5581282975
 20
61.6825856302
 30
0.0
 10
29.6960190877
 20
61.6748496425
 30
0.0
 10
29.7833864177
 20
61.6688741113
 30
0.0
 10
29.8587749551
 20
61.6625227131
 30
0.0
 10
29.9214929309
 20
61.6558756873
 30
0.0
 10
29.9709547777
 20
61.649028428
 30
0.0
 10
30.0036481207
 20
61.642800652
 30
0.0
 10
30.022726264
 20
61.6374208718
 30
0.0
 10
30.0318971739
 20
61.6337388416
 30
0.0
 10
30.0378572735
 20
61.6303383784
 30
0.0
 10
30.040018609
 20
61.6269666258
 30
0.0
 10
30.0400186094
 20
61.6255710246
 30
0.0
  0
SPLINE
  5
283
100
AcDbEntity
  8
0
100
AcDbSpline
 62
7
  6
CONTINUOUS
 70
0
 71
3
 72
21
 73
17
 74
0
 42
0.0000001
 43
0.0000001
 44
0.0000000001
 40
0.0
 40
0.0
 40
0.0
 40
0.0
 40
0.1941708799
 40
0.3810244477
 40
0.5531091664
 40
0.7040133455
 40
0.7696596934
 40
0.8279320966
 40
0.878270035
 40
0.9202055797
 40
0.9534153631
 40
0.9776315564
 40
0.9863448801
 40
0.992833139
 40
0.9972228181
 40
1.0
 40
1.0
 40
1.0
 40
1.0
 10
37.2060623651
 20
61.70262237
 30
0.0
 10
37.3036379388
 20
61.70262237
 30
0.0
 10
37.4951133176
 20
61.70166444
 30
0.0
 10
37.7730372282
 20
61.6974243308
 30
0.0
 10
38.0291588508
 20
61.6905470477
 30
0.0
 10
38.2243058856
 20
61.6825856302
 30
0.0
 10
38.3621966757
 20
61.6748496425
 30
0.0
 10
38.4495640058
 20
61.6688741113
 30
0.0
 10
38.5249525431
 20
61.6625227131
 30
0.0
 10
38.5876705189
 20
61.6558756873
 30
0.0
 10
38.6371323657
 20
61.649028428
 30
0.0
 10
38.6698257088
 20
61.642800652
 30
0.0
 10
38.688903852
 20
61.6374208718
 30
0.0
 10
38.698074762
 20
61.6337388416
 30
0.0
 10
38.7040348615
 20
61.6303383784
 30
0.0
 10
38.706196197
 20
61.6269666258
 30
0.0
 10
38.7061961974
 20
61.6255710246
 30
0.0
  0
SPLINE
  5
284
100
AcDbEntity
  8
0
100
AcDbSpline
 62
7
  6
CONTINUOUS
 70
0
 71
3
 72
21
 73
17
 74
0
 42
0.0000001
 43
0.0000001
 44
0.0000000001
 40
0.0
 40
0.0
 40
0.0
 40
0.0
 40
0.0027771923
 40
0.0071668806
 40
0.0136551413
 40
0.0223684613
 40
0.0465846436
 40
0.0797944166
 40
0.1217299539
 40
0.1720678851
 40
0.2303402675
 40
0.2959865989
 40
0.4468907414
 40
0.6189754394
 40
0.8058290742
 40
1.0
 40
1.0
 40
1.0
 40
1.0
 10
38.7061961974
 20
61.6255709721
 30
0.0
 10
38.706196179
 20
61.6241753655
 30
0.0
 10
38.7040348178
 20
61.6208036266
 30
0.0
 10
38.6980747115
 20
61.6174031564
 30
0.0
 10
38.6889037949
 20
61.613721128
 30
0.0
 10
38.6698256583
 20
61.6083413462
 30
0.0
 10
38.6371323241
 20
61.6021135736
 30
0.0
 10
38.5876704884
 20
61.5952663157
 30
0.0
 10
38.5249525202
 20
61.5886192923
 30
0.0
 10
38.4495639949
 20
61.5822678963
 30
0.0
 10
38.3621966808
 20
61.5762923642
 30
0.0
 10
38.2243059175
 20
61.5685563792
 30
0.0
 10
38.0291589055
 20
61.5605949615
 30
0.0
 10
37.7730372593
 20
61.5537176739
 30
0.0
 10
37.4951132817
 20
61.5494775688
 30
0.0
 10
37.303637832
 20
61.5485196455
 30
0.0
 10
37.206062228
 20
61.5485196455
 30
0.0
  0
SPLINE
  5
285
100
AcDbEntity
  8
0
100
AcDbSpline
 62
7
  6
CONTINUOUS
 70
0
 71
3
 72
15
 73
11
 74
0
 42
0.0000001
 43
0.0000001
 44
0.0000000001
 40
0.0
 40
0.0
 40
0.0
 40
0.0
 40
0.096297417
 40
0.2166680454
 40
0.3539663013
 40
0.4999999978
 40
0.6460336946
 40
0.7833319512
 40
0.903702581
 40
1.0
 40
1.0
 40
1.0
 40
1.0
 10
46.856062211
 20
61.541069799
 30
0.0
 10
46.7475044203
 20
61.5327436533
 30
0.0
 10
46.502864389
 20
61.5191812968
 30
0.0
 10
46.1028904551
 20
61.5052879884
 30
0.0
 10
45.6465179846
 20
61.4965633388
 30
0.0
 10
45.1610622182
 20
61.4935749115
 30
0.0
 10
44.6756064509
 20
61.4965633388
 30
0.0
 10
44.2192339777
 20
61.5052879882
 30
0.0
 10
43.8192600392
 20
61.519181297
 30
0.0
 10
43.5746200041
 20
61.5327436532
 30
0.0
 10
43.466062211
 20
61.541069799
 30
0.0
  0
SPLINE
  5
286
100
AcDbEntity
  8
0
100
AcDbSpline
 62
7
  6
CONTINUOUS
 70
0
 71
3
 72
21
 73
17
 74
0
 42
0.0000001
 43
0.0000001
 44
0.0000000001
 40
0.0
 40
0.0
 40
0.0
 40
0.0
 40
0.0027771923
 40
0.0071668806
 40
0.0136551413
 40
0.0223684613
 40
0.0465846436
 40
0.0797944166
 40
0.1217299539
 40
0.1720678851
 40
0.2303402675
 40
0.2959865989
 40
0.4468907414
 40
0.6189754394
 40
0.8058290742
 40
1.0
 40
1.0
 40
1.0
 40
1.0
 10
30.0400186094
 20
61.6255709721
 30
0.0
 10
30.040018591
 20
61.6241753655
 30
0.0
 10
30.0378572298
 20
61.6208036266
 30
0.0
 10
30.0318971235
 20
61.6174031564
 30
0.0
 10
30.0227262069
 20
61.613721128
 30
0.0
 10
30.0036480702
 20
61.6083413462
 30
0.0
 10
29.9709547361
 20
61.6021135736
 30
0.0
 10
29.9214929004
 20
61.5952663157
 30
0.0
 10
29.8587749322
 20
61.5886192923
 30
0.0
 10
29.7833864069
 20
61.5822678963
 30
0.0
 10
29.6960190928
 20
61.5762923642
 30
0.0
 10
29.5581283295
 20
61.5685563792
 30
0.0
 10
29.3629813175
 20
61.5605949615
 30
0.0
 10
29.1068596712
 20
61.5537176739
 30
0.0
 10
28.8289356937
 20
61.5494775688
 30
0.0
 10
28.6374602439
 20
61.5485196455
 30
0.0
 10
28.5398846399
 20
61.5485196455
 30
0.0
  0
SPLINE
  5
287
100
AcDbEntity
  8
0
100
AcDbSpline
 62
7
  6
CONTINUOUS
 70
0
 71
3
 72
21
 73
17
 74
0
 42
0.0000001
 43
0.0000001
 44
0.0000000001
 40
0.0
 40
0.0
 40
0.0
 40
0.0
 40
0.0027771923
 40
0.0071668806
 40
0.0136551413
 40
0.0223684613
 40
0.0465846436
 40
0.0797944166
 40
0.1217299539
 40
0.1720678851
 40
0.2303402675
 40
0.2959865989
 40
0.4468907414
 40
0.6189754394
 40
0.8058290741
 40
1.0
 40
1.0
 40
1.0
 40
1.0
 10
21.3900186094
 20
61.6255709721
 30
0.0
 10
21.390018591
 20
61.6241753655
 30
0.0
 10
21.3878572298
 20
61.6208036266
 30
0.0
 10
21.3818971235
 20
61.6174031564
 30
0.0
 10
21.3727262069
 20
61.613721128
 30
0.0
 10
21.3536480702
 20
61.6083413462
 30
0.0
 10
21.3209547361
 20
61.6021135736
 30
0.0
 10
21.2714929004
 20
61.5952663157
 30
0.0
 10
21.2087749322
 20
61.5886192923
 30
0.0
 10
21.1333864069
 20
61.5822678963
 30
0.0
 10
21.0460190928
 20
61.5762923642
 30
0.0
 10
20.9081283295
 20
61.5685563792
 30
0.0
 10
20.7129813175
 20
61.5605949615
 30
0.0
 10
20.4568596713
 20
61.5537176739
 30
0.0
 10
20.1789356937
 20
61.5494775688
 30
0.0
 10
19.987460244
 20
61.5485196455
 30
0.0
 10
19.88988464
 20
61.5485196455
 30
0.0
  0
SPLINE
  5
288
100
AcDbEntity
  8
0
100
AcDbSpline
 62
7
  6
CONTINUOUS
 70
0
 71
3
 72
21
 73
17
 74
0
 42
0.0000001
 43
0.0000001
 44
0.0000000001
 40
0.0
 40
0.0
 40
0.0
 40
0.0
 40
0.1941709194
 40
0.381024523
 40
0.5531092676
 40
0.704013462
 40
0.7696598108
 40
0.8279322116
 40
0.8782701462
 40
0.9202056839
 40
0.9534154495
 40
0.9776316078
 40
0.9863449112
 40
0.9928331526
 40
0.9972228203
 40
1.0
 40
1.0
 40
1.0
 40
1.0
 10
37.206062228
 20
61.5485196455
 30
0.0
 10
37.1084866238
 20
61.5485196455
 30
0.0
 10
36.9170111861
 20
61.5494775717
 30
0.0
 10
36.6390871942
 20
61.5537176799
 30
0.0
 10
36.382965505
 20
61.5605949669
 30
0.0
 10
36.1878184278
 20
61.5685563867
 30
0.0
 10
36.0499276157
 20
61.5762923777
 30
0.0
 10
35.9625602789
 20
61.5822679114
 30
0.0
 10
35.88717174
 20
61.5886193119
 30
0.0
 10
35.824453772
 20
61.5952663393
 30
0.0
 10
35.7749919501
 20
61.6021135996
 30
0.0
 10
35.742298641
 20
61.6083413774
 30
0.0
 10
35.7232205342
 20
61.6137211622
 30
0.0
 10
35.7140496509
 20
61.6174031932
 30
0.0
 10
35.708089569
 20
61.6208036622
 30
0.0
 10
35.7059282483
 20
61.6241754133
 30
0.0
 10
35.7059282483
 20
61.6255710136
 30
0.0
  0
SPLINE
  5
289
100
AcDbEntity
  8
0
100
AcDbSpline
 62
7
  6
CONTINUOUS
 70
0
 71
3
 72
21
 73
17
 74
0
 42
0.0000001
 43
0.0000001
 44
0.0000000001
 40
0.0
 40
0.0
 40
0.0
 40
0.0
 40
0.1941709194
 40
0.381024523
 40
0.5531092676
 40
0.704013462
 40
0.7696598108
 40
0.8279322116
 40
0.8782701463
 40
0.9202056839
 40
0.9534154495
 40
0.9776316078
 40
0.9863449112
 40
0.9928331526
 40
0.9972228203
 40
1.0
 40
1.0
 40
1.0
 40
1.0
 10
19.88988464
 20
61.5485196455
 30
0.0
 10
19.7923090357
 20
61.5485196455
 30
0.0
 10
19.6008335981
 20
61.5494775717
 30
0.0
 10
19.3229096062
 20
61.5537176799
 30
0.0
 10
19.066787917
 20
61.5605949669
 30
0.0
 10
18.8716408398
 20
61.5685563867
 30
0.0
 10
18.7337500277
 20
61.5762923777
 30
0.0
 10
18.6463826909
 20
61.5822679114
 30
0.0
 10
18.570994152
 20
61.5886193119
 30
0.0
 10
18.508276184
 20
61.5952663393
 30
0.0
 10
18.4588143621
 20
61.6021135996
 30
0.0
 10
18.426121053
 20
61.6083413774
 30
0.0
 10
18.4070429462
 20
61.6137211622
 30
0.0
 10
18.3978720629
 20
61.6174031932
 30
0.0
 10
18.391911981
 20
61.6208036622
 30
0.0
 10
18.3897506604
 20
61.6241754133
 30
0.0
 10
18.3897506604
 20
61.6255710136
 30
0.0
  0
SPLINE
  5
28A
100
AcDbEntity
  8
0
100
AcDbSpline
 62
7
  6
CONTINUOUS
 70
0
 71
3
 72
21
 73
17
 74
0
 42
0.0000001
 43
0.0000001
 44
0.0000000001
 40
0.0
 40
0.0
 40
0.0
 40
0.0
 40
0.1941709194
 40
0.381024523
 40
0.5531092676
 40
0.704013462
 40
0.7696598108
 40
0.8279322116
 40
0.8782701463
 40
0.9202056839
 40
0.9534154495
 40
0.9776316078
 40
0.9863449112
 40
0.9928331526
 40
0.9972228203
 40
1.0
 40
1.0
 40
1.0
 40
1.0
 10
28.5398846399
 20
61.5485196455
 30
0.0
 10
28.4423090357
 20
61.5485196455
 30
0.0
 10
28.2508335981
 20
61.5494775717
 30
0.0
 10
27.9729096062
 20
61.5537176799
 30
0.0
 10
27.716787917
 20
61.5605949669
 30
0.0
 10
27.5216408398
 20
61.5685563867
 30
0.0
 10
27.3837500277
 20
61.5762923777
 30
0.0
 10
27.2963826909
 20
61.5822679114
 30
0.0
 10
27.220994152
 20
61.5886193119
 30
0.0
 10
27.158276184
 20
61.5952663393
 30
0.0
 10
27.1088143621
 20
61.6021135996
 30
0.0
 10
27.076121053
 20
61.6083413774
 30
0.0
 10
27.0570429462
 20
61.6137211622
 30
0.0
 10
27.0478720629
 20
61.6174031932
 30
0.0
 10
27.041911981
 20
61.6208036622
 30
0.0
 10
27.0397506604
 20
61.6241754133
 30
0.0
 10
27.0397506604
 20
61.6255710136
 30
0.0
  0
SPLINE
  5
28B
100
AcDbEntity
  8
0
100
AcDbSpline
 62
7
  6
CONTINUOUS
 70
0
 71
3
 72
19
 73
15
 74
0
 42
0.0000001
 43
0.0000001
 44
0.0000000001
 40
0.0
 40
0.0
 40
0.0
 40
0.0
 40
0.2171739768
 40
0.4129847142
 40
0.5839521833
 40
0.7276341178
 40
0.8419943674
 40
0.8877073519
 40
0.9255655488
 40
0.9554657175
 40
0.9774544173
 40
0.9855647187
 40
0.991859917
 40
1.0
 40
1.0
 40
1.0
 40
1.0
 10
10.0091987934
 20
61.537737559
 30
0.0
 10
9.941964292
 20
61.5400210374
 30
0.0
 10
9.8141266434
 20
61.5449173712
 30
0.0
 10
9.6334507726
 20
61.5537695877
 30
0.0
 10
9.4756281755
 20
61.5636433179
 30
0.0
 10
9.343161495
 20
61.5743560044
 30
0.0
 10
9.2495767151
 20
61.5843465619
 30
0.0
 10
9.1888752421
 20
61.5930391506
 30
0.0
 10
9.15425
 20
61.5991220892
 30
0.0
 10
9.1271189481
 20
61.6053008642
 30
0.0
 10
9.1093372269
 20
61.6107215613
 30
0.0
 10
9.0990162636
 20
61.615500594
 30
0.0
 10
9.0931990552
 20
61.6190612426
 30
0.0
 10
9.0898343518
 20
61.6230494791
 30
0.0
 10
9.0898343518
 20
61.6255710057
 30
0.0
  0
SPLINE
  5
28C
100
AcDbEntity
  8
0
100
AcDbSpline
 62
7
  6
CONTINUOUS
 70
0
 71
3
 72
19
 73
15
 74
0
 42
0.0000001
 43
0.0000001
 44
0.0000000001
 40
0.0
 40
0.0
 40
0.0
 40
0.0
 40
0.008240491
 40
0.0145533862
 40
0.0226648811
 40
0.0446182918
 40
0.074445343
 40
0.1122019863
 40
0.1577950439
 40
0.2718987937
 40
0.4153679153
 40
0.5862623321
 40
0.7822498451
 40
1.0
 40
1.0
 40
1.0
 40
1.0
 10
13.1950760491
 20
61.6255709982
 30
0.0
 10
13.1950760455
 20
61.6230826433
 30
0.0
 10
13.1918404311
 20
61.6191302524
 30
0.0
 10
13.1861677595
 20
61.6155763877
 30
0.0
 10
13.1761546909
 20
61.6108355769
 30
0.0
 10
13.1588815809
 20
61.6054472451
 30
0.0
 10
13.1325266854
 20
61.5993082936
 30
0.0
 10
13.0988839701
 20
61.5932585187
 30
0.0
 10
13.0398827239
 20
61.5846063036
 30
0.0
 10
12.9488566206
 20
61.5746424156
 30
0.0
 10
12.8199120453
 20
61.5639266134
 30
0.0
 10
12.6661148208
 20
61.5540074627
 30
0.0
 10
12.4897985626
 20
61.5450601875
 30
0.0
 10
12.3649605517
 20
61.540074971
 30
0.0
 10
12.2992487867
 20
61.5377375588
 30
0.0
  0
ENDSEC
  0
SECTION
  2
OBJECTS
  0
DICTIONARY
  5
C
100
AcDbDictionary
280
0
281
1
  3
ACAD_GROUP
350
D
  3
ACAD_MLINESTYLE
350
17
  3
ACAD_LAYOUT
350
1A
  3
ACAD_PLOTSETTINGS
350
19
  3
ACAD_PLOTSTYLENAME
350
E
  0
DICTIONARY
  5
D
102
{ACAD_REACTORS
330
C
102
}
100
AcDbDictionary
280
0
281
1
  0
ACDBDICTIONARYWDFLT
  5
E
102
{ACAD_REACTORS
330
C
102
}
100
AcDbDictionary
281
1
  3
Normal
350
F
100
AcDbDictionaryWithDefault
340
F
  0
DICTIONARY
  5
17
102
{ACAD_REACTORS
330
C
102
}
100
AcDbDictionary
280
0
281
1
  3
Standard
350
18
  0
DICTIONARY
  5
19
102
{ACAD_REACTORS
330
C
102
}
100
AcDbDictionary
281
1
  0
DICTIONARY
  5
1A
102
{ACAD_REACTORS
330
C
102
}
100
AcDbDictionary
281
1
  3
Model
350
28D
  3
Layout1
350
28E
  0
ACDBPLACEHOLDER
  5
F
102
{ACAD_REACTORS
330
E
102
}
  0
MLINESTYLE
  5
18
102
{ACAD_REACTORS
330
17
102
}
100
AcDbMlineStyle
  2
STANDARD
 70
0
  3

 62
256
 51
90.0
 52
90.0
 71
2
 49
0.5
 62
256
  6
BYLAYER
 49
-0.5
 62
256
  6
BYLAYER
  0
LAYOUT
  5
28D
102
{ACAD_REACTORS
330
1A
102
}
100
AcDbPlotSettings
  1

  2
none_device
  4

  6

 40
0.0
 41
0.0
 42
0.0
 43
0.0
 44
210.0
 45
297.0
 46
0.0
 47
0.0
 48
0.0
 49
0.0
140
0.0
141
0.0
142
1.0
143
1.0
 70
1024
 72
1
 73
0
 74
0
  7

 75
0
147
1.0
148
0.0
149
0.0
100
AcDbLayout
  1
Model
 70
0
 71
0
 10
0.0
 20
0.0
 11
210.0
 21
297.0
 12
0.0
 22
0.0
 32
0.0
 14
0.0
 24
0.0
 34
0.0
 15
0.0
 25
0.0
 35
0.0
146
0.0
 13
0.0
 23
0.0
 33
0.0
 16
1.0
 26
0.0
 36
0.0
 17
0.0
 27
1.0
 37
0.0
 76
0
330
210
345
0
346
0
  0
LAYOUT
  5
28E
102
{ACAD_REACTORS
330
1A
102
}
100
AcDbPlotSettings
  1

  2
none_device
  4

  6

 40
0.0
 41
0.0
 42
0.0
 43
0.0
 44
210.0
 45
297.0
 46
0.0
 47
0.0
 48
0.0
 49
0.0
140
0.0
141
0.0
142
1.0
143
1.0
 70
0
 72
1
 73
0
 74
0
  7

 75
0
147
1.0
148
0.0
149
0.0
100
AcDbLayout
  1
Layout1
 70
0
 71
1
 10
0.0
 20
0.0
 11
210.0
 21
297.0
 12
0.0
 22
0.0
 32
0.0
 14
0.0
 24
0.0
 34
0.0
 15
0.0
 25
0.0
 35
0.0
146
0.0
 13
0.0
 23
0.0
 33
0.0
 16
1.0
 26
0.0
 36
0.0
 17
0.0
 27
1.0
 37
0.0
 76
0
330
211
345
0
346
0
  0
ENDSEC
  0
EOF
