999
DXF file: C:\Users\sesa63760\Dev\_Creo\CAD\MCADID0004252_3D-CAD\drw0001_4.dxf
999
Pro/ENGINEER 2019471 by Parametric Technology Corporation
  0
SECTION
  2
HEADER
  9
$ACADVER
  1
AC1024
  9
$DWGCODEPAGE
  3
ANSI_1252
  9
$EXTMAX
 10
1699.0346498203
 20
2402.9204333173
 30
0.0
  9
$EXTMIN
 10
0.0
 20
0.0
 30
0.0
  9
$LIMMIN
 10
0.0
 20
0.0
  9
$LIMMAX
 10
1699.0346498203
 20
2402.9204333173
  9
$VIEWCTR
 10
849.5173249102
 20
1201.4602166587
  9
$VIEWSIZE
 40
2402.9204333173
  9
$CLAYER
  8
0
  9
$LTSCALE
 40
156.6348134311
  9
$CELTYPE
  6
BYLAYER
  9
$DIMSCALE
 40
1.0
  9
$DIMASZ
 40
20.2266029741
  9
$DIMEXO
 40
1.0
  9
$DIMDLI
 40
108.2204165524
  9
$DIMEXE
 40
1.0
  9
$DIMCEN
 40
25.6311512887
  9
$DIMLFAC
 40
1.0
  9
$DIMBLK
  1
_FILLED
  9
$DIMALT
 70
0
  9
$DIMALTF
 40
0.0393700787
  9
$DIMTXT
 40
28.3172441637
  9
$DIMTOL
 70
1
  9
$DIMLIM
 70
0
  9
$DIMTFAC
 40
1.0
  9
$DIMTP
 40
0.01
  9
$DIMTM
 40
0.01
  9
$DIMGAP
 40
0.625
  9
$DIMDSEP
 70
46
  9
$AUNITS
 70
0
  9
$PDMODE
 70
3
  9
$PDSIZE
 40
0.3125
  9
$HANDSEED
  5
40D
  9
$TILEMODE
 70
1
  9
$MEASUREMENT
 70
1
  9
$INSUNITS
 70
4
  0
ENDSEC
  0
SECTION
  2
CLASSES
  0
CLASS
  1
ACDBDICTIONARYWDFLT
  2
AcDbDictionaryWithDefault
  3
AutoCAD 2000
 90
0
 91
1
280
0
281
0
  0
CLASS
  1
ACDBPLACEHOLDER
  2
AcDbPlaceHolder
  3
AutoCAD 2000
 90
0
 91
1
280
0
281
0
  0
CLASS
  1
LAYOUT
  2
AcDbLayout
  3
AutoCAD 2000
 90
0
 91
0
280
0
281
0
  0
ENDSEC
  0
SECTION
  2
TABLES
  0
TABLE
  2
VPORT
  5
8
100
AcDbSymbolTable
 70
2
  0
VPORT
  5
1F4
100
AcDbSymbolTableRecord
100
AcDbViewportTableRecord
  2
*ACTIVE
 70
0
 10
0.0
 20
0.0
 11
1.0
 21
1.0
 12
849.5173249102
 22
1201.4602166587
 13
0.0
 23
0.0
 14
1.0
 24
1.0
 15
0.0
 25
0.0
 16
0.0
 26
0.0
 36
1.0
 17
0.0
 27
0.0
 37
0.0
 40
2402.9204333173
 41
0.7070707071
 42
50.0
 43
0.0
 44
0.0
 50
0.0
 51
0.0
 71
0
 72
100
 73
1
 74
1
 75
0
 76
0
 77
0
 78
0
  0
ENDTAB
  0
TABLE
  2
LTYPE
  5
5
100
AcDbSymbolTable
 70
6
  0
LTYPE
  5
14
100
AcDbSymbolTableRecord
100
AcDbLinetypeTableRecord
  2
BYBLOCK
 70
0
  3

 72
65
 73
0
 40
0.0
  0
LTYPE
  5
15
100
AcDbSymbolTableRecord
100
AcDbLinetypeTableRecord
  2
BYLAYER
 70
0
  3

 72
65
 73
0
 40
0.0
  0
LTYPE
  5
16
100
AcDbSymbolTableRecord
100
AcDbLinetypeTableRecord
  2
CONTINUOUS
 70
64
  3
Solid line
 72
65
 73
0
 40
0.0
  0
LTYPE
  5
1F5
100
AcDbSymbolTableRecord
100
AcDbLinetypeTableRecord
  2
CENTER
 70
64
  3
____ _ ____ _ ____ _ ____ _ ____ _ ____ _ ____
 72
65
 73
4
 40
0.6
 49
0.375
 74
0
 49
-0.075
 74
0
 49
0.075
 74
0
 49
-0.075
 74
0
  0
LTYPE
  5
1F6
100
AcDbSymbolTableRecord
100
AcDbLinetypeTableRecord
  2
HIDDEN
 70
64
  3
- - - - - - - - - - - - - - - - - - - -
 72
65
 73
2
 40
0.2
 49
0.1
 74
0
 49
-0.1
 74
0
  0
LTYPE
  5
1F7
100
AcDbSymbolTableRecord
100
AcDbLinetypeTableRecord
  2
PHANTOM
 70
64
  3
_____ _ _ _____ _ _ _____ _ _ _____
 72
65
 73
6
 40
0.8
 49
0.45
 74
0
 49
-0.05
 74
0
 49
0.1
 74
0
 49
-0.05
 74
0
 49
0.1
 74
0
 49
-0.05
 74
0
  0
LTYPE
  5
1F8
100
AcDbSymbolTableRecord
100
AcDbLinetypeTableRecord
  2
DOT
 70
64
  3
. . . . . . . . . . . . . . . . . . . .
 72
65
 73
2
 40
0.2
 49
0.1
 74
0
 49
-0.1
 74
0
  0
LTYPE
  5
1F9
100
AcDbSymbolTableRecord
100
AcDbLinetypeTableRecord
  2
DASHED
 70
64
  3
- - - - - - - - - - - - - - - - - - - -
 72
65
 73
2
 40
0.2
 49
0.1
 74
0
 49
-0.1
 74
0
  0
ENDTAB
  0
TABLE
  2
LAYER
  5
2
100
AcDbSymbolTable
 70
36
  0
LAYER
  5
10
100
AcDbSymbolTableRecord
100
AcDbLayerTableRecord
  2
0
 70
0
 62
7
  6
CONTINUOUS
370
-3
390
F
  0
LAYER
  5
1FA
100
AcDbSymbolTableRecord
100
AcDbLayerTableRecord
  2
DEFAULT_1
 70
0
 62
7
  6
CENTER
370
-3
390
F
  0
LAYER
  5
1FB
100
AcDbSymbolTableRecord
100
AcDbLayerTableRecord
  2
DEFAULT_2
 70
0
 62
7
  6
HIDDEN
370
-3
390
F
  0
LAYER
  5
1FC
100
AcDbSymbolTableRecord
100
AcDbLayerTableRecord
  2
DEFAULT_3
 70
0
 62
7
  6
PHANTOM
370
-3
390
F
  0
LAYER
  5
1FD
100
AcDbSymbolTableRecord
100
AcDbLayerTableRecord
  2
00_COMPONENTS
 70
0
 62
7
  6
CONTINUOUS
370
-3
390
F
  0
LAYER
  5
1FE
100
AcDbSymbolTableRecord
100
AcDbLayerTableRecord
  2
01_1_DEFAULT_DATUMS
 70
0
 62
7
  6
CONTINUOUS
370
-3
390
F
  0
LAYER
  5
1FF
100
AcDbSymbolTableRecord
100
AcDbLayerTableRecord
  2
01_PLANES
 70
0
 62
7
  6
CONTINUOUS
370
-3
390
F
  0
LAYER
  5
200
100
AcDbSymbolTableRecord
100
AcDbLayerTableRecord
  2
02_COORD_SYS
 70
0
 62
7
  6
CONTINUOUS
370
-3
390
F
  0
LAYER
  5
201
100
AcDbSymbolTableRecord
100
AcDbLayerTableRecord
  2
03_AXES
 70
0
 62
7
  6
CONTINUOUS
370
-3
390
F
  0
LAYER
  5
202
100
AcDbSymbolTableRecord
100
AcDbLayerTableRecord
  2
04_POINTS
 70
0
 62
7
  6
CONTINUOUS
370
-3
390
F
  0
LAYER
  5
203
100
AcDbSymbolTableRecord
100
AcDbLayerTableRecord
  2
05_CURVES
 70
0
 62
7
  6
CONTINUOUS
370
-3
390
F
  0
LAYER
  5
204
100
AcDbSymbolTableRecord
100
AcDbLayerTableRecord
  2
06_SURFS
 70
0
 62
7
  6
CONTINUOUS
370
-3
390
F
  0
LAYER
  5
205
100
AcDbSymbolTableRecord
100
AcDbLayerTableRecord
  2
07_COSMETICS
 70
0
 62
7
  6
CONTINUOUS
370
-3
390
F
  0
LAYER
  5
206
100
AcDbSymbolTableRecord
100
AcDbLayerTableRecord
  2
10_NOTES
 70
0
 62
7
  6
CONTINUOUS
370
-3
390
F
  0
LAYER
  5
207
100
AcDbSymbolTableRecord
100
AcDbLayerTableRecord
  2
11_NOTES_PUB
 70
0
 62
7
  6
CONTINUOUS
370
-3
390
F
  0
LAYER
  5
208
100
AcDbSymbolTableRecord
100
AcDbLayerTableRecord
  2
13_REF_GTOL
 70
0
 62
7
  6
CONTINUOUS
370
-3
390
F
  0
LAYER
  5
209
100
AcDbSymbolTableRecord
100
AcDbLayerTableRecord
  2
16_MISC
 70
0
 62
7
  6
CONTINUOUS
370
-3
390
F
  0
LAYER
  5
20A
100
AcDbSymbolTableRecord
100
AcDbLayerTableRecord
  2
17_NO_PRINT
 70
0
 62
7
  6
CONTINUOUS
370
-3
390
F
  0
LAYER
  5
20B
100
AcDbSymbolTableRecord
100
AcDbLayerTableRecord
  2
18_DATUM_CAMS_JOINTS
 70
0
 62
7
  6
CONTINUOUS
370
-3
390
F
  0
LAYER
  5
20C
100
AcDbSymbolTableRecord
100
AcDbLayerTableRecord
  2
19_DATUM_FUNCTIONAL
 70
0
 62
7
  6
CONTINUOUS
370
-3
390
F
  0
LAYER
  5
20D
100
AcDbSymbolTableRecord
100
AcDbLayerTableRecord
  2
20_DATUM_KINEMATIC_SCHEME
 70
0
 62
7
  6
CONTINUOUS
370
-3
390
F
  0
LAYER
  5
20E
100
AcDbSymbolTableRecord
100
AcDbLayerTableRecord
  2
3
 70
0
 62
7
  6
CONTINUOUS
370
-3
390
F
  0
LAYER
  5
20F
100
AcDbSymbolTableRecord
100
AcDbLayerTableRecord
  2
4
 70
0
 62
7
  6
CONTINUOUS
370
-3
390
F
  0
ENDTAB
  0
TABLE
  2
STYLE
  5
3
100
AcDbSymbolTable
 70
1
  0
STYLE
  5
11
100
AcDbSymbolTableRecord
100
AcDbTextStyleTableRecord
  2
STANDARD
 70
0
 40
0.0
 41
1.0
 50
0.0
 71
0
 42
0.2
  3
ARIAL.TTF
  4

  0
STYLE
  5
210
100
AcDbSymbolTableRecord
100
AcDbTextStyleTableRecord
  2
TEXTSTYLE_1
 70
0
 40
0.0
 41
0.8
 50
0.0
 71
0
 42
0.2
  3
gdt
  4

  0
ENDTAB
  0
TABLE
  2
VIEW
  5
6
100
AcDbSymbolTable
 70
0
  0
ENDTAB
  0
TABLE
  2
UCS
  5
7
100
AcDbSymbolTable
 70
0
  0
ENDTAB
  0
TABLE
  2
APPID
  5
9
100
AcDbSymbolTable
 70
1
  0
APPID
  5
211
100
AcDbSymbolTableRecord
100
AcDbRegAppTableRecord
  2
ACAD
 70
0
  0
ENDTAB
  0
TABLE
  2
BLOCK_RECORD
  5
1
100
AcDbSymbolTable
 70
0
  0
BLOCK_RECORD
  5
212
100
AcDbSymbolTableRecord
100
AcDbBlockTableRecord
  2
*Model_Space
  0
BLOCK_RECORD
  5
213
100
AcDbSymbolTableRecord
100
AcDbBlockTableRecord
  2
*Paper_Space
  0
BLOCK_RECORD
  5
214
100
AcDbSymbolTableRecord
100
AcDbBlockTableRecord
  2
_FILLED
  0
ENDTAB
  0
TABLE
  2
DIMSTYLE
  5
A
100
AcDbSymbolTable
 70
1
100
AcDbDimStyleTable
 71
0
  0
DIMSTYLE
105
215
100
AcDbSymbolTableRecord
100
AcDbDimStyleTableRecord
  2
STANDARD
 70
0
  3

  4

 40
1.0
 41
20.2266029741
 42
1.0
 43
0.38
 44
1.0
 45
0.0
 46
0.0
 47
0.01
 48
0.01
140
28.3172441637
141
0.09
142
0.0
143
25.4
144
1.0
145
0.0
146
1.0
147
0.625
 71
1
 72
0
 73
0
 74
0
 75
0
 76
0
 77
1
 78
8
 79
2
170
0
171
1
172
0
173
0
174
0
175
0
176
0
177
0
178
0
270
2
179
2
271
2
272
2
273
2
274
2
275
0
280
0
281
0
282
0
283
1
284
8
285
0
286
0
287
3
288
0
340
11
278
46
341
214
342
214
343
214
344
214
  0
ENDTAB
  0
ENDSEC
  0
SECTION
  2
BLOCKS
  0
BLOCK
  5
20
100
AcDbEntity
  8
0
100
AcDbBlockBegin
  2
*Model_Space
 70
0
 10
0.0
 20
0.0
 30
0.0
  3
*Model_Space
  1

  0
ENDBLK
  5
21
100
AcDbEntity
  8
0
100
AcDbBlockEnd
  0
BLOCK
  5
1C
100
AcDbEntity
  8
0
100
AcDbBlockBegin
  2
*Paper_Space
 70
0
 10
0.0
 20
0.0
 30
0.0
  3
*Paper_Space
  1

  0
ENDBLK
  5
1D
100
AcDbEntity
  8
0
100
AcDbBlockEnd
  0
BLOCK
  5
216
100
AcDbEntity
  8
0
100
AcDbBlockBegin
  2
_FILLED
 70
64
 10
0.0
 20
0.0
  3
_FILLED
  1

  0
SOLID
  5
217
100
AcDbEntity
  8
0
  6
BYBLOCK
 62
0
100
AcDbTrace
 10
0.0
 20
0.0
 11
-1.0
 21
0.25
 12
-1.0
 22
-0.25
 13
-1.0
 23
-0.25
  0
ENDBLK
  5
218
100
AcDbEntity
  8
0
  6
BYBLOCK
 62
0
100
AcDbBlockEnd
  0
ENDSEC
  0
SECTION
  2
ENTITIES
  0
LINE
  5
219
100
AcDbEntity
  8
0
100
AcDbLine
 62
7
  6
BYLAYER
 10
964.1062867338
 20
172.0573382485
 11
958.5059133665
 21
172.0573382485
  0
LINE
  5
21A
100
AcDbEntity
  8
0
100
AcDbLine
 62
7
  6
BYLAYER
 10
922.1058116967
 20
172.0573382485
 11
916.5063884095
 21
172.0573382485
  0
LINE
  5
21B
100
AcDbEntity
  8
0
100
AcDbLine
 62
7
  6
BYLAYER
 10
816.4571558453
 20
172.0573382485
 11
810.856782478
 21
172.0573382485
  0
LINE
  5
21C
100
AcDbEntity
  8
0
100
AcDbLine
 62
7
  6
BYLAYER
 10
774.4566808082
 20
172.0573382485
 11
768.857257521
 21
172.0573382485
  0
LINE
  5
21D
100
AcDbEntity
  8
0
100
AcDbLine
 62
7
  6
BYLAYER
 10
769.1455049509
 20
172.1572281101
 11
816.1680582379
 21
172.1572281101
  0
LINE
  5
21E
100
AcDbEntity
  8
0
100
AcDbLine
 62
7
  6
BYLAYER
 10
916.7946358394
 20
172.1572281101
 11
963.8171891264
 21
172.1572281101
  0
LINE
  5
21F
100
AcDbEntity
  8
0
100
AcDbLine
 62
7
  6
BYLAYER
 10
965.1063881598
 20
173.0573382485
 11
964.7848617159
 21
173.0573382485
  0
LINE
  5
220
100
AcDbEntity
  8
0
100
AcDbLine
 62
7
  6
BYLAYER
 10
915.8269647535
 20
173.0573382485
 11
915.5063881629
 21
173.0573382485
  0
LINE
  5
221
100
AcDbEntity
  8
0
100
AcDbLine
 62
7
  6
BYLAYER
 10
817.4572572713
 20
173.0573382485
 11
817.1357308274
 21
173.0573382485
  0
LINE
  5
222
100
AcDbEntity
  8
0
100
AcDbLine
 62
7
  6
BYLAYER
 10
768.177833865
 20
173.0573382485
 11
767.8572572743
 21
173.0573382485
  0
LINE
  5
223
100
AcDbEntity
  8
0
100
AcDbLine
 62
7
  6
BYLAYER
 10
965.3059131199
 20
173.1572281101
 11
965.1063881598
 21
173.1572281101
  0
LINE
  5
224
100
AcDbEntity
  8
0
100
AcDbLine
 62
7
  6
BYLAYER
 10
915.5063881629
 20
173.1572281101
 11
915.3059131199
 21
173.1572281101
  0
LINE
  5
225
100
AcDbEntity
  8
0
100
AcDbLine
 62
7
  6
BYLAYER
 10
964.8173181436
 20
173.1572281101
 11
915.7945080961
 21
173.1572281101
  0
LINE
  5
226
100
AcDbEntity
  8
0
100
AcDbLine
 62
7
  6
BYLAYER
 10
817.6567822313
 20
173.1572281101
 11
817.4572572713
 21
173.1572281101
  0
LINE
  5
227
100
AcDbEntity
  8
0
100
AcDbLine
 62
7
  6
BYLAYER
 10
767.8572572743
 20
173.1572281101
 11
767.6567822313
 21
173.1572281101
  0
LINE
  5
228
100
AcDbEntity
  8
0
100
AcDbLine
 62
7
  6
BYLAYER
 10
817.1681872551
 20
173.1572281101
 11
768.1453772076
 21
173.1572281101
  0
LINE
  5
229
100
AcDbEntity
  8
0
100
AcDbLine
 62
7
  6
BYLAYER
 10
767.6567822313
 20
174.1572280412
 11
767.8572572743
 21
174.1572280412
  0
LINE
  5
22A
100
AcDbEntity
  8
0
100
AcDbLine
 62
7
  6
BYLAYER
 10
817.4572572713
 20
174.1572280529
 11
817.6567822313
 21
174.1572280529
  0
LINE
  5
22B
100
AcDbEntity
  8
0
100
AcDbLine
 62
7
  6
BYLAYER
 10
915.3059131199
 20
174.1572280412
 11
915.5063881629
 21
174.1572280412
  0
LINE
  5
22C
100
AcDbEntity
  8
0
100
AcDbLine
 62
7
  6
BYLAYER
 10
965.1063881598
 20
174.1572280529
 11
965.3059131199
 21
174.1572280529
  0
LINE
  5
22D
100
AcDbEntity
  8
0
100
AcDbLine
 62
7
  6
BYLAYER
 10
767.8572572743
 20
174.6573382485
 11
768.1453772076
 21
174.6573382485
  0
LINE
  5
22E
100
AcDbEntity
  8
0
100
AcDbLine
 62
7
  6
BYLAYER
 10
817.1681872551
 20
174.6573382485
 11
817.4572572713
 21
174.6573382485
  0
LINE
  5
22F
100
AcDbEntity
  8
0
100
AcDbLine
 62
7
  6
BYLAYER
 10
915.5063881629
 20
174.6573382485
 11
915.7945080961
 21
174.6573382485
  0
LINE
  5
230
100
AcDbEntity
  8
0
100
AcDbLine
 62
7
  6
BYLAYER
 10
964.8173181436
 20
174.6573382485
 11
965.1063881598
 21
174.6573382485
  0
LINE
  5
231
100
AcDbEntity
  8
0
100
AcDbLine
 62
7
  6
BYLAYER
 10
965.3059131199
 20
175.1572281101
 11
964.759604065
 21
175.1572281101
  0
LINE
  5
232
100
AcDbEntity
  8
0
100
AcDbLine
 62
7
  6
BYLAYER
 10
915.8522221747
 20
175.1572281101
 11
915.3059131199
 21
175.1572281101
  0
LINE
  5
233
100
AcDbEntity
  8
0
100
AcDbLine
 62
7
  6
BYLAYER
 10
817.6567822313
 20
175.1572281101
 11
817.1104731765
 21
175.1572281101
  0
LINE
  5
234
100
AcDbEntity
  8
0
100
AcDbLine
 62
7
  6
BYLAYER
 10
768.2030912862
 20
175.1572281101
 11
767.6567822313
 21
175.1572281101
  0
LINE
  5
235
100
AcDbEntity
  8
0
100
AcDbLine
 62
7
  6
BYLAYER
 10
773.8566181257
 20
189.6572281101
 11
811.4566181257
 21
189.6572281101
  0
LINE
  5
236
100
AcDbEntity
  8
0
100
AcDbLine
 62
7
  6
BYLAYER
 10
767.6567822313
 20
189.6572281101
 11
773.6567822313
 21
189.6572281101
  0
LINE
  5
237
100
AcDbEntity
  8
0
100
AcDbLine
 62
7
  6
BYLAYER
 10
811.7095686358
 20
189.6572281101
 11
817.6567822313
 21
189.6572281101
  0
LINE
  5
238
100
AcDbEntity
  8
0
100
AcDbLine
 62
7
  6
BYLAYER
 10
921.5057490142
 20
189.6572281101
 11
959.1057490142
 21
189.6572281101
  0
LINE
  5
239
100
AcDbEntity
  8
0
100
AcDbLine
 62
7
  6
BYLAYER
 10
915.3059131199
 20
189.6572281101
 11
921.3059131199
 21
189.6572281101
  0
LINE
  5
23A
100
AcDbEntity
  8
0
100
AcDbLine
 62
7
  6
BYLAYER
 10
959.3586995244
 20
189.6572281101
 11
965.3059131199
 21
189.6572281101
  0
LINE
  5
23B
100
AcDbEntity
  8
3
100
AcDbLine
 62
7
  6
BYLAYER
 10
965.3063881629
 20
189.6573510571
 11
959.7768249176
 21
189.6573510571
  0
LINE
  5
23C
100
AcDbEntity
  8
3
100
AcDbLine
 62
7
  6
BYLAYER
 10
817.6572572744
 20
189.6573510571
 11
812.1276940291
 21
189.6573510571
  0
LINE
  5
23D
100
AcDbEntity
  8
3
100
AcDbLine
 62
7
  6
BYLAYER
 10
767.6572572744
 20
189.6573510571
 11
773.6582378534
 21
189.6573510571
  0
LINE
  5
23E
100
AcDbEntity
  8
3
100
AcDbLine
 62
7
  6
BYLAYER
 10
773.8566181257
 20
189.6573510571
 11
811.4566181257
 21
189.6573510571
  0
LINE
  5
23F
100
AcDbEntity
  8
3
100
AcDbLine
 62
7
  6
BYLAYER
 10
811.6562766953
 20
189.6573510571
 11
812.1034902908
 21
189.6573510571
  0
LINE
  5
240
100
AcDbEntity
  8
3
100
AcDbLine
 62
7
  6
BYLAYER
 10
915.3063881629
 20
189.6573510571
 11
921.3073687419
 21
189.6573510571
  0
LINE
  5
241
100
AcDbEntity
  8
3
100
AcDbLine
 62
7
  6
BYLAYER
 10
921.5057490142
 20
189.6573510571
 11
959.1057490142
 21
189.6573510571
  0
LINE
  5
242
100
AcDbEntity
  8
3
100
AcDbLine
 62
7
  6
BYLAYER
 10
959.3054075838
 20
189.6573510571
 11
959.7526211793
 21
189.6573510571
  0
LINE
  5
243
100
AcDbEntity
  8
4
100
AcDbLine
 62
7
  6
BYLAYER
 10
975.4951338464
 20
217.0055133718
 11
965.3063881629
 21
217.0055133718
  0
LINE
  5
244
100
AcDbEntity
  8
3
100
AcDbLine
 62
7
  6
BYLAYER
 10
827.8460029578
 20
217.0055133718
 11
817.6572572744
 21
217.0055133718
  0
LINE
  5
245
100
AcDbEntity
  8
3
100
AcDbLine
 62
7
  6
BYLAYER
 10
817.6572572744
 20
267.0055133718
 11
827.8460029578
 21
267.0055133718
  0
LINE
  5
246
100
AcDbEntity
  8
4
100
AcDbLine
 62
7
  6
BYLAYER
 10
965.3063881629
 20
267.0055133718
 11
975.4951338464
 21
267.0055133718
  0
LINE
  5
247
100
AcDbEntity
  8
0
100
AcDbLine
 62
7
  6
BYLAYER
 10
776.4075100424
 20
2212.1573382485
 11
775.9075100424
 21
2211.6573382485
  0
LINE
  5
248
100
AcDbEntity
  8
0
100
AcDbLine
 62
7
  6
BYLAYER
 10
796.1575080637
 20
2216.1573382485
 11
795.6575100424
 21
2215.657340407
  0
LINE
  5
249
100
AcDbEntity
  8
0
100
AcDbLine
 62
7
  6
BYLAYER
 10
794.4075100424
 20
2212.1573382485
 11
793.9075100424
 21
2211.6573382485
  0
LINE
  5
24A
100
AcDbEntity
  8
0
100
AcDbLine
 62
7
  6
BYLAYER
 10
794.4075100424
 20
2207.1573382485
 11
793.9075100424
 21
2206.6573382485
  0
LINE
  5
24B
100
AcDbEntity
  8
0
100
AcDbLine
 62
7
  6
BYLAYER
 10
809.2075100424
 20
2205.6573382485
 11
809.4075100424
 21
2205.8573382485
  0
LINE
  5
24C
100
AcDbEntity
  8
0
100
AcDbLine
 62
7
  6
BYLAYER
 10
924.0566409309
 20
2212.1573382485
 11
923.5566409309
 21
2211.6573382485
  0
LINE
  5
24D
100
AcDbEntity
  8
0
100
AcDbLine
 62
7
  6
BYLAYER
 10
943.8066389523
 20
2216.1573382485
 11
943.3066409309
 21
2215.657340407
  0
LINE
  5
24E
100
AcDbEntity
  8
0
100
AcDbLine
 62
7
  6
BYLAYER
 10
942.0566409309
 20
2212.1573382485
 11
941.5566409309
 21
2211.6573382485
  0
LINE
  5
24F
100
AcDbEntity
  8
0
100
AcDbLine
 62
7
  6
BYLAYER
 10
942.0566409309
 20
2207.1573382485
 11
941.5566409309
 21
2206.6573382485
  0
LINE
  5
250
100
AcDbEntity
  8
0
100
AcDbLine
 62
7
  6
BYLAYER
 10
956.8566409309
 20
2205.6573382485
 11
957.0566409309
 21
2205.8573382485
  0
LINE
  5
251
100
AcDbEntity
  8
3
100
AcDbLine
 62
7
  6
BYLAYER
 10
771.2940149879
 20
1839.6573510571
 11
771.1658600999
 21
2188.1573510571
  0
LINE
  5
252
100
AcDbEntity
  8
0
100
AcDbLine
 62
7
  6
BYLAYER
 10
767.6575115209
 20
2203.6573603141
 11
767.6575100428
 21
2202.6806344657
  0
LINE
  5
253
100
AcDbEntity
  8
0
100
AcDbLine
 62
7
  6
BYLAYER
 10
767.6567822313
 20
189.6572281101
 11
767.6567822313
 21
175.1572281101
  0
LINE
  5
254
100
AcDbEntity
  8
0
100
AcDbLine
 62
7
  6
BYLAYER
 10
767.6567822319
 20
175.1459272822
 11
767.6567822313
 21
173.1572281101
  0
LINE
  5
255
100
AcDbEntity
  8
3
100
AcDbLine
 62
7
  6
BYLAYER
 10
767.6572572744
 20
2188.1573510571
 11
767.6572572744
 21
189.6573510571
  0
LINE
  5
256
100
AcDbEntity
  8
0
100
AcDbLine
 62
7
  6
BYLAYER
 10
767.6575100424
 20
2204.6573382485
 11
767.6575100424
 21
2188.1573382485
  0
LINE
  5
257
100
AcDbEntity
  8
0
100
AcDbLine
 62
7
  6
BYLAYER
 10
767.8572572743
 20
174.6573382485
 11
767.8572572743
 21
173.0573382485
  0
LINE
  5
258
100
AcDbEntity
  8
0
100
AcDbLine
 62
7
  6
BYLAYER
 10
767.8575100424
 20
2204.7573382485
 11
767.8575100424
 21
2203.1573382485
  0
LINE
  5
259
100
AcDbEntity
  8
0
100
AcDbLine
 62
7
  6
BYLAYER
 10
768.0415427549
 20
175.1572281101
 11
768.0415427549
 21
189.6572281101
  0
LINE
  5
25A
100
AcDbEntity
  8
3
100
AcDbLine
 62
7
  6
BYLAYER
 10
768.042017798
 20
189.6573510571
 11
768.042017798
 21
2188.1573510571
  0
LINE
  5
25B
100
AcDbEntity
  8
0
100
AcDbLine
 62
7
  6
BYLAYER
 10
768.042270566
 20
2188.1573382485
 11
768.042270566
 21
2202.6573382485
  0
LINE
  5
25C
100
AcDbEntity
  8
0
100
AcDbLine
 62
7
  6
BYLAYER
 10
768.1453772076
 20
174.7725390937
 11
768.1453772076
 21
173.1572281101
  0
LINE
  5
25D
100
AcDbEntity
  8
0
100
AcDbLine
 62
7
  6
BYLAYER
 10
768.1461050186
 20
2204.6573382485
 11
768.1461050186
 21
2203.042027248
  0
LINE
  5
25E
100
AcDbEntity
  8
0
100
AcDbLine
 62
7
  6
BYLAYER
 10
768.2030912862
 20
173.1572281101
 11
768.2030912862
 21
175.1572281101
  0
LINE
  5
25F
100
AcDbEntity
  8
0
100
AcDbLine
 62
7
  6
BYLAYER
 10
768.2038190972
 20
2202.6573382485
 11
768.2038190972
 21
2204.6573382485
  0
LINE
  5
260
100
AcDbEntity
  8
0
100
AcDbLine
 62
7
  6
BYLAYER
 10
769.2423371616
 20
189.6572281101
 11
769.2423371616
 21
173.1572281101
  0
LINE
  5
261
100
AcDbEntity
  8
3
100
AcDbLine
 62
7
  6
BYLAYER
 10
769.2428122046
 20
2188.1573510571
 11
769.2428122046
 21
189.6573510571
  0
LINE
  5
262
100
AcDbEntity
  8
0
100
AcDbLine
 62
7
  6
BYLAYER
 10
769.2430649726
 20
2204.6573382485
 11
769.2430649726
 21
2188.1573382485
  0
LINE
  5
263
100
AcDbEntity
  8
0
100
AcDbLine
 62
7
  6
BYLAYER
 10
771.1653850569
 20
172.1572281101
 11
771.1653850569
 21
189.6572281101
  0
LINE
  5
264
100
AcDbEntity
  8
0
100
AcDbLine
 62
7
  6
BYLAYER
 10
771.1661128679
 20
2188.1573382485
 11
771.1661128679
 21
2205.6573382485
  0
LINE
  5
265
100
AcDbEntity
  8
0
100
AcDbLine
 62
7
  6
BYLAYER
 10
771.4207142538
 20
189.6572281101
 11
771.4207142538
 21
172.1572281101
  0
LINE
  5
266
100
AcDbEntity
  8
0
100
AcDbLine
 62
7
  6
BYLAYER
 10
771.4214420649
 20
2205.6573382485
 11
771.4214420649
 21
2188.1573382485
  0
LINE
  5
267
100
AcDbEntity
  8
0
100
AcDbLine
 62
7
  6
BYLAYER
 10
773.2095686358
 20
173.1572281101
 11
773.2095686358
 21
189.6572281101
  0
LINE
  5
268
100
AcDbEntity
  8
0
100
AcDbLine
 62
7
  6
BYLAYER
 10
773.2102964469
 20
2188.1573382485
 11
773.2102964469
 21
2204.6573382485
  0
LINE
  5
269
100
AcDbEntity
  8
3
100
AcDbLine
 62
7
  6
BYLAYER
 10
773.2110242579
 20
189.6573510571
 11
773.2110242579
 21
2188.1573510571
  0
LINE
  5
26A
100
AcDbEntity
  8
0
100
AcDbLine
 62
7
  6
BYLAYER
 10
773.6039958268
 20
189.6572281101
 11
773.6039958268
 21
173.1572281101
  0
LINE
  5
26B
100
AcDbEntity
  8
0
100
AcDbLine
 62
7
  6
BYLAYER
 10
773.6047236379
 20
2204.6573382485
 11
773.6047236379
 21
2188.1573382485
  0
LINE
  5
26C
100
AcDbEntity
  8
3
100
AcDbLine
 62
7
  6
BYLAYER
 10
773.6054514489
 20
2188.1573510571
 11
773.6054514489
 21
189.6573510571
  0
LINE
  5
26D
100
AcDbEntity
  8
0
100
AcDbLine
 62
7
  6
BYLAYER
 10
773.6567822313
 20
173.1572281101
 11
773.6567822313
 21
189.6572281101
  0
LINE
  5
26E
100
AcDbEntity
  8
0
100
AcDbLine
 62
7
  6
BYLAYER
 10
773.6575100424
 20
2188.1573382485
 11
773.6575100424
 21
2204.6573382485
  0
LINE
  5
26F
100
AcDbEntity
  8
3
100
AcDbLine
 62
7
  6
BYLAYER
 10
773.6582378534
 20
189.6573510571
 11
773.6582378534
 21
2188.1573510571
  0
LINE
  5
270
100
AcDbEntity
  8
3
100
AcDbLine
 62
7
  6
BYLAYER
 10
773.8566181257
 20
189.6573510571
 11
773.8566181257
 21
2188.1573510571
  0
LINE
  5
271
100
AcDbEntity
  8
0
100
AcDbLine
 62
7
  6
BYLAYER
 10
775.9075100424
 20
2205.6573382485
 11
775.9075100424
 21
2211.6573382485
  0
LINE
  5
272
100
AcDbEntity
  8
0
100
AcDbLine
 62
7
  6
BYLAYER
 10
779.5307500424
 20
2213.3573382485
 11
779.5307500424
 21
2212.1573382485
  0
LINE
  5
273
100
AcDbEntity
  8
0
100
AcDbLine
 62
7
  6
BYLAYER
 10
782.9557500424
 20
2212.1573382485
 11
782.9557500424
 21
2213.6573382485
  0
LINE
  5
274
100
AcDbEntity
  8
0
100
AcDbLine
 62
7
  6
BYLAYER
 10
784.3557500424
 20
2212.1573382485
 11
784.3557500424
 21
2213.6573382485
  0
LINE
  5
275
100
AcDbEntity
  8
0
100
AcDbLine
 62
7
  6
BYLAYER
 10
787.7807500424
 20
2212.1573382485
 11
787.7807500424
 21
2213.3573382485
  0
LINE
  5
276
100
AcDbEntity
  8
0
100
AcDbLine
 62
7
  6
BYLAYER
 10
791.4075100424
 20
2205.6573382485
 11
791.4075100424
 21
2211.6573382485
  0
LINE
  5
277
100
AcDbEntity
  8
0
100
AcDbLine
 62
7
  6
BYLAYER
 10
793.9075100424
 20
2205.6573382485
 11
793.9075100424
 21
2211.6573382485
  0
LINE
  5
278
100
AcDbEntity
  8
0
100
AcDbLine
 62
7
  6
BYLAYER
 10
795.6575100424
 20
2215.6573373111
 11
795.6575100424
 21
2208.1573382485
  0
LINE
  5
279
100
AcDbEntity
  8
0
100
AcDbLine
 62
7
  6
BYLAYER
 10
796.1575100424
 20
2207.1573382485
 11
796.1575100424
 21
2208.1573382485
  0
LINE
  5
27A
100
AcDbEntity
  8
0
100
AcDbLine
 62
7
  6
BYLAYER
 10
807.1575100424
 20
2207.1573382485
 11
807.1575100424
 21
2208.1573382485
  0
LINE
  5
27B
100
AcDbEntity
  8
0
100
AcDbLine
 62
7
  6
BYLAYER
 10
807.6575100424
 20
2208.1573382485
 11
807.6575100424
 21
2215.6573373111
  0
LINE
  5
27C
100
AcDbEntity
  8
0
100
AcDbLine
 62
7
  6
BYLAYER
 10
809.4075100424
 20
2205.6573382485
 11
809.4075100424
 21
2211.6573382485
  0
LINE
  5
27D
100
AcDbEntity
  8
3
100
AcDbLine
 62
7
  6
BYLAYER
 10
811.4566181257
 20
2188.1573592866
 11
811.4566181257
 21
189.6573510571
  0
LINE
  5
27E
100
AcDbEntity
  8
3
100
AcDbLine
 62
7
  6
BYLAYER
 10
811.6562766953
 20
2188.1573510571
 11
811.6562766953
 21
189.6573510571
  0
LINE
  5
27F
100
AcDbEntity
  8
0
100
AcDbLine
 62
7
  6
BYLAYER
 10
811.6567822313
 20
189.6572281101
 11
811.6567822313
 21
173.1572281101
  0
LINE
  5
280
100
AcDbEntity
  8
0
100
AcDbLine
 62
7
  6
BYLAYER
 10
811.6575100424
 20
2204.6573382485
 11
811.6575100424
 21
2188.1573382485
  0
LINE
  5
281
100
AcDbEntity
  8
3
100
AcDbLine
 62
7
  6
BYLAYER
 10
811.7090630998
 20
189.6573510571
 11
811.7090630998
 21
2188.1573510571
  0
LINE
  5
282
100
AcDbEntity
  8
0
100
AcDbLine
 62
7
  6
BYLAYER
 10
811.7095686358
 20
173.1572281101
 11
811.7095686358
 21
189.6572281101
  0
LINE
  5
283
100
AcDbEntity
  8
0
100
AcDbLine
 62
7
  6
BYLAYER
 10
811.7102964469
 20
2188.1573382485
 11
811.7102964469
 21
2204.6573382485
  0
LINE
  5
284
100
AcDbEntity
  8
3
100
AcDbLine
 62
7
  6
BYLAYER
 10
812.1034902908
 20
2188.1573510571
 11
812.1034902908
 21
189.6573510571
  0
LINE
  5
285
100
AcDbEntity
  8
0
100
AcDbLine
 62
7
  6
BYLAYER
 10
812.1039958268
 20
189.6572281101
 11
812.1039958268
 21
173.1572281101
  0
LINE
  5
286
100
AcDbEntity
  8
0
100
AcDbLine
 62
7
  6
BYLAYER
 10
812.1047236379
 20
2204.6573382485
 11
812.1047236379
 21
2188.1573382485
  0
LINE
  5
287
100
AcDbEntity
  8
3
100
AcDbLine
 62
7
  6
BYLAYER
 10
771.4221698759
 20
2188.1573510571
 11
771.2940149879
 21
1839.6573510571
  0
LINE
  5
288
100
AcDbEntity
  8
3
100
AcDbLine
 62
7
  6
BYLAYER
 10
813.8923446728
 20
1839.6573510571
 11
813.8923446728
 21
2188.1573510571
  0
LINE
  5
289
100
AcDbEntity
  8
0
100
AcDbLine
 62
7
  6
BYLAYER
 10
813.8928502088
 20
172.1572281101
 11
813.8928502088
 21
189.6572281101
  0
LINE
  5
28A
100
AcDbEntity
  8
0
100
AcDbLine
 62
7
  6
BYLAYER
 10
813.8935780199
 20
2188.1573382485
 11
813.8935780199
 21
2205.6573382485
  0
LINE
  5
28B
100
AcDbEntity
  8
0
100
AcDbLine
 62
7
  6
BYLAYER
 10
814.1481794058
 20
189.6572281101
 11
814.1481794058
 21
172.1572281101
  0
LINE
  5
28C
100
AcDbEntity
  8
3
100
AcDbLine
 62
7
  6
BYLAYER
 10
814.1486544488
 20
2188.1573510571
 11
814.1486544488
 21
1839.6573510571
  0
LINE
  5
28D
100
AcDbEntity
  8
0
100
AcDbLine
 62
7
  6
BYLAYER
 10
814.1489072169
 20
2205.6573382485
 11
814.1489072169
 21
2188.1573382485
  0
LINE
  5
28E
100
AcDbEntity
  8
0
100
AcDbLine
 62
7
  6
BYLAYER
 10
816.0712273011
 20
173.1572281101
 11
816.0712273011
 21
189.6572281101
  0
LINE
  5
28F
100
AcDbEntity
  8
3
100
AcDbLine
 62
7
  6
BYLAYER
 10
816.0717023441
 20
189.6573510571
 11
816.0717023441
 21
2188.1573510571
  0
LINE
  5
290
100
AcDbEntity
  8
0
100
AcDbLine
 62
7
  6
BYLAYER
 10
816.0719551121
 20
2188.1573382485
 11
816.0719551121
 21
2204.6573382485
  0
LINE
  5
291
100
AcDbEntity
  8
0
100
AcDbLine
 62
7
  6
BYLAYER
 10
817.1104731765
 20
175.1572281101
 11
817.1104731765
 21
173.1572281101
  0
LINE
  5
292
100
AcDbEntity
  8
0
100
AcDbLine
 62
7
  6
BYLAYER
 10
817.1112009876
 20
2204.6573382485
 11
817.1112009876
 21
2202.6573382485
  0
LINE
  5
293
100
AcDbEntity
  8
0
100
AcDbLine
 62
7
  6
BYLAYER
 10
817.1681872551
 20
173.1572281101
 11
817.1681872551
 21
174.7725391106
  0
LINE
  5
294
100
AcDbEntity
  8
0
100
AcDbLine
 62
7
  6
BYLAYER
 10
817.1689150661
 20
2203.0420272649
 11
817.1689150661
 21
2204.6573382485
  0
LINE
  5
295
100
AcDbEntity
  8
0
100
AcDbLine
 62
7
  6
BYLAYER
 10
817.2720217078
 20
189.6572281101
 11
817.2720217078
 21
175.1572281101
  0
LINE
  5
296
100
AcDbEntity
  8
3
100
AcDbLine
 62
7
  6
BYLAYER
 10
817.2724967508
 20
2188.1573510571
 11
817.2724967508
 21
189.6573510571
  0
LINE
  5
297
100
AcDbEntity
  8
0
100
AcDbLine
 62
7
  6
BYLAYER
 10
817.2727495188
 20
2202.6573382485
 11
817.2727495188
 21
2188.1573382485
  0
LINE
  5
298
100
AcDbEntity
  8
0
100
AcDbLine
 62
7
  6
BYLAYER
 10
817.4572572713
 20
173.0573382485
 11
817.4572572713
 21
174.6573382485
  0
LINE
  5
299
100
AcDbEntity
  8
0
100
AcDbLine
 62
7
  6
BYLAYER
 10
817.4575100424
 20
2203.1573382485
 11
817.4575100424
 21
2204.7573382485
  0
LINE
  5
29A
100
AcDbEntity
  8
0
100
AcDbLine
 62
7
  6
BYLAYER
 10
817.6567822313
 20
173.1572281101
 11
817.6567822313
 21
175.1413323174
  0
LINE
  5
29B
100
AcDbEntity
  8
0
100
AcDbLine
 62
7
  6
BYLAYER
 10
817.6567822313
 20
175.1572281101
 11
817.6567822313
 21
189.6572281101
  0
LINE
  5
29C
100
AcDbEntity
  8
3
100
AcDbLine
 62
7
  6
BYLAYER
 10
817.6572572744
 20
189.6573510571
 11
817.6572572744
 21
2188.1573510571
  0
LINE
  5
29D
100
AcDbEntity
  8
0
100
AcDbLine
 62
7
  6
BYLAYER
 10
817.6575100424
 20
2188.1573382485
 11
817.6575100424
 21
2204.6573382485
  0
LINE
  5
29E
100
AcDbEntity
  8
0
100
AcDbLine
 62
7
  6
BYLAYER
 10
817.6567808252
 20
174.1572092452
 11
817.6567822316
 21
175.0688285452
  0
LINE
  5
29F
100
AcDbEntity
  8
3
100
AcDbLine
 62
7
  6
BYLAYER
 10
820.8460029578
 20
2163.3404158326
 11
820.8460029578
 21
2113.3404158326
  0
LINE
  5
2A0
100
AcDbEntity
  8
3
100
AcDbLine
 62
7
  6
BYLAYER
 10
820.8460029578
 20
1214.2896542116
 11
820.8460029578
 21
1164.2896542116
  0
LINE
  5
2A1
100
AcDbEntity
  8
3
100
AcDbLine
 62
7
  6
BYLAYER
 10
820.8460029578
 20
267.0055133718
 11
820.8460029578
 21
217.0055133718
  0
LINE
  5
2A2
100
AcDbEntity
  8
3
100
AcDbLine
 62
7
  6
BYLAYER
 10
827.8460029578
 20
217.0055133718
 11
827.8460029578
 21
267.0055133718
  0
LINE
  5
2A3
100
AcDbEntity
  8
3
100
AcDbLine
 62
7
  6
BYLAYER
 10
827.8460029578
 20
1164.2896542116
 11
827.8460029578
 21
1214.2896542116
  0
LINE
  5
2A4
100
AcDbEntity
  8
3
100
AcDbLine
 62
7
  6
BYLAYER
 10
827.8460029578
 20
2113.3404158326
 11
827.8460029578
 21
2163.3404158326
  0
LINE
  5
2A5
100
AcDbEntity
  8
4
100
AcDbLine
 62
7
  6
BYLAYER
 10
975.4951338464
 20
1164.2896542116
 11
965.3063881629
 21
1164.2896542116
  0
LINE
  5
2A6
100
AcDbEntity
  8
3
100
AcDbLine
 62
7
  6
BYLAYER
 10
827.8460029578
 20
1164.2896542116
 11
817.6572572744
 21
1164.2896542116
  0
LINE
  5
2A7
100
AcDbEntity
  8
3
100
AcDbLine
 62
7
  6
BYLAYER
 10
918.9431458764
 20
1839.6573510571
 11
918.8149909884
 21
2188.1573510571
  0
LINE
  5
2A8
100
AcDbEntity
  8
0
100
AcDbLine
 62
7
  6
BYLAYER
 10
915.3066423375
 20
2203.657357133
 11
915.3066409306
 21
2202.7457295414
  0
LINE
  5
2A9
100
AcDbEntity
  8
0
100
AcDbLine
 62
7
  6
BYLAYER
 10
915.3059131199
 20
173.1572281101
 11
915.3059131199
 21
189.6572281101
  0
LINE
  5
2AA
100
AcDbEntity
  8
3
100
AcDbLine
 62
7
  6
BYLAYER
 10
915.3063881629
 20
2188.1573510571
 11
915.3063881629
 21
189.6573510571
  0
LINE
  5
2AB
100
AcDbEntity
  8
0
100
AcDbLine
 62
7
  6
BYLAYER
 10
915.3066409309
 20
2202.6573382485
 11
915.3066409309
 21
2188.1573382485
  0
LINE
  5
2AC
100
AcDbEntity
  8
0
100
AcDbLine
 62
7
  6
BYLAYER
 10
915.3066409309
 20
2204.6573382485
 11
915.3066409309
 21
2202.6710710095
  0
LINE
  5
2AD
100
AcDbEntity
  8
0
100
AcDbLine
 62
7
  6
BYLAYER
 10
915.5063881629
 20
174.6573382485
 11
915.5063881629
 21
173.0573382485
  0
LINE
  5
2AE
100
AcDbEntity
  8
0
100
AcDbLine
 62
7
  6
BYLAYER
 10
915.5066409309
 20
2204.7573382485
 11
915.5066409309
 21
2203.1573382485
  0
LINE
  5
2AF
100
AcDbEntity
  8
0
100
AcDbLine
 62
7
  6
BYLAYER
 10
915.6906736435
 20
175.1572281101
 11
915.6906736435
 21
189.6572281101
  0
LINE
  5
2B0
100
AcDbEntity
  8
3
100
AcDbLine
 62
7
  6
BYLAYER
 10
915.6911486865
 20
189.6573510571
 11
915.6911486865
 21
2188.1573510571
  0
LINE
  5
2B1
100
AcDbEntity
  8
0
100
AcDbLine
 62
7
  6
BYLAYER
 10
915.6914014545
 20
2188.1573382485
 11
915.6914014545
 21
2202.6573382485
  0
LINE
  5
2B2
100
AcDbEntity
  8
0
100
AcDbLine
 62
7
  6
BYLAYER
 10
915.7945080961
 20
174.7725390937
 11
915.7945080961
 21
173.1572281101
  0
LINE
  5
2B3
100
AcDbEntity
  8
0
100
AcDbLine
 62
7
  6
BYLAYER
 10
915.7952359072
 20
2204.6573382485
 11
915.7952359072
 21
2203.042027248
  0
LINE
  5
2B4
100
AcDbEntity
  8
0
100
AcDbLine
 62
7
  6
BYLAYER
 10
915.8522221747
 20
173.1572281101
 11
915.8522221747
 21
175.1572281101
  0
LINE
  5
2B5
100
AcDbEntity
  8
0
100
AcDbLine
 62
7
  6
BYLAYER
 10
915.8529499857
 20
2202.6573382485
 11
915.8529499857
 21
2204.6573382485
  0
LINE
  5
2B6
100
AcDbEntity
  8
0
100
AcDbLine
 62
7
  6
BYLAYER
 10
916.8914680501
 20
189.6572281101
 11
916.8914680501
 21
173.1572281101
  0
LINE
  5
2B7
100
AcDbEntity
  8
3
100
AcDbLine
 62
7
  6
BYLAYER
 10
916.8919430931
 20
2188.1573510571
 11
916.8919430931
 21
189.6573510571
  0
LINE
  5
2B8
100
AcDbEntity
  8
0
100
AcDbLine
 62
7
  6
BYLAYER
 10
916.8921958611
 20
2204.6573382485
 11
916.8921958611
 21
2188.1573382485
  0
LINE
  5
2B9
100
AcDbEntity
  8
0
100
AcDbLine
 62
7
  6
BYLAYER
 10
918.8145159454
 20
172.1572281101
 11
918.8145159454
 21
189.6572281101
  0
LINE
  5
2BA
100
AcDbEntity
  8
0
100
AcDbLine
 62
7
  6
BYLAYER
 10
918.8152437564
 20
2188.1573382485
 11
918.8152437564
 21
2205.6573382485
  0
LINE
  5
2BB
100
AcDbEntity
  8
0
100
AcDbLine
 62
7
  6
BYLAYER
 10
919.0698451424
 20
189.6572281101
 11
919.0698451424
 21
172.1572281101
  0
LINE
  5
2BC
100
AcDbEntity
  8
0
100
AcDbLine
 62
7
  6
BYLAYER
 10
919.0705729534
 20
2205.6573382485
 11
919.0705729534
 21
2188.1573382485
  0
LINE
  5
2BD
100
AcDbEntity
  8
0
100
AcDbLine
 62
7
  6
BYLAYER
 10
920.8586995244
 20
173.1572281101
 11
920.8586995244
 21
189.6572281101
  0
LINE
  5
2BE
100
AcDbEntity
  8
0
100
AcDbLine
 62
7
  6
BYLAYER
 10
920.8594273354
 20
2188.1573382485
 11
920.8594273354
 21
2204.6573382485
  0
LINE
  5
2BF
100
AcDbEntity
  8
3
100
AcDbLine
 62
7
  6
BYLAYER
 10
920.8601551464
 20
189.6573510571
 11
920.8601551464
 21
2188.1573510571
  0
LINE
  5
2C0
100
AcDbEntity
  8
0
100
AcDbLine
 62
7
  6
BYLAYER
 10
921.2531267154
 20
189.6572281101
 11
921.2531267154
 21
173.1572281101
  0
LINE
  5
2C1
100
AcDbEntity
  8
0
100
AcDbLine
 62
7
  6
BYLAYER
 10
921.2538545264
 20
2204.6573382485
 11
921.2538545264
 21
2188.1573382485
  0
LINE
  5
2C2
100
AcDbEntity
  8
3
100
AcDbLine
 62
7
  6
BYLAYER
 10
921.2545823374
 20
2188.1573510571
 11
921.2545823374
 21
189.6573510571
  0
LINE
  5
2C3
100
AcDbEntity
  8
0
100
AcDbLine
 62
7
  6
BYLAYER
 10
921.3059131199
 20
173.1572281101
 11
921.3059131199
 21
189.6572281101
  0
LINE
  5
2C4
100
AcDbEntity
  8
0
100
AcDbLine
 62
7
  6
BYLAYER
 10
921.3066409309
 20
2188.1573382485
 11
921.3066409309
 21
2204.6573382485
  0
LINE
  5
2C5
100
AcDbEntity
  8
3
100
AcDbLine
 62
7
  6
BYLAYER
 10
921.3073687419
 20
189.6573510571
 11
921.3073687419
 21
2188.1573510571
  0
LINE
  5
2C6
100
AcDbEntity
  8
3
100
AcDbLine
 62
7
  6
BYLAYER
 10
921.5057490142
 20
189.6573510571
 11
921.5057490142
 21
2188.1573510571
  0
LINE
  5
2C7
100
AcDbEntity
  8
0
100
AcDbLine
 62
7
  6
BYLAYER
 10
923.5566409309
 20
2205.6573382485
 11
923.5566409309
 21
2211.6573382485
  0
LINE
  5
2C8
100
AcDbEntity
  8
0
100
AcDbLine
 62
7
  6
BYLAYER
 10
927.1798809309
 20
2213.3573382485
 11
927.1798809309
 21
2212.1573382485
  0
LINE
  5
2C9
100
AcDbEntity
  8
0
100
AcDbLine
 62
7
  6
BYLAYER
 10
933.684417012
 20
2212.1573382485
 11
933.684417012
 21
2213.3573382485
  0
LINE
  5
2CA
100
AcDbEntity
  8
0
100
AcDbLine
 62
7
  6
BYLAYER
 10
934.2393740728
 20
2212.1573382485
 11
934.2393740728
 21
2213.6573382485
  0
LINE
  5
2CB
100
AcDbEntity
  8
0
100
AcDbLine
 62
7
  6
BYLAYER
 10
934.6743665057
 20
2213.3573382486
 11
934.6743665057
 21
2212.1573382485
  0
LINE
  5
2CC
100
AcDbEntity
  8
0
100
AcDbLine
 62
7
  6
BYLAYER
 10
935.4298809309
 20
2213.3573382485
 11
935.4298809309
 21
2212.1573382485
  0
LINE
  5
2CD
100
AcDbEntity
  8
0
100
AcDbLine
 62
7
  6
BYLAYER
 10
939.0566409309
 20
2205.6573382485
 11
939.0566409309
 21
2211.6573382485
  0
LINE
  5
2CE
100
AcDbEntity
  8
0
100
AcDbLine
 62
7
  6
BYLAYER
 10
941.5566409309
 20
2205.6573382485
 11
941.5566409309
 21
2211.6573382485
  0
LINE
  5
2CF
100
AcDbEntity
  8
0
100
AcDbLine
 62
7
  6
BYLAYER
 10
943.3066409309
 20
2215.6573373111
 11
943.3066409309
 21
2208.1573382485
  0
LINE
  5
2D0
100
AcDbEntity
  8
0
100
AcDbLine
 62
7
  6
BYLAYER
 10
943.8066409309
 20
2207.1573382485
 11
943.8066409309
 21
2208.1573382485
  0
LINE
  5
2D1
100
AcDbEntity
  8
3
100
AcDbLine
 62
7
  6
BYLAYER
 10
919.0713007644
 20
2188.1573510571
 11
918.9431458764
 21
1839.6573510571
  0
LINE
  5
2D2
100
AcDbEntity
  8
3
100
AcDbLine
 62
7
  6
BYLAYER
 10
817.6572572744
 20
1214.2896542116
 11
827.8460029578
 21
1214.2896542116
  0
LINE
  5
2D3
100
AcDbEntity
  8
4
100
AcDbLine
 62
7
  6
BYLAYER
 10
965.3063881629
 20
1214.2896542116
 11
975.4951338464
 21
1214.2896542116
  0
LINE
  5
2D4
100
AcDbEntity
  8
0
100
AcDbLine
 62
7
  6
BYLAYER
 10
954.8066409309
 20
2207.1573382485
 11
954.8066409309
 21
2208.1573382485
  0
LINE
  5
2D5
100
AcDbEntity
  8
0
100
AcDbLine
 62
7
  6
BYLAYER
 10
955.3066409309
 20
2208.1573382485
 11
955.3066409309
 21
2215.6573373111
  0
LINE
  5
2D6
100
AcDbEntity
  8
0
100
AcDbLine
 62
7
  6
BYLAYER
 10
957.0566409309
 20
2205.6573382485
 11
957.0566409309
 21
2211.6573382485
  0
LINE
  5
2D7
100
AcDbEntity
  8
3
100
AcDbLine
 62
7
  6
BYLAYER
 10
959.1057490142
 20
2188.1573592866
 11
959.1057490142
 21
189.6573510571
  0
LINE
  5
2D8
100
AcDbEntity
  8
3
100
AcDbLine
 62
7
  6
BYLAYER
 10
959.3054075838
 20
2188.1573510571
 11
959.3054075838
 21
189.6573510571
  0
LINE
  5
2D9
100
AcDbEntity
  8
0
100
AcDbLine
 62
7
  6
BYLAYER
 10
959.3059131199
 20
189.6572281101
 11
959.3059131199
 21
173.1572281101
  0
LINE
  5
2DA
100
AcDbEntity
  8
0
100
AcDbLine
 62
7
  6
BYLAYER
 10
959.3066409309
 20
2204.6573382485
 11
959.3066409309
 21
2188.1573382485
  0
LINE
  5
2DB
100
AcDbEntity
  8
3
100
AcDbLine
 62
7
  6
BYLAYER
 10
959.3581939883
 20
189.6573510571
 11
959.3581939883
 21
2188.1573510571
  0
LINE
  5
2DC
100
AcDbEntity
  8
0
100
AcDbLine
 62
7
  6
BYLAYER
 10
959.3586995244
 20
173.1572281101
 11
959.3586995244
 21
189.6572281101
  0
LINE
  5
2DD
100
AcDbEntity
  8
0
100
AcDbLine
 62
7
  6
BYLAYER
 10
959.3594273354
 20
2188.1573382485
 11
959.3594273354
 21
2204.6573382485
  0
LINE
  5
2DE
100
AcDbEntity
  8
3
100
AcDbLine
 62
7
  6
BYLAYER
 10
959.7526211793
 20
2188.1573510571
 11
959.7526211793
 21
189.6573510571
  0
LINE
  5
2DF
100
AcDbEntity
  8
0
100
AcDbLine
 62
7
  6
BYLAYER
 10
959.7531267154
 20
189.6572281101
 11
959.7531267154
 21
173.1572281101
  0
LINE
  5
2E0
100
AcDbEntity
  8
0
100
AcDbLine
 62
7
  6
BYLAYER
 10
959.7538545264
 20
2204.6573382485
 11
959.7538545264
 21
2188.1573382485
  0
LINE
  5
2E1
100
AcDbEntity
  8
3
100
AcDbLine
 62
7
  6
BYLAYER
 10
961.5414755613
 20
1839.6573510571
 11
961.5414755613
 21
2188.1573510571
  0
LINE
  5
2E2
100
AcDbEntity
  8
0
100
AcDbLine
 62
7
  6
BYLAYER
 10
961.5419810974
 20
172.1572281101
 11
961.5419810974
 21
189.6572281101
  0
LINE
  5
2E3
100
AcDbEntity
  8
0
100
AcDbLine
 62
7
  6
BYLAYER
 10
961.5427089084
 20
2188.1573382485
 11
961.5427089084
 21
2205.6573382485
  0
LINE
  5
2E4
100
AcDbEntity
  8
0
100
AcDbLine
 62
7
  6
BYLAYER
 10
961.7973102944
 20
189.6572281101
 11
961.7973102944
 21
172.1572281101
  0
LINE
  5
2E5
100
AcDbEntity
  8
3
100
AcDbLine
 62
7
  6
BYLAYER
 10
961.7977853373
 20
2188.1573510571
 11
961.7977853373
 21
1839.6573510571
  0
LINE
  5
2E6
100
AcDbEntity
  8
0
100
AcDbLine
 62
7
  6
BYLAYER
 10
961.7980381054
 20
2205.6573382485
 11
961.7980381054
 21
2188.1573382485
  0
LINE
  5
2E7
100
AcDbEntity
  8
0
100
AcDbLine
 62
7
  6
BYLAYER
 10
963.7203581896
 20
173.1572281101
 11
963.7203581896
 21
189.6572281101
  0
LINE
  5
2E8
100
AcDbEntity
  8
3
100
AcDbLine
 62
7
  6
BYLAYER
 10
963.7208332326
 20
189.6573510571
 11
963.7208332326
 21
2188.1573510571
  0
LINE
  5
2E9
100
AcDbEntity
  8
0
100
AcDbLine
 62
7
  6
BYLAYER
 10
963.7210860007
 20
2188.1573382485
 11
963.7210860007
 21
2204.6573382485
  0
LINE
  5
2EA
100
AcDbEntity
  8
0
100
AcDbLine
 62
7
  6
BYLAYER
 10
964.759604065
 20
175.1572281101
 11
964.759604065
 21
173.1572281101
  0
LINE
  5
2EB
100
AcDbEntity
  8
0
100
AcDbLine
 62
7
  6
BYLAYER
 10
964.7603318761
 20
2204.6573382485
 11
964.7603318761
 21
2202.6573382485
  0
LINE
  5
2EC
100
AcDbEntity
  8
0
100
AcDbLine
 62
7
  6
BYLAYER
 10
964.8173181436
 20
173.1572281101
 11
964.8173181436
 21
174.7725391106
  0
LINE
  5
2ED
100
AcDbEntity
  8
0
100
AcDbLine
 62
7
  6
BYLAYER
 10
964.8180459546
 20
2203.0420272649
 11
964.8180459546
 21
2204.6573382485
  0
LINE
  5
2EE
100
AcDbEntity
  8
0
100
AcDbLine
 62
7
  6
BYLAYER
 10
964.9211525963
 20
189.6572281101
 11
964.9211525963
 21
175.1572281101
  0
LINE
  5
2EF
100
AcDbEntity
  8
3
100
AcDbLine
 62
7
  6
BYLAYER
 10
964.9216276393
 20
2188.1573510571
 11
964.9216276393
 21
189.6573510571
  0
LINE
  5
2F0
100
AcDbEntity
  8
0
100
AcDbLine
 62
7
  6
BYLAYER
 10
964.9218804073
 20
2202.6573382485
 11
964.9218804073
 21
2188.1573382485
  0
LINE
  5
2F1
100
AcDbEntity
  8
0
100
AcDbLine
 62
7
  6
BYLAYER
 10
965.1063881598
 20
173.0573382485
 11
965.1063881598
 21
174.6573382485
  0
LINE
  5
2F2
100
AcDbEntity
  8
0
100
AcDbLine
 62
7
  6
BYLAYER
 10
965.1066409309
 20
2203.1573382485
 11
965.1066409309
 21
2204.7573382485
  0
LINE
  5
2F3
100
AcDbEntity
  8
0
100
AcDbLine
 62
7
  6
BYLAYER
 10
965.3059131199
 20
173.1572281101
 11
965.3059131199
 21
189.6572281101
  0
LINE
  5
2F4
100
AcDbEntity
  8
3
100
AcDbLine
 62
7
  6
BYLAYER
 10
965.3063881629
 20
189.6573510571
 11
965.3063881629
 21
2188.1573510571
  0
LINE
  5
2F5
100
AcDbEntity
  8
0
100
AcDbLine
 62
7
  6
BYLAYER
 10
965.3066409309
 20
2188.1573382485
 11
965.3066409309
 21
2204.6573382485
  0
LINE
  5
2F6
100
AcDbEntity
  8
0
100
AcDbLine
 62
7
  6
BYLAYER
 10
965.3059116413
 20
174.157206045
 11
965.3059131194
 21
175.1339365559
  0
LINE
  5
2F7
100
AcDbEntity
  8
4
100
AcDbLine
 62
7
  6
BYLAYER
 10
968.4951338464
 20
2163.3404158326
 11
968.4951338464
 21
2113.3404158326
  0
LINE
  5
2F8
100
AcDbEntity
  8
4
100
AcDbLine
 62
7
  6
BYLAYER
 10
968.4951338464
 20
1214.2896542116
 11
968.4951338464
 21
1164.2896542116
  0
LINE
  5
2F9
100
AcDbEntity
  8
4
100
AcDbLine
 62
7
  6
BYLAYER
 10
968.4951338464
 20
267.0055133718
 11
968.4951338464
 21
217.0055133718
  0
LINE
  5
2FA
100
AcDbEntity
  8
4
100
AcDbLine
 62
7
  6
BYLAYER
 10
975.4951338464
 20
217.0055133718
 11
975.4951338464
 21
267.0055133718
  0
LINE
  5
2FB
100
AcDbEntity
  8
4
100
AcDbLine
 62
7
  6
BYLAYER
 10
975.4951338464
 20
1164.2896542116
 11
975.4951338464
 21
1214.2896542116
  0
LINE
  5
2FC
100
AcDbEntity
  8
4
100
AcDbLine
 62
7
  6
BYLAYER
 10
975.4951338464
 20
2113.3404158326
 11
975.4951338464
 21
2163.3404158326
  0
LINE
  5
2FD
100
AcDbEntity
  8
0
100
AcDbLine
 62
7
  6
BYLAYER
 10
794.1075100424
 20
2205.6573382485
 11
793.9075100424
 21
2205.8573382485
  0
LINE
  5
2FE
100
AcDbEntity
  8
0
100
AcDbLine
 62
7
  6
BYLAYER
 10
790.9075100424
 20
2212.1573382485
 11
791.4075100424
 21
2211.6573382485
  0
LINE
  5
2FF
100
AcDbEntity
  8
0
100
AcDbLine
 62
7
  6
BYLAYER
 10
808.9075100424
 20
2207.1573382485
 11
809.4075100424
 21
2206.6573382485
  0
LINE
  5
300
100
AcDbEntity
  8
0
100
AcDbLine
 62
7
  6
BYLAYER
 10
808.9075100424
 20
2212.1573382485
 11
809.4075100424
 21
2211.6573382485
  0
LINE
  5
301
100
AcDbEntity
  8
0
100
AcDbLine
 62
7
  6
BYLAYER
 10
807.157512021
 20
2216.1573382485
 11
807.6575100424
 21
2215.657340407
  0
LINE
  5
302
100
AcDbEntity
  8
0
100
AcDbLine
 62
7
  6
BYLAYER
 10
941.7566409309
 20
2205.6573382485
 11
941.5566409309
 21
2205.8573382485
  0
LINE
  5
303
100
AcDbEntity
  8
0
100
AcDbLine
 62
7
  6
BYLAYER
 10
938.5566409309
 20
2212.1573382485
 11
939.0566409309
 21
2211.6573382485
  0
LINE
  5
304
100
AcDbEntity
  8
0
100
AcDbLine
 62
7
  6
BYLAYER
 10
956.5566409309
 20
2207.1573382485
 11
957.0566409309
 21
2206.6573382485
  0
LINE
  5
305
100
AcDbEntity
  8
0
100
AcDbLine
 62
7
  6
BYLAYER
 10
956.5566409309
 20
2212.1573382485
 11
957.0566409309
 21
2211.6573382485
  0
LINE
  5
306
100
AcDbEntity
  8
0
100
AcDbLine
 62
7
  6
BYLAYER
 10
954.8066429095
 20
2216.1573382485
 11
955.3066409309
 21
2215.657340407
  0
LINE
  5
307
100
AcDbEntity
  8
4
100
AcDbLine
 62
7
  6
BYLAYER
 10
975.4951338464
 20
2113.3404158326
 11
965.3063881629
 21
2113.3404158326
  0
LINE
  5
308
100
AcDbEntity
  8
3
100
AcDbLine
 62
7
  6
BYLAYER
 10
827.8460029578
 20
2113.3404158326
 11
817.6572572744
 21
2113.3404158326
  0
LINE
  5
309
100
AcDbEntity
  8
3
100
AcDbLine
 62
7
  6
BYLAYER
 10
817.6572572744
 20
2163.3404158326
 11
827.8460029578
 21
2163.3404158326
  0
LINE
  5
30A
100
AcDbEntity
  8
4
100
AcDbLine
 62
7
  6
BYLAYER
 10
965.3063881629
 20
2163.3404158326
 11
975.4951338464
 21
2163.3404158326
  0
LINE
  5
30B
100
AcDbEntity
  8
0
100
AcDbLine
 62
7
  6
BYLAYER
 10
965.3066409309
 20
2188.1573382485
 11
959.3066409309
 21
2188.1573382485
  0
LINE
  5
30C
100
AcDbEntity
  8
0
100
AcDbLine
 62
7
  6
BYLAYER
 10
959.1057490142
 20
2188.1573382485
 11
921.5057490142
 21
2188.1573382485
  0
LINE
  5
30D
100
AcDbEntity
  8
0
100
AcDbLine
 62
7
  6
BYLAYER
 10
921.2538545264
 20
2188.1573382485
 11
915.3066409309
 21
2188.1573382485
  0
LINE
  5
30E
100
AcDbEntity
  8
0
100
AcDbLine
 62
7
  6
BYLAYER
 10
817.6575100424
 20
2188.1573382485
 11
811.6575100424
 21
2188.1573382485
  0
LINE
  5
30F
100
AcDbEntity
  8
0
100
AcDbLine
 62
7
  6
BYLAYER
 10
811.4566181257
 20
2188.1573382485
 11
773.8566181257
 21
2188.1573382485
  0
LINE
  5
310
100
AcDbEntity
  8
0
100
AcDbLine
 62
7
  6
BYLAYER
 10
773.6047236379
 20
2188.1573382485
 11
767.6575100424
 21
2188.1573382485
  0
LINE
  5
311
100
AcDbEntity
  8
3
100
AcDbLine
 62
7
  6
BYLAYER
 10
767.6572572744
 20
2188.1573510571
 11
773.6582378534
 21
2188.1573510571
  0
LINE
  5
312
100
AcDbEntity
  8
3
100
AcDbLine
 62
7
  6
BYLAYER
 10
811.6562766953
 20
2188.1573510571
 11
817.6572572744
 21
2188.1573510571
  0
LINE
  5
313
100
AcDbEntity
  8
3
100
AcDbLine
 62
7
  6
BYLAYER
 10
915.3063881629
 20
2188.1573510571
 11
921.3073687419
 21
2188.1573510571
  0
LINE
  5
314
100
AcDbEntity
  8
3
100
AcDbLine
 62
7
  6
BYLAYER
 10
959.3054075838
 20
2188.1573510571
 11
965.3063881629
 21
2188.1573510571
  0
LINE
  5
315
100
AcDbEntity
  8
3
100
AcDbLine
 62
7
  6
BYLAYER
 10
959.1057490142
 20
2188.1573675161
 11
921.5057490142
 21
2188.1573675161
  0
LINE
  5
316
100
AcDbEntity
  8
3
100
AcDbLine
 62
7
  6
BYLAYER
 10
811.4566181257
 20
2188.1573675161
 11
773.8566181257
 21
2188.1573675161
  0
LINE
  5
317
100
AcDbEntity
  8
0
100
AcDbLine
 62
7
  6
BYLAYER
 10
957.3066409309
 20
2201.6573382485
 11
941.3066577448
 21
2201.6573382485
  0
LINE
  5
318
100
AcDbEntity
  8
0
100
AcDbLine
 62
7
  6
BYLAYER
 10
939.3066409309
 20
2201.6573382485
 11
923.3066577448
 21
2201.6573382485
  0
LINE
  5
319
100
AcDbEntity
  8
0
100
AcDbLine
 62
7
  6
BYLAYER
 10
809.6575100424
 20
2201.6573382485
 11
793.6575268563
 21
2201.6573382485
  0
LINE
  5
31A
100
AcDbEntity
  8
0
100
AcDbLine
 62
7
  6
BYLAYER
 10
791.6575100424
 20
2201.6573382485
 11
775.6575268563
 21
2201.6573382485
  0
LINE
  5
31B
100
AcDbEntity
  8
0
100
AcDbLine
 62
7
  6
BYLAYER
 10
939.2013444462
 20
2201.6685513315
 11
923.4119540082
 21
2201.6685513315
  0
LINE
  5
31C
100
AcDbEntity
  8
0
100
AcDbLine
 62
7
  6
BYLAYER
 10
791.5522135577
 20
2201.6685513315
 11
775.7628231196
 21
2201.6685513315
  0
LINE
  5
31D
100
AcDbEntity
  8
0
100
AcDbLine
 62
7
  6
BYLAYER
 10
793.7627190712
 20
2201.6685324996
 11
809.5522844207
 21
2201.6685324996
  0
LINE
  5
31E
100
AcDbEntity
  8
0
100
AcDbLine
 62
7
  6
BYLAYER
 10
941.4118499598
 20
2201.6685324996
 11
957.2014153092
 21
2201.6685324996
  0
LINE
  5
31F
100
AcDbEntity
  8
0
100
AcDbLine
 62
7
  6
BYLAYER
 10
957.4121355911
 20
2202.6460824318
 11
941.2011633063
 21
2202.6460824318
  0
LINE
  5
320
100
AcDbEntity
  8
0
100
AcDbLine
 62
7
  6
BYLAYER
 10
939.4119374155
 20
2202.6461251656
 11
923.2013614815
 21
2202.6461251656
  0
LINE
  5
321
100
AcDbEntity
  8
0
100
AcDbLine
 62
7
  6
BYLAYER
 10
809.7630047026
 20
2202.6460824318
 11
793.5520324178
 21
2202.6460824318
  0
LINE
  5
322
100
AcDbEntity
  8
0
100
AcDbLine
 62
7
  6
BYLAYER
 10
791.762806527
 20
2202.6461251656
 11
775.552230593
 21
2202.6461251656
  0
LINE
  5
323
100
AcDbEntity
  8
0
100
AcDbLine
 62
7
  6
BYLAYER
 10
767.6575100424
 20
2202.6573382485
 11
768.2038190972
 21
2202.6573382485
  0
LINE
  5
324
100
AcDbEntity
  8
0
100
AcDbLine
 62
7
  6
BYLAYER
 10
817.1112009876
 20
2202.6573382485
 11
817.6575100424
 21
2202.6573382485
  0
LINE
  5
325
100
AcDbEntity
  8
0
100
AcDbLine
 62
7
  6
BYLAYER
 10
915.3066409309
 20
2202.6573382485
 11
915.8529499857
 21
2202.6573382485
  0
LINE
  5
326
100
AcDbEntity
  8
0
100
AcDbLine
 62
7
  6
BYLAYER
 10
964.7603318761
 20
2202.6573382485
 11
965.3066409309
 21
2202.6573382485
  0
LINE
  5
327
100
AcDbEntity
  8
0
100
AcDbLine
 62
7
  6
BYLAYER
 10
965.1066409309
 20
2203.1573382485
 11
964.8180459546
 21
2203.1573382485
  0
LINE
  5
328
100
AcDbEntity
  8
0
100
AcDbLine
 62
7
  6
BYLAYER
 10
915.7952359072
 20
2203.1573382485
 11
915.5066409309
 21
2203.1573382485
  0
LINE
  5
329
100
AcDbEntity
  8
0
100
AcDbLine
 62
7
  6
BYLAYER
 10
817.4575100424
 20
2203.1573382485
 11
817.1689150661
 21
2203.1573382485
  0
LINE
  5
32A
100
AcDbEntity
  8
0
100
AcDbLine
 62
7
  6
BYLAYER
 10
768.1461050186
 20
2203.1573382485
 11
767.8575100424
 21
2203.1573382485
  0
LINE
  5
32B
100
AcDbEntity
  8
0
100
AcDbLine
 62
7
  6
BYLAYER
 10
965.3066409309
 20
2203.6573383174
 11
965.1066409309
 21
2203.6573383174
  0
LINE
  5
32C
100
AcDbEntity
  8
0
100
AcDbLine
 62
7
  6
BYLAYER
 10
915.5066409309
 20
2203.6573383057
 11
915.3066409309
 21
2203.6573383057
  0
LINE
  5
32D
100
AcDbEntity
  8
0
100
AcDbLine
 62
7
  6
BYLAYER
 10
817.6575100424
 20
2203.6573383174
 11
817.4575100424
 21
2203.6573383174
  0
LINE
  5
32E
100
AcDbEntity
  8
0
100
AcDbLine
 62
7
  6
BYLAYER
 10
767.8575100424
 20
2203.6573383057
 11
767.6575100424
 21
2203.6573383057
  0
LINE
  5
32F
100
AcDbEntity
  8
0
100
AcDbLine
 62
7
  6
BYLAYER
 10
767.6575100424
 20
2204.6573382485
 11
767.8575100424
 21
2204.6573382485
  0
LINE
  5
330
100
AcDbEntity
  8
0
100
AcDbLine
 62
7
  6
BYLAYER
 10
817.4575100424
 20
2204.6573382485
 11
817.6575100424
 21
2204.6573382485
  0
LINE
  5
331
100
AcDbEntity
  8
0
100
AcDbLine
 62
7
  6
BYLAYER
 10
768.1461050186
 20
2204.6573382485
 11
817.1689150661
 21
2204.6573382485
  0
LINE
  5
332
100
AcDbEntity
  8
0
100
AcDbLine
 62
7
  6
BYLAYER
 10
915.3066409309
 20
2204.6573382485
 11
915.5066409309
 21
2204.6573382485
  0
LINE
  5
333
100
AcDbEntity
  8
0
100
AcDbLine
 62
7
  6
BYLAYER
 10
965.1066409309
 20
2204.6573382485
 11
965.3066409309
 21
2204.6573382485
  0
LINE
  5
334
100
AcDbEntity
  8
0
100
AcDbLine
 62
7
  6
BYLAYER
 10
915.7952359072
 20
2204.6573382485
 11
964.8180459546
 21
2204.6573382485
  0
LINE
  5
335
100
AcDbEntity
  8
0
100
AcDbLine
 62
7
  6
BYLAYER
 10
767.8575100424
 20
2204.7573382485
 11
768.1785972327
 21
2204.7573382485
  0
LINE
  5
336
100
AcDbEntity
  8
0
100
AcDbLine
 62
7
  6
BYLAYER
 10
817.1364226221
 20
2204.7573382485
 11
817.4575100424
 21
2204.7573382485
  0
LINE
  5
337
100
AcDbEntity
  8
0
100
AcDbLine
 62
7
  6
BYLAYER
 10
915.5066409309
 20
2204.7573382485
 11
915.8277281212
 21
2204.7573382485
  0
LINE
  5
338
100
AcDbEntity
  8
0
100
AcDbLine
 62
7
  6
BYLAYER
 10
964.7855535106
 20
2204.7573382485
 11
965.1066409309
 21
2204.7573382485
  0
LINE
  5
339
100
AcDbEntity
  8
0
100
AcDbLine
 62
7
  6
BYLAYER
 10
769.1463269334
 20
2205.6573382485
 11
816.1686915703
 21
2205.6573382485
  0
LINE
  5
33A
100
AcDbEntity
  8
0
100
AcDbLine
 62
7
  6
BYLAYER
 10
916.7954578219
 20
2205.6573382486
 11
963.8178224588
 21
2205.6573382485
  0
LINE
  5
33B
100
AcDbEntity
  8
0
100
AcDbLine
 62
7
  6
BYLAYER
 10
768.8576114684
 20
2205.7573382485
 11
774.4575097957
 21
2205.7573382485
  0
LINE
  5
33C
100
AcDbEntity
  8
0
100
AcDbLine
 62
7
  6
BYLAYER
 10
810.8576114684
 20
2205.7573382485
 11
816.4575097957
 21
2205.7573382485
  0
LINE
  5
33D
100
AcDbEntity
  8
0
100
AcDbLine
 62
7
  6
BYLAYER
 10
916.5067423569
 20
2205.7573382485
 11
922.1066406842
 21
2205.7573382485
  0
LINE
  5
33E
100
AcDbEntity
  8
0
100
AcDbLine
 62
7
  6
BYLAYER
 10
958.5067423569
 20
2205.7573382485
 11
964.1066406842
 21
2205.7573382485
  0
LINE
  5
33F
100
AcDbEntity
  8
0
100
AcDbLine
 62
7
  6
BYLAYER
 10
957.0566409309
 20
2205.8573382485
 11
941.5566409309
 21
2205.8573382485
  0
LINE
  5
340
100
AcDbEntity
  8
0
100
AcDbLine
 62
7
  6
BYLAYER
 10
809.4075100424
 20
2205.8573382485
 11
793.9075100424
 21
2205.8573382485
  0
LINE
  5
341
100
AcDbEntity
  8
0
100
AcDbLine
 62
7
  6
BYLAYER
 10
793.9075100424
 20
2206.6573382485
 11
809.4075100424
 21
2206.6573382485
  0
LINE
  5
342
100
AcDbEntity
  8
0
100
AcDbLine
 62
7
  6
BYLAYER
 10
941.5566409309
 20
2206.6573382485
 11
957.0566409309
 21
2206.6573382485
  0
LINE
  5
343
100
AcDbEntity
  8
0
100
AcDbLine
 62
7
  6
BYLAYER
 10
939.0566409309
 20
2207.1573382485
 11
923.5566409309
 21
2207.1573382485
  0
LINE
  5
344
100
AcDbEntity
  8
0
100
AcDbLine
 62
7
  6
BYLAYER
 10
791.4075100424
 20
2207.1573382485
 11
775.9075100424
 21
2207.1573382485
  0
LINE
  5
345
100
AcDbEntity
  8
0
100
AcDbLine
 62
7
  6
BYLAYER
 10
793.9075100424
 20
2207.1573382485
 11
809.4075100424
 21
2207.1573382485
  0
LINE
  5
346
100
AcDbEntity
  8
0
100
AcDbLine
 62
7
  6
BYLAYER
 10
941.5566409309
 20
2207.1573382485
 11
957.0566409309
 21
2207.1573382485
  0
LINE
  5
347
100
AcDbEntity
  8
0
100
AcDbLine
 62
7
  6
BYLAYER
 10
955.3066409309
 20
2208.1573382485
 11
943.3066409309
 21
2208.1573382485
  0
LINE
  5
348
100
AcDbEntity
  8
0
100
AcDbLine
 62
7
  6
BYLAYER
 10
807.6575100424
 20
2208.1573382485
 11
795.6575100424
 21
2208.1573382485
  0
LINE
  5
349
100
AcDbEntity
  8
0
100
AcDbLine
 62
7
  6
BYLAYER
 10
957.0566366481
 20
2210.1573382485
 11
955.3066409309
 21
2210.1573382485
  0
LINE
  5
34A
100
AcDbEntity
  8
0
100
AcDbLine
 62
7
  6
BYLAYER
 10
943.3066409309
 20
2210.1573382485
 11
941.5566452137
 21
2210.1573382485
  0
LINE
  5
34B
100
AcDbEntity
  8
0
100
AcDbLine
 62
7
  6
BYLAYER
 10
939.0566366481
 20
2210.1573382485
 11
923.5566452137
 21
2210.1573382485
  0
LINE
  5
34C
100
AcDbEntity
  8
0
100
AcDbLine
 62
7
  6
BYLAYER
 10
809.4075057596
 20
2210.1573382485
 11
807.6575100424
 21
2210.1573382485
  0
LINE
  5
34D
100
AcDbEntity
  8
0
100
AcDbLine
 62
7
  6
BYLAYER
 10
795.6575100424
 20
2210.1573382485
 11
793.9075143252
 21
2210.1573382485
  0
LINE
  5
34E
100
AcDbEntity
  8
0
100
AcDbLine
 62
7
  6
BYLAYER
 10
791.4075057596
 20
2210.1573382485
 11
775.9075143252
 21
2210.1573382485
  0
LINE
  5
34F
100
AcDbEntity
  8
0
100
AcDbLine
 62
7
  6
BYLAYER
 10
775.9075100424
 20
2211.6573382485
 11
791.4075100424
 21
2211.6573382485
  0
LINE
  5
350
100
AcDbEntity
  8
0
100
AcDbLine
 62
7
  6
BYLAYER
 10
793.9075100424
 20
2211.6573382485
 11
795.6575100424
 21
2211.6573382485
  0
LINE
  5
351
100
AcDbEntity
  8
0
100
AcDbLine
 62
7
  6
BYLAYER
 10
807.6575100424
 20
2211.6573382485
 11
809.4075100424
 21
2211.6573382485
  0
LINE
  5
352
100
AcDbEntity
  8
0
100
AcDbLine
 62
7
  6
BYLAYER
 10
923.5566409309
 20
2211.6573382485
 11
939.0566409309
 21
2211.6573382485
  0
LINE
  5
353
100
AcDbEntity
  8
0
100
AcDbLine
 62
7
  6
BYLAYER
 10
941.5566409309
 20
2211.6573382485
 11
943.3066409309
 21
2211.6573382485
  0
LINE
  5
354
100
AcDbEntity
  8
0
100
AcDbLine
 62
7
  6
BYLAYER
 10
955.3066409309
 20
2211.6573382485
 11
957.0566409309
 21
2211.6573382485
  0
LINE
  5
355
100
AcDbEntity
  8
0
100
AcDbLine
 62
7
  6
BYLAYER
 10
776.4075140452
 20
2212.1573382485
 11
790.9075060396
 21
2212.1573382485
  0
LINE
  5
356
100
AcDbEntity
  8
0
100
AcDbLine
 62
7
  6
BYLAYER
 10
794.4075140452
 20
2212.1573382485
 11
795.6575100424
 21
2212.1573382485
  0
LINE
  5
357
100
AcDbEntity
  8
0
100
AcDbLine
 62
7
  6
BYLAYER
 10
807.6575100424
 20
2212.1573382485
 11
808.9075060396
 21
2212.1573382485
  0
LINE
  5
358
100
AcDbEntity
  8
0
100
AcDbLine
 62
7
  6
BYLAYER
 10
924.0566449337
 20
2212.1573382485
 11
938.5566369281
 21
2212.1573382485
  0
LINE
  5
359
100
AcDbEntity
  8
0
100
AcDbLine
 62
7
  6
BYLAYER
 10
942.0566449337
 20
2212.1573382485
 11
943.3066409309
 21
2212.1573382485
  0
LINE
  5
35A
100
AcDbEntity
  8
0
100
AcDbLine
 62
7
  6
BYLAYER
 10
955.3066409309
 20
2212.1573382485
 11
956.5566369281
 21
2212.1573382485
  0
LINE
  5
35B
100
AcDbEntity
  8
0
100
AcDbLine
 62
7
  6
BYLAYER
 10
779.5307500424
 20
2213.3573382485
 11
782.9557500424
 21
2213.3573382485
  0
LINE
  5
35C
100
AcDbEntity
  8
0
100
AcDbLine
 62
7
  6
BYLAYER
 10
784.3557500424
 20
2213.3573382485
 11
787.7807500424
 21
2213.3573382485
  0
LINE
  5
35D
100
AcDbEntity
  8
0
100
AcDbLine
 62
7
  6
BYLAYER
 10
927.1798809309
 20
2213.3573382485
 11
933.684417012
 21
2213.3573382485
  0
LINE
  5
35E
100
AcDbEntity
  8
0
100
AcDbLine
 62
7
  6
BYLAYER
 10
934.6743665057
 20
2213.3573382485
 11
935.4298809309
 21
2213.3573382485
  0
LINE
  5
35F
100
AcDbEntity
  8
0
100
AcDbLine
 62
7
  6
BYLAYER
 10
779.8307615683
 20
2213.6573382485
 11
787.4807192777
 21
2213.6573382485
  0
LINE
  5
360
100
AcDbEntity
  8
0
100
AcDbLine
 62
7
  6
BYLAYER
 10
927.4798590396
 20
2213.6573382485
 11
935.1299412988
 21
2213.6573382485
  0
LINE
  5
361
100
AcDbEntity
  8
0
100
AcDbLine
 62
7
  6
BYLAYER
 10
795.6575100424
 20
2215.6573373111
 11
807.6575100424
 21
2215.6573373111
  0
LINE
  5
362
100
AcDbEntity
  8
0
100
AcDbLine
 62
7
  6
BYLAYER
 10
943.3066409309
 20
2215.6573373111
 11
955.3066409309
 21
2215.6573373111
  0
LINE
  5
363
100
AcDbEntity
  8
0
100
AcDbLine
 62
7
  6
BYLAYER
 10
796.1575094781
 20
2216.1573382485
 11
807.157504741
 21
2216.1573382485
  0
LINE
  5
364
100
AcDbEntity
  8
0
100
AcDbLine
 62
7
  6
BYLAYER
 10
943.8066403666
 20
2216.1573382485
 11
954.8066356296
 21
2216.1573382485
  0
ARC
  5
365
100
AcDbEntity
  8
0
100
AcDbCircle
 62
7
  6
BYLAYER
 10
810.8567822313
 20
173.0573382485
 40
1.0
100
AcDbArc
 50
247.6323509967
 51
270.0
  0
ARC
  5
366
100
AcDbEntity
  8
0
100
AcDbCircle
 62
7
  6
BYLAYER
 10
774.4567822342
 20
173.0573382485
 40
1.0
100
AcDbArc
 50
270.0
 51
292.3676490033
  0
ARC
  5
367
100
AcDbEntity
  8
0
100
AcDbCircle
 62
7
  6
BYLAYER
 10
811.8572572713
 20
173.0573382485
 40
1.0
100
AcDbArc
 50
247.6323509967
 51
270.0
  0
ARC
  5
368
100
AcDbEntity
  8
0
100
AcDbCircle
 62
7
  6
BYLAYER
 10
816.4572572713
 20
173.0573382485
 40
1.0
100
AcDbArc
 50
270.0
 51
360.0
  0
ARC
  5
369
100
AcDbEntity
  8
0
100
AcDbCircle
 62
7
  6
BYLAYER
 10
768.8572572743
 20
173.0573382485
 40
1.0
100
AcDbArc
 50
180.0
 51
270.0
  0
ARC
  5
36A
100
AcDbEntity
  8
0
100
AcDbCircle
 62
7
  6
BYLAYER
 10
773.4572572743
 20
173.0573382485
 40
1.0
100
AcDbArc
 50
270.0
 51
292.3676490033
  0
ARC
  5
36B
100
AcDbEntity
  8
0
100
AcDbCircle
 62
7
  6
BYLAYER
 10
769.1453772076
 20
173.1572281101
 40
1.0
100
AcDbArc
 50
180.0
 51
270.0
  0
ARC
  5
36C
100
AcDbEntity
  8
0
100
AcDbCircle
 62
7
  6
BYLAYER
 10
816.1681872551
 20
173.1572281101
 40
1.0
100
AcDbArc
 50
270.0
 51
360.0
  0
ARC
  5
36D
100
AcDbEntity
  8
0
100
AcDbCircle
 62
7
  6
BYLAYER
 10
816.6567822313
 20
173.1572281101
 40
1.0
100
AcDbArc
 50
290.1402792352
 51
360.0
  0
ARC
  5
36E
100
AcDbEntity
  8
0
100
AcDbCircle
 62
7
  6
BYLAYER
 10
772.6567822313
 20
173.1572281101
 40
1.0
100
AcDbArc
 50
270.0
 51
360.0
  0
ARC
  5
36F
100
AcDbEntity
  8
0
100
AcDbCircle
 62
7
  6
BYLAYER
 10
768.6567822313
 20
173.1572281101
 40
1.0
100
AcDbArc
 50
180.0000000001
 51
249.9315512357
  0
ARC
  5
370
100
AcDbEntity
  8
0
100
AcDbCircle
 62
7
  6
BYLAYER
 10
812.6567822313
 20
173.1572281101
 40
1.0
100
AcDbArc
 50
180.0
 51
270.0
  0
ARC
  5
371
100
AcDbEntity
  8
0
100
AcDbCircle
 62
7
  6
BYLAYER
 10
769.1646228834
 20
173.068540954
 40
0.911312844
100
AcDbArc
 50
268.9031615481
 51
269.9995190545
  0
ARC
  5
372
100
AcDbEntity
  8
0
100
AcDbCircle
 62
7
  6
BYLAYER
 10
816.1489416487
 20
173.0676849211
 40
0.910456811
100
AcDbArc
 50
270.0004770283
 51
271.080091767
  0
ARC
  5
373
100
AcDbEntity
  8
0
100
AcDbCircle
 62
7
  6
BYLAYER
 10
817.1567822313
 20
175.1572281101
 40
0.5
100
AcDbArc
 50
271.1642031186
 51
360.0
  0
ARC
  5
374
100
AcDbEntity
  8
0
100
AcDbCircle
 62
7
  6
BYLAYER
 10
768.1567822313
 20
175.1572281101
 40
0.5
100
AcDbArc
 50
180.0
 51
268.8357968818
  0
ARC
  5
375
100
AcDbEntity
  8
0
100
AcDbCircle
 62
7
  6
BYLAYER
 10
817.5190283612
 20
174.749543808
 40
0.3511956121
100
AcDbArc
 50
168.8863826976
 51
177.9822951651
  0
ARC
  5
376
100
AcDbEntity
  8
0
100
AcDbCircle
 62
7
  6
BYLAYER
 10
774.4575100424
 20
2204.7573382485
 40
1.0
100
AcDbArc
 50
67.6076884452
 51
90.0
  0
ARC
  5
377
100
AcDbEntity
  8
0
100
AcDbCircle
 62
7
  6
BYLAYER
 10
773.4575100424
 20
2204.7573382485
 40
1.0
100
AcDbArc
 50
67.6076884452
 51
90.0
  0
ARC
  5
378
100
AcDbEntity
  8
0
100
AcDbCircle
 62
7
  6
BYLAYER
 10
768.8575100424
 20
2204.7573382485
 40
1.0
100
AcDbArc
 50
90.0
 51
180.0
  0
ARC
  5
379
100
AcDbEntity
  8
0
100
AcDbCircle
 62
7
  6
BYLAYER
 10
769.1461050186
 20
2204.6573382485
 40
1.0
100
AcDbArc
 50
90.0
 51
180.0
  0
ARC
  5
37A
100
AcDbEntity
  8
0
100
AcDbCircle
 62
7
  6
BYLAYER
 10
768.6575100424
 20
2204.6573382485
 40
1.0
100
AcDbArc
 50
110.1126910721
 51
180.0000000001
  0
ARC
  5
37B
100
AcDbEntity
  8
0
100
AcDbCircle
 62
7
  6
BYLAYER
 10
772.6575100424
 20
2204.6573382485
 40
1.0
100
AcDbArc
 50
0.0
 51
90.0
  0
ARC
  5
37C
100
AcDbEntity
  8
0
100
AcDbCircle
 62
7
  6
BYLAYER
 10
769.165350625
 20
2204.7468814384
 40
0.9104568101
100
AcDbArc
 50
90.0004770271
 51
91.0800917668
  0
ARC
  5
37D
100
AcDbEntity
  8
0
100
AcDbCircle
 62
7
  6
BYLAYER
 10
768.1575100424
 20
2202.6573382485
 40
0.5
100
AcDbArc
 50
91.1642031187
 51
180.0
  0
ARC
  5
37E
100
AcDbEntity
  8
0
100
AcDbCircle
 62
7
  6
BYLAYER
 10
775.6575277048
 20
2202.1573384313
 40
0.4999999534
100
AcDbArc
 50
102.1571786862
 51
282.1569797606
  0
ARC
  5
37F
100
AcDbEntity
  8
0
100
AcDbCircle
 62
7
  6
BYLAYER
 10
791.6574923799
 20
2202.1573384313
 40
0.4999999534
100
AcDbArc
 50
257.8430202394
 51
77.8428213138
  0
ARC
  5
380
100
AcDbEntity
  8
0
100
AcDbCircle
 62
7
  6
BYLAYER
 10
767.7952639123
 20
2203.0650225506
 40
0.3511956123
100
AcDbArc
 50
348.8863826997
 51
357.9822949634
  0
ARC
  5
381
100
AcDbEntity
  8
0
100
AcDbCircle
 62
7
  6
BYLAYER
 10
787.4807500424
 20
2213.3573382485
 40
0.3
100
AcDbArc
 50
0.0
 51
90.0
  0
ARC
  5
382
100
AcDbEntity
  8
0
100
AcDbCircle
 62
7
  6
BYLAYER
 10
779.8307500424
 20
2213.3573382485
 40
0.3
100
AcDbArc
 50
90.0
 51
180.0
  0
ARC
  5
383
100
AcDbEntity
  8
0
100
AcDbCircle
 62
7
  6
BYLAYER
 10
810.8575100424
 20
2204.7573382485
 40
1.0
100
AcDbArc
 50
90.0
 51
112.3923115548
  0
ARC
  5
384
100
AcDbEntity
  8
0
100
AcDbCircle
 62
7
  6
BYLAYER
 10
816.4575100424
 20
2204.7573382485
 40
1.0
100
AcDbArc
 50
0.0
 51
90.0
  0
ARC
  5
385
100
AcDbEntity
  8
0
100
AcDbCircle
 62
7
  6
BYLAYER
 10
811.8575100424
 20
2204.7573382485
 40
1.0
100
AcDbArc
 50
90.0
 51
112.3923115548
  0
ARC
  5
386
100
AcDbEntity
  8
0
100
AcDbCircle
 62
7
  6
BYLAYER
 10
816.1689150661
 20
2204.6573382485
 40
1.0
100
AcDbArc
 50
0.0
 51
90.0
  0
ARC
  5
387
100
AcDbEntity
  8
0
100
AcDbCircle
 62
7
  6
BYLAYER
 10
816.6575100424
 20
2204.6573382485
 40
1.0
100
AcDbArc
 50
0.0
 51
69.8873089279
  0
ARC
  5
388
100
AcDbEntity
  8
0
100
AcDbCircle
 62
7
  6
BYLAYER
 10
812.6575100424
 20
2204.6573382485
 40
1.0
100
AcDbArc
 50
90.0
 51
180.0
  0
ARC
  5
389
100
AcDbEntity
  8
0
100
AcDbCircle
 62
7
  6
BYLAYER
 10
816.1496693903
 20
2204.7460254063
 40
0.9113128423
100
AcDbArc
 50
88.9031615486
 51
89.9995190566
  0
ARC
  5
38A
100
AcDbEntity
  8
0
100
AcDbCircle
 62
7
  6
BYLAYER
 10
817.1575100424
 20
2202.6573382485
 40
0.5
100
AcDbArc
 50
0.0
 51
88.8357968818
  0
ARC
  5
38B
100
AcDbEntity
  8
0
100
AcDbCircle
 62
7
  6
BYLAYER
 10
793.6575277043
 20
2202.1573384316
 40
0.4999999532
100
AcDbArc
 50
102.1804098123
 51
282.180210997
  0
ARC
  5
38C
100
AcDbEntity
  8
0
100
AcDbCircle
 62
7
  6
BYLAYER
 10
809.6574923805
 20
2202.1573384316
 40
0.4999999532
100
AcDbArc
 50
257.819789003
 51
77.8195901876
  0
ARC
  5
38D
100
AcDbEntity
  8
0
100
AcDbCircle
 62
7
  6
BYLAYER
 10
922.1059131228
 20
173.0573382485
 40
1.0
100
AcDbArc
 50
270.0
 51
292.3676490033
  0
ARC
  5
38E
100
AcDbEntity
  8
0
100
AcDbCircle
 62
7
  6
BYLAYER
 10
916.5063881629
 20
173.0573382485
 40
1.0
100
AcDbArc
 50
180.0
 51
270.0
  0
ARC
  5
38F
100
AcDbEntity
  8
0
100
AcDbCircle
 62
7
  6
BYLAYER
 10
921.1063881629
 20
173.0573382485
 40
1.0
100
AcDbArc
 50
270.0
 51
292.3676490033
  0
ARC
  5
390
100
AcDbEntity
  8
0
100
AcDbCircle
 62
7
  6
BYLAYER
 10
916.7945080961
 20
173.1572281101
 40
1.0
100
AcDbArc
 50
180.0
 51
270.0
  0
ARC
  5
391
100
AcDbEntity
  8
0
100
AcDbCircle
 62
7
  6
BYLAYER
 10
920.3059131199
 20
173.1572281101
 40
1.0
100
AcDbArc
 50
270.0
 51
360.0
  0
ARC
  5
392
100
AcDbEntity
  8
0
100
AcDbCircle
 62
7
  6
BYLAYER
 10
916.3059131199
 20
173.1572281101
 40
1.0
100
AcDbArc
 50
180.0000000001
 51
249.9315512356
  0
ARC
  5
393
100
AcDbEntity
  8
0
100
AcDbCircle
 62
7
  6
BYLAYER
 10
916.813753772
 20
173.068540954
 40
0.9113128439
100
AcDbArc
 50
268.903161548
 51
269.9995190545
  0
ARC
  5
394
100
AcDbEntity
  8
0
100
AcDbCircle
 62
7
  6
BYLAYER
 10
915.8059131199
 20
175.1572281101
 40
0.5
100
AcDbArc
 50
180.0
 51
268.8357968818
  0
ARC
  5
395
100
AcDbEntity
  8
0
100
AcDbCircle
 62
7
  6
BYLAYER
 10
958.5059131199
 20
173.0573382485
 40
1.0
100
AcDbArc
 50
247.6323509967
 51
270.0
  0
ARC
  5
396
100
AcDbEntity
  8
0
100
AcDbCircle
 62
7
  6
BYLAYER
 10
959.5063881598
 20
173.0573382485
 40
1.0
100
AcDbArc
 50
247.6323509967
 51
270.0
  0
ARC
  5
397
100
AcDbEntity
  8
0
100
AcDbCircle
 62
7
  6
BYLAYER
 10
964.1063881598
 20
173.0573382485
 40
1.0
100
AcDbArc
 50
270.0
 51
360.0
  0
ARC
  5
398
100
AcDbEntity
  8
0
100
AcDbCircle
 62
7
  6
BYLAYER
 10
963.8173181436
 20
173.1572281101
 40
1.0
100
AcDbArc
 50
270.0
 51
360.0
  0
ARC
  5
399
100
AcDbEntity
  8
0
100
AcDbCircle
 62
7
  6
BYLAYER
 10
964.3059131199
 20
173.1572281101
 40
1.0
100
AcDbArc
 50
290.1402792352
 51
359.9999999999
  0
ARC
  5
39A
100
AcDbEntity
  8
0
100
AcDbCircle
 62
7
  6
BYLAYER
 10
960.3059131199
 20
173.1572281101
 40
1.0
100
AcDbArc
 50
180.0
 51
270.0
  0
ARC
  5
39B
100
AcDbEntity
  8
0
100
AcDbCircle
 62
7
  6
BYLAYER
 10
963.7980725372
 20
173.0676849211
 40
0.9104568111
100
AcDbArc
 50
270.0004770283
 51
271.0800917669
  0
ARC
  5
39C
100
AcDbEntity
  8
0
100
AcDbCircle
 62
7
  6
BYLAYER
 10
964.8059131199
 20
175.1572281101
 40
0.5
100
AcDbArc
 50
271.1642031186
 51
360.0
  0
ARC
  5
39D
100
AcDbEntity
  8
0
100
AcDbCircle
 62
7
  6
BYLAYER
 10
965.1681592497
 20
174.749543808
 40
0.351195612
100
AcDbArc
 50
168.8863826967
 51
177.982295197
  0
ARC
  5
39E
100
AcDbEntity
  8
0
100
AcDbCircle
 62
7
  6
BYLAYER
 10
922.1066409309
 20
2204.7573382485
 40
1.0
100
AcDbArc
 50
67.6076884452
 51
90.0
  0
ARC
  5
39F
100
AcDbEntity
  8
0
100
AcDbCircle
 62
7
  6
BYLAYER
 10
921.1066409309
 20
2204.7573382485
 40
1.0
100
AcDbArc
 50
67.6076884452
 51
90.0
  0
ARC
  5
3A0
100
AcDbEntity
  8
0
100
AcDbCircle
 62
7
  6
BYLAYER
 10
916.5066409309
 20
2204.7573382485
 40
1.0
100
AcDbArc
 50
90.0
 51
180.0
  0
ARC
  5
3A1
100
AcDbEntity
  8
0
100
AcDbCircle
 62
7
  6
BYLAYER
 10
916.7952359072
 20
2204.6573382485
 40
1.0
100
AcDbArc
 50
90.0
 51
180.0
  0
ARC
  5
3A2
100
AcDbEntity
  8
0
100
AcDbCircle
 62
7
  6
BYLAYER
 10
916.3066409309
 20
2204.6573382485
 40
1.0
100
AcDbArc
 50
110.1126910722
 51
180.0000000001
  0
ARC
  5
3A3
100
AcDbEntity
  8
0
100
AcDbCircle
 62
7
  6
BYLAYER
 10
920.3066409309
 20
2204.6573382485
 40
1.0
100
AcDbArc
 50
0.0
 51
90.0
  0
ARC
  5
3A4
100
AcDbEntity
  8
0
100
AcDbCircle
 62
7
  6
BYLAYER
 10
916.8144815135
 20
2204.7468814421
 40
0.9104568065
100
AcDbArc
 50
90.000477026
 51
91.08009177
  0
ARC
  5
3A5
100
AcDbEntity
  8
0
100
AcDbCircle
 62
7
  6
BYLAYER
 10
915.8066409309
 20
2202.6573382485
 40
0.5
100
AcDbArc
 50
91.1642031186
 51
180.0
  0
ARC
  5
3A6
100
AcDbEntity
  8
0
100
AcDbCircle
 62
7
  6
BYLAYER
 10
923.3066585933
 20
2202.1573384313
 40
0.4999999534
100
AcDbArc
 50
102.1571786862
 51
282.1569797606
  0
ARC
  5
3A7
100
AcDbEntity
  8
0
100
AcDbCircle
 62
7
  6
BYLAYER
 10
939.3066232684
 20
2202.1573384313
 40
0.4999999534
100
AcDbArc
 50
257.8430202394
 51
77.8428213138
  0
ARC
  5
3A8
100
AcDbEntity
  8
0
100
AcDbCircle
 62
7
  6
BYLAYER
 10
915.4443948008
 20
2203.0650225506
 40
0.3511956123
100
AcDbArc
 50
348.8863826997
 51
357.9822949889
  0
ARC
  5
3A9
100
AcDbEntity
  8
0
100
AcDbCircle
 62
7
  6
BYLAYER
 10
935.1298809309
 20
2213.3573382485
 40
0.3
100
AcDbArc
 50
0.0000000001
 51
90.0
  0
ARC
  5
3AA
100
AcDbEntity
  8
0
100
AcDbCircle
 62
7
  6
BYLAYER
 10
927.4798809309
 20
2213.3573382485
 40
0.3
100
AcDbArc
 50
90.0
 51
180.0
  0
ARC
  5
3AB
100
AcDbEntity
  8
0
100
AcDbCircle
 62
7
  6
BYLAYER
 10
958.5066409309
 20
2204.7573382485
 40
1.0
100
AcDbArc
 50
90.0
 51
112.3923115549
  0
ARC
  5
3AC
100
AcDbEntity
  8
0
100
AcDbCircle
 62
7
  6
BYLAYER
 10
964.1066409309
 20
2204.7573382485
 40
1.0
100
AcDbArc
 50
0.0
 51
90.0
  0
ARC
  5
3AD
100
AcDbEntity
  8
0
100
AcDbCircle
 62
7
  6
BYLAYER
 10
959.5066409309
 20
2204.7573382485
 40
1.0
100
AcDbArc
 50
90.0
 51
112.3923115548
  0
ARC
  5
3AE
100
AcDbEntity
  8
0
100
AcDbCircle
 62
7
  6
BYLAYER
 10
963.8180459546
 20
2204.6573382485
 40
1.0
100
AcDbArc
 50
0.0
 51
90.0
  0
ARC
  5
3AF
100
AcDbEntity
  8
0
100
AcDbCircle
 62
7
  6
BYLAYER
 10
964.3066409309
 20
2204.6573382485
 40
1.0
100
AcDbArc
 50
0.0
 51
69.8873089279
  0
ARC
  5
3B0
100
AcDbEntity
  8
0
100
AcDbCircle
 62
7
  6
BYLAYER
 10
960.3066409309
 20
2204.6573382485
 40
1.0
100
AcDbArc
 50
90.0
 51
180.0
  0
ARC
  5
3B1
100
AcDbEntity
  8
0
100
AcDbCircle
 62
7
  6
BYLAYER
 10
963.7988002788
 20
2204.7460254063
 40
0.9113128423
100
AcDbArc
 50
88.9031615465
 51
89.9995190545
  0
ARC
  5
3B2
100
AcDbEntity
  8
0
100
AcDbCircle
 62
7
  6
BYLAYER
 10
964.8066409309
 20
2202.6573382485
 40
0.5
100
AcDbArc
 50
0.0
 51
88.8357968818
  0
ARC
  5
3B3
100
AcDbEntity
  8
0
100
AcDbCircle
 62
7
  6
BYLAYER
 10
941.3066585928
 20
2202.1573384316
 40
0.4999999532
100
AcDbArc
 50
102.1804098124
 51
282.180210997
  0
ARC
  5
3B4
100
AcDbEntity
  8
0
100
AcDbCircle
 62
7
  6
BYLAYER
 10
957.306623269
 20
2202.1573384316
 40
0.4999999532
100
AcDbArc
 50
257.819789003
 51
77.8195901876
  0
SPLINE
  5
3B5
100
AcDbEntity
  8
0
100
AcDbSpline
 62
7
  6
BYLAYER
 70
0
 71
3
 72
11
 73
7
 74
0
 42
0.0000001
 43
0.0000001
 44
0.0000000001
 40
0.0
 40
0.0
 40
0.0
 40
0.0
 40
0.288432907
 40
0.5554725908
 40
0.7902209526
 40
1.0
 40
1.0
 40
1.0
 40
1.0
 10
933.684417012
 20
2213.3573382485
 30
0.0
 10
933.684417012
 20
2213.3962799147
 30
0.0
 10
933.6740195285
 20
2213.4717702839
 30
0.0
 10
933.6284355378
 20
2213.5701692374
 30
0.0
 10
933.557986457
 20
2213.6395347892
 30
0.0
 10
933.4972293344
 20
2213.6573392139
 30
0.0
 10
933.4689068184
 20
2213.6573382485
 30
0.0
  0
SPLINE
  5
3B6
100
AcDbEntity
  8
0
100
AcDbSpline
 62
7
  6
BYLAYER
 70
0
 71
3
 72
11
 73
7
 74
0
 42
0.0000001
 43
0.0000001
 44
0.0000000001
 40
0.0
 40
0.0
 40
0.0
 40
0.0
 40
0.2883671583
 40
0.5553852791
 40
0.7902445524
 40
1.0
 40
1.0
 40
1.0
 40
1.0
 10
934.6743665057
 20
2213.3573382486
 30
0.0
 10
934.6743665057
 20
2213.3962589546
 30
0.0
 10
934.6639268456
 20
2213.4717172787
 30
0.0
 10
934.618254534
 20
2213.5700330614
 30
0.0
 10
934.5478939881
 20
2213.6394102001
 30
0.0
 10
934.4871668525
 20
2213.6573392135
 30
0.0
 10
934.458856312
 20
2213.6573382485
 30
0.0
  0
SPLINE
  5
3B7
100
AcDbEntity
  8
0
100
AcDbSpline
 62
7
  6
BYLAYER
 70
0
 71
3
 72
8
 73
4
 74
0
 42
0.0000001
 43
0.0000001
 44
0.0000000001
 40
0.0
 40
0.0
 40
0.0
 40
0.0
 40
1.0
 40
1.0
 40
1.0
 40
1.0
 10
964.823549651
 20
174.817238582
 30
0.0
 10
964.8328465028
 20
174.8647713811
 30
0.0
 10
964.8519975155
 20
174.9112459195
 30
0.0
 10
964.8786517156
 20
174.9516854059
 30
0.0
  0
SPLINE
  5
3B8
100
AcDbEntity
  8
0
100
AcDbSpline
 62
7
  6
BYLAYER
 70
0
 71
3
 72
9
 73
5
 74
0
 42
0.0000001
 43
0.0000001
 44
0.0000000001
 40
0.0
 40
0.0
 40
0.0
 40
0.0
 40
0.242355115
 40
1.0
 40
1.0
 40
1.0
 40
1.0
 10
964.817322155
 20
174.7725406151
 30
0.0
 10
964.8173311735
 20
174.8040262844
 30
0.0
 10
964.812126173
 20
174.9339275635
 30
0.0
 10
964.7871370214
 20
175.0627274575
 30
0.0
 10
964.7596040381
 20
175.157228006
 30
0.0
  0
SPLINE
  5
3B9
100
AcDbEntity
  8
0
100
AcDbSpline
 62
7
  6
BYLAYER
 70
0
 71
3
 72
11
 73
7
 74
0
 42
0.0000001
 43
0.0000001
 44
0.0000000001
 40
0.0
 40
0.0
 40
0.0
 40
0.0
 40
0.2455000837
 40
0.4935877931
 40
0.7454492783
 40
1.0
 40
1.0
 40
1.0
 40
1.0
 10
916.7963091726
 20
172.15739509
 30
0.0
 10
916.6724572777
 20
172.1597653154
 30
0.0
 10
916.4216048288
 20
172.2159917789
 30
0.0
 10
916.108429585
 20
172.4410599072
 30
0.0
 10
915.9004563424
 20
172.7706537551
 30
0.0
 10
915.8522221747
 20
173.0287867609
 30
0.0
 10
915.8522221747
 20
173.1572281101
 30
0.0
  0
SPLINE
  5
3BA
100
AcDbEntity
  8
0
100
AcDbSpline
 62
7
  6
BYLAYER
 70
0
 71
3
 72
10
 73
6
 74
0
 42
0.0000001
 43
0.0000001
 44
0.0000000001
 40
0.0
 40
0.0
 40
0.0
 40
0.0
 40
0.2390480837
 40
0.4858776495
 40
1.0
 40
1.0
 40
1.0
 40
1.0
 10
919.9642723334
 20
172.1572281101
 30
0.0
 10
920.0811586161
 20
172.1572281101
 30
0.0
 10
920.3217402001
 20
172.2120299197
 30
0.0
 10
920.720666305
 20
172.5135063147
 30
0.0
 10
920.8586995244
 20
172.9058399815
 30
0.0
 10
920.8586995244
 20
173.1572281101
 30
0.0
  0
SPLINE
  5
3BB
100
AcDbEntity
  8
0
100
AcDbSpline
 62
7
  6
BYLAYER
 70
0
 71
3
 72
11
 73
7
 74
0
 42
0.0000001
 43
0.0000001
 44
0.0000000001
 40
0.0
 40
0.0
 40
0.0
 40
0.0
 40
0.2429770416
 40
0.4900484521
 40
0.7429376142
 40
1.0
 40
1.0
 40
1.0
 40
1.0
 10
920.305912243
 20
172.1572281101
 30
0.0
 10
920.4290047121
 20
172.1572352582
 30
0.0
 10
920.6801704053
 20
172.209983497
 30
0.0
 10
920.994867398
 20
172.4339076097
 30
0.0
 10
921.204464977
 20
172.7660092554
 30
0.0
 10
921.2531447378
 20
173.026999988
 30
0.0
 10
921.2531455571
 20
173.1572281101
 30
0.0
  0
SPLINE
  5
3BC
100
AcDbEntity
  8
0
100
AcDbSpline
 62
7
  6
BYLAYER
 70
0
 71
3
 72
11
 73
7
 74
0
 42
0.0000001
 43
0.0000001
 44
0.0000000001
 40
0.0
 40
0.0
 40
0.0
 40
0.0
 40
0.2570642536
 40
0.5099515937
 40
0.7570212812
 40
1.0
 40
1.0
 40
1.0
 40
1.0
 10
959.3586805945
 20
173.1572281101
 30
0.0
 10
959.3586814258
 20
173.0269990267
 30
0.0
 10
959.4073613888
 20
172.7660081218
 30
0.0
 10
959.6169592009
 20
172.4339077861
 30
0.0
 10
959.9316548188
 20
172.2099836702
 30
0.0
 10
960.1828206529
 20
172.15723517
 30
0.0
 10
960.3059139859
 20
172.1572281101
 30
0.0
  0
SPLINE
  5
3BD
100
AcDbEntity
  8
0
100
AcDbSpline
 62
7
  6
BYLAYER
 70
0
 71
3
 72
10
 73
6
 74
0
 42
0.0000001
 43
0.0000001
 44
0.0000000001
 40
0.0
 40
0.0
 40
0.0
 40
0.0
 40
0.5139686776
 40
0.7608695072
 40
1.0
 40
1.0
 40
1.0
 40
1.0
 10
959.7531267154
 20
173.1572281101
 30
0.0
 10
959.7531267154
 20
172.9059132338
 30
0.0
 10
959.8910936003
 20
172.5136345384
 30
0.0
 10
960.2899657664
 20
172.2120704118
 30
0.0
 10
960.5306264498
 20
172.1572281101
 30
0.0
 10
960.6475539064
 20
172.1572281101
 30
0.0
  0
SPLINE
  5
3BE
100
AcDbEntity
  8
0
100
AcDbSpline
 62
7
  6
BYLAYER
 70
0
 71
3
 72
11
 73
7
 74
0
 42
0.0000001
 43
0.0000001
 44
0.0000000001
 40
0.0
 40
0.0
 40
0.0
 40
0.0
 40
0.2544641196
 40
0.5062554122
 40
0.7544085347
 40
1.0
 40
1.0
 40
1.0
 40
1.0
 10
964.759604065
 20
173.1572281101
 30
0.0
 10
964.759604065
 20
173.0288070575
 30
0.0
 10
964.7113864843
 20
172.7707068365
 30
0.0
 10
964.5034241205
 20
172.4410809935
 30
0.0
 10
964.1901536209
 20
172.2159330194
 30
0.0
 10
963.9391559501
 20
172.1597252046
 30
0.0
 10
963.8152346855
 20
172.157389878
 30
0.0
  0
SPLINE
  5
3BF
100
AcDbEntity
  8
0
100
AcDbSpline
 62
7
  6
BYLAYER
 70
0
 71
3
 72
9
 73
5
 74
0
 42
0.0000001
 43
0.0000001
 44
0.0000000001
 40
0.0
 40
0.0
 40
0.0
 40
0.0
 40
0.2703934266
 40
1.0
 40
1.0
 40
1.0
 40
1.0
 10
964.759604065
 20
175.1572281101
 30
0.0
 10
964.7727683815
 20
175.1402907791
 30
0.0
 10
964.8194672612
 20
175.0762125793
 30
0.0
 10
964.8584717685
 20
175.0059370437
 30
0.0
 10
964.8786517156
 20
174.951685406
 30
0.0
  0
SPLINE
  5
3C0
100
AcDbEntity
  8
0
100
AcDbSpline
 62
7
  6
BYLAYER
 70
0
 71
3
 72
11
 73
7
 74
0
 42
0.0000001
 43
0.0000001
 44
0.0000000001
 40
0.0
 40
0.0
 40
0.0
 40
0.0
 40
0.2454646712
 40
0.49351694
 40
0.7453862235
 40
1.0
 40
1.0
 40
1.0
 40
1.0
 10
962.758834242
 20
172.1572281101
 30
0.0
 10
962.8840895589
 20
172.1572281101
 30
0.0
 10
963.1388396016
 20
172.209965225
 30
0.0
 10
963.4583161406
 20
172.4340373317
 30
0.0
 10
963.6709857672
 20
172.7661580259
 30
0.0
 10
963.7203581896
 20
173.0273042025
 30
0.0
 10
963.7203581896
 20
173.1572281101
 30
0.0
  0
SPLINE
  5
3C1
100
AcDbEntity
  8
0
100
AcDbSpline
 62
7
  6
BYLAYER
 70
0
 71
3
 72
9
 73
5
 74
0
 42
0.0000001
 43
0.0000001
 44
0.0000000001
 40
0.0
 40
0.0
 40
0.0
 40
0.0
 40
0.2799425407
 40
1.0
 40
1.0
 40
1.0
 40
1.0
 10
964.8786516021
 20
174.9516852004
 30
0.0
 10
964.8836777434
 20
174.9367531744
 30
0.0
 10
964.8991430697
 20
174.8828951597
 30
0.0
 10
964.9022553558
 20
174.8234670904
 30
0.0
 10
964.8908213873
 20
174.7845885451
 30
0.0
  0
SPLINE
  5
3C2
100
AcDbEntity
  8
0
100
AcDbSpline
 62
7
  6
BYLAYER
 70
0
 71
3
 72
8
 73
4
 74
0
 42
0.0000001
 43
0.0000001
 44
0.0000000001
 40
0.0
 40
0.0
 40
0.0
 40
0.0
 40
1.0
 40
1.0
 40
1.0
 40
1.0
 10
964.8908213873
 20
174.7845885451
 30
0.0
 10
964.8858272833
 20
174.7676072584
 30
0.0
 10
964.8781413288
 20
174.7511730507
 30
0.0
 10
964.8681118829
 20
174.7365882851
 30
0.0
  0
SPLINE
  5
3C3
100
AcDbEntity
  8
0
100
AcDbSpline
 62
7
  6
BYLAYER
 70
0
 71
3
 72
8
 73
4
 74
0
 42
0.0000001
 43
0.0000001
 44
0.0000000001
 40
0.0
 40
0.0
 40
0.0
 40
0.0
 40
1.0
 40
1.0
 40
1.0
 40
1.0
 10
964.8681118829
 20
174.7365882851
 30
0.0
 10
964.8550719518
 20
174.7176256883
 30
0.0
 10
964.8374974332
 20
174.7012821052
 30
0.0
 10
964.81792503
 20
174.6891766969
 30
0.0
  0
SPLINE
  5
3C4
100
AcDbEntity
  8
0
100
AcDbSpline
 62
7
  6
BYLAYER
 70
0
 71
3
 72
8
 73
4
 74
0
 42
0.0000001
 43
0.0000001
 44
0.0000000001
 40
0.0
 40
0.0
 40
0.0
 40
0.0
 40
1.0
 40
1.0
 40
1.0
 40
1.0
 10
964.9211525963
 20
175.1572281101
 30
0.0
 10
964.9211525963
 20
175.0872645259
 30
0.0
 10
964.9064841719
 20
175.0158746379
 30
0.0
 10
964.8786517156
 20
174.951685406
 30
0.0
  0
SPLINE
  5
3C5
100
AcDbEntity
  8
0
100
AcDbSpline
 62
7
  6
BYLAYER
 70
0
 71
3
 72
11
 73
7
 74
0
 42
0.0000001
 43
0.0000001
 44
0.0000000001
 40
0.0
 40
0.0
 40
0.0
 40
0.0
 40
0.2545253123
 40
0.5063269197
 40
0.7544493833
 40
1.0
 40
1.0
 40
1.0
 40
1.0
 10
916.8914680501
 20
173.1572281101
 30
0.0
 10
916.8914680501
 20
173.0273493687
 30
0.0
 10
916.9408054417
 20
172.7662852526
 30
0.0
 10
917.1533859648
 20
172.434167756
 30
0.0
 10
917.4728607751
 20
172.2100035873
 30
0.0
 10
917.7276928487
 20
172.1572281101
 30
0.0
 10
917.8529919977
 20
172.1572281101
 30
0.0
  0
SPLINE
  5
3C6
100
AcDbEntity
  8
0
100
AcDbSpline
 62
7
  6
BYLAYER
 70
0
 71
3
 72
9
 73
5
 74
0
 42
0.0000001
 43
0.0000001
 44
0.0000000001
 40
0.0
 40
0.0
 40
0.0
 40
0.0
 40
0.2581441244
 40
1.0
 40
1.0
 40
1.0
 40
1.0
 10
915.8522222124
 20
175.1572279643
 30
0.0
 10
915.8428426051
 20
175.1250346416
 30
0.0
 10
915.8104612361
 20
174.9992476771
 30
0.0
 10
915.7944776197
 20
174.8689182695
 30
0.0
 10
915.7945040831
 20
174.7725541853
 30
0.0
  0
SPLINE
  5
3C7
100
AcDbEntity
  8
0
100
AcDbSpline
 62
7
  6
BYLAYER
 70
0
 71
3
 72
8
 73
4
 74
0
 42
0.0000001
 43
0.0000001
 44
0.0000000001
 40
0.0
 40
0.0
 40
0.0
 40
0.0
 40
1.0
 40
1.0
 40
1.0
 40
1.0
 10
915.7331745241
 20
174.9516854059
 30
0.0
 10
915.7678841451
 20
174.8990243154
 30
0.0
 10
915.7899879369
 20
174.8354902219
 30
0.0
 10
915.7941137931
 20
174.7725543374
 30
0.0
  0
SPLINE
  5
3C8
100
AcDbEntity
  8
0
100
AcDbSpline
 62
7
  6
BYLAYER
 70
0
 71
3
 72
9
 73
5
 74
0
 42
0.0000001
 43
0.0000001
 44
0.0000000001
 40
0.0
 40
0.0
 40
0.0
 40
0.0
 40
0.27038548
 40
1.0
 40
1.0
 40
1.0
 40
1.0
 10
915.8522221747
 20
175.1572281101
 30
0.0
 10
915.8390582261
 20
175.1402912597
 30
0.0
 10
915.792355025
 20
175.0762160248
 30
0.0
 10
915.7533547223
 20
175.0059376958
 30
0.0
 10
915.7331745242
 20
174.951685406
 30
0.0
  0
SPLINE
  5
3C9
100
AcDbEntity
  8
0
100
AcDbSpline
 62
7
  6
BYLAYER
 70
0
 71
3
 72
8
 73
4
 74
0
 42
0.0000001
 43
0.0000001
 44
0.0000000001
 40
0.0
 40
0.0
 40
0.0
 40
0.0
 40
1.0
 40
1.0
 40
1.0
 40
1.0
 10
915.7331745242
 20
174.951685406
 30
0.0
 10
915.7053420678
 20
175.0158746379
 30
0.0
 10
915.6906736435
 20
175.0872645259
 30
0.0
 10
915.6906736435
 20
175.1572281101
 30
0.0
  0
SPLINE
  5
3CA
100
AcDbEntity
  8
0
100
AcDbSpline
 62
7
  6
BYLAYER
 70
0
 71
3
 72
8
 73
4
 74
0
 42
0.0000001
 43
0.0000001
 44
0.0000000001
 40
0.0
 40
0.0
 40
0.0
 40
0.0
 40
1.0
 40
1.0
 40
1.0
 40
1.0
 10
915.7944570619
 20
174.6888342739
 30
0.0
 10
915.7603044569
 20
174.7097899608
 30
0.0
 10
915.7325636625
 20
174.7456922915
 30
0.0
 10
915.7211489348
 20
174.7841012127
 30
0.0
  0
SPLINE
  5
3CB
100
AcDbEntity
  8
0
100
AcDbSpline
 62
7
  6
BYLAYER
 70
0
 71
3
 72
9
 73
5
 74
0
 42
0.0000001
 43
0.0000001
 44
0.0000000001
 40
0.0
 40
0.0
 40
0.0
 40
0.0
 40
0.2268944865
 40
1.0
 40
1.0
 40
1.0
 40
1.0
 10
915.7211489348
 20
174.7841012127
 30
0.0
 10
915.7174935593
 20
174.7964010269
 30
0.0
 10
915.707320929
 20
174.8524590636
 30
0.0
 10
915.7192269718
 20
174.9102484288
 30
0.0
 10
915.7331746435
 20
174.9516851896
 30
0.0
  0
SPLINE
  5
3CC
100
AcDbEntity
  8
0
100
AcDbSpline
 62
7
  6
BYLAYER
 70
0
 71
3
 72
9
 73
5
 74
0
 42
0.0000001
 43
0.0000001
 44
0.0000000001
 40
0.0
 40
0.0
 40
0.0
 40
0.0
 40
0.242355115
 40
1.0
 40
1.0
 40
1.0
 40
1.0
 10
817.1681912665
 20
174.772540615
 30
0.0
 10
817.168200285
 20
174.8040262843
 30
0.0
 10
817.1629952845
 20
174.9339275634
 30
0.0
 10
817.1380061329
 20
175.0627274574
 30
0.0
 10
817.1104731496
 20
175.157228006
 30
0.0
  0
SPLINE
  5
3CD
100
AcDbEntity
  8
0
100
AcDbSpline
 62
7
  6
BYLAYER
 70
0
 71
3
 72
8
 73
4
 74
0
 42
0.0000001
 43
0.0000001
 44
0.0000000001
 40
0.0
 40
0.0
 40
0.0
 40
0.0
 40
1.0
 40
1.0
 40
1.0
 40
1.0
 10
817.1744187625
 20
174.817238582
 30
0.0
 10
817.1837156143
 20
174.8647713811
 30
0.0
 10
817.202866627
 20
174.9112459195
 30
0.0
 10
817.2295208271
 20
174.9516854059
 30
0.0
  0
SPLINE
  5
3CE
100
AcDbEntity
  8
0
100
AcDbSpline
 62
7
  6
BYLAYER
 70
0
 71
3
 72
11
 73
7
 74
0
 42
0.0000001
 43
0.0000001
 44
0.0000000001
 40
0.0
 40
0.0
 40
0.0
 40
0.0
 40
0.2455000837
 40
0.4935877931
 40
0.7454492783
 40
1.0
 40
1.0
 40
1.0
 40
1.0
 10
769.1471782841
 20
172.15739509
 30
0.0
 10
769.0233263892
 20
172.1597653154
 30
0.0
 10
768.7724739403
 20
172.2159917789
 30
0.0
 10
768.4592986964
 20
172.4410599072
 30
0.0
 10
768.2513254539
 20
172.7706537551
 30
0.0
 10
768.2030912862
 20
173.0287867609
 30
0.0
 10
768.2030912862
 20
173.1572281101
 30
0.0
  0
SPLINE
  5
3CF
100
AcDbEntity
  8
0
100
AcDbSpline
 62
7
  6
BYLAYER
 70
0
 71
3
 72
10
 73
6
 74
0
 42
0.0000001
 43
0.0000001
 44
0.0000000001
 40
0.0
 40
0.0
 40
0.0
 40
0.0
 40
0.2390480837
 40
0.4858776495
 40
1.0
 40
1.0
 40
1.0
 40
1.0
 10
772.3151414448
 20
172.1572281101
 30
0.0
 10
772.4320277276
 20
172.1572281101
 30
0.0
 10
772.6726093116
 20
172.2120299197
 30
0.0
 10
773.0715354165
 20
172.5135063147
 30
0.0
 10
773.2095686358
 20
172.9058399815
 30
0.0
 10
773.2095686358
 20
173.1572281101
 30
0.0
  0
SPLINE
  5
3D0
100
AcDbEntity
  8
0
100
AcDbSpline
 62
7
  6
BYLAYER
 70
0
 71
3
 72
11
 73
7
 74
0
 42
0.0000001
 43
0.0000001
 44
0.0000000001
 40
0.0
 40
0.0
 40
0.0
 40
0.0
 40
0.2429770416
 40
0.4900484521
 40
0.7429376142
 40
1.0
 40
1.0
 40
1.0
 40
1.0
 10
772.6567813545
 20
172.1572281101
 30
0.0
 10
772.7798738236
 20
172.1572352582
 30
0.0
 10
773.0310395168
 20
172.209983497
 30
0.0
 10
773.3457365095
 20
172.4339076097
 30
0.0
 10
773.5553340885
 20
172.7660092554
 30
0.0
 10
773.6040138493
 20
173.026999988
 30
0.0
 10
773.6040146686
 20
173.1572281101
 30
0.0
  0
SPLINE
  5
3D1
100
AcDbEntity
  8
0
100
AcDbSpline
 62
7
  6
BYLAYER
 70
0
 71
3
 72
11
 73
7
 74
0
 42
0.0000001
 43
0.0000001
 44
0.0000000001
 40
0.0
 40
0.0
 40
0.0
 40
0.0
 40
0.2570642536
 40
0.5099515937
 40
0.7570212812
 40
1.0
 40
1.0
 40
1.0
 40
1.0
 10
811.709549706
 20
173.1572281101
 30
0.0
 10
811.7095505373
 20
173.0269990267
 30
0.0
 10
811.7582305003
 20
172.7660081218
 30
0.0
 10
811.9678283124
 20
172.4339077861
 30
0.0
 10
812.2825239303
 20
172.2099836702
 30
0.0
 10
812.5336897643
 20
172.15723517
 30
0.0
 10
812.6567830973
 20
172.1572281101
 30
0.0
  0
SPLINE
  5
3D2
100
AcDbEntity
  8
0
100
AcDbSpline
 62
7
  6
BYLAYER
 70
0
 71
3
 72
10
 73
6
 74
0
 42
0.0000001
 43
0.0000001
 44
0.0000000001
 40
0.0
 40
0.0
 40
0.0
 40
0.0
 40
0.5139686776
 40
0.7608695072
 40
1.0
 40
1.0
 40
1.0
 40
1.0
 10
812.1039958268
 20
173.1572281101
 30
0.0
 10
812.1039958268
 20
172.9059132338
 30
0.0
 10
812.2419627118
 20
172.5136345384
 30
0.0
 10
812.6408348779
 20
172.2120704118
 30
0.0
 10
812.8814955613
 20
172.1572281101
 30
0.0
 10
812.9984230178
 20
172.1572281101
 30
0.0
  0
SPLINE
  5
3D3
100
AcDbEntity
  8
0
100
AcDbSpline
 62
7
  6
BYLAYER
 70
0
 71
3
 72
11
 73
7
 74
0
 42
0.0000001
 43
0.0000001
 44
0.0000000001
 40
0.0
 40
0.0
 40
0.0
 40
0.0
 40
0.2544641196
 40
0.5062554122
 40
0.7544085347
 40
1.0
 40
1.0
 40
1.0
 40
1.0
 10
817.1104731765
 20
173.1572281101
 30
0.0
 10
817.1104731765
 20
173.0288070575
 30
0.0
 10
817.0622555957
 20
172.7707068365
 30
0.0
 10
816.854293232
 20
172.4410809935
 30
0.0
 10
816.5410227324
 20
172.2159330194
 30
0.0
 10
816.2900250616
 20
172.1597252046
 30
0.0
 10
816.166103797
 20
172.157389878
 30
0.0
  0
SPLINE
  5
3D4
100
AcDbEntity
  8
0
100
AcDbSpline
 62
7
  6
BYLAYER
 70
0
 71
3
 72
9
 73
5
 74
0
 42
0.0000001
 43
0.0000001
 44
0.0000000001
 40
0.0
 40
0.0
 40
0.0
 40
0.0
 40
0.2799425407
 40
1.0
 40
1.0
 40
1.0
 40
1.0
 10
817.2295207136
 20
174.9516852004
 30
0.0
 10
817.2345468549
 20
174.9367531744
 30
0.0
 10
817.2500121812
 20
174.8828951597
 30
0.0
 10
817.2531244673
 20
174.8234670904
 30
0.0
 10
817.2416904988
 20
174.7845885451
 30
0.0
  0
SPLINE
  5
3D5
100
AcDbEntity
  8
0
100
AcDbSpline
 62
7
  6
BYLAYER
 70
0
 71
3
 72
8
 73
4
 74
0
 42
0.0000001
 43
0.0000001
 44
0.0000000001
 40
0.0
 40
0.0
 40
0.0
 40
0.0
 40
1.0
 40
1.0
 40
1.0
 40
1.0
 10
817.2416904988
 20
174.7845885451
 30
0.0
 10
817.2366963948
 20
174.7676072584
 30
0.0
 10
817.2290104402
 20
174.7511730507
 30
0.0
 10
817.2189809944
 20
174.7365882851
 30
0.0
  0
SPLINE
  5
3D6
100
AcDbEntity
  8
0
100
AcDbSpline
 62
7
  6
BYLAYER
 70
0
 71
3
 72
8
 73
4
 74
0
 42
0.0000001
 43
0.0000001
 44
0.0000000001
 40
0.0
 40
0.0
 40
0.0
 40
0.0
 40
1.0
 40
1.0
 40
1.0
 40
1.0
 10
817.2189809944
 20
174.7365882851
 30
0.0
 10
817.2059410633
 20
174.7176256883
 30
0.0
 10
817.1883665447
 20
174.7012821052
 30
0.0
 10
817.1687941415
 20
174.6891766969
 30
0.0
  0
SPLINE
  5
3D7
100
AcDbEntity
  8
0
100
AcDbSpline
 62
7
  6
BYLAYER
 70
0
 71
3
 72
8
 73
4
 74
0
 42
0.0000001
 43
0.0000001
 44
0.0000000001
 40
0.0
 40
0.0
 40
0.0
 40
0.0
 40
1.0
 40
1.0
 40
1.0
 40
1.0
 10
817.2720217078
 20
175.1572281101
 30
0.0
 10
817.2720217078
 20
175.0872645259
 30
0.0
 10
817.2573532834
 20
175.0158746379
 30
0.0
 10
817.2295208271
 20
174.951685406
 30
0.0
  0
SPLINE
  5
3D8
100
AcDbEntity
  8
0
100
AcDbSpline
 62
7
  6
BYLAYER
 70
0
 71
3
 72
9
 73
5
 74
0
 42
0.0000001
 43
0.0000001
 44
0.0000000001
 40
0.0
 40
0.0
 40
0.0
 40
0.0
 40
0.2703934266
 40
1.0
 40
1.0
 40
1.0
 40
1.0
 10
817.1104731765
 20
175.1572281101
 30
0.0
 10
817.123637493
 20
175.1402907791
 30
0.0
 10
817.1703363727
 20
175.0762125793
 30
0.0
 10
817.20934088
 20
175.0059370437
 30
0.0
 10
817.2295208271
 20
174.951685406
 30
0.0
  0
SPLINE
  5
3D9
100
AcDbEntity
  8
0
100
AcDbSpline
 62
7
  6
BYLAYER
 70
0
 71
3
 72
11
 73
7
 74
0
 42
0.0000001
 43
0.0000001
 44
0.0000000001
 40
0.0
 40
0.0
 40
0.0
 40
0.0
 40
0.2454646712
 40
0.49351694
 40
0.7453862235
 40
1.0
 40
1.0
 40
1.0
 40
1.0
 10
815.1097033535
 20
172.1572281101
 30
0.0
 10
815.2349586704
 20
172.1572281101
 30
0.0
 10
815.4897087131
 20
172.209965225
 30
0.0
 10
815.8091852521
 20
172.4340373317
 30
0.0
 10
816.0218548787
 20
172.7661580259
 30
0.0
 10
816.0712273011
 20
173.0273042025
 30
0.0
 10
816.0712273011
 20
173.1572281101
 30
0.0
  0
SPLINE
  5
3DA
100
AcDbEntity
  8
0
100
AcDbSpline
 62
7
  6
BYLAYER
 70
0
 71
3
 72
9
 73
5
 74
0
 42
0.0000001
 43
0.0000001
 44
0.0000000001
 40
0.0
 40
0.0
 40
0.0
 40
0.0
 40
0.2581441244
 40
1.0
 40
1.0
 40
1.0
 40
1.0
 10
768.2030913239
 20
175.1572279643
 30
0.0
 10
768.1937117166
 20
175.1250346417
 30
0.0
 10
768.1613303476
 20
174.9992476775
 30
0.0
 10
768.1453467313
 20
174.8689182702
 30
0.0
 10
768.1453731946
 20
174.7725541861
 30
0.0
  0
SPLINE
  5
3DB
100
AcDbEntity
  8
0
100
AcDbSpline
 62
7
  6
BYLAYER
 70
0
 71
3
 72
8
 73
4
 74
0
 42
0.0000001
 43
0.0000001
 44
0.0000000001
 40
0.0
 40
0.0
 40
0.0
 40
0.0
 40
1.0
 40
1.0
 40
1.0
 40
1.0
 10
768.0840436356
 20
174.9516854059
 30
0.0
 10
768.1187532564
 20
174.8990243156
 30
0.0
 10
768.1408570482
 20
174.8354902225
 30
0.0
 10
768.1449829046
 20
174.7725543383
 30
0.0
  0
SPLINE
  5
3DC
100
AcDbEntity
  8
0
100
AcDbSpline
 62
7
  6
BYLAYER
 70
0
 71
3
 72
9
 73
5
 74
0
 42
0.0000001
 43
0.0000001
 44
0.0000000001
 40
0.0
 40
0.0
 40
0.0
 40
0.0
 40
0.27038548
 40
1.0
 40
1.0
 40
1.0
 40
1.0
 10
768.2030912862
 20
175.1572281101
 30
0.0
 10
768.1899273375
 20
175.1402912597
 30
0.0
 10
768.1432241365
 20
175.0762160248
 30
0.0
 10
768.1042238337
 20
175.0059376958
 30
0.0
 10
768.0840436356
 20
174.951685406
 30
0.0
  0
SPLINE
  5
3DD
100
AcDbEntity
  8
0
100
AcDbSpline
 62
7
  6
BYLAYER
 70
0
 71
3
 72
8
 73
4
 74
0
 42
0.0000001
 43
0.0000001
 44
0.0000000001
 40
0.0
 40
0.0
 40
0.0
 40
0.0
 40
1.0
 40
1.0
 40
1.0
 40
1.0
 10
768.0840436356
 20
174.951685406
 30
0.0
 10
768.0562111793
 20
175.0158746379
 30
0.0
 10
768.0415427549
 20
175.0872645259
 30
0.0
 10
768.0415427549
 20
175.1572281101
 30
0.0
  0
SPLINE
  5
3DE
100
AcDbEntity
  8
0
100
AcDbSpline
 62
7
  6
BYLAYER
 70
0
 71
3
 72
8
 73
4
 74
0
 42
0.0000001
 43
0.0000001
 44
0.0000000001
 40
0.0
 40
0.0
 40
0.0
 40
0.0
 40
1.0
 40
1.0
 40
1.0
 40
1.0
 10
768.1453261734
 20
174.6888342739
 30
0.0
 10
768.1111735684
 20
174.7097899608
 30
0.0
 10
768.083432774
 20
174.7456922915
 30
0.0
 10
768.0720180463
 20
174.7841012127
 30
0.0
  0
SPLINE
  5
3DF
100
AcDbEntity
  8
0
100
AcDbSpline
 62
7
  6
BYLAYER
 70
0
 71
3
 72
9
 73
5
 74
0
 42
0.0000001
 43
0.0000001
 44
0.0000000001
 40
0.0
 40
0.0
 40
0.0
 40
0.0
 40
0.2268944865
 40
1.0
 40
1.0
 40
1.0
 40
1.0
 10
768.0720180463
 20
174.7841012127
 30
0.0
 10
768.0683626707
 20
174.7964010269
 30
0.0
 10
768.0581900405
 20
174.8524590636
 30
0.0
 10
768.0700960832
 20
174.9102484288
 30
0.0
 10
768.084043755
 20
174.9516851896
 30
0.0
  0
SPLINE
  5
3E0
100
AcDbEntity
  8
0
100
AcDbSpline
 62
7
  6
BYLAYER
 70
0
 71
3
 72
11
 73
7
 74
0
 42
0.0000001
 43
0.0000001
 44
0.0000000001
 40
0.0
 40
0.0
 40
0.0
 40
0.0
 40
0.2545253123
 40
0.5063269197
 40
0.7544493833
 40
1.0
 40
1.0
 40
1.0
 40
1.0
 10
769.2423371616
 20
173.1572281101
 30
0.0
 10
769.2423371616
 20
173.0273493687
 30
0.0
 10
769.2916745532
 20
172.7662852526
 30
0.0
 10
769.5042550762
 20
172.434167756
 30
0.0
 10
769.8237298866
 20
172.2100035873
 30
0.0
 10
770.0785619602
 20
172.1572281101
 30
0.0
 10
770.2038611092
 20
172.1572281101
 30
0.0
  0
SPLINE
  5
3E1
100
AcDbEntity
  8
0
100
AcDbSpline
 62
7
  6
BYLAYER
 70
0
 71
3
 72
9
 73
5
 74
0
 42
0.0000001
 43
0.0000001
 44
0.0000000001
 40
0.0
 40
0.0
 40
0.0
 40
0.0
 40
0.242355115
 40
1.0
 40
1.0
 40
1.0
 40
1.0
 10
768.1461010072
 20
2203.042025746
 30
0.0
 10
768.1460919886
 20
2203.0105400765
 30
0.0
 10
768.1512969889
 20
2202.8806387966
 30
0.0
 10
768.1762861407
 20
2202.7518389017
 30
0.0
 10
768.2038191241
 20
2202.6573383526
 30
0.0
  0
SPLINE
  5
3E2
100
AcDbEntity
  8
0
100
AcDbSpline
 62
7
  6
BYLAYER
 70
0
 71
3
 72
9
 73
5
 74
0
 42
0.0000001
 43
0.0000001
 44
0.0000000001
 40
0.0
 40
0.0
 40
0.0
 40
0.0
 40
0.2581441241
 40
1.0
 40
1.0
 40
1.0
 40
1.0
 10
817.1112009498
 20
2202.6573383943
 30
0.0
 10
817.1205805568
 20
2202.689531716
 30
0.0
 10
817.1529619251
 20
2202.8153186769
 30
0.0
 10
817.1689455416
 20
2202.9456480805
 30
0.0
 10
817.1689190791
 20
2203.042012162
 30
0.0
  0
SPLINE
  5
3E3
100
AcDbEntity
  8
0
100
AcDbSpline
 62
7
  6
BYLAYER
 70
0
 71
3
 72
8
 73
4
 74
0
 42
0.0000001
 43
0.0000001
 44
0.0000000001
 40
0.0
 40
0.0
 40
0.0
 40
0.0
 40
1.0
 40
1.0
 40
1.0
 40
1.0
 10
817.2302486381
 20
2202.8628809527
 30
0.0
 10
817.1955390192
 20
2202.9155420402
 30
0.0
 10
817.1734352279
 20
2202.9790761292
 30
0.0
 10
817.1693093698
 20
2203.0420120099
 30
0.0
  0
SPLINE
  5
3E4
100
AcDbEntity
  8
0
100
AcDbSpline
 62
7
  6
BYLAYER
 70
0
 71
3
 72
9
 73
5
 74
0
 42
0.0000001
 43
0.0000001
 44
0.0000000001
 40
0.0
 40
0.0
 40
0.0
 40
0.0
 40
0.27038548
 40
1.0
 40
1.0
 40
1.0
 40
1.0
 10
817.1112009876
 20
2202.6573382485
 30
0.0
 10
817.1243649362
 20
2202.674275099
 30
0.0
 10
817.1710681373
 20
2202.7383503338
 30
0.0
 10
817.21006844
 20
2202.8086286629
 30
0.0
 10
817.2302486381
 20
2202.8628809526
 30
0.0
  0
SPLINE
  5
3E5
100
AcDbEntity
  8
0
100
AcDbSpline
 62
7
  6
BYLAYER
 70
0
 71
3
 72
8
 73
4
 74
0
 42
0.0000001
 43
0.0000001
 44
0.0000000001
 40
0.0
 40
0.0
 40
0.0
 40
0.0
 40
1.0
 40
1.0
 40
1.0
 40
1.0
 10
817.1689661004
 20
2203.1257320847
 30
0.0
 10
817.2031187053
 20
2203.1047763979
 30
0.0
 10
817.2308594997
 20
2203.0688740671
 30
0.0
 10
817.2422742275
 20
2203.0304651459
 30
0.0
  0
SPLINE
  5
3E6
100
AcDbEntity
  8
0
100
AcDbSpline
 62
7
  6
BYLAYER
 70
0
 71
3
 72
9
 73
5
 74
0
 42
0.0000001
 43
0.0000001
 44
0.0000000001
 40
0.0
 40
0.0
 40
0.0
 40
0.0
 40
0.2268944865
 40
1.0
 40
1.0
 40
1.0
 40
1.0
 10
817.2422742275
 20
2203.0304651459
 30
0.0
 10
817.245929603
 20
2203.0181653317
 30
0.0
 10
817.2561022332
 20
2202.962107295
 30
0.0
 10
817.2441961905
 20
2202.9043179298
 30
0.0
 10
817.2302485187
 20
2202.862881169
 30
0.0
  0
SPLINE
  5
3E7
100
AcDbEntity
  8
0
100
AcDbSpline
 62
7
  6
BYLAYER
 70
0
 71
3
 72
8
 73
4
 74
0
 42
0.0000001
 43
0.0000001
 44
0.0000000001
 40
0.0
 40
0.0
 40
0.0
 40
0.0
 40
1.0
 40
1.0
 40
1.0
 40
1.0
 10
817.2302486381
 20
2202.8628809526
 30
0.0
 10
817.2580810945
 20
2202.7986917207
 30
0.0
 10
817.2727495188
 20
2202.7273018328
 30
0.0
 10
817.2727495188
 20
2202.6573382485
 30
0.0
  0
SPLINE
  5
3E8
100
AcDbEntity
  8
0
100
AcDbSpline
 62
7
  6
BYLAYER
 70
0
 71
3
 72
9
 73
5
 74
0
 42
0.0000001
 43
0.0000001
 44
0.0000000001
 40
0.0
 40
0.0
 40
0.0
 40
0.0
 40
0.2799425408
 40
1.0
 40
1.0
 40
1.0
 40
1.0
 10
768.0847715601
 20
2202.8628811583
 30
0.0
 10
768.0797454188
 20
2202.8778131842
 30
0.0
 10
768.0642800925
 20
2202.9316711989
 30
0.0
 10
768.0611678064
 20
2202.9910992682
 30
0.0
 10
768.072601775
 20
2203.0299778136
 30
0.0
  0
SPLINE
  5
3E9
100
AcDbEntity
  8
0
100
AcDbSpline
 62
7
  6
BYLAYER
 70
0
 71
3
 72
8
 73
4
 74
0
 42
0.0000001
 43
0.0000001
 44
0.0000000001
 40
0.0
 40
0.0
 40
0.0
 40
0.0
 40
1.0
 40
1.0
 40
1.0
 40
1.0
 10
768.072601775
 20
2203.0299778136
 30
0.0
 10
768.0775958789
 20
2203.0469591002
 30
0.0
 10
768.0852818335
 20
2203.0633933079
 30
0.0
 10
768.0953112793
 20
2203.0779780735
 30
0.0
  0
SPLINE
  5
3EA
100
AcDbEntity
  8
0
100
AcDbSpline
 62
7
  6
BYLAYER
 70
0
 71
3
 72
8
 73
4
 74
0
 42
0.0000001
 43
0.0000001
 44
0.0000000001
 40
0.0
 40
0.0
 40
0.0
 40
0.0
 40
1.0
 40
1.0
 40
1.0
 40
1.0
 10
768.0953112793
 20
2203.0779780735
 30
0.0
 10
768.1083512104
 20
2203.0969406703
 30
0.0
 10
768.125925729
 20
2203.1132842534
 30
0.0
 10
768.1454981323
 20
2203.1253896617
 30
0.0
  0
SPLINE
  5
3EB
100
AcDbEntity
  8
0
100
AcDbSpline
 62
7
  6
BYLAYER
 70
0
 71
3
 72
8
 73
4
 74
0
 42
0.0000001
 43
0.0000001
 44
0.0000000001
 40
0.0
 40
0.0
 40
0.0
 40
0.0
 40
1.0
 40
1.0
 40
1.0
 40
1.0
 10
768.042270566
 20
2202.6573382485
 30
0.0
 10
768.042270566
 20
2202.7273018328
 30
0.0
 10
768.0569389903
 20
2202.7986917207
 30
0.0
 10
768.0847714467
 20
2202.8628809526
 30
0.0
  0
SPLINE
  5
3EC
100
AcDbEntity
  8
0
100
AcDbSpline
 62
7
  6
BYLAYER
 70
0
 71
3
 72
11
 73
7
 74
0
 42
0.0000001
 43
0.0000001
 44
0.0000000001
 40
0.0
 40
0.0
 40
0.0
 40
0.0
 40
0.2545253123
 40
0.5063269197
 40
0.7544493833
 40
1.0
 40
1.0
 40
1.0
 40
1.0
 10
816.0719551121
 20
2204.6573382485
 30
0.0
 10
816.0719551121
 20
2204.7872169899
 30
0.0
 10
816.0226177205
 20
2205.048281106
 30
0.0
 10
815.8100371975
 20
2205.3803986026
 30
0.0
 10
815.4905623871
 20
2205.6045627713
 30
0.0
 10
815.2357303135
 20
2205.6573382485
 30
0.0
 10
815.1104311645
 20
2205.6573382485
 30
0.0
  0
SPLINE
  5
3ED
100
AcDbEntity
  8
0
100
AcDbSpline
 62
7
  6
BYLAYER
 70
0
 71
3
 72
11
 73
7
 74
0
 42
0.0000001
 43
0.0000001
 44
0.0000000001
 40
0.0
 40
0.0
 40
0.0
 40
0.0
 40
0.2454646712
 40
0.49351694
 40
0.7453862235
 40
1.0
 40
1.0
 40
1.0
 40
1.0
 10
770.2045889202
 20
2205.6573382485
 30
0.0
 10
770.0793336033
 20
2205.6573382485
 30
0.0
 10
769.8245835606
 20
2205.6046011336
 30
0.0
 10
769.5051070216
 20
2205.3805290269
 30
0.0
 10
769.292437395
 20
2205.0484083327
 30
0.0
 10
769.2430649726
 20
2204.7872621561
 30
0.0
 10
769.2430649726
 20
2204.6573382485
 30
0.0
  0
SPLINE
  5
3EE
100
AcDbEntity
  8
0
100
AcDbSpline
 62
7
  6
BYLAYER
 70
0
 71
3
 72
9
 73
5
 74
0
 42
0.0000001
 43
0.0000001
 44
0.0000000001
 40
0.0
 40
0.0
 40
0.0
 40
0.0
 40
0.2703934266
 40
1.0
 40
1.0
 40
1.0
 40
1.0
 10
768.2038190972
 20
2202.6573382485
 30
0.0
 10
768.1906547808
 20
2202.6742755795
 30
0.0
 10
768.143955901
 20
2202.7383537794
 30
0.0
 10
768.1049513938
 20
2202.808629315
 30
0.0
 10
768.0847714467
 20
2202.8628809526
 30
0.0
  0
SPLINE
  5
3EF
100
AcDbEntity
  8
0
100
AcDbSpline
 62
7
  6
BYLAYER
 70
0
 71
3
 72
11
 73
7
 74
0
 42
0.0000001
 43
0.0000001
 44
0.0000000001
 40
0.0
 40
0.0
 40
0.0
 40
0.0
 40
0.2544641196
 40
0.5062554122
 40
0.7544085347
 40
1.0
 40
1.0
 40
1.0
 40
1.0
 10
768.2038190972
 20
2204.6573382485
 30
0.0
 10
768.2038190972
 20
2204.7857593011
 30
0.0
 10
768.252036678
 20
2205.0438595221
 30
0.0
 10
768.4599990417
 20
2205.3734853651
 30
0.0
 10
768.7732695413
 20
2205.5986333392
 30
0.0
 10
769.0242672121
 20
2205.654841154
 30
0.0
 10
769.1481884768
 20
2205.6571764806
 30
0.0
  0
SPLINE
  5
3F0
100
AcDbEntity
  8
0
100
AcDbSpline
 62
7
  6
BYLAYER
 70
0
 71
3
 72
10
 73
6
 74
0
 42
0.0000001
 43
0.0000001
 44
0.0000000001
 40
0.0
 40
0.0
 40
0.0
 40
0.0
 40
0.5139686776
 40
0.7608695072
 40
1.0
 40
1.0
 40
1.0
 40
1.0
 10
773.2102964469
 20
2204.6573382485
 30
0.0
 10
773.2102964469
 20
2204.9086531249
 30
0.0
 10
773.0723295619
 20
2205.3009318202
 30
0.0
 10
772.6734573959
 20
2205.6024959468
 30
0.0
 10
772.4327967124
 20
2205.6573382485
 30
0.0
 10
772.3158692559
 20
2205.6573382485
 30
0.0
  0
SPLINE
  5
3F1
100
AcDbEntity
  8
0
100
AcDbSpline
 62
7
  6
BYLAYER
 70
0
 71
3
 72
11
 73
7
 74
0
 42
0.0000001
 43
0.0000001
 44
0.0000000001
 40
0.0
 40
0.0
 40
0.0
 40
0.0
 40
0.2570642536
 40
0.5099515937
 40
0.7570212812
 40
1.0
 40
1.0
 40
1.0
 40
1.0
 10
773.6047425677
 20
2204.6573382485
 30
0.0
 10
773.6047417364
 20
2204.7875673319
 30
0.0
 10
773.5560617734
 20
2205.0485582368
 30
0.0
 10
773.3464639613
 20
2205.3806585725
 30
0.0
 10
773.0317683434
 20
2205.6045826884
 30
0.0
 10
772.7806025094
 20
2205.6573311886
 30
0.0
 10
772.6575091764
 20
2205.6573382485
 30
0.0
  0
SPLINE
  5
3F2
100
AcDbEntity
  8
0
100
AcDbSpline
 62
7
  6
BYLAYER
 70
0
 71
3
 72
11
 73
7
 74
0
 42
0.0000001
 43
0.0000001
 44
0.0000000001
 40
0.0
 40
0.0
 40
0.0
 40
0.0
 40
0.2429770416
 40
0.4900484521
 40
0.7429376142
 40
1.0
 40
1.0
 40
1.0
 40
1.0
 10
812.6575109192
 20
2205.6573382485
 30
0.0
 10
812.5344184501
 20
2205.6573311004
 30
0.0
 10
812.2832527569
 20
2205.6045828616
 30
0.0
 10
811.9685557643
 20
2205.3806587489
 30
0.0
 10
811.7589581853
 20
2205.0485571032
 30
0.0
 10
811.7102784244
 20
2204.7875663706
 30
0.0
 10
811.7102776051
 20
2204.6573382485
 30
0.0
  0
SPLINE
  5
3F3
100
AcDbEntity
  8
0
100
AcDbSpline
 62
7
  6
BYLAYER
 70
0
 71
3
 72
10
 73
6
 74
0
 42
0.0000001
 43
0.0000001
 44
0.0000000001
 40
0.0
 40
0.0
 40
0.0
 40
0.0
 40
0.2390480837
 40
0.4858776495
 40
1.0
 40
1.0
 40
1.0
 40
1.0
 10
812.9991508289
 20
2205.6573382485
 30
0.0
 10
812.8822645462
 20
2205.6573382485
 30
0.0
 10
812.6416829621
 20
2205.602536439
 30
0.0
 10
812.2427568572
 20
2205.3010600439
 30
0.0
 10
812.1047236379
 20
2204.9087263771
 30
0.0
 10
812.1047236379
 20
2204.6573382485
 30
0.0
  0
SPLINE
  5
3F4
100
AcDbEntity
  8
0
100
AcDbSpline
 62
7
  6
BYLAYER
 70
0
 71
3
 72
11
 73
7
 74
0
 42
0.0000001
 43
0.0000001
 44
0.0000000001
 40
0.0
 40
0.0
 40
0.0
 40
0.0
 40
0.2455000837
 40
0.4935877931
 40
0.7454492783
 40
1.0
 40
1.0
 40
1.0
 40
1.0
 10
816.1671139896
 20
2205.6571712686
 30
0.0
 10
816.2909658845
 20
2205.6548010433
 30
0.0
 10
816.5418183334
 20
2205.5985745797
 30
0.0
 10
816.8549935773
 20
2205.3735064514
 30
0.0
 10
817.0629668198
 20
2205.0439126035
 30
0.0
 10
817.1112009876
 20
2204.7857795977
 30
0.0
 10
817.1112009876
 20
2204.6573382485
 30
0.0
  0
SPLINE
  5
3F5
100
AcDbEntity
  8
0
100
AcDbSpline
 62
7
  6
BYLAYER
 70
0
 71
3
 72
8
 73
4
 74
0
 42
0.0000001
 43
0.0000001
 44
0.0000000001
 40
0.0
 40
0.0
 40
0.0
 40
0.0
 40
1.0
 40
1.0
 40
1.0
 40
1.0
 10
768.1398735112
 20
2202.9973277766
 30
0.0
 10
768.1305766595
 20
2202.9497949775
 30
0.0
 10
768.1114256467
 20
2202.9033204391
 30
0.0
 10
768.0847714466
 20
2202.8628809527
 30
0.0
  0
SPLINE
  5
3F6
100
AcDbEntity
  8
0
100
AcDbSpline
 62
7
  6
BYLAYER
 70
0
 71
3
 72
9
 73
5
 74
0
 42
0.0000001
 43
0.0000001
 44
0.0000000001
 40
0.0
 40
0.0
 40
0.0
 40
0.0
 40
0.2581441241
 40
1.0
 40
1.0
 40
1.0
 40
1.0
 10
964.7603318383
 20
2202.6573383943
 30
0.0
 10
964.7697114454
 20
2202.6895317161
 30
0.0
 10
964.8020928137
 20
2202.8153186773
 30
0.0
 10
964.8180764302
 20
2202.9456480813
 30
0.0
 10
964.8180499676
 20
2203.042012163
 30
0.0
  0
SPLINE
  5
3F7
100
AcDbEntity
  8
0
100
AcDbSpline
 62
7
  6
BYLAYER
 70
0
 71
3
 72
8
 73
4
 74
0
 42
0.0000001
 43
0.0000001
 44
0.0000000001
 40
0.0
 40
0.0
 40
0.0
 40
0.0
 40
1.0
 40
1.0
 40
1.0
 40
1.0
 10
964.8793795266
 20
2202.8628809527
 30
0.0
 10
964.8446699075
 20
2202.9155420405
 30
0.0
 10
964.8225661162
 20
2202.9790761299
 30
0.0
 10
964.8184402583
 20
2203.0420120109
 30
0.0
  0
SPLINE
  5
3F8
100
AcDbEntity
  8
0
100
AcDbSpline
 62
7
  6
BYLAYER
 70
0
 71
3
 72
9
 73
5
 74
0
 42
0.0000001
 43
0.0000001
 44
0.0000000001
 40
0.0
 40
0.0
 40
0.0
 40
0.0
 40
0.27038548
 40
1.0
 40
1.0
 40
1.0
 40
1.0
 10
964.7603318761
 20
2202.6573382485
 30
0.0
 10
964.7734958247
 20
2202.674275099
 30
0.0
 10
964.8201990258
 20
2202.7383503338
 30
0.0
 10
964.8591993285
 20
2202.8086286629
 30
0.0
 10
964.8793795266
 20
2202.8628809526
 30
0.0
  0
SPLINE
  5
3F9
100
AcDbEntity
  8
0
100
AcDbSpline
 62
7
  6
BYLAYER
 70
0
 71
3
 72
8
 73
4
 74
0
 42
0.0000001
 43
0.0000001
 44
0.0000000001
 40
0.0
 40
0.0
 40
0.0
 40
0.0
 40
1.0
 40
1.0
 40
1.0
 40
1.0
 10
964.8180969889
 20
2203.1257320847
 30
0.0
 10
964.8522495938
 20
2203.1047763979
 30
0.0
 10
964.8799903883
 20
2203.0688740671
 30
0.0
 10
964.891405116
 20
2203.0304651459
 30
0.0
  0
SPLINE
  5
3FA
100
AcDbEntity
  8
0
100
AcDbSpline
 62
7
  6
BYLAYER
 70
0
 71
3
 72
9
 73
5
 74
0
 42
0.0000001
 43
0.0000001
 44
0.0000000001
 40
0.0
 40
0.0
 40
0.0
 40
0.0
 40
0.2268944865
 40
1.0
 40
1.0
 40
1.0
 40
1.0
 10
964.891405116
 20
2203.0304651459
 30
0.0
 10
964.8950604915
 20
2203.0181653317
 30
0.0
 10
964.9052331217
 20
2202.962107295
 30
0.0
 10
964.893327079
 20
2202.9043179298
 30
0.0
 10
964.8793794072
 20
2202.862881169
 30
0.0
  0
SPLINE
  5
3FB
100
AcDbEntity
  8
0
100
AcDbSpline
 62
7
  6
BYLAYER
 70
0
 71
3
 72
8
 73
4
 74
0
 42
0.0000001
 43
0.0000001
 44
0.0000000001
 40
0.0
 40
0.0
 40
0.0
 40
0.0
 40
1.0
 40
1.0
 40
1.0
 40
1.0
 10
964.8793795266
 20
2202.8628809526
 30
0.0
 10
964.907211983
 20
2202.7986917207
 30
0.0
 10
964.9218804073
 20
2202.7273018328
 30
0.0
 10
964.9218804073
 20
2202.6573382485
 30
0.0
  0
SPLINE
  5
3FC
100
AcDbEntity
  8
0
100
AcDbSpline
 62
7
  6
BYLAYER
 70
0
 71
3
 72
9
 73
5
 74
0
 42
0.0000001
 43
0.0000001
 44
0.0000000001
 40
0.0
 40
0.0
 40
0.0
 40
0.0
 40
0.242355115
 40
1.0
 40
1.0
 40
1.0
 40
1.0
 10
915.7952318957
 20
2203.0420257462
 30
0.0
 10
915.7952228772
 20
2203.0105400767
 30
0.0
 10
915.8004278774
 20
2202.8806387967
 30
0.0
 10
915.8254170292
 20
2202.7518389018
 30
0.0
 10
915.8529500127
 20
2202.6573383526
 30
0.0
  0
SPLINE
  5
3FD
100
AcDbEntity
  8
0
100
AcDbSpline
 62
7
  6
BYLAYER
 70
0
 71
3
 72
9
 73
5
 74
0
 42
0.0000001
 43
0.0000001
 44
0.0000000001
 40
0.0
 40
0.0
 40
0.0
 40
0.0
 40
0.2799425408
 40
1.0
 40
1.0
 40
1.0
 40
1.0
 10
915.7339024486
 20
2202.8628811583
 30
0.0
 10
915.7288763073
 20
2202.8778131842
 30
0.0
 10
915.713410981
 20
2202.9316711989
 30
0.0
 10
915.7102986949
 20
2202.9910992682
 30
0.0
 10
915.7217326635
 20
2203.0299778136
 30
0.0
  0
SPLINE
  5
3FE
100
AcDbEntity
  8
0
100
AcDbSpline
 62
7
  6
BYLAYER
 70
0
 71
3
 72
8
 73
4
 74
0
 42
0.0000001
 43
0.0000001
 44
0.0000000001
 40
0.0
 40
0.0
 40
0.0
 40
0.0
 40
1.0
 40
1.0
 40
1.0
 40
1.0
 10
915.7217326635
 20
2203.0299778136
 30
0.0
 10
915.7267267675
 20
2203.0469591002
 30
0.0
 10
915.734412722
 20
2203.0633933079
 30
0.0
 10
915.7444421679
 20
2203.0779780735
 30
0.0
  0
SPLINE
  5
3FF
100
AcDbEntity
  8
0
100
AcDbSpline
 62
7
  6
BYLAYER
 70
0
 71
3
 72
8
 73
4
 74
0
 42
0.0000001
 43
0.0000001
 44
0.0000000001
 40
0.0
 40
0.0
 40
0.0
 40
0.0
 40
1.0
 40
1.0
 40
1.0
 40
1.0
 10
915.7444421679
 20
2203.0779780735
 30
0.0
 10
915.7574820989
 20
2203.0969406703
 30
0.0
 10
915.7750566176
 20
2203.1132842534
 30
0.0
 10
915.7946290208
 20
2203.1253896617
 30
0.0
  0
SPLINE
  5
400
100
AcDbEntity
  8
0
100
AcDbSpline
 62
7
  6
BYLAYER
 70
0
 71
3
 72
11
 73
7
 74
0
 42
0.0000001
 43
0.0000001
 44
0.0000000001
 40
0.0
 40
0.0
 40
0.0
 40
0.0
 40
0.2545253123
 40
0.5063269197
 40
0.7544493833
 40
1.0
 40
1.0
 40
1.0
 40
1.0
 10
963.7210860007
 20
2204.6573382485
 30
0.0
 10
963.7210860007
 20
2204.7872169899
 30
0.0
 10
963.671748609
 20
2205.048281106
 30
0.0
 10
963.459168086
 20
2205.3803986026
 30
0.0
 10
963.1396932756
 20
2205.6045627713
 30
0.0
 10
962.8848612021
 20
2205.6573382485
 30
0.0
 10
962.759562053
 20
2205.6573382485
 30
0.0
  0
SPLINE
  5
401
100
AcDbEntity
  8
0
100
AcDbSpline
 62
7
  6
BYLAYER
 70
0
 71
3
 72
11
 73
7
 74
0
 42
0.0000001
 43
0.0000001
 44
0.0000000001
 40
0.0
 40
0.0
 40
0.0
 40
0.0
 40
0.2454646712
 40
0.49351694
 40
0.7453862235
 40
1.0
 40
1.0
 40
1.0
 40
1.0
 10
917.8537198088
 20
2205.6573382485
 30
0.0
 10
917.7284644919
 20
2205.6573382485
 30
0.0
 10
917.4737144492
 20
2205.6046011336
 30
0.0
 10
917.1542379101
 20
2205.3805290269
 30
0.0
 10
916.9415682835
 20
2205.0484083327
 30
0.0
 10
916.8921958611
 20
2204.7872621561
 30
0.0
 10
916.8921958611
 20
2204.6573382485
 30
0.0
  0
SPLINE
  5
402
100
AcDbEntity
  8
0
100
AcDbSpline
 62
7
  6
BYLAYER
 70
0
 71
3
 72
9
 73
5
 74
0
 42
0.0000001
 43
0.0000001
 44
0.0000000001
 40
0.0
 40
0.0
 40
0.0
 40
0.0
 40
0.2703934266
 40
1.0
 40
1.0
 40
1.0
 40
1.0
 10
915.8529499857
 20
2202.6573382485
 30
0.0
 10
915.8397856693
 20
2202.6742755795
 30
0.0
 10
915.7930867895
 20
2202.7383537794
 30
0.0
 10
915.7540822823
 20
2202.808629315
 30
0.0
 10
915.7339023352
 20
2202.8628809526
 30
0.0
  0
SPLINE
  5
403
100
AcDbEntity
  8
0
100
AcDbSpline
 62
7
  6
BYLAYER
 70
0
 71
3
 72
8
 73
4
 74
0
 42
0.0000001
 43
0.0000001
 44
0.0000000001
 40
0.0
 40
0.0
 40
0.0
 40
0.0
 40
1.0
 40
1.0
 40
1.0
 40
1.0
 10
915.6914014545
 20
2202.6573382485
 30
0.0
 10
915.6914014545
 20
2202.7273018328
 30
0.0
 10
915.7060698788
 20
2202.7986917207
 30
0.0
 10
915.7339023352
 20
2202.8628809526
 30
0.0
  0
SPLINE
  5
404
100
AcDbEntity
  8
0
100
AcDbSpline
 62
7
  6
BYLAYER
 70
0
 71
3
 72
11
 73
7
 74
0
 42
0.0000001
 43
0.0000001
 44
0.0000000001
 40
0.0
 40
0.0
 40
0.0
 40
0.0
 40
0.2544641196
 40
0.5062554122
 40
0.7544085347
 40
1.0
 40
1.0
 40
1.0
 40
1.0
 10
915.8529499857
 20
2204.6573382485
 30
0.0
 10
915.8529499857
 20
2204.7857593011
 30
0.0
 10
915.9011675665
 20
2205.0438595221
 30
0.0
 10
916.1091299302
 20
2205.3734853651
 30
0.0
 10
916.4224004298
 20
2205.5986333392
 30
0.0
 10
916.6733981006
 20
2205.654841154
 30
0.0
 10
916.7973193653
 20
2205.6571764806
 30
0.0
  0
SPLINE
  5
405
100
AcDbEntity
  8
0
100
AcDbSpline
 62
7
  6
BYLAYER
 70
0
 71
3
 72
10
 73
6
 74
0
 42
0.0000001
 43
0.0000001
 44
0.0000000001
 40
0.0
 40
0.0
 40
0.0
 40
0.0
 40
0.5139686776
 40
0.7608695072
 40
1.0
 40
1.0
 40
1.0
 40
1.0
 10
920.8594273354
 20
2204.6573382485
 30
0.0
 10
920.8594273354
 20
2204.9086531249
 30
0.0
 10
920.7214604505
 20
2205.3009318202
 30
0.0
 10
920.3225882844
 20
2205.6024959468
 30
0.0
 10
920.081927601
 20
2205.6573382485
 30
0.0
 10
919.9650001444
 20
2205.6573382485
 30
0.0
  0
SPLINE
  5
406
100
AcDbEntity
  8
0
100
AcDbSpline
 62
7
  6
BYLAYER
 70
0
 71
3
 72
11
 73
7
 74
0
 42
0.0000001
 43
0.0000001
 44
0.0000000001
 40
0.0
 40
0.0
 40
0.0
 40
0.0
 40
0.2570642536
 40
0.5099515937
 40
0.7570212812
 40
1.0
 40
1.0
 40
1.0
 40
1.0
 10
921.2538734562
 20
2204.6573382485
 30
0.0
 10
921.2538726249
 20
2204.7875673319
 30
0.0
 10
921.2051926619
 20
2205.0485582368
 30
0.0
 10
920.9955948498
 20
2205.3806585725
 30
0.0
 10
920.6808992319
 20
2205.6045826884
 30
0.0
 10
920.4297333979
 20
2205.6573311886
 30
0.0
 10
920.3066400649
 20
2205.6573382485
 30
0.0
  0
SPLINE
  5
407
100
AcDbEntity
  8
0
100
AcDbSpline
 62
7
  6
BYLAYER
 70
0
 71
3
 72
11
 73
7
 74
0
 42
0.0000001
 43
0.0000001
 44
0.0000000001
 40
0.0
 40
0.0
 40
0.0
 40
0.0
 40
0.2429770416
 40
0.4900484521
 40
0.7429376142
 40
1.0
 40
1.0
 40
1.0
 40
1.0
 10
960.3066418077
 20
2205.6573382485
 30
0.0
 10
960.1835493386
 20
2205.6573311004
 30
0.0
 10
959.9323836454
 20
2205.6045828616
 30
0.0
 10
959.6176866528
 20
2205.3806587489
 30
0.0
 10
959.4080890738
 20
2205.0485571032
 30
0.0
 10
959.359409313
 20
2204.7875663706
 30
0.0
 10
959.3594084937
 20
2204.6573382485
 30
0.0
  0
SPLINE
  5
408
100
AcDbEntity
  8
0
100
AcDbSpline
 62
7
  6
BYLAYER
 70
0
 71
3
 72
10
 73
6
 74
0
 42
0.0000001
 43
0.0000001
 44
0.0000000001
 40
0.0
 40
0.0
 40
0.0
 40
0.0
 40
0.2390480837
 40
0.4858776495
 40
1.0
 40
1.0
 40
1.0
 40
1.0
 10
960.6482817174
 20
2205.6573382485
 30
0.0
 10
960.5313954347
 20
2205.6573382485
 30
0.0
 10
960.2908138506
 20
2205.602536439
 30
0.0
 10
959.8918877457
 20
2205.3010600439
 30
0.0
 10
959.7538545264
 20
2204.9087263771
 30
0.0
 10
959.7538545264
 20
2204.6573382485
 30
0.0
  0
SPLINE
  5
409
100
AcDbEntity
  8
0
100
AcDbSpline
 62
7
  6
BYLAYER
 70
0
 71
3
 72
11
 73
7
 74
0
 42
0.0000001
 43
0.0000001
 44
0.0000000001
 40
0.0
 40
0.0
 40
0.0
 40
0.0
 40
0.2455000837
 40
0.4935877931
 40
0.7454492783
 40
1.0
 40
1.0
 40
1.0
 40
1.0
 10
963.8162448781
 20
2205.6571712686
 30
0.0
 10
963.9400967731
 20
2205.6548010433
 30
0.0
 10
964.190949222
 20
2205.5985745797
 30
0.0
 10
964.5041244658
 20
2205.3735064514
 30
0.0
 10
964.7120977083
 20
2205.0439126035
 30
0.0
 10
964.7603318761
 20
2204.7857795977
 30
0.0
 10
964.7603318761
 20
2204.6573382485
 30
0.0
  0
SPLINE
  5
40A
100
AcDbEntity
  8
0
100
AcDbSpline
 62
7
  6
BYLAYER
 70
0
 71
3
 72
8
 73
4
 74
0
 42
0.0000001
 43
0.0000001
 44
0.0000000001
 40
0.0
 40
0.0
 40
0.0
 40
0.0
 40
1.0
 40
1.0
 40
1.0
 40
1.0
 10
915.7890043997
 20
2202.9973277766
 30
0.0
 10
915.779707548
 20
2202.9497949775
 30
0.0
 10
915.7605565352
 20
2202.9033204391
 30
0.0
 10
915.7339023351
 20
2202.8628809527
 30
0.0
  0
ENDSEC
  0
SECTION
  2
OBJECTS
  0
DICTIONARY
  5
C
100
AcDbDictionary
280
0
281
1
  3
ACAD_GROUP
350
D
  3
ACAD_MLINESTYLE
350
17
  3
ACAD_LAYOUT
350
1A
  3
ACAD_PLOTSETTINGS
350
19
  3
ACAD_PLOTSTYLENAME
350
E
  0
DICTIONARY
  5
D
102
{ACAD_REACTORS
330
C
102
}
100
AcDbDictionary
280
0
281
1
  0
ACDBDICTIONARYWDFLT
  5
E
102
{ACAD_REACTORS
330
C
102
}
100
AcDbDictionary
281
1
  3
Normal
350
F
100
AcDbDictionaryWithDefault
340
F
  0
DICTIONARY
  5
17
102
{ACAD_REACTORS
330
C
102
}
100
AcDbDictionary
280
0
281
1
  3
Standard
350
18
  0
DICTIONARY
  5
19
102
{ACAD_REACTORS
330
C
102
}
100
AcDbDictionary
281
1
  0
DICTIONARY
  5
1A
102
{ACAD_REACTORS
330
C
102
}
100
AcDbDictionary
281
1
  3
Model
350
40B
  3
Layout1
350
40C
  0
ACDBPLACEHOLDER
  5
F
102
{ACAD_REACTORS
330
E
102
}
  0
MLINESTYLE
  5
18
102
{ACAD_REACTORS
330
17
102
}
100
AcDbMlineStyle
  2
STANDARD
 70
0
  3

 62
256
 51
90.0
 52
90.0
 71
2
 49
0.5
 62
256
  6
BYLAYER
 49
-0.5
 62
256
  6
BYLAYER
  0
LAYOUT
  5
40B
102
{ACAD_REACTORS
330
1A
102
}
100
AcDbPlotSettings
  1

  2
none_device
  4

  6

 40
0.0
 41
0.0
 42
0.0
 43
0.0
 44
210.0
 45
297.0
 46
0.0
 47
0.0
 48
0.0
 49
0.0
140
0.0
141
0.0
142
1.0
143
1.0
 70
1024
 72
1
 73
0
 74
0
  7

 75
0
147
1.0
148
0.0
149
0.0
100
AcDbLayout
  1
Model
 70
0
 71
0
 10
0.0
 20
0.0
 11
210.0
 21
297.0
 12
0.0
 22
0.0
 32
0.0
 14
0.0
 24
0.0
 34
0.0
 15
0.0
 25
0.0
 35
0.0
146
0.0
 13
0.0
 23
0.0
 33
0.0
 16
1.0
 26
0.0
 36
0.0
 17
0.0
 27
1.0
 37
0.0
 76
0
330
212
345
0
346
0
  0
LAYOUT
  5
40C
102
{ACAD_REACTORS
330
1A
102
}
100
AcDbPlotSettings
  1

  2
none_device
  4

  6

 40
0.0
 41
0.0
 42
0.0
 43
0.0
 44
210.0
 45
297.0
 46
0.0
 47
0.0
 48
0.0
 49
0.0
140
0.0
141
0.0
142
1.0
143
1.0
 70
0
 72
1
 73
0
 74
0
  7

 75
0
147
1.0
148
0.0
149
0.0
100
AcDbLayout
  1
Layout1
 70
0
 71
1
 10
0.0
 20
0.0
 11
210.0
 21
297.0
 12
0.0
 22
0.0
 32
0.0
 14
0.0
 24
0.0
 34
0.0
 15
0.0
 25
0.0
 35
0.0
146
0.0
 13
0.0
 23
0.0
 33
0.0
 16
1.0
 26
0.0
 36
0.0
 17
0.0
 27
1.0
 37
0.0
 76
0
330
213
345
0
346
0
  0
ENDSEC
  0
EOF
