999
DXF file: C:\Users\sesa63760\Dev\_Creo\CAD\MCADID0001889_3D-CAD\drw0001_6.dxf
999
Pro/ENGINEER 2019471 by Parametric Technology Corporation
  0
SECTION
  2
HEADER
  9
$ACADVER
  1
AC1024
  9
$DWGCODEPAGE
  3
ANSI_1252
  9
$EXTMAX
 10
61.0353920054
 20
86.3214829791
 30
0.0
  9
$EXTMIN
 10
0.0
 20
0.0
 30
0.0
  9
$LIMMIN
 10
0.0
 20
0.0
  9
$LIMMAX
 10
61.0353920054
 20
86.3214829791
  9
$VIEWCTR
 10
30.5176960027
 20
43.1607414896
  9
$VIEWSIZE
 40
86.3214829791
  9
$CLAYER
  8
0
  9
$LTSCALE
 40
5.6268818535
  9
$CELTYPE
  6
BYLAYER
  9
$DIMSCALE
 40
1.0
  9
$DIMASZ
 40
0.7266118096
  9
$DIMEXO
 40
1.0
  9
$DIMDLI
 40
3.887663826
  9
$DIMEXE
 40
1.0
  9
$DIMCEN
 40
0.9207624851
  9
$DIMLFAC
 40
1.0
  9
$DIMBLK
  1
_FILLED
  9
$DIMALT
 70
0
  9
$DIMALTF
 40
0.0393700787
  9
$DIMTXT
 40
1.0172565334
  9
$DIMTOL
 70
1
  9
$DIMLIM
 70
0
  9
$DIMTFAC
 40
1.0
  9
$DIMTP
 40
0.01
  9
$DIMTM
 40
0.01
  9
$DIMGAP
 40
0.625
  9
$DIMDSEP
 70
46
  9
$AUNITS
 70
0
  9
$PDMODE
 70
3
  9
$PDSIZE
 40
0.3125
  9
$HANDSEED
  5
35F
  9
$TILEMODE
 70
1
  9
$MEASUREMENT
 70
1
  9
$INSUNITS
 70
4
  0
ENDSEC
  0
SECTION
  2
CLASSES
  0
CLASS
  1
ACDBDICTIONARYWDFLT
  2
AcDbDictionaryWithDefault
  3
AutoCAD 2000
 90
0
 91
1
280
0
281
0
  0
CLASS
  1
ACDBPLACEHOLDER
  2
AcDbPlaceHolder
  3
AutoCAD 2000
 90
0
 91
1
280
0
281
0
  0
CLASS
  1
LAYOUT
  2
AcDbLayout
  3
AutoCAD 2000
 90
0
 91
0
280
0
281
0
  0
ENDSEC
  0
SECTION
  2
TABLES
  0
TABLE
  2
VPORT
  5
8
100
AcDbSymbolTable
 70
2
  0
VPORT
  5
1F4
100
AcDbSymbolTableRecord
100
AcDbViewportTableRecord
  2
*ACTIVE
 70
0
 10
0.0
 20
0.0
 11
1.0
 21
1.0
 12
30.5176960027
 22
43.1607414896
 13
0.0
 23
0.0
 14
1.0
 24
1.0
 15
0.0
 25
0.0
 16
0.0
 26
0.0
 36
1.0
 17
0.0
 27
0.0
 37
0.0
 40
86.3214829791
 41
0.7070707071
 42
50.0
 43
0.0
 44
0.0
 50
0.0
 51
0.0
 71
0
 72
100
 73
1
 74
1
 75
0
 76
0
 77
0
 78
0
  0
ENDTAB
  0
TABLE
  2
LTYPE
  5
5
100
AcDbSymbolTable
 70
6
  0
LTYPE
  5
14
100
AcDbSymbolTableRecord
100
AcDbLinetypeTableRecord
  2
BYBLOCK
 70
0
  3

 72
65
 73
0
 40
0.0
  0
LTYPE
  5
15
100
AcDbSymbolTableRecord
100
AcDbLinetypeTableRecord
  2
BYLAYER
 70
0
  3

 72
65
 73
0
 40
0.0
  0
LTYPE
  5
16
100
AcDbSymbolTableRecord
100
AcDbLinetypeTableRecord
  2
CONTINUOUS
 70
64
  3
Solid line
 72
65
 73
0
 40
0.0
  0
LTYPE
  5
1F5
100
AcDbSymbolTableRecord
100
AcDbLinetypeTableRecord
  2
CENTER
 70
64
  3
____ _ ____ _ ____ _ ____ _ ____ _ ____ _ ____
 72
65
 73
4
 40
0.6
 49
0.375
 74
0
 49
-0.075
 74
0
 49
0.075
 74
0
 49
-0.075
 74
0
  0
LTYPE
  5
1F6
100
AcDbSymbolTableRecord
100
AcDbLinetypeTableRecord
  2
HIDDEN
 70
64
  3
- - - - - - - - - - - - - - - - - - - -
 72
65
 73
2
 40
0.2
 49
0.1
 74
0
 49
-0.1
 74
0
  0
LTYPE
  5
1F7
100
AcDbSymbolTableRecord
100
AcDbLinetypeTableRecord
  2
PHANTOM
 70
64
  3
_____ _ _ _____ _ _ _____ _ _ _____
 72
65
 73
6
 40
0.8
 49
0.45
 74
0
 49
-0.05
 74
0
 49
0.1
 74
0
 49
-0.05
 74
0
 49
0.1
 74
0
 49
-0.05
 74
0
  0
LTYPE
  5
1F8
100
AcDbSymbolTableRecord
100
AcDbLinetypeTableRecord
  2
DOT
 70
64
  3
. . . . . . . . . . . . . . . . . . . .
 72
65
 73
2
 40
0.2
 49
0.1
 74
0
 49
-0.1
 74
0
  0
LTYPE
  5
1F9
100
AcDbSymbolTableRecord
100
AcDbLinetypeTableRecord
  2
DASHED
 70
64
  3
- - - - - - - - - - - - - - - - - - - -
 72
65
 73
2
 40
0.2
 49
0.1
 74
0
 49
-0.1
 74
0
  0
ENDTAB
  0
TABLE
  2
LAYER
  5
2
100
AcDbSymbolTable
 70
36
  0
LAYER
  5
10
100
AcDbSymbolTableRecord
100
AcDbLayerTableRecord
  2
0
 70
0
 62
7
  6
CONTINUOUS
370
-3
390
F
  0
LAYER
  5
1FA
100
AcDbSymbolTableRecord
100
AcDbLayerTableRecord
  2
DEFAULT_1
 70
0
 62
7
  6
CENTER
370
-3
390
F
  0
LAYER
  5
1FB
100
AcDbSymbolTableRecord
100
AcDbLayerTableRecord
  2
DEFAULT_2
 70
0
 62
8
  6
HIDDEN
370
-3
390
F
  0
LAYER
  5
1FC
100
AcDbSymbolTableRecord
100
AcDbLayerTableRecord
  2
DEFAULT_3
 70
0
 62
7
  6
PHANTOM
370
-3
390
F
  0
LAYER
  5
1FD
100
AcDbSymbolTableRecord
100
AcDbLayerTableRecord
  2
00_COMPONENTS
 70
0
 62
7
  6
CONTINUOUS
370
-3
390
F
  0
LAYER
  5
1FE
100
AcDbSymbolTableRecord
100
AcDbLayerTableRecord
  2
01_1_DEFAULT_DATUMS
 70
0
 62
7
  6
CONTINUOUS
370
-3
390
F
  0
LAYER
  5
1FF
100
AcDbSymbolTableRecord
100
AcDbLayerTableRecord
  2
01_PLANES
 70
0
 62
7
  6
CONTINUOUS
370
-3
390
F
  0
LAYER
  5
200
100
AcDbSymbolTableRecord
100
AcDbLayerTableRecord
  2
02_COORD_SYS
 70
0
 62
7
  6
CONTINUOUS
370
-3
390
F
  0
LAYER
  5
201
100
AcDbSymbolTableRecord
100
AcDbLayerTableRecord
  2
03_AXES
 70
0
 62
7
  6
CONTINUOUS
370
-3
390
F
  0
LAYER
  5
202
100
AcDbSymbolTableRecord
100
AcDbLayerTableRecord
  2
04_POINTS
 70
0
 62
7
  6
CONTINUOUS
370
-3
390
F
  0
LAYER
  5
203
100
AcDbSymbolTableRecord
100
AcDbLayerTableRecord
  2
05_CURVES
 70
0
 62
7
  6
CONTINUOUS
370
-3
390
F
  0
LAYER
  5
204
100
AcDbSymbolTableRecord
100
AcDbLayerTableRecord
  2
06_SURFS
 70
0
 62
7
  6
CONTINUOUS
370
-3
390
F
  0
LAYER
  5
205
100
AcDbSymbolTableRecord
100
AcDbLayerTableRecord
  2
07_COSMETICS
 70
0
 62
7
  6
CONTINUOUS
370
-3
390
F
  0
LAYER
  5
206
100
AcDbSymbolTableRecord
100
AcDbLayerTableRecord
  2
10_NOTES
 70
0
 62
7
  6
CONTINUOUS
370
-3
390
F
  0
LAYER
  5
207
100
AcDbSymbolTableRecord
100
AcDbLayerTableRecord
  2
11_NOTES_PUB
 70
0
 62
7
  6
CONTINUOUS
370
-3
390
F
  0
LAYER
  5
208
100
AcDbSymbolTableRecord
100
AcDbLayerTableRecord
  2
13_REF_GTOL
 70
0
 62
7
  6
CONTINUOUS
370
-3
390
F
  0
LAYER
  5
209
100
AcDbSymbolTableRecord
100
AcDbLayerTableRecord
  2
16_MISC
 70
0
 62
7
  6
CONTINUOUS
370
-3
390
F
  0
LAYER
  5
20A
100
AcDbSymbolTableRecord
100
AcDbLayerTableRecord
  2
17_NO_PRINT
 70
0
 62
7
  6
CONTINUOUS
370
-3
390
F
  0
LAYER
  5
20B
100
AcDbSymbolTableRecord
100
AcDbLayerTableRecord
  2
18_DATUM_CAMS_JOINTS
 70
0
 62
7
  6
CONTINUOUS
370
-3
390
F
  0
LAYER
  5
20C
100
AcDbSymbolTableRecord
100
AcDbLayerTableRecord
  2
19_DATUM_FUNCTIONAL
 70
0
 62
7
  6
CONTINUOUS
370
-3
390
F
  0
LAYER
  5
20D
100
AcDbSymbolTableRecord
100
AcDbLayerTableRecord
  2
20_DATUM_KINEMATIC_SCHEME
 70
0
 62
7
  6
CONTINUOUS
370
-3
390
F
  0
ENDTAB
  0
TABLE
  2
STYLE
  5
3
100
AcDbSymbolTable
 70
1
  0
STYLE
  5
11
100
AcDbSymbolTableRecord
100
AcDbTextStyleTableRecord
  2
STANDARD
 70
0
 40
0.0
 41
0.8
 50
0.0
 71
0
 42
0.2
  3
txt
  4

  0
STYLE
  5
20E
100
AcDbSymbolTableRecord
100
AcDbTextStyleTableRecord
  2
TEXTSTYLE_1
 70
0
 40
0.0
 41
0.8
 50
0.0
 71
0
 42
0.2
  3
gdt
  4

  0
ENDTAB
  0
TABLE
  2
VIEW
  5
6
100
AcDbSymbolTable
 70
0
  0
ENDTAB
  0
TABLE
  2
UCS
  5
7
100
AcDbSymbolTable
 70
0
  0
ENDTAB
  0
TABLE
  2
APPID
  5
9
100
AcDbSymbolTable
 70
1
  0
APPID
  5
20F
100
AcDbSymbolTableRecord
100
AcDbRegAppTableRecord
  2
ACAD
 70
0
  0
ENDTAB
  0
TABLE
  2
BLOCK_RECORD
  5
1
100
AcDbSymbolTable
 70
0
  0
BLOCK_RECORD
  5
210
100
AcDbSymbolTableRecord
100
AcDbBlockTableRecord
  2
*Model_Space
  0
BLOCK_RECORD
  5
211
100
AcDbSymbolTableRecord
100
AcDbBlockTableRecord
  2
*Paper_Space
  0
BLOCK_RECORD
  5
212
100
AcDbSymbolTableRecord
100
AcDbBlockTableRecord
  2
_FILLED
  0
ENDTAB
  0
TABLE
  2
DIMSTYLE
  5
A
100
AcDbSymbolTable
 70
1
100
AcDbDimStyleTable
 71
0
  0
DIMSTYLE
105
213
100
AcDbSymbolTableRecord
100
AcDbDimStyleTableRecord
  2
STANDARD
 70
0
  3

  4

 40
1.0
 41
0.7266118096
 42
1.0
 43
0.38
 44
1.0
 45
0.0
 46
0.0
 47
0.01
 48
0.01
140
1.0172565334
141
0.09
142
0.0
143
25.4
144
1.0
145
0.0
146
1.0
147
0.625
 71
1
 72
0
 73
0
 74
0
 75
0
 76
0
 77
1
 78
8
 79
2
170
0
171
1
172
0
173
0
174
0
175
0
176
0
177
0
178
0
270
2
179
2
271
2
272
2
273
2
274
2
275
0
280
0
281
0
282
0
283
1
284
8
285
0
286
0
287
3
288
0
340
11
278
46
341
212
342
212
343
212
344
212
  0
ENDTAB
  0
ENDSEC
  0
SECTION
  2
BLOCKS
  0
BLOCK
  5
20
100
AcDbEntity
  8
0
100
AcDbBlockBegin
  2
*Model_Space
 70
0
 10
0.0
 20
0.0
 30
0.0
  3
*Model_Space
  1

  0
ENDBLK
  5
21
100
AcDbEntity
  8
0
100
AcDbBlockEnd
  0
BLOCK
  5
1C
100
AcDbEntity
  8
0
100
AcDbBlockBegin
  2
*Paper_Space
 70
0
 10
0.0
 20
0.0
 30
0.0
  3
*Paper_Space
  1

  0
ENDBLK
  5
1D
100
AcDbEntity
  8
0
100
AcDbBlockEnd
  0
BLOCK
  5
214
100
AcDbEntity
  8
0
100
AcDbBlockBegin
  2
_FILLED
 70
64
 10
0.0
 20
0.0
  3
_FILLED
  1

  0
SOLID
  5
215
100
AcDbEntity
  8
0
  6
BYBLOCK
 62
0
100
AcDbTrace
 10
0.0
 20
0.0
 11
-1.0
 21
0.25
 12
-1.0
 22
-0.25
 13
-1.0
 23
-0.25
  0
ENDBLK
  5
216
100
AcDbEntity
  8
0
  6
BYBLOCK
 62
0
100
AcDbBlockEnd
  0
ENDSEC
  0
SECTION
  2
ENTITIES
  0
LINE
  5
217
100
AcDbEntity
  8
0
100
AcDbLine
 62
7
  6
CONTINUOUS
 10
36.5178682323
 20
7.1318238691
 11
25.5178682323
 21
7.1318238691
  0
LINE
  5
218
100
AcDbEntity
  8
0
100
AcDbLine
 62
7
  6
CONTINUOUS
 10
23.2459792523
 20
7.1929838166
 11
38.8459792523
 21
7.1929838166
  0
LINE
  5
219
100
AcDbEntity
  8
0
100
AcDbLine
 62
7
  6
CONTINUOUS
 10
25.2959792523
 20
12.6929838166
 11
29.2959792523
 21
12.6929838166
  0
LINE
  5
21A
100
AcDbEntity
  8
0
100
AcDbLine
 62
7
  6
CONTINUOUS
 10
32.7959792523
 20
12.6929838166
 11
36.7959792523
 21
12.6929838166
  0
LINE
  5
21B
100
AcDbEntity
  8
0
100
AcDbLine
 62
7
  6
CONTINUOUS
 10
36.4959792523
 20
13.0929838166
 11
33.0959792523
 21
13.0929838166
  0
LINE
  5
21C
100
AcDbEntity
  8
0
100
AcDbLine
 62
7
  6
CONTINUOUS
 10
28.9959792523
 20
13.0929838166
 11
25.5959792523
 21
13.0929838166
  0
LINE
  5
21D
100
AcDbEntity
  8
0
100
AcDbLine
 62
7
  6
CONTINUOUS
 10
25.2959792523
 20
13.3056338382
 11
25.4959792523
 21
13.3056338382
  0
LINE
  5
21E
100
AcDbEntity
  8
0
100
AcDbLine
 62
7
  6
CONTINUOUS
 10
29.0959792523
 20
13.3056338382
 11
29.2959792523
 21
13.3056338382
  0
LINE
  5
21F
100
AcDbEntity
  8
0
100
AcDbLine
 62
7
  6
CONTINUOUS
 10
32.7959792523
 20
13.3056338382
 11
32.9959792523
 21
13.3056338382
  0
LINE
  5
220
100
AcDbEntity
  8
0
100
AcDbLine
 62
7
  6
CONTINUOUS
 10
36.5959792523
 20
13.3056338382
 11
36.7959792523
 21
13.3056338382
  0
LINE
  5
221
100
AcDbEntity
  8
0
100
AcDbLine
 62
7
  6
CONTINUOUS
 10
36.7959792523
 20
13.61292235
 11
36.5959792523
 21
13.61292235
  0
LINE
  5
222
100
AcDbEntity
  8
0
100
AcDbLine
 62
7
  6
CONTINUOUS
 10
32.9959792523
 20
13.61292235
 11
32.7959792523
 21
13.61292235
  0
LINE
  5
223
100
AcDbEntity
  8
0
100
AcDbLine
 62
7
  6
CONTINUOUS
 10
29.2959792523
 20
13.61292235
 11
29.0959792523
 21
13.61292235
  0
LINE
  5
224
100
AcDbEntity
  8
0
100
AcDbLine
 62
7
  6
CONTINUOUS
 10
25.4959792523
 20
13.61292235
 11
25.2959792523
 21
13.61292235
  0
LINE
  5
225
100
AcDbEntity
  8
0
100
AcDbLine
 62
7
  6
CONTINUOUS
 10
25.2959792523
 20
14.4929838166
 11
25.4959792523
 21
14.4929838166
  0
LINE
  5
226
100
AcDbEntity
  8
0
100
AcDbLine
 62
7
  6
CONTINUOUS
 10
29.0959792523
 20
14.4929838166
 11
29.2959792523
 21
14.4929838166
  0
LINE
  5
227
100
AcDbEntity
  8
0
100
AcDbLine
 62
7
  6
CONTINUOUS
 10
32.7959792523
 20
14.4929838166
 11
32.9959792523
 21
14.4929838166
  0
LINE
  5
228
100
AcDbEntity
  8
0
100
AcDbLine
 62
7
  6
CONTINUOUS
 10
36.5959792523
 20
14.4929838166
 11
36.7959792523
 21
14.4929838166
  0
LINE
  5
229
100
AcDbEntity
  8
0
100
AcDbLine
 62
7
  6
CONTINUOUS
 10
36.5959792523
 20
15.9929838166
 11
36.2491276707
 21
15.9929838166
  0
LINE
  5
22A
100
AcDbEntity
  8
0
100
AcDbLine
 62
7
  6
CONTINUOUS
 10
33.2491276707
 20
15.9929838166
 11
32.9959792523
 21
15.9929838166
  0
LINE
  5
22B
100
AcDbEntity
  8
0
100
AcDbLine
 62
7
  6
CONTINUOUS
 10
29.0959792523
 20
15.9929838166
 11
28.8428308339
 21
15.9929838166
  0
LINE
  5
22C
100
AcDbEntity
  8
0
100
AcDbLine
 62
7
  6
CONTINUOUS
 10
25.8428308339
 20
15.9929838166
 11
25.4959792523
 21
15.9929838166
  0
LINE
  5
22D
100
AcDbEntity
  8
0
100
AcDbLine
 62
7
  6
CONTINUOUS
 10
33.2491276707
 20
16.0929838166
 11
33.0959792523
 21
16.0929838166
  0
LINE
  5
22E
100
AcDbEntity
  8
0
100
AcDbLine
 62
7
  6
CONTINUOUS
 10
25.8428308339
 20
16.0929838166
 11
25.5959792523
 21
16.0929838166
  0
LINE
  5
22F
100
AcDbEntity
  8
0
100
AcDbLine
 62
7
  6
CONTINUOUS
 10
28.8428308339
 20
16.3929838166
 11
29.0959792523
 21
16.3929838166
  0
LINE
  5
230
100
AcDbEntity
  8
0
100
AcDbLine
 62
7
  6
CONTINUOUS
 10
36.2491276707
 20
16.3929838166
 11
36.5959792523
 21
16.3929838166
  0
LINE
  5
231
100
AcDbEntity
  8
0
100
AcDbLine
 62
7
  6
CONTINUOUS
 10
25.4959792523
 20
16.8929838166
 11
25.5959792523
 21
16.8929838166
  0
LINE
  5
232
100
AcDbEntity
  8
0
100
AcDbLine
 62
7
  6
CONTINUOUS
 10
28.9959792523
 20
16.8929838166
 11
29.0959792523
 21
16.8929838166
  0
LINE
  5
233
100
AcDbEntity
  8
0
100
AcDbLine
 62
7
  6
CONTINUOUS
 10
32.9959792523
 20
16.8929838166
 11
33.0959792523
 21
16.8929838166
  0
LINE
  5
234
100
AcDbEntity
  8
0
100
AcDbLine
 62
7
  6
CONTINUOUS
 10
36.4959792523
 20
16.8929838166
 11
36.5959792523
 21
16.8929838166
  0
LINE
  5
235
100
AcDbEntity
  8
0
100
AcDbLine
 62
7
  6
CONTINUOUS
 10
36.4959792523
 20
17.3929838166
 11
36.1913926437
 21
17.3929838166
  0
LINE
  5
236
100
AcDbEntity
  8
0
100
AcDbLine
 62
7
  6
CONTINUOUS
 10
28.9959792523
 20
17.3929838166
 11
28.785095807
 21
17.3929838166
  0
LINE
  5
237
100
AcDbEntity
  8
0
100
AcDbLine
 62
7
  6
CONTINUOUS
 10
35.8459127367
 20
17.7429838166
 11
33.7460478827
 21
17.7429838166
  0
LINE
  5
238
100
AcDbEntity
  8
0
100
AcDbLine
 62
7
  6
CONTINUOUS
 10
28.3459127367
 20
17.7429838166
 11
26.2460478827
 21
17.7429838166
  0
LINE
  5
239
100
AcDbEntity
  8
0
100
AcDbLine
 62
7
  6
CONTINUOUS
 10
26.1315059685
 20
17.7929838166
 11
28.5541556993
 21
17.7929838166
  0
LINE
  5
23A
100
AcDbEntity
  8
0
100
AcDbLine
 62
7
  6
CONTINUOUS
 10
33.5378028053
 20
17.7929838166
 11
35.9604525361
 21
17.7929838166
  0
LINE
  5
23B
100
AcDbEntity
  8
0
100
AcDbLine
 62
7
  6
CONTINUOUS
 10
36.3959792523
 20
17.8929838166
 11
33.0959792523
 21
17.8929838166
  0
LINE
  5
23C
100
AcDbEntity
  8
0
100
AcDbLine
 62
7
  6
CONTINUOUS
 10
28.8959792523
 20
17.8929838166
 11
25.5959792523
 21
17.8929838166
  0
LINE
  5
23D
100
AcDbEntity
  8
0
100
AcDbLine
 62
7
  6
CONTINUOUS
 10
36.7959792523
 20
18.2929838166
 11
32.7959792523
 21
18.2929838166
  0
LINE
  5
23E
100
AcDbEntity
  8
0
100
AcDbLine
 62
7
  6
CONTINUOUS
 10
29.2959792523
 20
18.2929838166
 11
25.2959792523
 21
18.2929838166
  0
LINE
  5
23F
100
AcDbEntity
  8
0
100
AcDbLine
 62
7
  6
CONTINUOUS
 10
26.2459792523
 20
17.7429838166
 11
26.1959792523
 21
17.7929838166
  0
LINE
  5
240
100
AcDbEntity
  8
0
100
AcDbLine
 62
7
  6
CONTINUOUS
 10
33.7459792523
 20
17.7429838166
 11
33.6959792523
 21
17.7929838166
  0
LINE
  5
241
100
AcDbEntity
  8
0
100
AcDbLine
 62
7
  6
CONTINUOUS
 10
28.8428308339
 20
17.2929838166
 11
28.5541556993
 21
17.7929838166
  0
LINE
  5
242
100
AcDbEntity
  8
0
100
AcDbLine
 62
7
  6
CONTINUOUS
 10
23.4459792523
 20
29.5929838166
 11
25.2959792523
 21
29.5929838166
  0
LINE
  5
243
100
AcDbEntity
  8
0
100
AcDbLine
 62
7
  6
CONTINUOUS
 10
29.2959792523
 20
29.5929838166
 11
32.7959792523
 21
29.5929838166
  0
LINE
  5
244
100
AcDbEntity
  8
0
100
AcDbLine
 62
7
  6
CONTINUOUS
 10
36.7959792523
 20
29.5929838166
 11
38.6459792523
 21
29.5929838166
  0
LINE
  5
245
100
AcDbEntity
  8
0
100
AcDbLine
 62
7
  6
CONTINUOUS
 10
23.2459792523
 20
30.9929838166
 11
38.8459792523
 21
30.9929838166
  0
LINE
  5
246
100
AcDbEntity
  8
0
100
AcDbLine
 62
7
  6
CONTINUOUS
 10
38.6459792523
 20
31.1929838166
 11
23.4459792523
 21
31.1929838166
  0
LINE
  5
247
100
AcDbEntity
  8
0
100
AcDbLine
 62
7
  6
CONTINUOUS
 10
26.3901905113
 20
76.3429833386
 11
26.2778769355
 21
75.7429791323
  0
LINE
  5
248
100
AcDbEntity
  8
0
100
AcDbLine
 62
7
  6
CONTINUOUS
 10
25.2834792523
 20
75.7429838166
 11
25.3959792523
 21
76.3429838166
  0
LINE
  5
249
100
AcDbEntity
  8
0
100
AcDbLine
 62
7
  6
CONTINUOUS
 10
28.3459792523
 20
54.7429838166
 11
28.3959792523
 21
54.7929838166
  0
LINE
  5
24A
100
AcDbEntity
  8
0
100
AcDbLine
 62
7
  6
CONTINUOUS
 10
36.4959792523
 20
31.5929838166
 11
33.0959792523
 21
31.5929838166
  0
LINE
  5
24B
100
AcDbEntity
  8
0
100
AcDbLine
 62
7
  6
CONTINUOUS
 10
28.9959792523
 20
31.5929838166
 11
25.5959792523
 21
31.5929838166
  0
LINE
  5
24C
100
AcDbEntity
  8
0
100
AcDbLine
 62
7
  6
CONTINUOUS
 10
25.2959792523
 20
31.8056338382
 11
25.4959792523
 21
31.8056338382
  0
LINE
  5
24D
100
AcDbEntity
  8
0
100
AcDbLine
 62
7
  6
CONTINUOUS
 10
29.0959792523
 20
31.8056338382
 11
29.2959792523
 21
31.8056338382
  0
LINE
  5
24E
100
AcDbEntity
  8
0
100
AcDbLine
 62
7
  6
CONTINUOUS
 10
32.7959792523
 20
31.8056338382
 11
32.9959792523
 21
31.8056338382
  0
LINE
  5
24F
100
AcDbEntity
  8
0
100
AcDbLine
 62
7
  6
CONTINUOUS
 10
36.5959792523
 20
31.8056338382
 11
36.7959792523
 21
31.8056338382
  0
LINE
  5
250
100
AcDbEntity
  8
0
100
AcDbLine
 62
7
  6
CONTINUOUS
 10
36.7959792523
 20
32.11292235
 11
36.5959792523
 21
32.11292235
  0
LINE
  5
251
100
AcDbEntity
  8
0
100
AcDbLine
 62
7
  6
CONTINUOUS
 10
32.9959792523
 20
32.11292235
 11
32.7959792523
 21
32.11292235
  0
LINE
  5
252
100
AcDbEntity
  8
0
100
AcDbLine
 62
7
  6
CONTINUOUS
 10
29.2959792523
 20
32.11292235
 11
29.0959792523
 21
32.11292235
  0
LINE
  5
253
100
AcDbEntity
  8
0
100
AcDbLine
 62
7
  6
CONTINUOUS
 10
25.4959792523
 20
32.11292235
 11
25.2959792523
 21
32.11292235
  0
LINE
  5
254
100
AcDbEntity
  8
0
100
AcDbLine
 62
7
  6
CONTINUOUS
 10
25.2959792523
 20
32.9929838166
 11
25.4959792523
 21
32.9929838166
  0
LINE
  5
255
100
AcDbEntity
  8
0
100
AcDbLine
 62
7
  6
CONTINUOUS
 10
29.0959792523
 20
32.9929838166
 11
29.2959792523
 21
32.9929838166
  0
LINE
  5
256
100
AcDbEntity
  8
0
100
AcDbLine
 62
7
  6
CONTINUOUS
 10
32.7959792523
 20
32.9929838166
 11
32.9959792523
 21
32.9929838166
  0
LINE
  5
257
100
AcDbEntity
  8
0
100
AcDbLine
 62
7
  6
CONTINUOUS
 10
36.5959792523
 20
32.9929838166
 11
36.7959792523
 21
32.9929838166
  0
LINE
  5
258
100
AcDbEntity
  8
0
100
AcDbLine
 62
7
  6
CONTINUOUS
 10
23.1959792523
 20
35.2929838166
 11
23.1959792523
 21
79.18965911
  0
LINE
  5
259
100
AcDbEntity
  8
0
100
AcDbLine
 62
7
  6
CONTINUOUS
 10
23.2459792523
 20
67.9929838166
 11
23.2459792523
 21
7.1929838166
  0
LINE
  5
25A
100
AcDbEntity
  8
0
100
AcDbLine
 62
7
  6
CONTINUOUS
 10
23.4459792523
 20
7.1929838166
 11
23.4459792523
 21
68.1929838166
  0
LINE
  5
25B
100
AcDbEntity
  8
0
100
AcDbLine
 62
7
  6
CONTINUOUS
 10
38.8959792523
 20
35.2929838166
 11
38.8459792523
 21
35.2929838166
  0
LINE
  5
25C
100
AcDbEntity
  8
0
100
AcDbLine
 62
7
  6
CONTINUOUS
 10
23.2459792523
 20
35.2929838166
 11
23.1959792523
 21
35.2929838166
  0
LINE
  5
25D
100
AcDbEntity
  8
0
100
AcDbLine
 62
7
  6
CONTINUOUS
 10
26.2459792523
 20
36.2429838166
 11
26.1959792523
 21
36.2929838166
  0
LINE
  5
25E
100
AcDbEntity
  8
0
100
AcDbLine
 62
7
  6
CONTINUOUS
 10
36.2491276707
 20
17.2929838166
 11
35.9604525361
 21
17.7929838166
  0
LINE
  5
25F
100
AcDbEntity
  8
0
100
AcDbLine
 62
7
  6
CONTINUOUS
 10
23.1959792523
 20
43.4015212645
 11
23.2459792523
 21
43.173925149
  0
LINE
  5
260
100
AcDbEntity
  8
0
100
AcDbLine
 62
7
  6
CONTINUOUS
 10
24.5959792523
 20
71.7125749968
 11
24.5959792523
 21
68.1929838166
  0
LINE
  5
261
100
AcDbEntity
  8
0
100
AcDbLine
 62
7
  6
CONTINUOUS
 10
24.8459792523
 20
68.1929838166
 11
24.8459792523
 21
76.3429838166
  0
LINE
  5
262
100
AcDbEntity
  8
0
100
AcDbLine
 62
7
  6
CONTINUOUS
 10
25.2959792523
 20
12.6929838166
 11
25.2959792523
 21
29.5929838166
  0
LINE
  5
263
100
AcDbEntity
  8
0
100
AcDbLine
 62
7
  6
CONTINUOUS
 10
25.2959792523
 20
31.1929838166
 11
25.2959792523
 21
48.0929838166
  0
LINE
  5
264
100
AcDbEntity
  8
0
100
AcDbLine
 62
7
  6
CONTINUOUS
 10
25.2959792523
 20
49.6929838166
 11
25.2959792523
 21
66.5929838166
  0
LINE
  5
265
100
AcDbEntity
  8
0
100
AcDbLine
 62
7
  6
CONTINUOUS
 10
25.4959792523
 20
13.1929838166
 11
25.4959792523
 21
18.2929838166
  0
LINE
  5
266
100
AcDbEntity
  8
0
100
AcDbLine
 62
7
  6
CONTINUOUS
 10
25.4959792523
 20
31.6929838166
 11
25.4959792523
 21
36.7929838166
  0
LINE
  5
267
100
AcDbEntity
  8
0
100
AcDbLine
 62
7
  6
CONTINUOUS
 10
25.4959792523
 20
50.1929838166
 11
25.4959792523
 21
55.2929838166
  0
LINE
  5
268
100
AcDbEntity
  8
0
100
AcDbLine
 62
7
  6
CONTINUOUS
 10
25.5178682323
 20
7.1318238691
 11
25.5178682323
 21
7.1929838166
  0
LINE
  5
269
100
AcDbEntity
  8
0
100
AcDbLine
 62
7
  6
CONTINUOUS
 10
25.5459792523
 20
17.7929838166
 11
25.5459792523
 21
18.2929838166
  0
LINE
  5
26A
100
AcDbEntity
  8
0
100
AcDbLine
 62
7
  6
CONTINUOUS
 10
25.5959792523
 20
18.2929838166
 11
25.5959792523
 21
16.0929838166
  0
LINE
  5
26B
100
AcDbEntity
  8
0
100
AcDbLine
 62
7
  6
CONTINUOUS
 10
25.5959792523
 20
31.5929838166
 11
25.5959792523
 21
36.7929838166
  0
LINE
  5
26C
100
AcDbEntity
  8
0
100
AcDbLine
 62
7
  6
CONTINUOUS
 10
25.6959792523
 20
50.0929838166
 11
25.6959792523
 21
55.2929838166
  0
LINE
  5
26D
100
AcDbEntity
  8
0
100
AcDbLine
 62
7
  6
CONTINUOUS
 10
25.7959792523
 20
12.6929838166
 11
25.7959792523
 21
13.0929838166
  0
LINE
  5
26E
100
AcDbEntity
  8
0
100
AcDbLine
 62
7
  6
CONTINUOUS
 10
25.7959792523
 20
31.1929838166
 11
25.7959792523
 21
31.5929838166
  0
LINE
  5
26F
100
AcDbEntity
  8
0
100
AcDbLine
 62
7
  6
CONTINUOUS
 10
25.7959792523
 20
49.6929838166
 11
25.7959792523
 21
50.0929838166
  0
LINE
  5
270
100
AcDbEntity
  8
0
100
AcDbLine
 62
7
  6
CONTINUOUS
 10
25.8428308339
 20
17.2929838166
 11
25.8428308339
 21
13.0929838166
  0
LINE
  5
271
100
AcDbEntity
  8
0
100
AcDbLine
 62
7
  6
CONTINUOUS
 10
25.9959792523
 20
17.8929838166
 11
25.9959792523
 21
17.5582446583
  0
LINE
  5
272
100
AcDbEntity
  8
0
100
AcDbLine
 62
7
  6
CONTINUOUS
 10
26.0459792523
 20
17.7929838166
 11
26.0459792523
 21
17.8793620217
  0
LINE
  5
273
100
AcDbEntity
  8
0
100
AcDbLine
 62
7
  6
CONTINUOUS
 10
26.0959792523
 20
36.7929838166
 11
26.0959792523
 21
36.3929838166
  0
LINE
  5
274
100
AcDbEntity
  8
0
100
AcDbLine
 62
7
  6
CONTINUOUS
 10
26.0959792523
 20
18.2929838166
 11
26.0959792523
 21
17.8929838166
  0
LINE
  5
275
100
AcDbEntity
  8
0
100
AcDbLine
 62
7
  6
CONTINUOUS
 10
26.1959792523
 20
17.7929838166
 11
26.1959792523
 21
17.8929838166
  0
LINE
  5
276
100
AcDbEntity
  8
0
100
AcDbLine
 62
7
  6
CONTINUOUS
 10
26.1959792523
 20
36.2929838166
 11
26.1959792523
 21
36.3929838166
  0
LINE
  5
277
100
AcDbEntity
  8
0
100
AcDbLine
 62
7
  6
CONTINUOUS
 10
26.1959792523
 20
54.7929838166
 11
26.1959792523
 21
55.2929838166
  0
LINE
  5
278
100
AcDbEntity
  8
0
100
AcDbLine
 62
7
  6
CONTINUOUS
 10
26.3459792392
 20
68.8929834181
 11
26.3459792523
 21
75.7429808848
  0
LINE
  5
279
100
AcDbEntity
  8
0
100
AcDbLine
 62
7
  6
CONTINUOUS
 10
26.3459792523
 20
76.3429838166
 11
26.3459792523
 21
76.5429838166
  0
LINE
  5
27A
100
AcDbEntity
  8
0
100
AcDbLine
 62
7
  6
CONTINUOUS
 10
35.8459792523
 20
54.7429838166
 11
35.8959792523
 21
54.7929838166
  0
LINE
  5
27B
100
AcDbEntity
  8
0
100
AcDbLine
 62
7
  6
CONTINUOUS
 10
35.8459655482
 20
36.2429838166
 11
33.7459945843
 21
36.2429838166
  0
LINE
  5
27C
100
AcDbEntity
  8
0
100
AcDbLine
 62
7
  6
CONTINUOUS
 10
28.3457587561
 20
36.2429838166
 11
26.2463294441
 21
36.2429838166
  0
LINE
  5
27D
100
AcDbEntity
  8
0
100
AcDbLine
 62
7
  6
CONTINUOUS
 10
35.8959792523
 20
36.2929838166
 11
33.6959792523
 21
36.2929838166
  0
LINE
  5
27E
100
AcDbEntity
  8
0
100
AcDbLine
 62
7
  6
CONTINUOUS
 10
28.3959792523
 20
36.2929838166
 11
26.1959792523
 21
36.2929838166
  0
LINE
  5
27F
100
AcDbEntity
  8
0
100
AcDbLine
 62
7
  6
CONTINUOUS
 10
36.3959792523
 20
36.3929838166
 11
33.0959792523
 21
36.3929838166
  0
LINE
  5
280
100
AcDbEntity
  8
0
100
AcDbLine
 62
7
  6
CONTINUOUS
 10
28.8959792523
 20
36.3929838166
 11
25.5959792523
 21
36.3929838166
  0
LINE
  5
281
100
AcDbEntity
  8
0
100
AcDbLine
 62
7
  6
CONTINUOUS
 10
36.7959792523
 20
36.7929838166
 11
32.7959792523
 21
36.7929838166
  0
LINE
  5
282
100
AcDbEntity
  8
0
100
AcDbLine
 62
7
  6
CONTINUOUS
 10
29.2959792523
 20
36.7929838166
 11
25.2959792523
 21
36.7929838166
  0
LINE
  5
283
100
AcDbEntity
  8
0
100
AcDbLine
 62
7
  6
CONTINUOUS
 10
28.3959792523
 20
17.7929838166
 11
28.3959792523
 21
18.2929838166
  0
LINE
  5
284
100
AcDbEntity
  8
0
100
AcDbLine
 62
7
  6
CONTINUOUS
 10
28.3959792523
 20
36.2929838166
 11
28.3959792523
 21
36.7929838166
  0
LINE
  5
285
100
AcDbEntity
  8
0
100
AcDbLine
 62
7
  6
CONTINUOUS
 10
28.3959792523
 20
54.7929838166
 11
28.3959792523
 21
54.8929838166
  0
LINE
  5
286
100
AcDbEntity
  8
0
100
AcDbLine
 62
7
  6
CONTINUOUS
 10
28.4959792523
 20
54.8929838166
 11
28.4959792523
 21
55.2929838166
  0
LINE
  5
287
100
AcDbEntity
  8
0
100
AcDbLine
 62
7
  6
CONTINUOUS
 10
28.5459792523
 20
17.7929838166
 11
28.5459792523
 21
17.8929838166
  0
LINE
  5
288
100
AcDbEntity
  8
0
100
AcDbLine
 62
7
  6
CONTINUOUS
 10
28.5959792523
 20
17.7205432979
 11
28.5959792523
 21
17.8929838166
  0
LINE
  5
289
100
AcDbEntity
  8
0
100
AcDbLine
 62
7
  6
CONTINUOUS
 10
28.7959792523
 20
50.0929838166
 11
28.7959792523
 21
49.6929838166
  0
LINE
  5
28A
100
AcDbEntity
  8
0
100
AcDbLine
 62
7
  6
CONTINUOUS
 10
28.7959792523
 20
31.5929838166
 11
28.7959792523
 21
31.1929838166
  0
LINE
  5
28B
100
AcDbEntity
  8
0
100
AcDbLine
 62
7
  6
CONTINUOUS
 10
28.7959792523
 20
13.0929838166
 11
28.7959792523
 21
12.6929838166
  0
LINE
  5
28C
100
AcDbEntity
  8
0
100
AcDbLine
 62
7
  6
CONTINUOUS
 10
28.8428308339
 20
17.2929838166
 11
28.8428308339
 21
13.0929838166
  0
LINE
  5
28D
100
AcDbEntity
  8
0
100
AcDbLine
 62
7
  6
CONTINUOUS
 10
28.8959792523
 20
18.2929838166
 11
28.8959792523
 21
17.8929838166
  0
LINE
  5
28E
100
AcDbEntity
  8
0
100
AcDbLine
 62
7
  6
CONTINUOUS
 10
28.8959792523
 20
31.5929838166
 11
28.8959792523
 21
36.7929838166
  0
LINE
  5
28F
100
AcDbEntity
  8
0
100
AcDbLine
 62
7
  6
CONTINUOUS
 10
33.7459792523
 20
36.2429838166
 11
33.6959792523
 21
36.2929838166
  0
LINE
  5
290
100
AcDbEntity
  8
0
100
AcDbLine
 62
7
  6
CONTINUOUS
 10
28.9959792523
 20
18.2929838166
 11
28.9959792523
 21
16.3929838166
  0
LINE
  5
291
100
AcDbEntity
  8
0
100
AcDbLine
 62
7
  6
CONTINUOUS
 10
28.9959792523
 20
50.0929838166
 11
28.9959792523
 21
55.2929838166
  0
LINE
  5
292
100
AcDbEntity
  8
0
100
AcDbLine
 62
7
  6
CONTINUOUS
 10
29.0459792523
 20
17.7929838166
 11
29.0459792523
 21
18.2929838166
  0
LINE
  5
293
100
AcDbEntity
  8
0
100
AcDbLine
 62
7
  6
CONTINUOUS
 10
29.0959792523
 20
13.1929838166
 11
29.0959792523
 21
18.2929838166
  0
LINE
  5
294
100
AcDbEntity
  8
0
100
AcDbLine
 62
7
  6
CONTINUOUS
 10
29.0959792523
 20
31.6929838166
 11
29.0959792523
 21
36.7929838166
  0
LINE
  5
295
100
AcDbEntity
  8
0
100
AcDbLine
 62
7
  6
CONTINUOUS
 10
29.0959792523
 20
50.1929838166
 11
29.0959792523
 21
55.2929838166
  0
LINE
  5
296
100
AcDbEntity
  8
0
100
AcDbLine
 62
7
  6
CONTINUOUS
 10
29.2959792523
 20
66.5929838166
 11
29.2959792523
 21
49.6929838166
  0
LINE
  5
297
100
AcDbEntity
  8
0
100
AcDbLine
 62
7
  6
CONTINUOUS
 10
29.2959792523
 20
48.0929838166
 11
29.2959792523
 21
31.1929838166
  0
LINE
  5
298
100
AcDbEntity
  8
0
100
AcDbLine
 62
7
  6
CONTINUOUS
 10
29.2959792523
 20
29.5929838166
 11
29.2959792523
 21
12.6929838166
  0
LINE
  5
299
100
AcDbEntity
  8
0
100
AcDbLine
 62
7
  6
CONTINUOUS
 10
30.2259792523
 20
76.5429838166
 11
30.2259792523
 21
77.7213894096
  0
LINE
  5
29A
100
AcDbEntity
  8
0
100
AcDbLine
 62
7
  6
CONTINUOUS
 10
30.4259792523
 20
77.8634769124
 11
30.4259792523
 21
77.9213894096
  0
LINE
  5
29B
100
AcDbEntity
  8
0
100
AcDbLine
 62
7
  6
CONTINUOUS
 10
30.725979285
 20
76.5429838166
 11
30.7259790963
 21
77.6358322789
  0
LINE
  5
29C
100
AcDbEntity
  8
0
100
AcDbLine
 62
7
  6
CONTINUOUS
 10
31.5759792603
 20
77.6358322789
 11
31.5759791341
 21
76.5429838166
  0
LINE
  5
29D
100
AcDbEntity
  8
0
100
AcDbLine
 62
7
  6
CONTINUOUS
 10
31.8759792523
 20
77.9213894096
 11
31.8759792523
 21
77.8634771843
  0
LINE
  5
29E
100
AcDbEntity
  8
0
100
AcDbLine
 62
7
  6
CONTINUOUS
 10
32.0759792523
 20
76.5429838166
 11
32.0759792523
 21
77.7213894096
  0
LINE
  5
29F
100
AcDbEntity
  8
0
100
AcDbLine
 62
7
  6
CONTINUOUS
 10
32.7959792523
 20
12.6929838166
 11
32.7959792523
 21
29.5929838166
  0
LINE
  5
2A0
100
AcDbEntity
  8
0
100
AcDbLine
 62
7
  6
CONTINUOUS
 10
32.7959792523
 20
31.1929838166
 11
32.7959792523
 21
48.0929838166
  0
LINE
  5
2A1
100
AcDbEntity
  8
0
100
AcDbLine
 62
7
  6
CONTINUOUS
 10
32.7959792523
 20
49.6929838166
 11
32.7959792523
 21
66.5929838166
  0
LINE
  5
2A2
100
AcDbEntity
  8
0
100
AcDbLine
 62
7
  6
CONTINUOUS
 10
32.9959792523
 20
13.1929838166
 11
32.9959792523
 21
18.2929838166
  0
LINE
  5
2A3
100
AcDbEntity
  8
0
100
AcDbLine
 62
7
  6
CONTINUOUS
 10
32.9959792523
 20
31.6929838166
 11
32.9959792523
 21
36.7929838166
  0
LINE
  5
2A4
100
AcDbEntity
  8
0
100
AcDbLine
 62
7
  6
CONTINUOUS
 10
32.9959792523
 20
50.1929838166
 11
32.9959792523
 21
55.2929838166
  0
LINE
  5
2A5
100
AcDbEntity
  8
0
100
AcDbLine
 62
7
  6
CONTINUOUS
 10
33.0459792523
 20
17.7929838166
 11
33.0459792523
 21
18.2929838166
  0
LINE
  5
2A6
100
AcDbEntity
  8
0
100
AcDbLine
 62
7
  6
CONTINUOUS
 10
33.0959792523
 20
18.2929838166
 11
33.0959792523
 21
16.0929838166
  0
LINE
  5
2A7
100
AcDbEntity
  8
0
100
AcDbLine
 62
7
  6
CONTINUOUS
 10
33.0959792523
 20
31.5929838166
 11
33.0959792523
 21
36.7929838166
  0
LINE
  5
2A8
100
AcDbEntity
  8
0
100
AcDbLine
 62
7
  6
CONTINUOUS
 10
33.1959792523
 20
50.0929838166
 11
33.1959792523
 21
55.2929838166
  0
LINE
  5
2A9
100
AcDbEntity
  8
0
100
AcDbLine
 62
7
  6
CONTINUOUS
 10
33.2491276707
 20
17.2929838166
 11
33.2491276707
 21
13.0929838166
  0
LINE
  5
2AA
100
AcDbEntity
  8
0
100
AcDbLine
 62
7
  6
CONTINUOUS
 10
33.2959792523
 20
12.6929838166
 11
33.2959792523
 21
13.0929838166
  0
LINE
  5
2AB
100
AcDbEntity
  8
0
100
AcDbLine
 62
7
  6
CONTINUOUS
 10
33.2959792523
 20
31.1929838166
 11
33.2959792523
 21
31.5929838166
  0
LINE
  5
2AC
100
AcDbEntity
  8
0
100
AcDbLine
 62
7
  6
CONTINUOUS
 10
33.2959792523
 20
49.6929838166
 11
33.2959792523
 21
50.0929838166
  0
LINE
  5
2AD
100
AcDbEntity
  8
0
100
AcDbLine
 62
7
  6
CONTINUOUS
 10
33.4959792523
 20
17.8929838166
 11
33.4959792523
 21
17.7205432979
  0
LINE
  5
2AE
100
AcDbEntity
  8
0
100
AcDbLine
 62
7
  6
CONTINUOUS
 10
33.5459792523
 20
17.7929838166
 11
33.5459792523
 21
17.8793620217
  0
LINE
  5
2AF
100
AcDbEntity
  8
0
100
AcDbLine
 62
7
  6
CONTINUOUS
 10
33.5959792523
 20
36.7929838166
 11
33.5959792523
 21
36.3929838166
  0
LINE
  5
2B0
100
AcDbEntity
  8
0
100
AcDbLine
 62
7
  6
CONTINUOUS
 10
33.5959792523
 20
18.2929838166
 11
33.5959792523
 21
17.8929838166
  0
LINE
  5
2B1
100
AcDbEntity
  8
0
100
AcDbLine
 62
7
  6
CONTINUOUS
 10
33.6959792523
 20
17.7929838166
 11
33.6959792523
 21
17.8929838166
  0
LINE
  5
2B2
100
AcDbEntity
  8
0
100
AcDbLine
 62
7
  6
CONTINUOUS
 10
33.6959792523
 20
36.2929838166
 11
33.6959792523
 21
36.3929838166
  0
LINE
  5
2B3
100
AcDbEntity
  8
0
100
AcDbLine
 62
7
  6
CONTINUOUS
 10
33.6959792523
 20
54.7929838166
 11
33.6959792523
 21
55.2929838166
  0
LINE
  5
2B4
100
AcDbEntity
  8
0
100
AcDbLine
 62
7
  6
CONTINUOUS
 10
23.1959792523
 20
45.3600873735
 11
23.2459792523
 21
45.3600873735
  0
LINE
  5
2B5
100
AcDbEntity
  8
0
100
AcDbLine
 62
7
  6
CONTINUOUS
 10
38.8459792523
 20
45.3600873735
 11
38.8959792523
 21
45.3600873735
  0
LINE
  5
2B6
100
AcDbEntity
  8
0
100
AcDbLine
 62
7
  6
CONTINUOUS
 10
35.8959792523
 20
17.7929838166
 11
35.8959792523
 21
18.2929838166
  0
LINE
  5
2B7
100
AcDbEntity
  8
0
100
AcDbLine
 62
7
  6
CONTINUOUS
 10
35.8959792523
 20
36.2929838166
 11
35.8959792523
 21
36.7929838166
  0
LINE
  5
2B8
100
AcDbEntity
  8
0
100
AcDbLine
 62
7
  6
CONTINUOUS
 10
35.8959792523
 20
54.7929838166
 11
35.8959792523
 21
54.8929838166
  0
LINE
  5
2B9
100
AcDbEntity
  8
0
100
AcDbLine
 62
7
  6
CONTINUOUS
 10
35.9459792523
 20
76.5429838166
 11
35.9459792523
 21
76.3429838166
  0
LINE
  5
2BA
100
AcDbEntity
  8
0
100
AcDbLine
 62
7
  6
CONTINUOUS
 10
35.9459813759
 20
68.1929838166
 11
35.9459792523
 21
75.7429808143
  0
LINE
  5
2BB
100
AcDbEntity
  8
0
100
AcDbLine
 62
7
  6
CONTINUOUS
 10
35.9959792523
 20
54.8929838166
 11
35.9959792523
 21
55.2929838166
  0
LINE
  5
2BC
100
AcDbEntity
  8
0
100
AcDbLine
 62
7
  6
CONTINUOUS
 10
36.0459792523
 20
17.7929838166
 11
36.0459792523
 21
17.8929838166
  0
LINE
  5
2BD
100
AcDbEntity
  8
0
100
AcDbLine
 62
7
  6
CONTINUOUS
 10
36.0959792523
 20
17.5582446583
 11
36.0959792523
 21
17.8929838166
  0
LINE
  5
2BE
100
AcDbEntity
  8
0
100
AcDbLine
 62
7
  6
CONTINUOUS
 10
36.2491276707
 20
17.2929838166
 11
36.2491276707
 21
13.0929838166
  0
LINE
  5
2BF
100
AcDbEntity
  8
0
100
AcDbLine
 62
7
  6
CONTINUOUS
 10
28.3459792523
 20
36.2429838166
 11
28.3959792523
 21
36.2929838166
  0
LINE
  5
2C0
100
AcDbEntity
  8
0
100
AcDbLine
 62
7
  6
CONTINUOUS
 10
23.4459792523
 20
48.0929838166
 11
25.2959792523
 21
48.0929838166
  0
LINE
  5
2C1
100
AcDbEntity
  8
0
100
AcDbLine
 62
7
  6
CONTINUOUS
 10
29.2959792523
 20
48.0929838166
 11
32.7959792523
 21
48.0929838166
  0
LINE
  5
2C2
100
AcDbEntity
  8
0
100
AcDbLine
 62
7
  6
CONTINUOUS
 10
36.7959792523
 20
48.0929838166
 11
38.6459792523
 21
48.0929838166
  0
LINE
  5
2C3
100
AcDbEntity
  8
0
100
AcDbLine
 62
7
  6
CONTINUOUS
 10
26.2459792523
 20
54.7429838166
 11
26.1959792523
 21
54.7929838166
  0
LINE
  5
2C4
100
AcDbEntity
  8
0
100
AcDbLine
 62
7
  6
CONTINUOUS
 10
36.2959792523
 20
50.0929838166
 11
36.2959792523
 21
49.6929838166
  0
LINE
  5
2C5
100
AcDbEntity
  8
0
100
AcDbLine
 62
7
  6
CONTINUOUS
 10
36.2959792523
 20
31.5929838166
 11
36.2959792523
 21
31.1929838166
  0
LINE
  5
2C6
100
AcDbEntity
  8
0
100
AcDbLine
 62
7
  6
CONTINUOUS
 10
36.2959792523
 20
13.0929838166
 11
36.2959792523
 21
12.6929838166
  0
LINE
  5
2C7
100
AcDbEntity
  8
0
100
AcDbLine
 62
7
  6
CONTINUOUS
 10
36.3959792523
 20
18.2929838166
 11
36.3959792523
 21
17.8929838166
  0
LINE
  5
2C8
100
AcDbEntity
  8
0
100
AcDbLine
 62
7
  6
CONTINUOUS
 10
36.3959792523
 20
31.5929838166
 11
36.3959792523
 21
36.7929838166
  0
LINE
  5
2C9
100
AcDbEntity
  8
0
100
AcDbLine
 62
7
  6
CONTINUOUS
 10
36.4959792523
 20
18.2929838166
 11
36.4959792523
 21
16.3929838166
  0
LINE
  5
2CA
100
AcDbEntity
  8
0
100
AcDbLine
 62
7
  6
CONTINUOUS
 10
36.4959792523
 20
50.0929838166
 11
36.4959792523
 21
55.2929838166
  0
LINE
  5
2CB
100
AcDbEntity
  8
0
100
AcDbLine
 62
7
  6
CONTINUOUS
 10
36.5178682323
 20
7.1929838166
 11
36.5178682323
 21
7.1318238691
  0
LINE
  5
2CC
100
AcDbEntity
  8
0
100
AcDbLine
 62
7
  6
CONTINUOUS
 10
36.5459792523
 20
17.7929838166
 11
36.5459792523
 21
18.2929838166
  0
LINE
  5
2CD
100
AcDbEntity
  8
0
100
AcDbLine
 62
7
  6
CONTINUOUS
 10
36.5959792523
 20
13.1929838166
 11
36.5959792523
 21
18.2929838166
  0
LINE
  5
2CE
100
AcDbEntity
  8
0
100
AcDbLine
 62
7
  6
CONTINUOUS
 10
36.5959792523
 20
31.6929838166
 11
36.5959792523
 21
36.7929838166
  0
LINE
  5
2CF
100
AcDbEntity
  8
0
100
AcDbLine
 62
7
  6
CONTINUOUS
 10
36.5959792523
 20
50.1929838166
 11
36.5959792523
 21
55.2929838166
  0
LINE
  5
2D0
100
AcDbEntity
  8
0
100
AcDbLine
 62
7
  6
CONTINUOUS
 10
36.7959792523
 20
66.5929838166
 11
36.7959792523
 21
49.6929838166
  0
LINE
  5
2D1
100
AcDbEntity
  8
0
100
AcDbLine
 62
7
  6
CONTINUOUS
 10
36.7959792523
 20
48.0929838166
 11
36.7959792523
 21
31.1929838166
  0
LINE
  5
2D2
100
AcDbEntity
  8
0
100
AcDbLine
 62
7
  6
CONTINUOUS
 10
36.7959792523
 20
29.5929838166
 11
36.7959792523
 21
12.6929838166
  0
LINE
  5
2D3
100
AcDbEntity
  8
0
100
AcDbLine
 62
7
  6
CONTINUOUS
 10
37.4459792523
 20
68.1929838166
 11
37.4459792523
 21
76.3429838166
  0
LINE
  5
2D4
100
AcDbEntity
  8
0
100
AcDbLine
 62
7
  6
CONTINUOUS
 10
37.4959792523
 20
68.1929838166
 11
37.4959792523
 21
71.7125749968
  0
LINE
  5
2D5
100
AcDbEntity
  8
0
100
AcDbLine
 62
7
  6
CONTINUOUS
 10
38.6459792523
 20
68.1929838166
 11
38.6459792523
 21
7.1929838166
  0
LINE
  5
2D6
100
AcDbEntity
  8
0
100
AcDbLine
 62
7
  6
CONTINUOUS
 10
38.8459792523
 20
43.173925149
 11
38.8959792523
 21
43.4015212645
  0
LINE
  5
2D7
100
AcDbEntity
  8
0
100
AcDbLine
 62
7
  6
CONTINUOUS
 10
23.2459792523
 20
49.4929838166
 11
38.8459792523
 21
49.4929838166
  0
LINE
  5
2D8
100
AcDbEntity
  8
0
100
AcDbLine
 62
7
  6
CONTINUOUS
 10
38.6459792523
 20
49.6929838166
 11
23.4459792523
 21
49.6929838166
  0
LINE
  5
2D9
100
AcDbEntity
  8
0
100
AcDbLine
 62
7
  6
CONTINUOUS
 10
36.4959792523
 20
50.0929838166
 11
33.0959792523
 21
50.0929838166
  0
LINE
  5
2DA
100
AcDbEntity
  8
0
100
AcDbLine
 62
7
  6
CONTINUOUS
 10
28.9959792523
 20
50.0929838166
 11
25.5959792523
 21
50.0929838166
  0
LINE
  5
2DB
100
AcDbEntity
  8
0
100
AcDbLine
 62
7
  6
CONTINUOUS
 10
25.2959792523
 20
50.3056338382
 11
25.4959792523
 21
50.3056338382
  0
LINE
  5
2DC
100
AcDbEntity
  8
0
100
AcDbLine
 62
7
  6
CONTINUOUS
 10
29.0959792523
 20
50.3056338382
 11
29.2959792523
 21
50.3056338382
  0
LINE
  5
2DD
100
AcDbEntity
  8
0
100
AcDbLine
 62
7
  6
CONTINUOUS
 10
32.7959792523
 20
50.3056338382
 11
32.9959792523
 21
50.3056338382
  0
LINE
  5
2DE
100
AcDbEntity
  8
0
100
AcDbLine
 62
7
  6
CONTINUOUS
 10
36.5959792523
 20
50.3056338382
 11
36.7959792523
 21
50.3056338382
  0
LINE
  5
2DF
100
AcDbEntity
  8
0
100
AcDbLine
 62
7
  6
CONTINUOUS
 10
36.7959792523
 20
50.61292235
 11
36.5959792523
 21
50.61292235
  0
LINE
  5
2E0
100
AcDbEntity
  8
0
100
AcDbLine
 62
7
  6
CONTINUOUS
 10
32.9959792523
 20
50.61292235
 11
32.7959792523
 21
50.61292235
  0
LINE
  5
2E1
100
AcDbEntity
  8
0
100
AcDbLine
 62
7
  6
CONTINUOUS
 10
29.2959792523
 20
50.61292235
 11
29.0959792523
 21
50.61292235
  0
LINE
  5
2E2
100
AcDbEntity
  8
0
100
AcDbLine
 62
7
  6
CONTINUOUS
 10
25.4959792523
 20
50.61292235
 11
25.2959792523
 21
50.61292235
  0
LINE
  5
2E3
100
AcDbEntity
  8
0
100
AcDbLine
 62
7
  6
CONTINUOUS
 10
38.8459792523
 20
7.1929838166
 11
38.8459792523
 21
67.9929838166
  0
LINE
  5
2E4
100
AcDbEntity
  8
0
100
AcDbLine
 62
7
  6
CONTINUOUS
 10
38.8959792523
 20
79.18965911
 11
38.8959792523
 21
35.2929838166
  0
LINE
  5
2E5
100
AcDbEntity
  8
0
100
AcDbLine
 62
7
  6
CONTINUOUS
 10
26.1315059685
 20
17.7929838166
 11
25.8428308339
 21
17.2929838166
  0
LINE
  5
2E6
100
AcDbEntity
  8
0
100
AcDbLine
 62
7
  6
CONTINUOUS
 10
35.8459792523
 20
36.2429838166
 11
35.8959792523
 21
36.2929838166
  0
LINE
  5
2E7
100
AcDbEntity
  8
0
100
AcDbLine
 62
7
  6
CONTINUOUS
 10
25.2959792523
 20
51.4929838166
 11
25.4959792523
 21
51.4929838166
  0
LINE
  5
2E8
100
AcDbEntity
  8
0
100
AcDbLine
 62
7
  6
CONTINUOUS
 10
29.0959792523
 20
51.4929838166
 11
29.2959792523
 21
51.4929838166
  0
LINE
  5
2E9
100
AcDbEntity
  8
0
100
AcDbLine
 62
7
  6
CONTINUOUS
 10
32.7959792523
 20
51.4929838166
 11
32.9959792523
 21
51.4929838166
  0
LINE
  5
2EA
100
AcDbEntity
  8
0
100
AcDbLine
 62
7
  6
CONTINUOUS
 10
36.5959792523
 20
51.4929838166
 11
36.7959792523
 21
51.4929838166
  0
LINE
  5
2EB
100
AcDbEntity
  8
0
100
AcDbLine
 62
7
  6
CONTINUOUS
 10
33.7459792523
 20
54.7429838166
 11
33.6959792523
 21
54.7929838166
  0
LINE
  5
2EC
100
AcDbEntity
  8
0
100
AcDbLine
 62
7
  6
CONTINUOUS
 10
35.8459127367
 20
54.7429838166
 11
33.7460478827
 21
54.7429838166
  0
LINE
  5
2ED
100
AcDbEntity
  8
0
100
AcDbLine
 62
7
  6
CONTINUOUS
 10
28.3457791893
 20
54.7429838166
 11
26.2462237506
 21
54.7429838166
  0
LINE
  5
2EE
100
AcDbEntity
  8
0
100
AcDbLine
 62
7
  6
CONTINUOUS
 10
35.8959792523
 20
54.7929838166
 11
33.6959792523
 21
54.7929838166
  0
LINE
  5
2EF
100
AcDbEntity
  8
0
100
AcDbLine
 62
7
  6
CONTINUOUS
 10
28.3959792523
 20
54.7929838166
 11
26.1959792523
 21
54.7929838166
  0
LINE
  5
2F0
100
AcDbEntity
  8
0
100
AcDbLine
 62
7
  6
CONTINUOUS
 10
25.6959792523
 20
54.8929838166
 11
28.9959792523
 21
54.8929838166
  0
LINE
  5
2F1
100
AcDbEntity
  8
0
100
AcDbLine
 62
7
  6
CONTINUOUS
 10
33.1959792523
 20
54.8929838166
 11
36.4959792523
 21
54.8929838166
  0
LINE
  5
2F2
100
AcDbEntity
  8
0
100
AcDbLine
 62
7
  6
CONTINUOUS
 10
36.7959792523
 20
55.2929838166
 11
32.7959792523
 21
55.2929838166
  0
LINE
  5
2F3
100
AcDbEntity
  8
0
100
AcDbLine
 62
7
  6
CONTINUOUS
 10
29.2959792523
 20
55.2929838166
 11
25.2959792523
 21
55.2929838166
  0
LINE
  5
2F4
100
AcDbEntity
  8
0
100
AcDbLine
 62
7
  6
CONTINUOUS
 10
36.8959792523
 20
76.3429838166
 11
37.0084792523
 21
75.7429838166
  0
LINE
  5
2F5
100
AcDbEntity
  8
0
100
AcDbLine
 62
7
  6
CONTINUOUS
 10
36.0141202104
 20
75.7429794135
 11
35.9017808626
 21
76.3429834509
  0
LINE
  5
2F6
100
AcDbEntity
  8
0
100
AcDbLine
 62
7
  6
CONTINUOUS
 10
33.5378028053
 20
17.7929838166
 11
33.2491276707
 21
17.2929838166
  0
LINE
  5
2F7
100
AcDbEntity
  8
0
100
AcDbLine
 62
7
  6
CONTINUOUS
 10
28.3459792523
 20
17.7429838166
 11
28.3959792523
 21
17.7929838166
  0
LINE
  5
2F8
100
AcDbEntity
  8
0
100
AcDbLine
 62
7
  6
CONTINUOUS
 10
35.8459792523
 20
17.7429838166
 11
35.8959792523
 21
17.7929838166
  0
LINE
  5
2F9
100
AcDbEntity
  8
0
100
AcDbLine
 62
7
  6
CONTINUOUS
 10
23.4459792523
 20
66.5929838166
 11
25.2959792523
 21
66.5929838166
  0
LINE
  5
2FA
100
AcDbEntity
  8
0
100
AcDbLine
 62
7
  6
CONTINUOUS
 10
29.2959792523
 20
66.5929838166
 11
32.7959792523
 21
66.5929838166
  0
LINE
  5
2FB
100
AcDbEntity
  8
0
100
AcDbLine
 62
7
  6
CONTINUOUS
 10
36.7959792523
 20
66.5929838166
 11
38.6459792523
 21
66.5929838166
  0
LINE
  5
2FC
100
AcDbEntity
  8
0
100
AcDbLine
 62
7
  6
CONTINUOUS
 10
23.2459792523
 20
67.9929838166
 11
38.8459792523
 21
67.9929838166
  0
LINE
  5
2FD
100
AcDbEntity
  8
0
100
AcDbLine
 62
7
  6
CONTINUOUS
 10
38.8959792523
 20
69.957077149
 11
37.4959792523
 21
69.9566467892
  0
LINE
  5
2FE
100
AcDbEntity
  8
0
100
AcDbLine
 62
7
  6
CONTINUOUS
 10
24.5959792523
 20
69.957077149
 11
23.1959792523
 21
69.9566467892
  0
LINE
  5
2FF
100
AcDbEntity
  8
0
100
AcDbLine
 62
7
  6
CONTINUOUS
 10
38.6459792523
 20
68.1929838166
 11
23.4459792523
 21
68.1929838166
  0
LINE
  5
300
100
AcDbEntity
  8
0
100
AcDbLine
 62
7
  6
CONTINUOUS
 10
37.4459792523
 20
68.8929837252
 11
35.9459736189
 21
68.8929837252
  0
LINE
  5
301
100
AcDbEntity
  8
0
100
AcDbLine
 62
7
  6
CONTINUOUS
 10
26.3459792523
 20
68.8929837252
 11
24.8459792523
 21
68.8929837252
  0
LINE
  5
302
100
AcDbEntity
  8
0
100
AcDbLine
 62
7
  6
CONTINUOUS
 10
24.5959792523
 20
69.6484349794
 11
24.8459792523
 21
69.6484349794
  0
LINE
  5
303
100
AcDbEntity
  8
0
100
AcDbLine
 62
7
  6
CONTINUOUS
 10
37.4459792523
 20
69.6484349794
 11
37.4959792523
 21
69.6484349794
  0
LINE
  5
304
100
AcDbEntity
  8
0
100
AcDbLine
 62
7
  6
CONTINUOUS
 10
24.5959792523
 20
70.3976949484
 11
23.1959792523
 21
70.3976949484
  0
LINE
  5
305
100
AcDbEntity
  8
0
100
AcDbLine
 62
7
  6
CONTINUOUS
 10
37.4959792523
 20
70.3976949484
 11
38.8959792523
 21
70.3976949484
  0
LINE
  5
306
100
AcDbEntity
  8
0
100
AcDbLine
 62
7
  6
CONTINUOUS
 10
24.5959792523
 20
70.9492231073
 11
24.8459792523
 21
70.9492231073
  0
LINE
  5
307
100
AcDbEntity
  8
0
100
AcDbLine
 62
7
  6
CONTINUOUS
 10
37.4459792523
 20
70.9492231073
 11
37.4959792523
 21
70.9492231073
  0
LINE
  5
308
100
AcDbEntity
  8
0
100
AcDbLine
 62
7
  6
CONTINUOUS
 10
24.5959792523
 20
71.7125749968
 11
24.8459792523
 21
71.7125749968
  0
LINE
  5
309
100
AcDbEntity
  8
0
100
AcDbLine
 62
7
  6
CONTINUOUS
 10
37.4459792523
 20
71.7125749968
 11
37.4959792523
 21
71.7125749968
  0
LINE
  5
30A
100
AcDbEntity
  8
0
100
AcDbLine
 62
7
  6
CONTINUOUS
 10
38.8959792523
 20
72.7424411317
 11
37.4459792523
 21
72.7424411317
  0
LINE
  5
30B
100
AcDbEntity
  8
0
100
AcDbLine
 62
7
  6
CONTINUOUS
 10
24.8459792523
 20
72.7424411317
 11
23.1959792523
 21
72.7424411317
  0
LINE
  5
30C
100
AcDbEntity
  8
0
100
AcDbLine
 62
7
  6
CONTINUOUS
 10
38.8959792523
 20
73.2998960093
 11
37.4459792523
 21
73.2998960093
  0
LINE
  5
30D
100
AcDbEntity
  8
0
100
AcDbLine
 62
7
  6
CONTINUOUS
 10
24.8459792523
 20
73.2998960093
 11
23.1959792523
 21
73.2998960093
  0
LINE
  5
30E
100
AcDbEntity
  8
0
100
AcDbLine
 62
7
  6
CONTINUOUS
 10
38.8959792523
 20
73.6815231928
 11
37.4459792523
 21
73.6815231928
  0
LINE
  5
30F
100
AcDbEntity
  8
0
100
AcDbLine
 62
7
  6
CONTINUOUS
 10
24.8459792523
 20
73.6815231928
 11
23.1959792523
 21
73.6815231928
  0
LINE
  5
310
100
AcDbEntity
  8
0
100
AcDbLine
 62
7
  6
CONTINUOUS
 10
38.8959792523
 20
74.2815231928
 11
37.4459792523
 21
74.2815231928
  0
LINE
  5
311
100
AcDbEntity
  8
0
100
AcDbLine
 62
7
  6
CONTINUOUS
 10
24.8459792523
 20
74.2815231928
 11
23.1959792523
 21
74.2815231928
  0
LINE
  5
312
100
AcDbEntity
  8
0
100
AcDbLine
 62
7
  6
CONTINUOUS
 10
38.8959792523
 20
74.6631503762
 11
37.4459792523
 21
74.6631503762
  0
LINE
  5
313
100
AcDbEntity
  8
0
100
AcDbLine
 62
7
  6
CONTINUOUS
 10
24.8459792523
 20
74.6631503762
 11
23.1959792523
 21
74.6631503762
  0
LINE
  5
314
100
AcDbEntity
  8
0
100
AcDbLine
 62
7
  6
CONTINUOUS
 10
38.8959792523
 20
75.2631503762
 11
37.4459792523
 21
75.2631503762
  0
LINE
  5
315
100
AcDbEntity
  8
0
100
AcDbLine
 62
7
  6
CONTINUOUS
 10
24.8459792523
 20
75.2631503762
 11
23.1959792523
 21
75.2631503762
  0
LINE
  5
316
100
AcDbEntity
  8
0
100
AcDbLine
 62
7
  6
CONTINUOUS
 10
24.8459792523
 20
75.3429838166
 11
37.4459792523
 21
75.3429838166
  0
LINE
  5
317
100
AcDbEntity
  8
0
100
AcDbLine
 62
7
  6
CONTINUOUS
 10
25.0459792523
 20
75.5429838166
 11
37.2459792523
 21
75.5429838166
  0
LINE
  5
318
100
AcDbEntity
  8
0
100
AcDbLine
 62
7
  6
CONTINUOUS
 10
38.8959792523
 20
75.6447775596
 11
37.4459792523
 21
75.6447775596
  0
LINE
  5
319
100
AcDbEntity
  8
0
100
AcDbLine
 62
7
  6
CONTINUOUS
 10
24.8459792523
 20
75.6447775596
 11
23.1959792523
 21
75.6447775596
  0
LINE
  5
31A
100
AcDbEntity
  8
0
100
AcDbLine
 62
7
  6
CONTINUOUS
 10
26.3459792515
 20
75.7429736249
 11
35.9459792523
 21
75.7429738274
  0
LINE
  5
31B
100
AcDbEntity
  8
0
100
AcDbLine
 62
7
  6
CONTINUOUS
 10
37.0084792523
 20
75.7429838166
 11
36.0141202104
 21
75.7429838166
  0
LINE
  5
31C
100
AcDbEntity
  8
0
100
AcDbLine
 62
7
  6
CONTINUOUS
 10
26.2778769355
 20
75.7429838166
 11
25.2834792523
 21
75.7429838166
  0
LINE
  5
31D
100
AcDbEntity
  8
0
100
AcDbLine
 62
7
  6
CONTINUOUS
 10
38.8959792523
 20
76.2447775597
 11
37.4459792523
 21
76.2447775597
  0
LINE
  5
31E
100
AcDbEntity
  8
0
100
AcDbLine
 62
7
  6
CONTINUOUS
 10
24.8459792523
 20
76.2447775597
 11
23.1959792523
 21
76.2447775597
  0
LINE
  5
31F
100
AcDbEntity
  8
0
100
AcDbLine
 62
7
  6
CONTINUOUS
 10
24.8459792523
 20
76.3429838166
 11
37.4459792523
 21
76.3429838166
  0
LINE
  5
320
100
AcDbEntity
  8
0
100
AcDbLine
 62
7
  6
CONTINUOUS
 10
25.0459792523
 20
76.5429838166
 11
37.2459792523
 21
76.5429838166
  0
LINE
  5
321
100
AcDbEntity
  8
0
100
AcDbLine
 62
7
  6
CONTINUOUS
 10
38.8959792523
 20
76.6264047431
 11
32.0759792523
 21
76.6264047431
  0
LINE
  5
322
100
AcDbEntity
  8
0
100
AcDbLine
 62
7
  6
CONTINUOUS
 10
30.2259792523
 20
76.6264047431
 11
23.1959792523
 21
76.6264047431
  0
LINE
  5
323
100
AcDbEntity
  8
0
100
AcDbLine
 62
7
  6
CONTINUOUS
 10
38.8959792523
 20
77.2264047431
 11
32.0759792523
 21
77.2264047431
  0
LINE
  5
324
100
AcDbEntity
  8
0
100
AcDbLine
 62
7
  6
CONTINUOUS
 10
30.2259792523
 20
77.2264047431
 11
23.1959792523
 21
77.2264047431
  0
LINE
  5
325
100
AcDbEntity
  8
0
100
AcDbLine
 62
7
  6
CONTINUOUS
 10
30.7259792931
 20
77.4911169272
 11
31.5759791056
 21
77.4911169304
  0
LINE
  5
326
100
AcDbEntity
  8
0
100
AcDbLine
 62
7
  6
CONTINUOUS
 10
38.8959792523
 20
77.6080319265
 11
32.0759792523
 21
77.6080319265
  0
LINE
  5
327
100
AcDbEntity
  8
0
100
AcDbLine
 62
7
  6
CONTINUOUS
 10
30.2259792523
 20
77.6080319265
 11
23.1959792523
 21
77.6080319265
  0
LINE
  5
328
100
AcDbEntity
  8
0
100
AcDbLine
 62
7
  6
CONTINUOUS
 10
30.7259769033
 20
77.6358322789
 11
31.5759761767
 21
77.6358322789
  0
LINE
  5
329
100
AcDbEntity
  8
0
100
AcDbLine
 62
7
  6
CONTINUOUS
 10
30.4259792523
 20
77.9213894096
 11
31.8759792523
 21
77.9213894096
  0
LINE
  5
32A
100
AcDbEntity
  8
0
100
AcDbLine
 62
7
  6
CONTINUOUS
 10
38.8959792523
 20
78.2080319266
 11
23.1959792523
 21
78.2080319266
  0
LINE
  5
32B
100
AcDbEntity
  8
0
100
AcDbLine
 62
7
  6
CONTINUOUS
 10
38.8959792523
 20
78.58965911
 11
23.1959792523
 21
78.58965911
  0
LINE
  5
32C
100
AcDbEntity
  8
0
100
AcDbLine
 62
7
  6
CONTINUOUS
 10
38.8959792523
 20
79.18965911
 11
23.1959792523
 21
79.18965911
  0
ARC
  5
32D
100
AcDbEntity
  8
0
100
AcDbCircle
 62
7
  6
CONTINUOUS
 10
25.0459792523
 20
17.7929838166
 40
0.5
100
AcDbArc
 50
344.3096819131
 51
360.0
  0
ARC
  5
32E
100
AcDbEntity
  8
0
100
AcDbCircle
 62
7
  6
CONTINUOUS
 10
26.5459792523
 20
17.7929838166
 40
0.5
100
AcDbArc
 50
180.0
 51
192.3056010835
  0
ARC
  5
32F
100
AcDbEntity
  8
0
100
AcDbCircle
 62
7
  6
CONTINUOUS
 10
29.5459792523
 20
17.7929838166
 40
0.5
100
AcDbArc
 50
180.0
 51
195.6903180869
  0
ARC
  5
330
100
AcDbEntity
  8
0
100
AcDbCircle
 62
7
  6
CONTINUOUS
 10
23.4459792523
 20
29.3929838166
 40
0.2
100
AcDbArc
 50
90.0
 51
180.0
  0
ARC
  5
331
100
AcDbEntity
  8
0
100
AcDbCircle
 62
7
  6
CONTINUOUS
 10
23.4459792523
 20
30.9929838166
 40
0.2
100
AcDbArc
 50
90.0
 51
180.0
  0
ARC
  5
332
100
AcDbEntity
  8
0
100
AcDbCircle
 62
7
  6
CONTINUOUS
 10
25.5959792523
 20
13.1929838166
 40
0.1
100
AcDbArc
 50
180.0
 51
270.0
  0
ARC
  5
333
100
AcDbEntity
  8
0
100
AcDbCircle
 62
7
  6
CONTINUOUS
 10
28.9959792523
 20
13.1929838166
 40
0.1
100
AcDbArc
 50
270.0
 51
360.0
  0
ARC
  5
334
100
AcDbEntity
  8
0
100
AcDbCircle
 62
7
  6
CONTINUOUS
 10
28.9959792523
 20
31.6929838166
 40
0.1
100
AcDbArc
 50
270.0
 51
360.0
  0
ARC
  5
335
100
AcDbEntity
  8
0
100
AcDbCircle
 62
7
  6
CONTINUOUS
 10
25.5959792523
 20
31.6929838166
 40
0.1
100
AcDbArc
 50
180.0
 51
270.0
  0
ARC
  5
336
100
AcDbEntity
  8
0
100
AcDbCircle
 62
7
  6
CONTINUOUS
 10
30.4259792523
 20
77.7213894096
 40
0.2
100
AcDbArc
 50
90.0
 51
179.9999999988
  0
ARC
  5
337
100
AcDbEntity
  8
0
100
AcDbCircle
 62
7
  6
CONTINUOUS
 10
23.4459792523
 20
47.8929838166
 40
0.2
100
AcDbArc
 50
90.0
 51
180.0
  0
ARC
  5
338
100
AcDbEntity
  8
0
100
AcDbCircle
 62
7
  6
CONTINUOUS
 10
23.4459792523
 20
49.4929838166
 40
0.2
100
AcDbArc
 50
90.0
 51
180.0
  0
ARC
  5
339
100
AcDbEntity
  8
0
100
AcDbCircle
 62
7
  6
CONTINUOUS
 10
23.4459792523
 20
66.3929838166
 40
0.2
100
AcDbArc
 50
90.0
 51
180.0
  0
ARC
  5
33A
100
AcDbEntity
  8
0
100
AcDbCircle
 62
7
  6
CONTINUOUS
 10
23.4459792523
 20
67.9929838166
 40
0.2
100
AcDbArc
 50
90.0
 51
180.0
  0
ARC
  5
33B
100
AcDbEntity
  8
0
100
AcDbCircle
 62
7
  6
CONTINUOUS
 10
25.0459792523
 20
75.3429838166
 40
0.2
100
AcDbArc
 50
90.0
 51
180.0
  0
ARC
  5
33C
100
AcDbEntity
  8
0
100
AcDbCircle
 62
7
  6
CONTINUOUS
 10
25.0459792523
 20
76.3429838166
 40
0.2
100
AcDbArc
 50
90.0
 51
180.0
  0
ARC
  5
33D
100
AcDbEntity
  8
0
100
AcDbCircle
 62
7
  6
CONTINUOUS
 10
25.5959792523
 20
50.1929838166
 40
0.1
100
AcDbArc
 50
180.0
 51
270.0
  0
ARC
  5
33E
100
AcDbEntity
  8
0
100
AcDbCircle
 62
7
  6
CONTINUOUS
 10
28.9959792523
 20
50.1929838166
 40
0.1
100
AcDbArc
 50
270.0
 51
360.0
  0
ARC
  5
33F
100
AcDbEntity
  8
0
100
AcDbCircle
 62
7
  6
CONTINUOUS
 10
35.5459792523
 20
17.7929838166
 40
0.5
100
AcDbArc
 50
348.6743420468
 51
360.0
  0
ARC
  5
340
100
AcDbEntity
  8
0
100
AcDbCircle
 62
7
  6
CONTINUOUS
 10
32.5459792523
 20
17.7929838166
 40
0.5
100
AcDbArc
 50
344.3096819131
 51
360.0
  0
ARC
  5
341
100
AcDbEntity
  8
0
100
AcDbCircle
 62
7
  6
CONTINUOUS
 10
37.0459792523
 20
17.7929838166
 40
0.5
100
AcDbArc
 50
180.0
 51
195.6903180869
  0
ARC
  5
342
100
AcDbEntity
  8
0
100
AcDbCircle
 62
7
  6
CONTINUOUS
 10
38.6459792523
 20
30.9929838166
 40
0.2
100
AcDbArc
 50
0.0
 51
90.0
  0
ARC
  5
343
100
AcDbEntity
  8
0
100
AcDbCircle
 62
7
  6
CONTINUOUS
 10
38.6459792523
 20
29.3929838166
 40
0.2
100
AcDbArc
 50
0.0
 51
90.0
  0
ARC
  5
344
100
AcDbEntity
  8
0
100
AcDbCircle
 62
7
  6
CONTINUOUS
 10
36.4959792523
 20
31.6929838166
 40
0.1
100
AcDbArc
 50
270.0
 51
360.0
  0
ARC
  5
345
100
AcDbEntity
  8
0
100
AcDbCircle
 62
7
  6
CONTINUOUS
 10
33.0959792523
 20
31.6929838166
 40
0.1
100
AcDbArc
 50
180.0
 51
270.0
  0
ARC
  5
346
100
AcDbEntity
  8
0
100
AcDbCircle
 62
7
  6
CONTINUOUS
 10
33.0959792523
 20
13.1929838166
 40
0.1
100
AcDbArc
 50
180.0
 51
270.0
  0
ARC
  5
347
100
AcDbEntity
  8
0
100
AcDbCircle
 62
7
  6
CONTINUOUS
 10
36.4959792523
 20
13.1929838166
 40
0.1
100
AcDbArc
 50
270.0
 51
360.0
  0
ARC
  5
348
100
AcDbEntity
  8
0
100
AcDbCircle
 62
7
  6
CONTINUOUS
 10
31.8759792523
 20
77.7213894096
 40
0.2
100
AcDbArc
 50
0.0000000012
 51
90.0
  0
ARC
  5
349
100
AcDbEntity
  8
0
100
AcDbCircle
 62
7
  6
CONTINUOUS
 10
38.6459792523
 20
67.9929838166
 40
0.2
100
AcDbArc
 50
0.0
 51
90.0
  0
ARC
  5
34A
100
AcDbEntity
  8
0
100
AcDbCircle
 62
7
  6
CONTINUOUS
 10
38.6459792523
 20
66.3929838166
 40
0.2
100
AcDbArc
 50
0.0
 51
90.0
  0
ARC
  5
34B
100
AcDbEntity
  8
0
100
AcDbCircle
 62
7
  6
CONTINUOUS
 10
38.6459792523
 20
49.4929838166
 40
0.2
100
AcDbArc
 50
0.0
 51
90.0
  0
ARC
  5
34C
100
AcDbEntity
  8
0
100
AcDbCircle
 62
7
  6
CONTINUOUS
 10
38.6459792523
 20
47.8929838166
 40
0.2
100
AcDbArc
 50
0.0
 51
90.0
  0
ARC
  5
34D
100
AcDbEntity
  8
0
100
AcDbCircle
 62
7
  6
CONTINUOUS
 10
37.2459792523
 20
75.3429838166
 40
0.2
100
AcDbArc
 50
0.0
 51
90.0
  0
ARC
  5
34E
100
AcDbEntity
  8
0
100
AcDbCircle
 62
7
  6
CONTINUOUS
 10
37.2459792523
 20
76.3429838166
 40
0.2
100
AcDbArc
 50
0.0
 51
90.0
  0
ARC
  5
34F
100
AcDbEntity
  8
0
100
AcDbCircle
 62
7
  6
CONTINUOUS
 10
33.0959792523
 20
50.1929838166
 40
0.1
100
AcDbArc
 50
180.0
 51
270.0
  0
ARC
  5
350
100
AcDbEntity
  8
0
100
AcDbCircle
 62
7
  6
CONTINUOUS
 10
36.4959792523
 20
50.1929838166
 40
0.1
100
AcDbArc
 50
270.0
 51
360.0
  0
SPLINE
  5
351
100
AcDbEntity
  8
0
100
AcDbSpline
 62
7
  6
CONTINUOUS
 70
0
 71
3
 72
9
 73
5
 74
0
 42
0.0000001
 43
0.0000001
 44
0.0000000001
 40
0.0
 40
0.0
 40
0.0
 40
0.0
 40
0.2416872818
 40
1.0
 40
1.0
 40
1.0
 40
1.0
 10
30.8861716312
 20
77.9213894096
 30
0.0
 10
30.8951816253
 20
77.9213894096
 30
0.0
 10
30.9324612143
 20
77.9212545356
 30
0.0
 10
30.9697382279
 20
77.9207804479
 30
0.0
 10
30.9980058553
 20
77.9204498756
 30
0.0
  0
LINE
  5
352
100
AcDbEntity
  8
0
100
AcDbLine
 62
7
  6
CONTINUOUS
 10
30.9980058553
 20
77.9204498756
 11
30.9999167616
 21
77.920427568
  0
SPLINE
  5
353
100
AcDbEntity
  8
0
100
AcDbSpline
 62
7
  6
CONTINUOUS
 70
0
 71
3
 72
11
 73
7
 74
0
 42
0.0000001
 43
0.0000001
 44
0.0000000001
 40
0.0
 40
0.0
 40
0.0
 40
0.0
 40
0.2533429222
 40
0.5103693676
 40
0.7621880818
 40
1.0
 40
1.0
 40
1.0
 40
1.0
 10
30.9999167616
 20
77.920427568
 30
0.0
 10
31.0341902642
 20
77.920028191
 30
0.0
 10
31.1032372784
 20
77.9193107594
 30
0.0
 10
31.2063598601
 20
77.9194236513
 30
0.0
 10
31.3073709511
 20
77.9206046213
 30
0.0
 10
31.3736126037
 20
77.9213893867
 30
0.0
 10
31.4057871782
 20
77.9213894096
 30
0.0
  0
SPLINE
  5
354
100
AcDbEntity
  8
0
100
AcDbSpline
 62
7
  6
CONTINUOUS
 70
0
 71
3
 72
17
 73
13
 74
0
 42
0.0000001
 43
0.0000001
 44
0.0000000001
 40
0.0
 40
0.0
 40
0.0
 40
0.0
 40
0.1584664486
 40
0.3140353658
 40
0.46338824
 40
0.6029134902
 40
0.7290156118
 40
0.8384860517
 40
0.8861218787
 40
0.928793696
 40
0.9666153218
 40
1.0
 40
1.0
 40
1.0
 40
1.0
 10
31.5759761741
 20
77.6358371197
 30
0.0
 10
31.5972059426
 20
77.6358449263
 30
0.0
 10
31.6394424983
 20
77.6412591172
 30
0.0
 10
31.6979677177
 20
77.6631769153
 30
0.0
 10
31.7493003998
 20
77.6938464671
 30
0.0
 10
31.7926048413
 20
77.7289573426
 30
0.0
 10
31.8276049182
 20
77.7651728808
 30
0.0
 10
31.850355591
 20
77.7957229708
 30
0.0
 10
31.8635646558
 20
77.8190377442
 30
0.0
 10
31.8705014701
 20
77.8347809891
 30
0.0
 10
31.8748394157
 20
77.8494560809
 30
0.0
 10
31.8759754692
 20
77.8590028853
 30
0.0
 10
31.8759770815
 20
77.8634754345
 30
0.0
  0
SPLINE
  5
355
100
AcDbEntity
  8
0
100
AcDbSpline
 62
7
  6
CONTINUOUS
 70
0
 71
3
 72
21
 73
17
 74
0
 42
0.0000001
 43
0.0000001
 44
0.0000000001
 40
0.0
 40
0.0
 40
0.0
 40
0.0
 40
0.0664096115
 40
0.149735317
 40
0.1983525264
 40
0.2513701056
 40
0.3699530493
 40
0.43537108
 40
0.5047288828
 40
0.5780195428
 40
0.6555738975
 40
0.7373928733
 40
0.8222242246
 40
0.8657327529
 40
0.9101469144
 40
1.0
 40
1.0
 40
1.0
 40
1.0
 10
30.4259792523
 20
77.8634769124
 30
0.0
 10
30.4262407519
 20
77.8545791232
 30
0.0
 10
30.4304107523
 20
77.8345969881
 30
0.0
 10
30.4423757853
 20
77.810646414
 30
0.0
 10
30.456019393
 20
77.7899348831
 30
0.0
 10
30.4738989237
 20
77.7664216365
 30
0.0
 10
30.4954901383
 20
77.7429957074
 30
0.0
 10
30.5205412444
 20
77.7200453208
 30
0.0
 10
30.5422366561
 20
77.7024923942
 30
0.0
 10
30.5663342391
 20
77.6853973406
 30
0.0
 10
30.593439484
 20
77.6698504533
 30
0.0
 10
30.6234367811
 20
77.6566326734
 30
0.0
 10
30.6500896181
 20
77.647402765
 30
0.0
 10
30.6725009743
 20
77.6415022341
 30
0.0
 10
30.6958209641
 20
77.6367146951
 30
0.0
 10
30.7139654568
 20
77.6349470178
 30
0.0
 10
30.7259769033
 20
77.6358322789
 30
0.0
  0
SPLINE
  5
356
100
AcDbEntity
  8
0
100
AcDbSpline
 62
7
  6
CONTINUOUS
 70
0
 71
3
 72
21
 73
17
 74
0
 42
0.0000001
 43
0.0000001
 44
0.0000000001
 40
0.0
 40
0.0
 40
0.0
 40
0.0
 40
0.0205006796
 40
0.0326554043
 40
0.0463065225
 40
0.0784379877
 40
0.1173031126
 40
0.1629012233
 40
0.2150405465
 40
0.2734138167
 40
0.3376432486
 40
0.4072672773
 40
0.4818168982
 40
0.6435006635
 40
0.8182315675
 40
1.0
 40
1.0
 40
1.0
 40
1.0
 10
30.2259792523
 20
77.6746892225
 30
0.0
 10
30.225980872
 20
77.6709136277
 30
0.0
 10
30.2275489247
 20
77.6649013923
 30
0.0
 10
30.2314467911
 20
77.6573207798
 30
0.0
 10
30.237454944
 20
77.6484662227
 30
0.0
 10
30.2481115972
 20
77.6369886681
 30
0.0
 10
30.2645995572
 20
77.6231806849
 30
0.0
 10
30.2853064348
 20
77.6088427449
 30
0.0
 10
30.3100460801
 20
77.5941603168
 30
0.0
 10
30.3386116982
 20
77.5793077359
 30
0.0
 10
30.3707726312
 20
77.5644800884
 30
0.0
 10
30.4063371719
 20
77.5500112597
 30
0.0
 10
30.459416054
 20
77.5311094856
 30
0.0
 10
30.5325183177
 20
77.5109435595
 30
0.0
 10
30.6268142334
 20
77.4953088859
 30
0.0
 10
30.6925031302
 20
77.4911416409
 30
0.0
 10
30.72597928
 20
77.4911169281
 30
0.0
  0
SPLINE
  5
357
100
AcDbEntity
  8
0
100
AcDbSpline
 62
7
  6
CONTINUOUS
 70
0
 71
3
 72
14
 73
10
 74
0
 42
0.0000001
 43
0.0000001
 44
0.0000000001
 40
0.0
 40
0.0
 40
0.0
 40
0.0
 40
0.2455781677
 40
0.3765470703
 40
0.5087581546
 40
0.6393969816
 40
0.7661006009
 40
0.8865761229
 40
1.0
 40
1.0
 40
1.0
 40
1.0
 10
30.4259792523
 20
77.8634747253
 30
0.0
 10
30.4010454114
 20
77.8634745272
 30
0.0
 10
30.3623308556
 20
77.8566073298
 30
0.0
 10
30.3157860235
 20
77.8336766851
 30
0.0
 10
30.2836905801
 20
77.8093337234
 30
0.0
 10
30.2577900231
 20
77.7790665035
 30
0.0
 10
30.2390404917
 20
77.7452824359
 30
0.0
 10
30.2283281325
 20
77.710009028
 30
0.0
 10
30.2259826113
 20
77.6862055139
 30
0.0
 10
30.2259824806
 20
77.674689454
 30
0.0
  0
SPLINE
  5
358
100
AcDbEntity
  8
0
100
AcDbSpline
 62
7
  6
CONTINUOUS
 70
0
 71
3
 72
14
 73
10
 74
0
 42
0.0000001
 43
0.0000001
 44
0.0000000001
 40
0.0
 40
0.0
 40
0.0
 40
0.0
 40
0.1134238217
 40
0.2338993025
 40
0.3606029038
 40
0.4912417357
 40
0.6234528458
 40
0.7544217846
 40
1.0
 40
1.0
 40
1.0
 40
1.0
 10
32.0759764983
 20
77.6746897009
 30
0.0
 10
32.0759763777
 20
77.6862057794
 30
0.0
 10
32.0736308692
 20
77.7100093362
 30
0.0
 10
32.0629185006
 20
77.7452828112
 30
0.0
 10
32.0441689274
 20
77.7790669433
 30
0.0
 10
32.0182683007
 20
77.8093342169
 30
0.0
 10
31.9861727652
 20
77.8336772098
 30
0.0
 10
31.9396278041
 20
77.856607866
 30
0.0
 10
31.9009131505
 20
77.8634750393
 30
0.0
 10
31.8759792523
 20
77.8634752113
 30
0.0
  0
SPLINE
  5
359
100
AcDbEntity
  8
0
100
AcDbSpline
 62
7
  6
CONTINUOUS
 70
0
 71
3
 72
20
 73
16
 74
0
 42
0.0000001
 43
0.0000001
 44
0.0000000001
 40
0.0
 40
0.0
 40
0.0
 40
0.0
 40
0.18182323
 40
0.3565900506
 40
0.5183357698
 40
0.6625155731
 40
0.7268130301
 40
0.7853007635
 40
0.8375709207
 40
0.8832546064
 40
0.9221110115
 40
0.9540944005
 40
0.9676220348
 40
0.9796476885
 40
1.0
 40
1.0
 40
1.0
 40
1.0
 10
31.5759791517
 20
77.4911169332
 30
0.0
 10
31.609455396
 20
77.4911405819
 30
0.0
 10
31.675167839
 20
77.4949302792
 30
0.0
 10
31.7694226103
 20
77.5109532086
 30
0.0
 10
31.8548585868
 20
77.5345546043
 30
0.0
 10
31.9187113498
 20
77.5587124518
 30
0.0
 10
31.9633169726
 20
77.5793977417
 30
0.0
 10
31.9918584521
 20
77.5944033966
 30
0.0
 10
32.0165695288
 20
77.6092341264
 30
0.0
 10
32.0372713352
 20
77.623629119
 30
0.0
 10
32.0537715493
 20
77.6373867134
 30
0.0
 10
32.0644615127
 20
77.648751827
 30
0.0
 10
32.0704965255
 20
77.6574943322
 30
0.0
 10
32.074414052
 20
77.664979692
 30
0.0
 10
32.0759777264
 20
77.6709421857
 30
0.0
 10
32.0759792523
 20
77.6746893365
 30
0.0
  0
LINE
  5
35A
100
AcDbEntity
  8
0
100
AcDbLine
 62
7
  6
CONTINUOUS
 10
35.9459792523
 20
75.7429738274
 11
36.0141202104
 21
75.7429794135
  0
LINE
  5
35B
100
AcDbEntity
  8
0
100
AcDbLine
 62
7
  6
CONTINUOUS
 10
26.2778769355
 20
75.7429791323
 11
26.3459792515
 21
75.7429736249
  0
LINE
  5
35C
100
AcDbEntity
  8
0
100
AcDbLine
 62
7
  6
CONTINUOUS
 10
26.3072420991
 20
68.1929837439
 11
26.3459792392
 21
68.8929834181
  0
ENDSEC
  0
SECTION
  2
OBJECTS
  0
DICTIONARY
  5
C
100
AcDbDictionary
280
0
281
1
  3
ACAD_GROUP
350
D
  3
ACAD_MLINESTYLE
350
17
  3
ACAD_LAYOUT
350
1A
  3
ACAD_PLOTSETTINGS
350
19
  3
ACAD_PLOTSTYLENAME
350
E
  0
DICTIONARY
  5
D
102
{ACAD_REACTORS
330
C
102
}
100
AcDbDictionary
280
0
281
1
  0
ACDBDICTIONARYWDFLT
  5
E
102
{ACAD_REACTORS
330
C
102
}
100
AcDbDictionary
281
1
  3
Normal
350
F
100
AcDbDictionaryWithDefault
340
F
  0
DICTIONARY
  5
17
102
{ACAD_REACTORS
330
C
102
}
100
AcDbDictionary
280
0
281
1
  3
Standard
350
18
  0
DICTIONARY
  5
19
102
{ACAD_REACTORS
330
C
102
}
100
AcDbDictionary
281
1
  0
DICTIONARY
  5
1A
102
{ACAD_REACTORS
330
C
102
}
100
AcDbDictionary
281
1
  3
Model
350
35D
  3
Layout1
350
35E
  0
ACDBPLACEHOLDER
  5
F
102
{ACAD_REACTORS
330
E
102
}
  0
MLINESTYLE
  5
18
102
{ACAD_REACTORS
330
17
102
}
100
AcDbMlineStyle
  2
STANDARD
 70
0
  3

 62
256
 51
90.0
 52
90.0
 71
2
 49
0.5
 62
256
  6
BYLAYER
 49
-0.5
 62
256
  6
BYLAYER
  0
LAYOUT
  5
35D
102
{ACAD_REACTORS
330
1A
102
}
100
AcDbPlotSettings
  1

  2
none_device
  4

  6

 40
0.0
 41
0.0
 42
0.0
 43
0.0
 44
210.0
 45
297.0
 46
0.0
 47
0.0
 48
0.0
 49
0.0
140
0.0
141
0.0
142
1.0
143
1.0
 70
1024
 72
1
 73
0
 74
0
  7

 75
0
147
1.0
148
0.0
149
0.0
100
AcDbLayout
  1
Model
 70
0
 71
0
 10
0.0
 20
0.0
 11
210.0
 21
297.0
 12
0.0
 22
0.0
 32
0.0
 14
0.0
 24
0.0
 34
0.0
 15
0.0
 25
0.0
 35
0.0
146
0.0
 13
0.0
 23
0.0
 33
0.0
 16
1.0
 26
0.0
 36
0.0
 17
0.0
 27
1.0
 37
0.0
 76
0
330
210
345
0
346
0
  0
LAYOUT
  5
35E
102
{ACAD_REACTORS
330
1A
102
}
100
AcDbPlotSettings
  1

  2
none_device
  4

  6

 40
0.0
 41
0.0
 42
0.0
 43
0.0
 44
210.0
 45
297.0
 46
0.0
 47
0.0
 48
0.0
 49
0.0
140
0.0
141
0.0
142
1.0
143
1.0
 70
0
 72
1
 73
0
 74
0
  7

 75
0
147
1.0
148
0.0
149
0.0
100
AcDbLayout
  1
Layout1
 70
0
 71
1
 10
0.0
 20
0.0
 11
210.0
 21
297.0
 12
0.0
 22
0.0
 32
0.0
 14
0.0
 24
0.0
 34
0.0
 15
0.0
 25
0.0
 35
0.0
146
0.0
 13
0.0
 23
0.0
 33
0.0
 16
1.0
 26
0.0
 36
0.0
 17
0.0
 27
1.0
 37
0.0
 76
0
330
211
345
0
346
0
  0
ENDSEC
  0
EOF
