999
DXF file: C:\Users\sesa63760\Dev\_Creo\CAD\MCADID0000548_3D-CAD\drw0001_7.dxf
999
Pro/ENGINEER 2019471 by Parametric Technology Corporation
  0
SECTION
  2
HEADER
  9
$ACADVER
  1
AC1024
  9
$DWGCODEPAGE
  3
ANSI_1252
  9
$EXTMAX
 10
274.6760456064
 20
388.4704073576
 30
0.0
  9
$EXTMIN
 10
0.0
 20
0.0
 30
0.0
  9
$LIMMIN
 10
0.0
 20
0.0
  9
$LIMMAX
 10
274.6760456064
 20
388.4704073576
  9
$VIEWCTR
 10
137.3380228032
 20
194.2352036788
  9
$VIEWSIZE
 40
388.4704073576
  9
$CLAYER
  8
0
  9
$LTSCALE
 40
25.3225154426
  9
$CELTYPE
  6
BYLAYER
  9
$DIMSCALE
 40
1.0
  9
$DIMASZ
 40
3.2699529239
  9
$DIMEXO
 40
1.0
  9
$DIMDLI
 40
17.495556124
  9
$DIMEXE
 40
1.0
  9
$DIMCEN
 40
4.1436843451
  9
$DIMLFAC
 40
1.0
  9
$DIMBLK
  1
_FILLED
  9
$DIMALT
 70
0
  9
$DIMALTF
 40
0.0393700787
  9
$DIMTXT
 40
4.5779340934
  9
$DIMTOL
 70
1
  9
$DIMLIM
 70
0
  9
$DIMTFAC
 40
1.0
  9
$DIMTP
 40
0.01
  9
$DIMTM
 40
0.01
  9
$DIMGAP
 40
0.625
  9
$DIMDSEP
 70
46
  9
$AUNITS
 70
0
  9
$PDMODE
 70
3
  9
$PDSIZE
 40
0.3125
  9
$HANDSEED
  5
2B7
  9
$TILEMODE
 70
1
  9
$MEASUREMENT
 70
1
  9
$INSUNITS
 70
4
  0
ENDSEC
  0
SECTION
  2
CLASSES
  0
CLASS
  1
ACDBDICTIONARYWDFLT
  2
AcDbDictionaryWithDefault
  3
AutoCAD 2000
 90
0
 91
1
280
0
281
0
  0
CLASS
  1
ACDBPLACEHOLDER
  2
AcDbPlaceHolder
  3
AutoCAD 2000
 90
0
 91
1
280
0
281
0
  0
CLASS
  1
LAYOUT
  2
AcDbLayout
  3
AutoCAD 2000
 90
0
 91
0
280
0
281
0
  0
ENDSEC
  0
SECTION
  2
TABLES
  0
TABLE
  2
VPORT
  5
8
100
AcDbSymbolTable
 70
2
  0
VPORT
  5
1F4
100
AcDbSymbolTableRecord
100
AcDbViewportTableRecord
  2
*ACTIVE
 70
0
 10
0.0
 20
0.0
 11
1.0
 21
1.0
 12
137.3380228032
 22
194.2352036788
 13
0.0
 23
0.0
 14
1.0
 24
1.0
 15
0.0
 25
0.0
 16
0.0
 26
0.0
 36
1.0
 17
0.0
 27
0.0
 37
0.0
 40
388.4704073576
 41
0.7070707071
 42
50.0
 43
0.0
 44
0.0
 50
0.0
 51
0.0
 71
0
 72
100
 73
1
 74
1
 75
0
 76
0
 77
0
 78
0
  0
ENDTAB
  0
TABLE
  2
LTYPE
  5
5
100
AcDbSymbolTable
 70
6
  0
LTYPE
  5
14
100
AcDbSymbolTableRecord
100
AcDbLinetypeTableRecord
  2
BYBLOCK
 70
0
  3

 72
65
 73
0
 40
0.0
  0
LTYPE
  5
15
100
AcDbSymbolTableRecord
100
AcDbLinetypeTableRecord
  2
BYLAYER
 70
0
  3

 72
65
 73
0
 40
0.0
  0
LTYPE
  5
16
100
AcDbSymbolTableRecord
100
AcDbLinetypeTableRecord
  2
CONTINUOUS
 70
64
  3
Solid line
 72
65
 73
0
 40
0.0
  0
LTYPE
  5
1F5
100
AcDbSymbolTableRecord
100
AcDbLinetypeTableRecord
  2
CENTER
 70
64
  3
____ _ ____ _ ____ _ ____ _ ____ _ ____ _ ____
 72
65
 73
4
 40
0.6
 49
0.375
 74
0
 49
-0.075
 74
0
 49
0.075
 74
0
 49
-0.075
 74
0
  0
LTYPE
  5
1F6
100
AcDbSymbolTableRecord
100
AcDbLinetypeTableRecord
  2
HIDDEN
 70
64
  3
- - - - - - - - - - - - - - - - - - - -
 72
65
 73
2
 40
0.2
 49
0.1
 74
0
 49
-0.1
 74
0
  0
LTYPE
  5
1F7
100
AcDbSymbolTableRecord
100
AcDbLinetypeTableRecord
  2
PHANTOM
 70
64
  3
_____ _ _ _____ _ _ _____ _ _ _____
 72
65
 73
6
 40
0.8
 49
0.45
 74
0
 49
-0.05
 74
0
 49
0.1
 74
0
 49
-0.05
 74
0
 49
0.1
 74
0
 49
-0.05
 74
0
  0
LTYPE
  5
1F8
100
AcDbSymbolTableRecord
100
AcDbLinetypeTableRecord
  2
DOT
 70
64
  3
. . . . . . . . . . . . . . . . . . . .
 72
65
 73
2
 40
0.2
 49
0.1
 74
0
 49
-0.1
 74
0
  0
LTYPE
  5
1F9
100
AcDbSymbolTableRecord
100
AcDbLinetypeTableRecord
  2
DASHED
 70
64
  3
- - - - - - - - - - - - - - - - - - - -
 72
65
 73
2
 40
0.2
 49
0.1
 74
0
 49
-0.1
 74
0
  0
ENDTAB
  0
TABLE
  2
LAYER
  5
2
100
AcDbSymbolTable
 70
36
  0
LAYER
  5
10
100
AcDbSymbolTableRecord
100
AcDbLayerTableRecord
  2
0
 70
0
 62
7
  6
CONTINUOUS
370
-3
390
F
  0
LAYER
  5
1FA
100
AcDbSymbolTableRecord
100
AcDbLayerTableRecord
  2
DEFAULT_1
 70
0
 62
7
  6
CENTER
370
-3
390
F
  0
LAYER
  5
1FB
100
AcDbSymbolTableRecord
100
AcDbLayerTableRecord
  2
DEFAULT_2
 70
0
 62
8
  6
HIDDEN
370
-3
390
F
  0
LAYER
  5
1FC
100
AcDbSymbolTableRecord
100
AcDbLayerTableRecord
  2
DEFAULT_3
 70
0
 62
7
  6
PHANTOM
370
-3
390
F
  0
LAYER
  5
1FD
100
AcDbSymbolTableRecord
100
AcDbLayerTableRecord
  2
00_COMPONENTS
 70
0
 62
7
  6
CONTINUOUS
370
-3
390
F
  0
LAYER
  5
1FE
100
AcDbSymbolTableRecord
100
AcDbLayerTableRecord
  2
01_1_DEFAULT_DATUMS
 70
0
 62
7
  6
CONTINUOUS
370
-3
390
F
  0
LAYER
  5
1FF
100
AcDbSymbolTableRecord
100
AcDbLayerTableRecord
  2
01_PLANES
 70
0
 62
7
  6
CONTINUOUS
370
-3
390
F
  0
LAYER
  5
200
100
AcDbSymbolTableRecord
100
AcDbLayerTableRecord
  2
02_COORD_SYS
 70
0
 62
7
  6
CONTINUOUS
370
-3
390
F
  0
LAYER
  5
201
100
AcDbSymbolTableRecord
100
AcDbLayerTableRecord
  2
03_AXES
 70
0
 62
7
  6
CONTINUOUS
370
-3
390
F
  0
LAYER
  5
202
100
AcDbSymbolTableRecord
100
AcDbLayerTableRecord
  2
04_POINTS
 70
0
 62
7
  6
CONTINUOUS
370
-3
390
F
  0
LAYER
  5
203
100
AcDbSymbolTableRecord
100
AcDbLayerTableRecord
  2
05_CURVES
 70
0
 62
7
  6
CONTINUOUS
370
-3
390
F
  0
LAYER
  5
204
100
AcDbSymbolTableRecord
100
AcDbLayerTableRecord
  2
06_SURFS
 70
0
 62
7
  6
CONTINUOUS
370
-3
390
F
  0
LAYER
  5
205
100
AcDbSymbolTableRecord
100
AcDbLayerTableRecord
  2
07_COSMETICS
 70
0
 62
7
  6
CONTINUOUS
370
-3
390
F
  0
LAYER
  5
206
100
AcDbSymbolTableRecord
100
AcDbLayerTableRecord
  2
10_NOTES
 70
0
 62
7
  6
CONTINUOUS
370
-3
390
F
  0
LAYER
  5
207
100
AcDbSymbolTableRecord
100
AcDbLayerTableRecord
  2
11_NOTES_PUB
 70
0
 62
7
  6
CONTINUOUS
370
-3
390
F
  0
LAYER
  5
208
100
AcDbSymbolTableRecord
100
AcDbLayerTableRecord
  2
13_REF_GTOL
 70
0
 62
7
  6
CONTINUOUS
370
-3
390
F
  0
LAYER
  5
209
100
AcDbSymbolTableRecord
100
AcDbLayerTableRecord
  2
16_MISC
 70
0
 62
7
  6
CONTINUOUS
370
-3
390
F
  0
LAYER
  5
20A
100
AcDbSymbolTableRecord
100
AcDbLayerTableRecord
  2
17_NO_PRINT
 70
0
 62
7
  6
CONTINUOUS
370
-3
390
F
  0
LAYER
  5
20B
100
AcDbSymbolTableRecord
100
AcDbLayerTableRecord
  2
18_DATUM_CAMS_JOINTS
 70
0
 62
7
  6
CONTINUOUS
370
-3
390
F
  0
LAYER
  5
20C
100
AcDbSymbolTableRecord
100
AcDbLayerTableRecord
  2
19_DATUM_FUNCTIONAL
 70
0
 62
7
  6
CONTINUOUS
370
-3
390
F
  0
LAYER
  5
20D
100
AcDbSymbolTableRecord
100
AcDbLayerTableRecord
  2
20_DATUM_KINEMATIC_SCHEME
 70
0
 62
7
  6
CONTINUOUS
370
-3
390
F
  0
ENDTAB
  0
TABLE
  2
STYLE
  5
3
100
AcDbSymbolTable
 70
1
  0
STYLE
  5
11
100
AcDbSymbolTableRecord
100
AcDbTextStyleTableRecord
  2
STANDARD
 70
0
 40
0.0
 41
0.8
 50
0.0
 71
0
 42
0.2
  3
txt
  4

  0
STYLE
  5
20E
100
AcDbSymbolTableRecord
100
AcDbTextStyleTableRecord
  2
TEXTSTYLE_1
 70
0
 40
0.0
 41
0.8
 50
0.0
 71
0
 42
0.2
  3
gdt
  4

  0
ENDTAB
  0
TABLE
  2
VIEW
  5
6
100
AcDbSymbolTable
 70
0
  0
ENDTAB
  0
TABLE
  2
UCS
  5
7
100
AcDbSymbolTable
 70
0
  0
ENDTAB
  0
TABLE
  2
APPID
  5
9
100
AcDbSymbolTable
 70
1
  0
APPID
  5
20F
100
AcDbSymbolTableRecord
100
AcDbRegAppTableRecord
  2
ACAD
 70
0
  0
ENDTAB
  0
TABLE
  2
BLOCK_RECORD
  5
1
100
AcDbSymbolTable
 70
0
  0
BLOCK_RECORD
  5
210
100
AcDbSymbolTableRecord
100
AcDbBlockTableRecord
  2
*Model_Space
  0
BLOCK_RECORD
  5
211
100
AcDbSymbolTableRecord
100
AcDbBlockTableRecord
  2
*Paper_Space
  0
BLOCK_RECORD
  5
212
100
AcDbSymbolTableRecord
100
AcDbBlockTableRecord
  2
_FILLED
  0
ENDTAB
  0
TABLE
  2
DIMSTYLE
  5
A
100
AcDbSymbolTable
 70
1
100
AcDbDimStyleTable
 71
0
  0
DIMSTYLE
105
213
100
AcDbSymbolTableRecord
100
AcDbDimStyleTableRecord
  2
STANDARD
 70
0
  3

  4

 40
1.0
 41
3.2699529239
 42
1.0
 43
0.38
 44
1.0
 45
0.0
 46
0.0
 47
0.01
 48
0.01
140
4.5779340934
141
0.09
142
0.0
143
25.4
144
1.0
145
0.0
146
1.0
147
0.625
 71
1
 72
0
 73
0
 74
0
 75
0
 76
0
 77
1
 78
8
 79
2
170
0
171
1
172
0
173
0
174
0
175
0
176
0
177
0
178
0
270
2
179
2
271
2
272
2
273
2
274
2
275
0
280
0
281
0
282
0
283
1
284
8
285
0
286
0
287
3
288
0
340
11
278
46
341
212
342
212
343
212
344
212
  0
ENDTAB
  0
ENDSEC
  0
SECTION
  2
BLOCKS
  0
BLOCK
  5
20
100
AcDbEntity
  8
0
100
AcDbBlockBegin
  2
*Model_Space
 70
0
 10
0.0
 20
0.0
 30
0.0
  3
*Model_Space
  1

  0
ENDBLK
  5
21
100
AcDbEntity
  8
0
100
AcDbBlockEnd
  0
BLOCK
  5
1C
100
AcDbEntity
  8
0
100
AcDbBlockBegin
  2
*Paper_Space
 70
0
 10
0.0
 20
0.0
 30
0.0
  3
*Paper_Space
  1

  0
ENDBLK
  5
1D
100
AcDbEntity
  8
0
100
AcDbBlockEnd
  0
BLOCK
  5
214
100
AcDbEntity
  8
0
100
AcDbBlockBegin
  2
_FILLED
 70
64
 10
0.0
 20
0.0
  3
_FILLED
  1

  0
SOLID
  5
215
100
AcDbEntity
  8
0
  6
BYBLOCK
 62
0
100
AcDbTrace
 10
0.0
 20
0.0
 11
-1.0
 21
0.25
 12
-1.0
 22
-0.25
 13
-1.0
 23
-0.25
  0
ENDBLK
  5
216
100
AcDbEntity
  8
0
  6
BYBLOCK
 62
0
100
AcDbBlockEnd
  0
ENDSEC
  0
SECTION
  2
ENTITIES
  0
LINE
  5
217
100
AcDbEntity
  8
0
100
AcDbLine
 62
7
  6
CONTINUOUS
 10
29.1615950046
 20
169.3361716283
 11
29.1615950046
 21
226.5361716283
  0
LINE
  5
218
100
AcDbEntity
  8
0
100
AcDbLine
 62
7
  6
CONTINUOUS
 10
32.2737542297
 20
169.3361716283
 11
32.2737542297
 21
226.5361716283
  0
LINE
  5
219
100
AcDbEntity
  8
0
100
AcDbLine
 62
7
  6
CONTINUOUS
 10
32.9615950046
 20
169.3361716283
 11
32.9615950046
 21
226.5361716283
  0
LINE
  5
21A
100
AcDbEntity
  8
0
100
AcDbLine
 62
7
  6
CONTINUOUS
 10
33.9119016465
 20
169.3361716283
 11
33.9119016465
 21
226.5361716283
  0
LINE
  5
21B
100
AcDbEntity
  8
0
100
AcDbLine
 62
7
  6
CONTINUOUS
 10
36.6615950046
 20
169.3361716283
 11
36.6615950046
 21
172.8361716283
  0
LINE
  5
21C
100
AcDbEntity
  8
0
100
AcDbLine
 62
7
  6
CONTINUOUS
 10
36.6615950046
 20
223.0361716283
 11
36.6615950046
 21
226.5361716283
  0
LINE
  5
21D
100
AcDbEntity
  8
0
100
AcDbLine
 62
7
  6
CONTINUOUS
 10
42.6615950046
 20
226.5361716283
 11
42.6615950046
 21
223.0361716283
  0
LINE
  5
21E
100
AcDbEntity
  8
0
100
AcDbLine
 62
7
  6
CONTINUOUS
 10
42.6615950046
 20
172.8361716283
 11
42.6615950046
 21
169.3361716283
  0
LINE
  5
21F
100
AcDbEntity
  8
0
100
AcDbLine
 62
7
  6
CONTINUOUS
 10
45.6115950046
 20
167.3361716283
 11
45.6115950046
 21
169.3361716283
  0
LINE
  5
220
100
AcDbEntity
  8
0
100
AcDbLine
 62
7
  6
CONTINUOUS
 10
46.5468158423
 20
218.2110888459
 11
42.1879168988
 21
210.6612544106
  0
LINE
  5
221
100
AcDbEntity
  8
0
100
AcDbLine
 62
7
  6
CONTINUOUS
 10
51.9115950046
 20
165.8361716283
 11
51.9115950046
 21
167.3361716283
  0
LINE
  5
222
100
AcDbEntity
  8
0
100
AcDbLine
 62
7
  6
CONTINUOUS
 10
52.4115950046
 20
163.8361716283
 11
52.4115950046
 21
165.8361716283
  0
LINE
  5
223
100
AcDbEntity
  8
0
100
AcDbLine
 62
7
  6
CONTINUOUS
 10
42.1879168988
 20
185.2110888459
 11
46.5468158423
 21
177.6612544106
  0
LINE
  5
224
100
AcDbEntity
  8
0
100
AcDbLine
 62
7
  6
CONTINUOUS
 10
59.4115950046
 20
165.8361716283
 11
59.4115950046
 21
163.8361716283
  0
LINE
  5
225
100
AcDbEntity
  8
0
100
AcDbLine
 62
7
  6
CONTINUOUS
 10
59.9115950046
 20
167.3361716283
 11
59.9115950046
 21
165.8361716283
  0
LINE
  5
226
100
AcDbEntity
  8
0
100
AcDbLine
 62
7
  6
CONTINUOUS
 10
46.5468158423
 20
194.2110888459
 11
42.1879168988
 21
186.6612544106
  0
LINE
  5
227
100
AcDbEntity
  8
0
100
AcDbLine
 62
7
  6
CONTINUOUS
 10
49.9116297533
 20
217.0907265668
 11
45.0070400661
 21
212.1861368795
  0
LINE
  5
228
100
AcDbEntity
  8
0
100
AcDbLine
 62
7
  6
CONTINUOUS
 10
42.1879168988
 20
209.2110888459
 11
46.5468158423
 21
201.6612544106
  0
LINE
  5
229
100
AcDbEntity
  8
0
100
AcDbLine
 62
7
  6
CONTINUOUS
 10
64.6615950046
 20
163.8361716283
 11
64.4115950046
 21
165.2539920832
  0
LINE
  5
22A
100
AcDbEntity
  8
0
100
AcDbLine
 62
7
  6
CONTINUOUS
 10
64.4115950046
 20
167.3361716283
 11
64.4115950046
 21
165.2539920832
  0
LINE
  5
22B
100
AcDbEntity
  8
0
100
AcDbLine
 62
7
  6
CONTINUOUS
 10
68.6615950046
 20
182.3361716283
 11
68.6615950046
 21
198.3361716283
  0
LINE
  5
22C
100
AcDbEntity
  8
0
100
AcDbLine
 62
7
  6
CONTINUOUS
 10
69.1615950046
 20
192.3361601669
 11
69.1615950046
 21
188.3361830896
  0
LINE
  5
22D
100
AcDbEntity
  8
0
100
AcDbLine
 62
7
  6
CONTINUOUS
 10
57.7763741669
 20
201.6612544106
 11
62.1352731104
 21
209.2110888459
  0
LINE
  5
22E
100
AcDbEntity
  8
0
100
AcDbLine
 62
7
  6
CONTINUOUS
 10
62.1352731104
 20
186.6612544106
 11
57.7763741669
 21
194.2110888459
  0
LINE
  5
22F
100
AcDbEntity
  8
0
100
AcDbLine
 62
7
  6
CONTINUOUS
 10
71.1615950046
 20
196.8361716283
 11
71.1615950046
 21
183.8361716283
  0
LINE
  5
230
100
AcDbEntity
  8
0
100
AcDbLine
 62
7
  6
CONTINUOUS
 10
74.4115950046
 20
167.3361716283
 11
74.4115950046
 21
165.2539920832
  0
LINE
  5
231
100
AcDbEntity
  8
0
100
AcDbLine
 62
7
  6
CONTINUOUS
 10
77.9115950046
 20
167.3361716283
 11
77.9115950046
 21
165.2539920832
  0
LINE
  5
232
100
AcDbEntity
  8
0
100
AcDbLine
 62
7
  6
CONTINUOUS
 10
57.7763741669
 20
177.6612544106
 11
62.1352731104
 21
185.2110888459
  0
LINE
  5
233
100
AcDbEntity
  8
0
100
AcDbLine
 62
7
  6
CONTINUOUS
 10
54.4115602559
 20
202.7816166897
 11
59.3161499431
 21
207.686206377
  0
LINE
  5
234
100
AcDbEntity
  8
0
100
AcDbLine
 62
7
  6
CONTINUOUS
 10
78.1615950046
 20
163.8361716283
 11
77.9115950046
 21
165.2539920832
  0
LINE
  5
235
100
AcDbEntity
  8
0
100
AcDbLine
 62
7
  6
CONTINUOUS
 10
74.4115950046
 20
165.2539920832
 11
74.1615950046
 21
163.8361716283
  0
LINE
  5
236
100
AcDbEntity
  8
0
100
AcDbLine
 62
7
  6
CONTINUOUS
 10
68.6615950046
 20
182.3361716283
 11
77.0922519389
 21
175.2704781976
  0
LINE
  5
237
100
AcDbEntity
  8
0
100
AcDbLine
 62
7
  6
CONTINUOUS
 10
71.1615950046
 20
183.8361716283
 11
72.6615950046
 21
182.3361716283
  0
LINE
  5
238
100
AcDbEntity
  8
0
100
AcDbLine
 62
7
  6
CONTINUOUS
 10
62.1352731104
 20
210.6612544106
 11
57.7763741669
 21
218.2110888459
  0
LINE
  5
239
100
AcDbEntity
  8
0
100
AcDbLine
 62
7
  6
CONTINUOUS
 10
87.9115950046
 20
167.3361716283
 11
87.9115950046
 21
165.2539920832
  0
LINE
  5
23A
100
AcDbEntity
  8
0
100
AcDbLine
 62
7
  6
CONTINUOUS
 10
88.1615950046
 20
183.8361716283
 11
88.1615950046
 21
196.8361716283
  0
LINE
  5
23B
100
AcDbEntity
  8
0
100
AcDbLine
 62
7
  6
CONTINUOUS
 10
90.1615950046
 20
188.3361830896
 11
90.1615950046
 21
192.3361601669
  0
LINE
  5
23C
100
AcDbEntity
  8
0
100
AcDbLine
 62
7
  6
CONTINUOUS
 10
90.6615950046
 20
182.3361716283
 11
90.6615950046
 21
198.3361716283
  0
LINE
  5
23D
100
AcDbEntity
  8
0
100
AcDbLine
 62
7
  6
CONTINUOUS
 10
93.2115950046
 20
167.3361716283
 11
93.2115950046
 21
169.3361716283
  0
LINE
  5
23E
100
AcDbEntity
  8
0
100
AcDbLine
 62
7
  6
CONTINUOUS
 10
72.6615950046
 20
198.3361716283
 11
71.1615950046
 21
196.8361716283
  0
LINE
  5
23F
100
AcDbEntity
  8
0
100
AcDbLine
 62
7
  6
CONTINUOUS
 10
77.0922519389
 20
205.4018650589
 11
68.6615950046
 21
198.3361716283
  0
LINE
  5
240
100
AcDbEntity
  8
0
100
AcDbLine
 62
7
  6
CONTINUOUS
 10
95.6615950046
 20
169.3361716283
 11
95.6615950046
 21
172.8361716283
  0
LINE
  5
241
100
AcDbEntity
  8
0
100
AcDbLine
 62
7
  6
CONTINUOUS
 10
95.6615950046
 20
223.0361716283
 11
95.6615950046
 21
226.5361716283
  0
LINE
  5
242
100
AcDbEntity
  8
0
100
AcDbLine
 62
7
  6
CONTINUOUS
 10
87.9115950046
 20
165.2539920832
 11
87.6615950046
 21
163.8361716283
  0
LINE
  5
243
100
AcDbEntity
  8
0
100
AcDbLine
 62
7
  6
CONTINUOUS
 10
102.1615950046
 20
172.3361716283
 11
102.1615950046
 21
223.5361716283
  0
LINE
  5
244
100
AcDbEntity
  8
0
100
AcDbLine
 62
7
  6
CONTINUOUS
 10
104.1615950046
 20
221.7361716283
 11
104.1615950046
 21
174.1361716283
  0
LINE
  5
245
100
AcDbEntity
  8
0
100
AcDbLine
 62
7
  6
CONTINUOUS
 10
105.6615950046
 20
188.4361716283
 11
105.6615950046
 21
180.4361716283
  0
LINE
  5
246
100
AcDbEntity
  8
0
100
AcDbLine
 62
7
  6
CONTINUOUS
 10
107.6615950046
 20
216.1861716283
 11
107.6615950046
 21
206.6861716283
  0
LINE
  5
247
100
AcDbEntity
  8
0
100
AcDbLine
 62
7
  6
CONTINUOUS
 10
107.6615950046
 20
202.6861716283
 11
107.6615950046
 21
193.1861716283
  0
LINE
  5
248
100
AcDbEntity
  8
0
100
AcDbLine
 62
7
  6
CONTINUOUS
 10
107.6615950046
 20
187.9361716283
 11
107.6615950046
 21
180.9361716283
  0
LINE
  5
249
100
AcDbEntity
  8
0
100
AcDbLine
 62
7
  6
CONTINUOUS
 10
87.6615950046
 20
163.8361716283
 11
78.1615950046
 21
163.8361716283
  0
LINE
  5
24A
100
AcDbEntity
  8
0
100
AcDbLine
 62
7
  6
CONTINUOUS
 10
74.1615950046
 20
163.8361716283
 11
64.6615950046
 21
163.8361716283
  0
LINE
  5
24B
100
AcDbEntity
  8
0
100
AcDbLine
 62
7
  6
CONTINUOUS
 10
59.4115950046
 20
163.8361716283
 11
52.4115950046
 21
163.8361716283
  0
LINE
  5
24C
100
AcDbEntity
  8
0
100
AcDbLine
 62
7
  6
CONTINUOUS
 10
59.9115950046
 20
165.8361716283
 11
51.9115950046
 21
165.8361716283
  0
LINE
  5
24D
100
AcDbEntity
  8
0
100
AcDbLine
 62
7
  6
CONTINUOUS
 10
88.1615950046
 20
196.8361716283
 11
86.6615950046
 21
198.3361716283
  0
LINE
  5
24E
100
AcDbEntity
  8
0
100
AcDbLine
 62
7
  6
CONTINUOUS
 10
86.6615950046
 20
182.3361716283
 11
88.1615950046
 21
183.8361716283
  0
LINE
  5
24F
100
AcDbEntity
  8
0
100
AcDbLine
 62
7
  6
CONTINUOUS
 10
93.2115950046
 20
167.3361716283
 11
45.6115950046
 21
167.3361716283
  0
LINE
  5
250
100
AcDbEntity
  8
0
100
AcDbLine
 62
7
  6
CONTINUOUS
 10
29.1616013853
 20
169.3361716283
 11
226.4615950046
 21
169.3361716283
  0
LINE
  5
251
100
AcDbEntity
  8
0
100
AcDbLine
 62
7
  6
CONTINUOUS
 10
102.1615950046
 20
172.3361716283
 11
160.5614074643
 21
172.3361716283
  0
LINE
  5
252
100
AcDbEntity
  8
0
100
AcDbLine
 62
7
  6
CONTINUOUS
 10
226.4615950046
 20
172.9361716283
 11
228.0615950046
 21
172.9361716283
  0
LINE
  5
253
100
AcDbEntity
  8
0
100
AcDbLine
 62
7
  6
CONTINUOUS
 10
220.6615950046
 20
173.3361716283
 11
166.8615950046
 21
173.3361716283
  0
LINE
  5
254
100
AcDbEntity
  8
0
100
AcDbLine
 62
7
  6
CONTINUOUS
 10
90.6615950046
 20
198.3361716283
 11
82.2309380703
 21
205.4018650589
  0
LINE
  5
255
100
AcDbEntity
  8
0
100
AcDbLine
 62
7
  6
CONTINUOUS
 10
116.6615950046
 20
226.5361716283
 11
116.6615950046
 21
169.3361716283
  0
LINE
  5
256
100
AcDbEntity
  8
0
100
AcDbLine
 62
7
  6
CONTINUOUS
 10
82.2309380703
 20
175.2704781976
 11
90.6615950046
 21
182.3361716283
  0
LINE
  5
257
100
AcDbEntity
  8
0
100
AcDbLine
 62
7
  6
CONTINUOUS
 10
104.1615950046
 20
174.1361716283
 11
102.1615950046
 21
174.1361716283
  0
LINE
  5
258
100
AcDbEntity
  8
0
100
AcDbLine
 62
7
  6
CONTINUOUS
 10
166.8615950046
 20
174.3361716283
 11
226.4615950046
 21
174.3361716283
  0
LINE
  5
259
100
AcDbEntity
  8
0
100
AcDbLine
 62
7
  6
CONTINUOUS
 10
98.6615950046
 20
175.8361716283
 11
102.1615950046
 21
175.8361716283
  0
LINE
  5
25A
100
AcDbEntity
  8
0
100
AcDbLine
 62
7
  6
CONTINUOUS
 10
56.5204939481
 20
176.9361716283
 11
47.8026960611
 21
176.9361716283
  0
LINE
  5
25B
100
AcDbEntity
  8
0
100
AcDbLine
 62
7
  6
CONTINUOUS
 10
166.8615950046
 20
178.9361716283
 11
220.6615950046
 21
178.9361716283
  0
LINE
  5
25C
100
AcDbEntity
  8
0
100
AcDbLine
 62
7
  6
CONTINUOUS
 10
105.6615950046
 20
180.4361716283
 11
104.1615950046
 21
180.4361716283
  0
LINE
  5
25D
100
AcDbEntity
  8
0
100
AcDbLine
 62
7
  6
CONTINUOUS
 10
107.6615950046
 20
180.9361716283
 11
105.6615950046
 21
180.9361716283
  0
LINE
  5
25E
100
AcDbEntity
  8
0
100
AcDbLine
 62
7
  6
CONTINUOUS
 10
126.6615950046
 20
226.5361716283
 11
126.6615950046
 21
169.3361716283
  0
LINE
  5
25F
100
AcDbEntity
  8
0
100
AcDbLine
 62
7
  6
CONTINUOUS
 10
72.6615950046
 20
182.3361716283
 11
86.6615950046
 21
182.3361716283
  0
LINE
  5
260
100
AcDbEntity
  8
0
100
AcDbLine
 62
7
  6
CONTINUOUS
 10
220.6615950046
 20
182.9361716283
 11
166.8615950046
 21
182.9361716283
  0
LINE
  5
261
100
AcDbEntity
  8
0
100
AcDbLine
 62
7
  6
CONTINUOUS
 10
105.6615950046
 20
187.9361716283
 11
107.6615950046
 21
187.9361716283
  0
LINE
  5
262
100
AcDbEntity
  8
0
100
AcDbLine
 62
7
  6
CONTINUOUS
 10
68.6615950046
 20
188.3361716283
 11
69.1615950046
 21
188.3361716283
  0
LINE
  5
263
100
AcDbEntity
  8
0
100
AcDbLine
 62
7
  6
CONTINUOUS
 10
90.1615950046
 20
188.3361716283
 11
90.6615950046
 21
188.3361716283
  0
LINE
  5
264
100
AcDbEntity
  8
0
100
AcDbLine
 62
7
  6
CONTINUOUS
 10
104.1615950046
 20
188.4361716283
 11
105.6615950046
 21
188.4361716283
  0
LINE
  5
265
100
AcDbEntity
  8
0
100
AcDbLine
 62
7
  6
CONTINUOUS
 10
69.1615950046
 20
188.8361716283
 11
71.1615950046
 21
188.8361716283
  0
LINE
  5
266
100
AcDbEntity
  8
0
100
AcDbLine
 62
7
  6
CONTINUOUS
 10
88.1615950046
 20
188.8361716283
 11
90.1615950046
 21
188.8361716283
  0
LINE
  5
267
100
AcDbEntity
  8
0
100
AcDbLine
 62
7
  6
CONTINUOUS
 10
69.1615950046
 20
191.8361716283
 11
71.1615950046
 21
191.8361716283
  0
LINE
  5
268
100
AcDbEntity
  8
0
100
AcDbLine
 62
7
  6
CONTINUOUS
 10
88.1615950046
 20
191.8361716283
 11
90.1615950046
 21
191.8361716283
  0
LINE
  5
269
100
AcDbEntity
  8
0
100
AcDbLine
 62
7
  6
CONTINUOUS
 10
68.6615950046
 20
192.3361716283
 11
69.1615950046
 21
192.3361716283
  0
LINE
  5
26A
100
AcDbEntity
  8
0
100
AcDbLine
 62
7
  6
CONTINUOUS
 10
90.1615950046
 20
192.3361716283
 11
90.6615950046
 21
192.3361716283
  0
LINE
  5
26B
100
AcDbEntity
  8
0
100
AcDbLine
 62
7
  6
CONTINUOUS
 10
104.1615950046
 20
192.9361716283
 11
106.2437745497
 21
192.9361716283
  0
LINE
  5
26C
100
AcDbEntity
  8
0
100
AcDbLine
 62
7
  6
CONTINUOUS
 10
228.0615950046
 20
193.4361716283
 11
246.4615950046
 21
193.4361716283
  0
LINE
  5
26D
100
AcDbEntity
  8
0
100
AcDbLine
 62
7
  6
CONTINUOUS
 10
47.8026960611
 20
194.9361716283
 11
56.5204939481
 21
194.9361716283
  0
LINE
  5
26E
100
AcDbEntity
  8
0
100
AcDbLine
 62
7
  6
CONTINUOUS
 10
107.6615950046
 20
193.1861716283
 11
106.2437745497
 21
192.9361716282
  0
LINE
  5
26F
100
AcDbEntity
  8
0
100
AcDbLine
 62
7
  6
CONTINUOUS
 10
86.6615950046
 20
198.3361716283
 11
72.6615950046
 21
198.3361716283
  0
LINE
  5
270
100
AcDbEntity
  8
0
100
AcDbLine
 62
7
  6
CONTINUOUS
 10
56.5204939481
 20
200.9361716283
 11
47.8026960611
 21
200.9361716283
  0
LINE
  5
271
100
AcDbEntity
  8
0
100
AcDbLine
 62
7
  6
CONTINUOUS
 10
228.0615950046
 20
202.4361716283
 11
246.4615950046
 21
202.4361716283
  0
LINE
  5
272
100
AcDbEntity
  8
0
100
AcDbLine
 62
7
  6
CONTINUOUS
 10
104.1615950046
 20
202.9361716283
 11
106.2437745497
 21
202.9361716283
  0
LINE
  5
273
100
AcDbEntity
  8
0
100
AcDbLine
 62
7
  6
CONTINUOUS
 10
106.2437745497
 20
202.9361716283
 11
107.6615950046
 21
202.6861716283
  0
LINE
  5
274
100
AcDbEntity
  8
0
100
AcDbLine
 62
7
  6
CONTINUOUS
 10
149.6615950046
 20
226.5361716283
 11
149.6615950046
 21
169.3361716283
  0
LINE
  5
275
100
AcDbEntity
  8
0
100
AcDbLine
 62
7
  6
CONTINUOUS
 10
104.1615950046
 20
206.4361716283
 11
106.2437745497
 21
206.4361716283
  0
LINE
  5
276
100
AcDbEntity
  8
0
100
AcDbLine
 62
7
  6
CONTINUOUS
 10
106.2437745497
 20
216.4361716283
 11
107.6615950046
 21
216.1861716283
  0
LINE
  5
277
100
AcDbEntity
  8
0
100
AcDbLine
 62
7
  6
CONTINUOUS
 10
160.5614074643
 20
226.5361716283
 11
160.5614074643
 21
223.5361716283
  0
LINE
  5
278
100
AcDbEntity
  8
0
100
AcDbLine
 62
7
  6
CONTINUOUS
 10
160.5614074643
 20
172.3361716283
 11
160.5614074643
 21
169.3361716283
  0
LINE
  5
279
100
AcDbEntity
  8
0
100
AcDbLine
 62
7
  6
CONTINUOUS
 10
107.6615950046
 20
206.6861716283
 11
106.2437745497
 21
206.4361716282
  0
LINE
  5
27A
100
AcDbEntity
  8
0
100
AcDbLine
 62
7
  6
CONTINUOUS
 10
166.8615950046
 20
212.9361716283
 11
220.6615950046
 21
212.9361716283
  0
LINE
  5
27B
100
AcDbEntity
  8
0
100
AcDbLine
 62
7
  6
CONTINUOUS
 10
104.1615950046
 20
216.4361716283
 11
106.2437745497
 21
216.4361716283
  0
LINE
  5
27C
100
AcDbEntity
  8
0
100
AcDbLine
 62
7
  6
CONTINUOUS
 10
220.6615950046
 20
216.9361716283
 11
166.8615950046
 21
216.9361716283
  0
LINE
  5
27D
100
AcDbEntity
  8
0
100
AcDbLine
 62
7
  6
CONTINUOUS
 10
166.8615950046
 20
169.3361716283
 11
166.8615950046
 21
226.5361716283
  0
LINE
  5
27E
100
AcDbEntity
  8
0
100
AcDbLine
 62
7
  6
CONTINUOUS
 10
47.8026960611
 20
218.9361716283
 11
56.5204939481
 21
218.9361716283
  0
LINE
  5
27F
100
AcDbEntity
  8
0
100
AcDbLine
 62
7
  6
CONTINUOUS
 10
102.1615950046
 20
220.0361716283
 11
98.6615950046
 21
220.0361716283
  0
LINE
  5
280
100
AcDbEntity
  8
0
100
AcDbLine
 62
7
  6
CONTINUOUS
 10
166.8615950046
 20
221.5361716283
 11
226.4615950046
 21
221.5361716283
  0
LINE
  5
281
100
AcDbEntity
  8
0
100
AcDbLine
 62
7
  6
CONTINUOUS
 10
104.1615950046
 20
221.7361716283
 11
102.1615950046
 21
221.7361716283
  0
LINE
  5
282
100
AcDbEntity
  8
0
100
AcDbLine
 62
7
  6
CONTINUOUS
 10
166.8615950046
 20
222.5361716283
 11
220.6615950046
 21
222.5361716283
  0
LINE
  5
283
100
AcDbEntity
  8
0
100
AcDbLine
 62
7
  6
CONTINUOUS
 10
226.4615950046
 20
222.9361716283
 11
228.0615950046
 21
222.9361716283
  0
LINE
  5
284
100
AcDbEntity
  8
0
100
AcDbLine
 62
7
  6
CONTINUOUS
 10
102.1615950046
 20
223.5361716283
 11
160.5614074643
 21
223.5361716283
  0
LINE
  5
285
100
AcDbEntity
  8
0
100
AcDbLine
 62
7
  6
CONTINUOUS
 10
160.5614074643
 20
172.3361716283
 11
166.8615950046
 21
181.2459822933
  0
LINE
  5
286
100
AcDbEntity
  8
0
100
AcDbLine
 62
7
  6
CONTINUOUS
 10
29.1616013853
 20
226.5361716283
 11
226.4615950046
 21
226.5361716283
  0
LINE
  5
287
100
AcDbEntity
  8
0
100
AcDbLine
 62
7
  6
CONTINUOUS
 10
160.5614074643
 20
223.5361716283
 11
166.8615950046
 21
214.6263609632
  0
LINE
  5
288
100
AcDbEntity
  8
0
100
AcDbLine
 62
7
  6
CONTINUOUS
 10
207.8615950046
 20
226.5361716283
 11
207.8615950046
 21
169.3361716283
  0
LINE
  5
289
100
AcDbEntity
  8
0
100
AcDbLine
 62
7
  6
CONTINUOUS
 10
220.6615950046
 20
169.3361716283
 11
220.6615950046
 21
182.9361716283
  0
LINE
  5
28A
100
AcDbEntity
  8
0
100
AcDbLine
 62
7
  6
CONTINUOUS
 10
220.6615950046
 20
212.9361716283
 11
220.6615950046
 21
226.5361716283
  0
LINE
  5
28B
100
AcDbEntity
  8
0
100
AcDbLine
 62
7
  6
CONTINUOUS
 10
226.4615950046
 20
226.5361716283
 11
226.4615950046
 21
169.3361716283
  0
LINE
  5
28C
100
AcDbEntity
  8
0
100
AcDbLine
 62
7
  6
CONTINUOUS
 10
228.0615950046
 20
222.9361577647
 11
228.0615950046
 21
172.9361854918
  0
LINE
  5
28D
100
AcDbEntity
  8
0
100
AcDbLine
 62
7
  6
CONTINUOUS
 10
246.4615950046
 20
202.4361667181
 11
246.4615950046
 21
193.4361765384
  0
ARC
  5
28E
100
AcDbEntity
  8
0
100
AcDbCircle
 62
7
  6
CONTINUOUS
 10
52.1615950046
 20
185.9361716283
 40
10.0
100
AcDbArc
 50
235.8419327632
 51
244.1580672368
  0
ARC
  5
28F
100
AcDbEntity
  8
0
100
AcDbCircle
 62
7
  6
CONTINUOUS
 10
52.1615950046
 20
185.9361716283
 40
10.0
100
AcDbArc
 50
295.8419327632
 51
304.1580672368
  0
ARC
  5
290
100
AcDbEntity
  8
0
100
AcDbCircle
 62
7
  6
CONTINUOUS
 10
52.1615950046
 20
185.9361716283
 40
10.0
100
AcDbArc
 50
355.8419327632
 51
4.1580672368
  0
ARC
  5
291
100
AcDbEntity
  8
0
100
AcDbCircle
 62
7
  6
CONTINUOUS
 10
52.1615950046
 20
185.9361716283
 40
10.0
100
AcDbArc
 50
55.8419327632
 51
64.1580672368
  0
ARC
  5
292
100
AcDbEntity
  8
0
100
AcDbCircle
 62
7
  6
CONTINUOUS
 10
52.1615950046
 20
185.9361716283
 40
10.0
100
AcDbArc
 50
115.8419327632
 51
124.1580672368
  0
ARC
  5
293
100
AcDbEntity
  8
0
100
AcDbCircle
 62
7
  6
CONTINUOUS
 10
52.1615950046
 20
185.9361716283
 40
10.0
100
AcDbArc
 50
175.8419327632
 51
184.1580672368
  0
CIRCLE
  5
294
100
AcDbEntity
  8
0
100
AcDbCircle
 62
7
  6
CONTINUOUS
 10
52.1615950046
 20
185.9361716283
 40
7.5
  0
CIRCLE
  5
295
100
AcDbEntity
  8
0
100
AcDbCircle
 62
7
  6
CONTINUOUS
 10
52.1615950046
 20
185.9361716283
 40
6.0
  0
CIRCLE
  5
296
100
AcDbEntity
  8
0
100
AcDbCircle
 62
7
  6
CONTINUOUS
 10
52.1615950046
 20
185.9361716283
 40
5.25
  0
CIRCLE
  5
297
100
AcDbEntity
  8
0
100
AcDbCircle
 62
7
  6
CONTINUOUS
 10
39.6615950046
 20
172.8361716283
 40
3.0
  0
ARC
  5
298
100
AcDbEntity
  8
0
100
AcDbCircle
 62
7
  6
CONTINUOUS
 10
52.1615950046
 20
209.9361716283
 40
10.0
100
AcDbArc
 50
115.8419327632
 51
124.1580672368
  0
ARC
  5
299
100
AcDbEntity
  8
0
100
AcDbCircle
 62
7
  6
CONTINUOUS
 10
52.1615950046
 20
209.9361716283
 40
10.0
100
AcDbArc
 50
175.8419327632
 51
184.1580672368
  0
ARC
  5
29A
100
AcDbEntity
  8
0
100
AcDbCircle
 62
7
  6
CONTINUOUS
 10
52.1615950046
 20
209.9361716283
 40
10.0
100
AcDbArc
 50
235.8419327632
 51
244.1580672368
  0
ARC
  5
29B
100
AcDbEntity
  8
0
100
AcDbCircle
 62
7
  6
CONTINUOUS
 10
52.1615950046
 20
209.9361716283
 40
10.0
100
AcDbArc
 50
295.8419327632
 51
304.1580672368
  0
ARC
  5
29C
100
AcDbEntity
  8
0
100
AcDbCircle
 62
7
  6
CONTINUOUS
 10
52.1615950046
 20
209.9361716283
 40
10.0
100
AcDbArc
 50
355.8419327632
 51
4.1580672368
  0
ARC
  5
29D
100
AcDbEntity
  8
0
100
AcDbCircle
 62
7
  6
CONTINUOUS
 10
52.1615950046
 20
209.9361716283
 40
10.0
100
AcDbArc
 50
55.8419327632
 51
64.1580672368
  0
ARC
  5
29E
100
AcDbEntity
  8
0
100
AcDbCircle
 62
7
  6
CONTINUOUS
 10
52.1615950046
 20
209.9361716283
 40
7.5
100
AcDbArc
 50
162.5426751545
 51
287.4573248455
  0
ARC
  5
29F
100
AcDbEntity
  8
0
100
AcDbCircle
 62
7
  6
CONTINUOUS
 10
52.1615950046
 20
209.9361716283
 40
7.5
100
AcDbArc
 50
342.5426751545
 51
107.4573248455
  0
ARC
  5
2A0
100
AcDbEntity
  8
0
100
AcDbCircle
 62
7
  6
CONTINUOUS
 10
52.1615950046
 20
209.9361716283
 40
6.75
100
AcDbArc
 50
144.8746877614
 51
305.1253122386
  0
ARC
  5
2A1
100
AcDbEntity
  8
0
100
AcDbCircle
 62
7
  6
CONTINUOUS
 10
52.1615950046
 20
209.9361716283
 40
6.75
100
AcDbArc
 50
324.8746877614
 51
125.1253122386
  0
CIRCLE
  5
2A2
100
AcDbEntity
  8
0
100
AcDbCircle
 62
7
  6
CONTINUOUS
 10
52.1615950046
 20
209.9361716283
 40
4.0
  0
CIRCLE
  5
2A3
100
AcDbEntity
  8
0
100
AcDbCircle
 62
7
  6
CONTINUOUS
 10
39.6615950046
 20
223.0361716283
 40
3.0
  0
ARC
  5
2A4
100
AcDbEntity
  8
0
100
AcDbCircle
 62
7
  6
CONTINUOUS
 10
79.6615950046
 20
178.3361716283
 40
4.0
100
AcDbArc
 50
230.0337869562
 51
309.9662130438
  0
ARC
  5
2A5
100
AcDbEntity
  8
0
100
AcDbCircle
 62
7
  6
CONTINUOUS
 10
99.1615950046
 20
172.3361716283
 40
3.0
100
AcDbArc
 50
270.0
 51
360.0
  0
CIRCLE
  5
2A6
100
AcDbEntity
  8
0
100
AcDbCircle
 62
7
  6
CONTINUOUS
 10
98.6615950046
 20
172.8361716283
 40
3.0
  0
CIRCLE
  5
2A7
100
AcDbEntity
  8
0
100
AcDbCircle
 62
7
  6
CONTINUOUS
 10
79.6615950046
 20
178.3361716283
 40
3.0
  0
CIRCLE
  5
2A8
100
AcDbEntity
  8
0
100
AcDbCircle
 62
7
  6
CONTINUOUS
 10
91.1615950046
 20
219.3361716283
 40
4.0
  0
ARC
  5
2A9
100
AcDbEntity
  8
0
100
AcDbCircle
 62
7
  6
CONTINUOUS
 10
79.6615950046
 20
202.3361716283
 40
4.0
100
AcDbArc
 50
50.0337869562
 51
129.9662130438
  0
ARC
  5
2AA
100
AcDbEntity
  8
0
100
AcDbCircle
 62
7
  6
CONTINUOUS
 10
99.1615950046
 20
223.5361716283
 40
3.0
100
AcDbArc
 50
0.0
 51
90.0
  0
CIRCLE
  5
2AB
100
AcDbEntity
  8
0
100
AcDbCircle
 62
7
  6
CONTINUOUS
 10
98.6615950046
 20
223.0361716283
 40
3.0
  0
CIRCLE
  5
2AC
100
AcDbEntity
  8
0
100
AcDbCircle
 62
7
  6
CONTINUOUS
 10
79.6615950046
 20
202.3361716283
 40
3.0
  0
SPLINE
  5
2AD
100
AcDbEntity
  8
0
100
AcDbSpline
 62
7
  6
CONTINUOUS
 70
0
 71
3
 72
25
 73
21
 74
0
 42
0.0000001
 43
0.0000001
 44
0.0000000001
 40
0.0
 40
0.0
 40
0.0
 40
0.0
 40
0.1293154793
 40
0.1935116852
 40
0.257216253
 40
0.3201776334
 40
0.3819541346
 40
0.4122347892
 40
0.4419789807
 40
0.4711760626
 40
0.4999990206
 40
0.5288219023
 40
0.5580192298
 40
0.587763659
 40
0.6180444095
 40
0.6798210242
 40
0.7427829973
 40
0.8064878662
 40
0.8706842581
 40
1.0
 40
1.0
 40
1.0
 40
1.0
 10
104.1635527871
 20
212.2474112728
 30
0.0
 10
104.3859519747
 20
212.3408737749
 30
0.0
 10
104.7155278824
 20
212.4890636249
 30
0.0
 10
105.140288898
 20
212.7126007732
 30
0.0
 10
105.4457980708
 20
212.8960368313
 30
0.0
 10
105.7320910254
 20
213.1007311118
 30
0.0
 10
105.9463059007
 20
213.2971855767
 30
0.0
 10
106.0883130894
 20
213.4752386949
 30
0.0
 10
106.1734295245
 20
213.6190882515
 30
0.0
 10
106.2302413951
 20
213.773877649
 30
0.0
 10
106.2505051964
 20
213.9362345228
 30
0.0
 10
106.2302102376
 20
214.0985876133
 30
0.0
 10
106.1733746478
 20
214.2533686477
 30
0.0
 10
106.0882401024
 20
214.3972085019
 30
0.0
 10
105.9462156636
 20
214.5752484921
 30
0.0
 10
105.7319914859
 20
214.7716941413
 30
0.0
 10
105.4456876011
 20
214.9763764936
 30
0.0
 10
105.1401728412
 20
215.1598067687
 30
0.0
 10
104.7154065808
 20
215.3833369694
 30
0.0
 10
104.3858287267
 20
215.531524376
 30
0.0
 10
104.1634279021
 20
215.6249842474
 30
0.0
  0
SPLINE
  5
2AE
100
AcDbEntity
  8
0
100
AcDbSpline
 62
7
  6
CONTINUOUS
 70
0
 71
3
 72
25
 73
21
 74
0
 42
0.0000001
 43
0.0000001
 44
0.0000000001
 40
0.0
 40
0.0
 40
0.0
 40
0.0
 40
0.1293154793
 40
0.1935116852
 40
0.257216253
 40
0.3201776334
 40
0.3819541346
 40
0.4122347892
 40
0.4419789807
 40
0.4711760626
 40
0.4999990206
 40
0.5288219023
 40
0.5580192298
 40
0.587763659
 40
0.6180444095
 40
0.6798210242
 40
0.7427829973
 40
0.8064878662
 40
0.8706842581
 40
1.0
 40
1.0
 40
1.0
 40
1.0
 10
104.1635527871
 20
193.7474112728
 30
0.0
 10
104.3859519747
 20
193.8408737749
 30
0.0
 10
104.7155278824
 20
193.9890636249
 30
0.0
 10
105.140288898
 20
194.2126007732
 30
0.0
 10
105.4457980708
 20
194.3960368313
 30
0.0
 10
105.7320910254
 20
194.6007311118
 30
0.0
 10
105.9463059007
 20
194.7971855767
 30
0.0
 10
106.0883130894
 20
194.9752386949
 30
0.0
 10
106.1734295245
 20
195.1190882515
 30
0.0
 10
106.2302413951
 20
195.273877649
 30
0.0
 10
106.2505051964
 20
195.4362345228
 30
0.0
 10
106.2302102376
 20
195.5985876133
 30
0.0
 10
106.1733746478
 20
195.7533686477
 30
0.0
 10
106.0882401024
 20
195.8972085019
 30
0.0
 10
105.9462156636
 20
196.0752484921
 30
0.0
 10
105.7319914859
 20
196.2716941413
 30
0.0
 10
105.4456876011
 20
196.4763764936
 30
0.0
 10
105.1401728412
 20
196.6598067687
 30
0.0
 10
104.7154065808
 20
196.8833369694
 30
0.0
 10
104.3858287267
 20
197.031524376
 30
0.0
 10
104.1634279021
 20
197.1249842474
 30
0.0
  0
SPLINE
  5
2AF
100
AcDbEntity
  8
0
100
AcDbSpline
 62
7
  6
CONTINUOUS
 70
0
 71
3
 72
25
 73
21
 74
0
 42
0.0000001
 43
0.0000001
 44
0.0000000001
 40
0.0
 40
0.0
 40
0.0
 40
0.0
 40
0.1293154793
 40
0.1935116852
 40
0.257216253
 40
0.3201776334
 40
0.3819541346
 40
0.4122347892
 40
0.4419789807
 40
0.4711760626
 40
0.4999990206
 40
0.5288219023
 40
0.5580192298
 40
0.587763659
 40
0.6180444095
 40
0.6798210242
 40
0.7427829973
 40
0.8064878662
 40
0.8706842581
 40
1.0
 40
1.0
 40
1.0
 40
1.0
 10
104.1635527871
 20
207.2474112728
 30
0.0
 10
104.3859519747
 20
207.3408737749
 30
0.0
 10
104.7155278824
 20
207.4890636249
 30
0.0
 10
105.140288898
 20
207.7126007732
 30
0.0
 10
105.4457980708
 20
207.8960368313
 30
0.0
 10
105.7320910254
 20
208.1007311118
 30
0.0
 10
105.9463059007
 20
208.2971855767
 30
0.0
 10
106.0883130894
 20
208.4752386949
 30
0.0
 10
106.1734295245
 20
208.6190882515
 30
0.0
 10
106.2302413951
 20
208.773877649
 30
0.0
 10
106.2505051964
 20
208.9362345228
 30
0.0
 10
106.2302102376
 20
209.0985876133
 30
0.0
 10
106.1733746478
 20
209.2533686477
 30
0.0
 10
106.0882401024
 20
209.3972085019
 30
0.0
 10
105.9462156636
 20
209.5752484921
 30
0.0
 10
105.7319914859
 20
209.7716941413
 30
0.0
 10
105.4456876011
 20
209.9763764936
 30
0.0
 10
105.1401728412
 20
210.1598067687
 30
0.0
 10
104.7154065808
 20
210.3833369694
 30
0.0
 10
104.3858287267
 20
210.531524376
 30
0.0
 10
104.1634279021
 20
210.6249842474
 30
0.0
  0
SPLINE
  5
2B0
100
AcDbEntity
  8
0
100
AcDbSpline
 62
7
  6
CONTINUOUS
 70
0
 71
3
 72
25
 73
21
 74
0
 42
0.0000001
 43
0.0000001
 44
0.0000000001
 40
0.0
 40
0.0
 40
0.0
 40
0.0
 40
0.1293154793
 40
0.1935116852
 40
0.257216253
 40
0.3201776334
 40
0.3819541346
 40
0.4122347892
 40
0.4419789807
 40
0.4711760626
 40
0.4999990206
 40
0.5288219023
 40
0.5580192298
 40
0.587763659
 40
0.6180444095
 40
0.6798210242
 40
0.7427829973
 40
0.8064878662
 40
0.8706842581
 40
1.0
 40
1.0
 40
1.0
 40
1.0
 10
104.1635527871
 20
198.7474112728
 30
0.0
 10
104.3859519747
 20
198.8408737749
 30
0.0
 10
104.7155278824
 20
198.9890636249
 30
0.0
 10
105.140288898
 20
199.2126007732
 30
0.0
 10
105.4457980708
 20
199.3960368313
 30
0.0
 10
105.7320910254
 20
199.6007311118
 30
0.0
 10
105.9463059007
 20
199.7971855767
 30
0.0
 10
106.0883130894
 20
199.9752386949
 30
0.0
 10
106.1734295245
 20
200.1190882515
 30
0.0
 10
106.2302413951
 20
200.273877649
 30
0.0
 10
106.2505051964
 20
200.4362345228
 30
0.0
 10
106.2302102376
 20
200.5985876133
 30
0.0
 10
106.1733746478
 20
200.7533686477
 30
0.0
 10
106.0882401024
 20
200.8972085019
 30
0.0
 10
105.9462156636
 20
201.0752484921
 30
0.0
 10
105.7319914859
 20
201.2716941413
 30
0.0
 10
105.4456876011
 20
201.4763764936
 30
0.0
 10
105.1401728412
 20
201.6598067687
 30
0.0
 10
104.7154065808
 20
201.8833369694
 30
0.0
 10
104.3858287267
 20
202.031524376
 30
0.0
 10
104.1634279021
 20
202.1249842474
 30
0.0
  0
SPLINE
  5
2B1
100
AcDbEntity
  8
0
100
AcDbSpline
 62
7
  6
CONTINUOUS
 70
0
 71
3
 72
25
 73
21
 74
0
 42
0.0000001
 43
0.0000001
 44
0.0000000001
 40
0.0
 40
0.0
 40
0.0
 40
0.0
 40
0.1293154637
 40
0.1935116611
 40
0.257216218
 40
0.3201775838
 40
0.381954097
 40
0.412234765
 40
0.441978977
 40
0.4711760707
 40
0.4999990449
 40
0.5288219317
 40
0.5580192705
 40
0.587763715
 40
0.6180444701
 40
0.6798210904
 40
0.7427830411
 40
0.8064878959
 40
0.8706842769
 40
1.0
 40
1.0
 40
1.0
 40
1.0
 10
83.7228355077
 20
167.3342117958
 30
0.0
 10
83.8162979504
 20
167.1118128887
 30
0.0
 10
83.9644876566
 20
166.7822373806
 30
0.0
 10
84.1880246077
 20
166.3574769039
 30
0.0
 10
84.3714604714
 20
166.0519681207
 30
0.0
 10
84.5761546198
 20
165.7656755614
 30
0.0
 10
84.7726088185
 20
165.5514608316
 30
0.0
 10
84.9506618073
 20
165.4094537223
 30
0.0
 10
85.0945112651
 20
165.3243373027
 30
0.0
 10
85.2493005471
 20
165.2675253625
 30
0.0
 10
85.4116572933
 20
165.2472614497
 30
0.0
 10
85.5740102984
 20
165.2675562107
 30
0.0
 10
85.7287912689
 20
165.3243916509
 30
0.0
 10
85.8726311124
 20
165.4095259801
 30
0.0
 10
86.0506710807
 20
165.5515501505
 30
0.0
 10
86.2471165337
 20
165.7657740666
 30
0.0
 10
86.4517988795
 20
166.052077426
 30
0.0
 10
86.6352290069
 20
166.3575917421
 30
0.0
 10
86.8587590837
 20
166.7823574058
 30
0.0
 10
87.0069463776
 20
167.1119348358
 30
0.0
 10
87.1004062143
 20
167.3343353629
 30
0.0
  0
SPLINE
  5
2B2
100
AcDbEntity
  8
0
100
AcDbSpline
 62
7
  6
CONTINUOUS
 70
0
 71
3
 72
25
 73
21
 74
0
 42
0.0000001
 43
0.0000001
 44
0.0000000001
 40
0.0
 40
0.0
 40
0.0
 40
0.0
 40
0.1293154637
 40
0.1935116611
 40
0.257216218
 40
0.3201775838
 40
0.381954097
 40
0.412234765
 40
0.441978977
 40
0.4711760707
 40
0.4999990449
 40
0.5288219317
 40
0.5580192705
 40
0.587763715
 40
0.6180444701
 40
0.6798210904
 40
0.7427830411
 40
0.8064878959
 40
0.8706842769
 40
1.0
 40
1.0
 40
1.0
 40
1.0
 10
65.2228355077
 20
167.3342117958
 30
0.0
 10
65.3162979504
 20
167.1118128887
 30
0.0
 10
65.4644876566
 20
166.7822373806
 30
0.0
 10
65.6880246077
 20
166.3574769039
 30
0.0
 10
65.8714604714
 20
166.0519681207
 30
0.0
 10
66.0761546198
 20
165.7656755614
 30
0.0
 10
66.2726088185
 20
165.5514608316
 30
0.0
 10
66.4506618073
 20
165.4094537223
 30
0.0
 10
66.5945112651
 20
165.3243373027
 30
0.0
 10
66.7493005471
 20
165.2675253625
 30
0.0
 10
66.9116572933
 20
165.2472614497
 30
0.0
 10
67.0740102984
 20
165.2675562107
 30
0.0
 10
67.2287912689
 20
165.3243916509
 30
0.0
 10
67.3726311124
 20
165.4095259801
 30
0.0
 10
67.5506710807
 20
165.5515501505
 30
0.0
 10
67.7471165337
 20
165.7657740666
 30
0.0
 10
67.9517988795
 20
166.052077426
 30
0.0
 10
68.1352290069
 20
166.3575917421
 30
0.0
 10
68.3587590837
 20
166.7823574058
 30
0.0
 10
68.5069463776
 20
167.1119348358
 30
0.0
 10
68.6004062143
 20
167.3343353629
 30
0.0
  0
SPLINE
  5
2B3
100
AcDbEntity
  8
0
100
AcDbSpline
 62
7
  6
CONTINUOUS
 70
0
 71
3
 72
25
 73
21
 74
0
 42
0.0000001
 43
0.0000001
 44
0.0000000001
 40
0.0
 40
0.0
 40
0.0
 40
0.0
 40
0.1293154637
 40
0.1935116611
 40
0.257216218
 40
0.3201775838
 40
0.381954097
 40
0.412234765
 40
0.441978977
 40
0.4711760707
 40
0.4999990449
 40
0.5288219317
 40
0.5580192705
 40
0.587763715
 40
0.6180444701
 40
0.6798210904
 40
0.7427830411
 40
0.8064878959
 40
0.8706842769
 40
1.0
 40
1.0
 40
1.0
 40
1.0
 10
78.7228355077
 20
167.3342117958
 30
0.0
 10
78.8162979504
 20
167.1118128887
 30
0.0
 10
78.9644876566
 20
166.7822373806
 30
0.0
 10
79.1880246077
 20
166.3574769039
 30
0.0
 10
79.3714604714
 20
166.0519681207
 30
0.0
 10
79.5761546198
 20
165.7656755614
 30
0.0
 10
79.7726088185
 20
165.5514608316
 30
0.0
 10
79.9506618073
 20
165.4094537223
 30
0.0
 10
80.0945112651
 20
165.3243373027
 30
0.0
 10
80.2493005471
 20
165.2675253625
 30
0.0
 10
80.4116572933
 20
165.2472614497
 30
0.0
 10
80.5740102984
 20
165.2675562107
 30
0.0
 10
80.7287912689
 20
165.3243916509
 30
0.0
 10
80.8726311124
 20
165.4095259801
 30
0.0
 10
81.0506710807
 20
165.5515501505
 30
0.0
 10
81.2471165337
 20
165.7657740666
 30
0.0
 10
81.4517988795
 20
166.052077426
 30
0.0
 10
81.6352290069
 20
166.3575917421
 30
0.0
 10
81.8587590837
 20
166.7823574058
 30
0.0
 10
82.0069463776
 20
167.1119348358
 30
0.0
 10
82.1004062143
 20
167.3343353629
 30
0.0
  0
SPLINE
  5
2B4
100
AcDbEntity
  8
0
100
AcDbSpline
 62
7
  6
CONTINUOUS
 70
0
 71
3
 72
25
 73
21
 74
0
 42
0.0000001
 43
0.0000001
 44
0.0000000001
 40
0.0
 40
0.0
 40
0.0
 40
0.0
 40
0.1293154637
 40
0.1935116611
 40
0.257216218
 40
0.3201775838
 40
0.381954097
 40
0.412234765
 40
0.441978977
 40
0.4711760707
 40
0.4999990449
 40
0.5288219317
 40
0.5580192705
 40
0.587763715
 40
0.6180444701
 40
0.6798210904
 40
0.7427830411
 40
0.8064878959
 40
0.8706842769
 40
1.0
 40
1.0
 40
1.0
 40
1.0
 10
70.2228355077
 20
167.3342117958
 30
0.0
 10
70.3162979504
 20
167.1118128887
 30
0.0
 10
70.4644876566
 20
166.7822373806
 30
0.0
 10
70.6880246077
 20
166.3574769039
 30
0.0
 10
70.8714604714
 20
166.0519681207
 30
0.0
 10
71.0761546198
 20
165.7656755614
 30
0.0
 10
71.2726088185
 20
165.5514608316
 30
0.0
 10
71.4506618073
 20
165.4094537223
 30
0.0
 10
71.5945112651
 20
165.3243373027
 30
0.0
 10
71.7493005471
 20
165.2675253625
 30
0.0
 10
71.9116572933
 20
165.2472614497
 30
0.0
 10
72.0740102984
 20
165.2675562107
 30
0.0
 10
72.2287912689
 20
165.3243916509
 30
0.0
 10
72.3726311124
 20
165.4095259801
 30
0.0
 10
72.5506710807
 20
165.5515501505
 30
0.0
 10
72.7471165337
 20
165.7657740666
 30
0.0
 10
72.9517988795
 20
166.052077426
 30
0.0
 10
73.1352290069
 20
166.3575917421
 30
0.0
 10
73.3587590837
 20
166.7823574058
 30
0.0
 10
73.5069463776
 20
167.1119348358
 30
0.0
 10
73.6004062143
 20
167.3343353629
 30
0.0
  0
ENDSEC
  0
SECTION
  2
OBJECTS
  0
DICTIONARY
  5
C
100
AcDbDictionary
280
0
281
1
  3
ACAD_GROUP
350
D
  3
ACAD_MLINESTYLE
350
17
  3
ACAD_LAYOUT
350
1A
  3
ACAD_PLOTSETTINGS
350
19
  3
ACAD_PLOTSTYLENAME
350
E
  0
DICTIONARY
  5
D
102
{ACAD_REACTORS
330
C
102
}
100
AcDbDictionary
280
0
281
1
  0
ACDBDICTIONARYWDFLT
  5
E
102
{ACAD_REACTORS
330
C
102
}
100
AcDbDictionary
281
1
  3
Normal
350
F
100
AcDbDictionaryWithDefault
340
F
  0
DICTIONARY
  5
17
102
{ACAD_REACTORS
330
C
102
}
100
AcDbDictionary
280
0
281
1
  3
Standard
350
18
  0
DICTIONARY
  5
19
102
{ACAD_REACTORS
330
C
102
}
100
AcDbDictionary
281
1
  0
DICTIONARY
  5
1A
102
{ACAD_REACTORS
330
C
102
}
100
AcDbDictionary
281
1
  3
Model
350
2B5
  3
Layout1
350
2B6
  0
ACDBPLACEHOLDER
  5
F
102
{ACAD_REACTORS
330
E
102
}
  0
MLINESTYLE
  5
18
102
{ACAD_REACTORS
330
17
102
}
100
AcDbMlineStyle
  2
STANDARD
 70
0
  3

 62
256
 51
90.0
 52
90.0
 71
2
 49
0.5
 62
256
  6
BYLAYER
 49
-0.5
 62
256
  6
BYLAYER
  0
LAYOUT
  5
2B5
102
{ACAD_REACTORS
330
1A
102
}
100
AcDbPlotSettings
  1

  2
none_device
  4

  6

 40
0.0
 41
0.0
 42
0.0
 43
0.0
 44
210.0
 45
297.0
 46
0.0
 47
0.0
 48
0.0
 49
0.0
140
0.0
141
0.0
142
1.0
143
1.0
 70
1024
 72
1
 73
0
 74
0
  7

 75
0
147
1.0
148
0.0
149
0.0
100
AcDbLayout
  1
Model
 70
0
 71
0
 10
0.0
 20
0.0
 11
210.0
 21
297.0
 12
0.0
 22
0.0
 32
0.0
 14
0.0
 24
0.0
 34
0.0
 15
0.0
 25
0.0
 35
0.0
146
0.0
 13
0.0
 23
0.0
 33
0.0
 16
1.0
 26
0.0
 36
0.0
 17
0.0
 27
1.0
 37
0.0
 76
0
330
210
345
0
346
0
  0
LAYOUT
  5
2B6
102
{ACAD_REACTORS
330
1A
102
}
100
AcDbPlotSettings
  1

  2
none_device
  4

  6

 40
0.0
 41
0.0
 42
0.0
 43
0.0
 44
210.0
 45
297.0
 46
0.0
 47
0.0
 48
0.0
 49
0.0
140
0.0
141
0.0
142
1.0
143
1.0
 70
0
 72
1
 73
0
 74
0
  7

 75
0
147
1.0
148
0.0
149
0.0
100
AcDbLayout
  1
Layout1
 70
0
 71
1
 10
0.0
 20
0.0
 11
210.0
 21
297.0
 12
0.0
 22
0.0
 32
0.0
 14
0.0
 24
0.0
 34
0.0
 15
0.0
 25
0.0
 35
0.0
146
0.0
 13
0.0
 23
0.0
 33
0.0
 16
1.0
 26
0.0
 36
0.0
 17
0.0
 27
1.0
 37
0.0
 76
0
330
211
345
0
346
0
  0
ENDSEC
  0
EOF
