999
DXF file: C:\Gen2D\CAD\LADN043_3D-CAD\drw0001_1.dxf
999
Pro/ENGINEER 2019471 by Parametric Technology Corporation
  0
SECTION
  2
HEADER
  9
$ACADVER
  1
AC1024
  9
$DWGCODEPAGE
  3
ANSI_1252
  9
$EXTMAX
 10
72.9209755431
 20
103.1310939824
 30
0.0
  9
$EXTMIN
 10
0.0
 20
0.0
 30
0.0
  9
$LIMMIN
 10
0.0
 20
0.0
  9
$LIMMAX
 10
72.9209755431
 20
103.1310939824
  9
$VIEWCTR
 10
36.4604877715
 20
51.5655469912
  9
$VIEWSIZE
 40
103.1310939824
  9
$CLAYER
  8
0
  9
$LTSCALE
 40
6.7226194596
  9
$CELTYPE
  6
BYLAYER
  9
$DIMSCALE
 40
1.0
  9
$DIMASZ
 40
0.8681068517
  9
$DIMEXO
 40
1.0
  9
$DIMDLI
 40
4.6447188994
  9
$DIMEXE
 40
1.0
  9
$DIMCEN
 40
1.1000650025
  9
$DIMLFAC
 40
1.0
  9
$DIMBLK
  1
_FILLED
  9
$DIMALT
 70
0
  9
$DIMALTF
 40
0.0393700787
  9
$DIMTXT
 40
1.2153495924
  9
$DIMTOL
 70
1
  9
$DIMLIM
 70
0
  9
$DIMTFAC
 40
1.0
  9
$DIMTP
 40
0.01
  9
$DIMTM
 40
0.01
  9
$DIMGAP
 40
0.625
  9
$DIMDSEP
 70
46
  9
$AUNITS
 70
0
  9
$PDMODE
 70
3
  9
$PDSIZE
 40
0.3125
  9
$HANDSEED
  5
3CD
  9
$TILEMODE
 70
1
  9
$MEASUREMENT
 70
1
  9
$INSUNITS
 70
4
  0
ENDSEC
  0
SECTION
  2
CLASSES
  0
CLASS
  1
ACDBDICTIONARYWDFLT
  2
AcDbDictionaryWithDefault
  3
AutoCAD 2000
 90
0
 91
1
280
0
281
0
  0
CLASS
  1
ACDBPLACEHOLDER
  2
AcDbPlaceHolder
  3
AutoCAD 2000
 90
0
 91
1
280
0
281
0
  0
CLASS
  1
LAYOUT
  2
AcDbLayout
  3
AutoCAD 2000
 90
0
 91
0
280
0
281
0
  0
ENDSEC
  0
SECTION
  2
TABLES
  0
TABLE
  2
VPORT
  5
8
100
AcDbSymbolTable
 70
2
  0
VPORT
  5
1F4
100
AcDbSymbolTableRecord
100
AcDbViewportTableRecord
  2
*ACTIVE
 70
0
 10
0.0
 20
0.0
 11
1.0
 21
1.0
 12
36.4604877715
 22
51.5655469912
 13
0.0
 23
0.0
 14
1.0
 24
1.0
 15
0.0
 25
0.0
 16
0.0
 26
0.0
 36
1.0
 17
0.0
 27
0.0
 37
0.0
 40
103.1310939824
 41
0.7070707071
 42
50.0
 43
0.0
 44
0.0
 50
0.0
 51
0.0
 71
0
 72
100
 73
1
 74
1
 75
0
 76
0
 77
0
 78
0
  0
ENDTAB
  0
TABLE
  2
LTYPE
  5
5
100
AcDbSymbolTable
 70
6
  0
LTYPE
  5
14
100
AcDbSymbolTableRecord
100
AcDbLinetypeTableRecord
  2
BYBLOCK
 70
0
  3

 72
65
 73
0
 40
0.0
  0
LTYPE
  5
15
100
AcDbSymbolTableRecord
100
AcDbLinetypeTableRecord
  2
BYLAYER
 70
0
  3

 72
65
 73
0
 40
0.0
  0
LTYPE
  5
16
100
AcDbSymbolTableRecord
100
AcDbLinetypeTableRecord
  2
CONTINUOUS
 70
64
  3
Solid line
 72
65
 73
0
 40
0.0
  0
LTYPE
  5
1F5
100
AcDbSymbolTableRecord
100
AcDbLinetypeTableRecord
  2
CENTER
 70
64
  3
____ _ ____ _ ____ _ ____ _ ____ _ ____ _ ____
 72
65
 73
4
 40
0.6
 49
0.375
 74
0
 49
-0.075
 74
0
 49
0.075
 74
0
 49
-0.075
 74
0
  0
LTYPE
  5
1F6
100
AcDbSymbolTableRecord
100
AcDbLinetypeTableRecord
  2
HIDDEN
 70
64
  3
- - - - - - - - - - - - - - - - - - - -
 72
65
 73
2
 40
0.2
 49
0.1
 74
0
 49
-0.1
 74
0
  0
LTYPE
  5
1F7
100
AcDbSymbolTableRecord
100
AcDbLinetypeTableRecord
  2
PHANTOM
 70
64
  3
_____ _ _ _____ _ _ _____ _ _ _____
 72
65
 73
6
 40
0.8
 49
0.45
 74
0
 49
-0.05
 74
0
 49
0.1
 74
0
 49
-0.05
 74
0
 49
0.1
 74
0
 49
-0.05
 74
0
  0
LTYPE
  5
1F8
100
AcDbSymbolTableRecord
100
AcDbLinetypeTableRecord
  2
DOT
 70
64
  3
. . . . . . . . . . . . . . . . . . . .
 72
65
 73
2
 40
0.2
 49
0.1
 74
0
 49
-0.1
 74
0
  0
LTYPE
  5
1F9
100
AcDbSymbolTableRecord
100
AcDbLinetypeTableRecord
  2
DASHED
 70
64
  3
- - - - - - - - - - - - - - - - - - - -
 72
65
 73
2
 40
0.2
 49
0.1
 74
0
 49
-0.1
 74
0
  0
ENDTAB
  0
TABLE
  2
LAYER
  5
2
100
AcDbSymbolTable
 70
36
  0
LAYER
  5
10
100
AcDbSymbolTableRecord
100
AcDbLayerTableRecord
  2
0
 70
0
 62
7
  6
CONTINUOUS
370
-3
390
F
  0
LAYER
  5
1FA
100
AcDbSymbolTableRecord
100
AcDbLayerTableRecord
  2
DEFAULT_1
 70
0
 62
7
  6
CENTER
370
-3
390
F
  0
LAYER
  5
1FB
100
AcDbSymbolTableRecord
100
AcDbLayerTableRecord
  2
DEFAULT_2
 70
0
 62
8
  6
HIDDEN
370
-3
390
F
  0
LAYER
  5
1FC
100
AcDbSymbolTableRecord
100
AcDbLayerTableRecord
  2
DEFAULT_3
 70
0
 62
7
  6
PHANTOM
370
-3
390
F
  0
LAYER
  5
1FD
100
AcDbSymbolTableRecord
100
AcDbLayerTableRecord
  2
00_COMPONENTS
 70
0
 62
7
  6
CONTINUOUS
370
-3
390
F
  0
LAYER
  5
1FE
100
AcDbSymbolTableRecord
100
AcDbLayerTableRecord
  2
01_1_DEFAULT_DATUMS
 70
0
 62
7
  6
CONTINUOUS
370
-3
390
F
  0
LAYER
  5
1FF
100
AcDbSymbolTableRecord
100
AcDbLayerTableRecord
  2
01_PLANES
 70
0
 62
7
  6
CONTINUOUS
370
-3
390
F
  0
LAYER
  5
200
100
AcDbSymbolTableRecord
100
AcDbLayerTableRecord
  2
02_COORD_SYS
 70
0
 62
7
  6
CONTINUOUS
370
-3
390
F
  0
LAYER
  5
201
100
AcDbSymbolTableRecord
100
AcDbLayerTableRecord
  2
03_AXES
 70
0
 62
7
  6
CONTINUOUS
370
-3
390
F
  0
LAYER
  5
202
100
AcDbSymbolTableRecord
100
AcDbLayerTableRecord
  2
04_POINTS
 70
0
 62
7
  6
CONTINUOUS
370
-3
390
F
  0
LAYER
  5
203
100
AcDbSymbolTableRecord
100
AcDbLayerTableRecord
  2
05_CURVES
 70
0
 62
7
  6
CONTINUOUS
370
-3
390
F
  0
LAYER
  5
204
100
AcDbSymbolTableRecord
100
AcDbLayerTableRecord
  2
06_SURFS
 70
0
 62
7
  6
CONTINUOUS
370
-3
390
F
  0
LAYER
  5
205
100
AcDbSymbolTableRecord
100
AcDbLayerTableRecord
  2
07_COSMETICS
 70
0
 62
7
  6
CONTINUOUS
370
-3
390
F
  0
LAYER
  5
206
100
AcDbSymbolTableRecord
100
AcDbLayerTableRecord
  2
10_NOTES
 70
0
 62
7
  6
CONTINUOUS
370
-3
390
F
  0
LAYER
  5
207
100
AcDbSymbolTableRecord
100
AcDbLayerTableRecord
  2
11_NOTES_PUB
 70
0
 62
7
  6
CONTINUOUS
370
-3
390
F
  0
LAYER
  5
208
100
AcDbSymbolTableRecord
100
AcDbLayerTableRecord
  2
13_REF_GTOL
 70
0
 62
7
  6
CONTINUOUS
370
-3
390
F
  0
LAYER
  5
209
100
AcDbSymbolTableRecord
100
AcDbLayerTableRecord
  2
16_MISC
 70
0
 62
7
  6
CONTINUOUS
370
-3
390
F
  0
LAYER
  5
20A
100
AcDbSymbolTableRecord
100
AcDbLayerTableRecord
  2
17_NO_PRINT
 70
0
 62
7
  6
CONTINUOUS
370
-3
390
F
  0
LAYER
  5
20B
100
AcDbSymbolTableRecord
100
AcDbLayerTableRecord
  2
18_DATUM_CAMS_JOINTS
 70
0
 62
7
  6
CONTINUOUS
370
-3
390
F
  0
LAYER
  5
20C
100
AcDbSymbolTableRecord
100
AcDbLayerTableRecord
  2
19_DATUM_FUNCTIONAL
 70
0
 62
7
  6
CONTINUOUS
370
-3
390
F
  0
LAYER
  5
20D
100
AcDbSymbolTableRecord
100
AcDbLayerTableRecord
  2
20_DATUM_KINEMATIC_SCHEME
 70
0
 62
7
  6
CONTINUOUS
370
-3
390
F
  0
LAYER
  5
20E
100
AcDbSymbolTableRecord
100
AcDbLayerTableRecord
  2
INTFCLR_65
 70
0
 62
7
  6
CONTINUOUS
370
-3
390
F
  0
LAYER
  5
20F
100
AcDbSymbolTableRecord
100
AcDbLayerTableRecord
  2
INTFCLR_74
 70
0
 62
7
  6
CONTINUOUS
370
-3
390
F
  0
LAYER
  5
210
100
AcDbSymbolTableRecord
100
AcDbLayerTableRecord
  2
INTFCLR_76
 70
0
 62
7
  6
CONTINUOUS
370
-3
390
F
  0
ENDTAB
  0
TABLE
  2
STYLE
  5
3
100
AcDbSymbolTable
 70
1
  0
STYLE
  5
11
100
AcDbSymbolTableRecord
100
AcDbTextStyleTableRecord
  2
STANDARD
 70
0
 40
0.0
 41
0.8
 50
0.0
 71
0
 42
0.2
  3
txt
  4

  0
STYLE
  5
211
100
AcDbSymbolTableRecord
100
AcDbTextStyleTableRecord
  2
TEXTSTYLE_1
 70
0
 40
0.0
 41
0.8
 50
0.0
 71
0
 42
0.2
  3
gdt
  4

  0
ENDTAB
  0
TABLE
  2
VIEW
  5
6
100
AcDbSymbolTable
 70
0
  0
ENDTAB
  0
TABLE
  2
UCS
  5
7
100
AcDbSymbolTable
 70
0
  0
ENDTAB
  0
TABLE
  2
APPID
  5
9
100
AcDbSymbolTable
 70
1
  0
APPID
  5
212
100
AcDbSymbolTableRecord
100
AcDbRegAppTableRecord
  2
ACAD
 70
0
  0
ENDTAB
  0
TABLE
  2
BLOCK_RECORD
  5
1
100
AcDbSymbolTable
 70
0
  0
BLOCK_RECORD
  5
213
100
AcDbSymbolTableRecord
100
AcDbBlockTableRecord
  2
*Model_Space
  0
BLOCK_RECORD
  5
214
100
AcDbSymbolTableRecord
100
AcDbBlockTableRecord
  2
*Paper_Space
  0
BLOCK_RECORD
  5
215
100
AcDbSymbolTableRecord
100
AcDbBlockTableRecord
  2
_FILLED
  0
ENDTAB
  0
TABLE
  2
DIMSTYLE
  5
A
100
AcDbSymbolTable
 70
1
100
AcDbDimStyleTable
 71
0
  0
DIMSTYLE
105
216
100
AcDbSymbolTableRecord
100
AcDbDimStyleTableRecord
  2
STANDARD
 70
0
  3

  4

 40
1.0
 41
0.8681068517
 42
1.0
 43
0.38
 44
1.0
 45
0.0
 46
0.0
 47
0.01
 48
0.01
140
1.2153495924
141
0.09
142
0.0
143
25.4
144
1.0
145
0.0
146
1.0
147
0.625
 71
1
 72
0
 73
0
 74
0
 75
0
 76
0
 77
1
 78
8
 79
2
170
0
171
1
172
0
173
0
174
0
175
0
176
0
177
0
178
0
270
2
179
2
271
2
272
2
273
2
274
2
275
0
280
0
281
0
282
0
283
1
284
8
285
0
286
0
287
3
288
0
340
11
278
46
341
215
342
215
343
215
344
215
  0
ENDTAB
  0
ENDSEC
  0
SECTION
  2
BLOCKS
  0
BLOCK
  5
20
100
AcDbEntity
  8
0
100
AcDbBlockBegin
  2
*Model_Space
 70
0
 10
0.0
 20
0.0
 30
0.0
  3
*Model_Space
  1

  0
ENDBLK
  5
21
100
AcDbEntity
  8
0
100
AcDbBlockEnd
  0
BLOCK
  5
1C
100
AcDbEntity
  8
0
100
AcDbBlockBegin
  2
*Paper_Space
 70
0
 10
0.0
 20
0.0
 30
0.0
  3
*Paper_Space
  1

  0
ENDBLK
  5
1D
100
AcDbEntity
  8
0
100
AcDbBlockEnd
  0
BLOCK
  5
217
100
AcDbEntity
  8
0
100
AcDbBlockBegin
  2
_FILLED
 70
64
 10
0.0
 20
0.0
  3
_FILLED
  1

  0
SOLID
  5
218
100
AcDbEntity
  8
0
  6
BYBLOCK
 62
0
100
AcDbTrace
 10
0.0
 20
0.0
 11
-1.0
 21
0.25
 12
-1.0
 22
-0.25
 13
-1.0
 23
-0.25
  0
ENDBLK
  5
219
100
AcDbEntity
  8
0
  6
BYBLOCK
 62
0
100
AcDbBlockEnd
  0
ENDSEC
  0
SECTION
  2
ENTITIES
  0
LINE
  5
21A
100
AcDbEntity
  8
0
100
AcDbLine
 62
7
  6
CONTINUOUS
 10
29.1071041854
 20
85.6768209441
 11
8.8132240573
 21
73.960213728
  0
LINE
  5
21B
100
AcDbEntity
  8
INTFCLR_74
100
AcDbLine
 62
7
420
48875
  6
CONTINUOUS
 10
8.8132240574
 20
73.960213728
 11
29.1071041854
 21
85.6768209442
  0
LINE
  5
21C
100
AcDbEntity
  8
0
100
AcDbLine
 62
7
  6
CONTINUOUS
 10
23.6977695458
 20
81.2065530682
 11
30.2738352319
 21
85.0032236992
  0
LINE
  5
21D
100
AcDbEntity
  8
0
100
AcDbLine
 62
7
  6
CONTINUOUS
 10
10.9275002314
 20
71.4086749387
 11
10.0506690203
 21
70.9024392248
  0
LINE
  5
21E
100
AcDbEntity
  8
0
100
AcDbLine
 62
7
  6
CONTINUOUS
 10
8.4596721387
 20
73.3478404425
 11
8.4596721387
 21
35.7887292546
  0
LINE
  5
21F
100
AcDbEntity
  8
INTFCLR_74
100
AcDbLine
 62
7
420
48875
  6
CONTINUOUS
 10
8.4596721387
 20
35.7887292546
 11
8.4596721387
 21
73.3478404425
  0
LINE
  5
220
100
AcDbEntity
  8
0
100
AcDbLine
 62
7
  6
CONTINUOUS
 10
9.9799580478
 20
44.5457401545
 11
9.9799580478
 21
41.1245950267
  0
LINE
  5
221
100
AcDbEntity
  8
0
100
AcDbLine
 62
7
  6
CONTINUOUS
 10
9.9799580478
 20
62.8353942982
 11
9.9799580478
 21
66.256539426
  0
LINE
  5
222
100
AcDbEntity
  8
0
100
AcDbLine
 62
7
  6
CONTINUOUS
 10
10.0506690203
 20
39.3609508511
 11
10.0506690203
 21
36.3970470769
  0
LINE
  5
223
100
AcDbEntity
  8
0
100
AcDbLine
 62
7
  6
CONTINUOUS
 10
10.0506690203
 20
67.9385354507
 11
10.0506690203
 21
70.9024392248
  0
LINE
  5
224
100
AcDbEntity
  8
0
100
AcDbLine
 62
7
  6
CONTINUOUS
 10
34.5518037319
 20
82.6965328005
 11
30.9809390691
 21
80.6349054324
  0
LINE
  5
225
100
AcDbEntity
  8
INTFCLR_74
100
AcDbLine
 62
7
420
48875
  6
CONTINUOUS
 10
30.9809390691
 20
80.6349054324
 11
34.5518037319
 21
82.6965328005
  0
LINE
  5
226
100
AcDbEntity
  8
0
100
AcDbLine
 62
7
  6
CONTINUOUS
 10
12.5255530583
 20
69.367401887
 11
10.0506690203
 21
67.9385354507
  0
LINE
  5
227
100
AcDbEntity
  8
0
100
AcDbLine
 62
7
  6
CONTINUOUS
 10
13.8266501045
 20
69.7348878452
 11
12.9498188934
 21
69.2286521313
  0
LINE
  5
228
100
AcDbEntity
  8
0
100
AcDbLine
 62
7
  6
CONTINUOUS
 10
29.0011841287
 20
78.1446944996
 11
30.9809390691
 21
79.2876997246
  0
LINE
  5
229
100
AcDbEntity
  8
0
100
AcDbLine
 62
7
  6
CONTINUOUS
 10
39.6053452331
 20
17.6380670572
 11
8.5632282991
 21
35.5598361807
  0
LINE
  5
22A
100
AcDbEntity
  8
0
100
AcDbLine
 62
7
  6
CONTINUOUS
 10
8.4596721387
 20
35.7887292546
 11
39.5017890727
 21
17.8669601311
  0
LINE
  5
22B
100
AcDbEntity
  8
0
100
AcDbLine
 62
7
  6
CONTINUOUS
 10
10.8992006905
 20
34.8946951743
 11
11.6770213882
 21
34.4456303443
  0
LINE
  5
22C
100
AcDbEntity
  8
0
100
AcDbLine
 62
7
  6
CONTINUOUS
 10
13.7983505636
 20
33.2209080807
 11
14.5761712613
 21
32.7718432508
  0
LINE
  5
22D
100
AcDbEntity
  8
0
100
AcDbLine
 62
7
  6
CONTINUOUS
 10
18.3945637771
 20
30.5673431764
 11
19.1723844747
 21
30.1182783464
  0
LINE
  5
22E
100
AcDbEntity
  8
0
100
AcDbLine
 62
7
  6
CONTINUOUS
 10
21.2937136502
 20
28.8935560828
 11
22.0715343478
 21
28.4444912529
  0
LINE
  5
22F
100
AcDbEntity
  8
0
100
AcDbLine
 62
7
  6
CONTINUOUS
 10
25.8899268636
 20
26.2399911784
 11
26.6677475613
 21
25.7909263485
  0
LINE
  5
230
100
AcDbEntity
  8
0
100
AcDbLine
 62
7
  6
CONTINUOUS
 10
28.7890767367
 20
24.5662040849
 11
29.5668974344
 21
24.1171392549
  0
LINE
  5
231
100
AcDbEntity
  8
0
100
AcDbLine
 62
7
  6
CONTINUOUS
 10
33.3852899502
 20
21.9126391805
 11
34.1631106478
 21
21.4635743506
  0
LINE
  5
232
100
AcDbEntity
  8
0
100
AcDbLine
 62
7
  6
CONTINUOUS
 10
36.2844398233
 20
20.238852087
 11
37.0622605209
 21
19.789787257
  0
LINE
  5
233
100
AcDbEntity
  8
0
100
AcDbLine
 62
7
  6
CONTINUOUS
 10
12.5255530583
 20
69.473596584
 11
12.5255530583
 21
66.5096928098
  0
LINE
  5
234
100
AcDbEntity
  8
0
100
AcDbLine
 62
7
  6
CONTINUOUS
 10
12.5255530583
 20
64.7868727097
 11
12.5255530583
 21
61.3657275819
  0
LINE
  5
235
100
AcDbEntity
  8
0
100
AcDbLine
 62
7
  6
CONTINUOUS
 10
12.5255530583
 20
34.9682044361
 11
12.5255530583
 21
37.9321082103
  0
LINE
  5
236
100
AcDbEntity
  8
0
100
AcDbLine
 62
7
  6
CONTINUOUS
 10
12.5255530583
 20
39.6549283104
 11
12.5255530583
 21
43.0760734382
  0
LINE
  5
237
100
AcDbEntity
  8
0
100
AcDbLine
 62
7
  6
CONTINUOUS
 10
12.9498188934
 20
42.8311289855
 11
12.9498188934
 21
39.4099838577
  0
LINE
  5
238
100
AcDbEntity
  8
0
100
AcDbLine
 62
7
  6
CONTINUOUS
 10
12.9498188934
 20
37.6871637576
 11
12.9498188934
 21
34.7232599834
  0
LINE
  5
239
100
AcDbEntity
  8
0
100
AcDbLine
 62
7
  6
CONTINUOUS
 10
12.9498188934
 20
61.1207831292
 11
12.9498188934
 21
64.541928257
  0
LINE
  5
23A
100
AcDbEntity
  8
0
100
AcDbLine
 62
7
  6
CONTINUOUS
 10
12.9498188934
 20
66.2647483571
 11
12.9498188934
 21
69.2286521313
  0
LINE
  5
23B
100
AcDbEntity
  8
0
100
AcDbLine
 62
7
  6
CONTINUOUS
 10
29.9203351271
 20
77.6140344284
 11
30.8749253073
 21
78.1651640361
  0
LINE
  5
23C
100
AcDbEntity
  8
0
100
AcDbLine
 62
7
  6
CONTINUOUS
 10
33.738695848
 20
79.8185528593
 11
36.4964008132
 21
81.4107050594
  0
LINE
  5
23D
100
AcDbEntity
  8
0
100
AcDbLine
 62
7
  6
CONTINUOUS
 10
32.7133952841
 20
78.4100964191
 11
33.738695848
 21
79.0020504422
  0
LINE
  5
23E
100
AcDbEntity
  8
0
100
AcDbLine
 62
7
  6
CONTINUOUS
 10
31.8294789824
 20
77.6547319474
 11
31.7942595943
 21
77.6343981456
  0
LINE
  5
23F
100
AcDbEntity
  8
0
100
AcDbLine
 62
7
  6
CONTINUOUS
 10
31.9709576005
 20
77.532383812
 11
33.1023056329
 21
78.1855640041
  0
LINE
  5
240
100
AcDbEntity
  8
0
100
AcDbLine
 62
7
  6
CONTINUOUS
 10
31.1931326324
 20
76.8792010703
 11
32.1477228126
 21
77.430330678
  0
LINE
  5
241
100
AcDbEntity
  8
0
100
AcDbLine
 62
7
  6
CONTINUOUS
 10
35.0114933533
 20
79.0837195012
 11
37.7691983184
 21
80.6758717013
  0
LINE
  5
242
100
AcDbEntity
  8
0
100
AcDbLine
 62
7
  6
CONTINUOUS
 10
15.4247029314
 20
67.6936147935
 11
12.9498188934
 21
66.2647483571
  0
LINE
  5
243
100
AcDbEntity
  8
0
100
AcDbLine
 62
7
  6
CONTINUOUS
 10
32.1477228126
 20
76.6138282609
 11
35.0114933533
 21
78.267217084
  0
LINE
  5
244
100
AcDbEntity
  8
0
100
AcDbLine
 62
7
  6
CONTINUOUS
 10
37.9107921911
 20
23.276265123
 11
35.4359081531
 21
24.7051077638
  0
LINE
  5
245
100
AcDbEntity
  8
0
100
AcDbLine
 62
7
  6
CONTINUOUS
 10
35.011642318
 20
24.9500522166
 11
32.53675828
 21
26.3788948574
  0
LINE
  5
246
100
AcDbEntity
  8
0
100
AcDbLine
 62
7
  6
CONTINUOUS
 10
30.4154291046
 20
27.6036171209
 11
27.9405450665
 21
29.0324597618
  0
LINE
  5
247
100
AcDbEntity
  8
0
100
AcDbLine
 62
7
  6
CONTINUOUS
 10
27.5162792315
 20
29.2774042145
 11
25.0413951934
 21
30.7062468553
  0
LINE
  5
248
100
AcDbEntity
  8
0
100
AcDbLine
 62
7
  6
CONTINUOUS
 10
22.920066018
 20
31.9309691189
 11
20.44518198
 21
33.3598117597
  0
LINE
  5
249
100
AcDbEntity
  8
0
100
AcDbLine
 62
7
  6
CONTINUOUS
 10
20.0209161449
 20
33.6047562124
 11
17.5460321069
 21
35.0335988532
  0
LINE
  5
24A
100
AcDbEntity
  8
0
100
AcDbLine
 62
7
  6
CONTINUOUS
 10
15.4247029314
 20
36.2583211168
 11
12.9498188934
 21
37.6871637576
  0
LINE
  5
24B
100
AcDbEntity
  8
0
100
AcDbLine
 62
7
  6
CONTINUOUS
 10
12.5255530583
 20
37.9321082103
 11
10.0506690203
 21
39.3609508511
  0
LINE
  5
24C
100
AcDbEntity
  8
0
100
AcDbLine
 62
7
  6
CONTINUOUS
 10
15.4247029314
 20
67.7998094905
 11
15.4247029314
 21
64.8359057163
  0
LINE
  5
24D
100
AcDbEntity
  8
0
100
AcDbLine
 62
7
  6
CONTINUOUS
 10
15.4247029314
 20
33.2944173426
 11
15.4247029314
 21
36.2583211168
  0
LINE
  5
24E
100
AcDbEntity
  8
0
100
AcDbLine
 62
7
  6
CONTINUOUS
 10
15.495413904
 20
63.0722615407
 11
15.495413904
 21
59.6511164129
  0
LINE
  5
24F
100
AcDbEntity
  8
0
100
AcDbLine
 62
7
  6
CONTINUOUS
 10
15.495413904
 20
37.9403171415
 11
15.495413904
 21
41.3614622692
  0
LINE
  5
250
100
AcDbEntity
  8
0
100
AcDbLine
 62
7
  6
CONTINUOUS
 10
16.3439561724
 20
45.4031932946
 11
16.3439561724
 21
51.6902619065
  0
LINE
  5
251
100
AcDbEntity
  8
0
100
AcDbLine
 62
7
  6
CONTINUOUS
 10
12.5255530583
 20
64.3050854899
 11
9.9799580478
 21
62.8353942982
  0
LINE
  5
252
100
AcDbEntity
  8
0
100
AcDbLine
 62
7
  6
CONTINUOUS
 10
18.4228633179
 20
67.0813229408
 11
17.5460321069
 21
66.5750872269
  0
LINE
  5
253
100
AcDbEntity
  8
0
100
AcDbLine
 62
7
  6
CONTINUOUS
 10
9.9799580478
 20
41.1245950267
 11
12.5255530583
 21
39.6549283104
  0
LINE
  5
254
100
AcDbEntity
  8
0
100
AcDbLine
 62
7
  6
CONTINUOUS
 10
12.9498188934
 20
39.4099838577
 11
15.495413904
 21
37.9403171415
  0
LINE
  5
255
100
AcDbEntity
  8
0
100
AcDbLine
 62
7
  6
CONTINUOUS
 10
17.4753211344
 20
36.7972430288
 11
20.0209161449
 21
35.3275763125
  0
LINE
  5
256
100
AcDbEntity
  8
0
100
AcDbLine
 62
7
  6
CONTINUOUS
 10
20.44518198
 20
35.0826318598
 11
22.9907769905
 21
33.6129651435
  0
LINE
  5
257
100
AcDbEntity
  8
0
100
AcDbLine
 62
7
  6
CONTINUOUS
 10
24.9706842209
 20
32.4698910309
 11
27.5162792315
 21
31.0002243146
  0
LINE
  5
258
100
AcDbEntity
  8
0
100
AcDbLine
 62
7
  6
CONTINUOUS
 10
27.9405450665
 20
30.7552798619
 11
30.4861400771
 21
29.2856131456
  0
LINE
  5
259
100
AcDbEntity
  8
0
100
AcDbLine
 62
7
  6
CONTINUOUS
 10
32.4660473075
 20
28.142539033
 11
35.011642318
 21
26.6728723167
  0
LINE
  5
25A
100
AcDbEntity
  8
0
100
AcDbLine
 62
7
  6
CONTINUOUS
 10
35.4359081531
 20
26.427927864
 11
37.9815031636
 21
24.9582611477
  0
LINE
  5
25B
100
AcDbEntity
  8
0
100
AcDbLine
 62
7
  6
CONTINUOUS
 10
17.4399656481
 20
51.9964517274
 11
17.4399656481
 21
52.7312871764
  0
LINE
  5
25C
100
AcDbEntity
  8
0
100
AcDbLine
 62
7
  6
CONTINUOUS
 10
17.4753211344
 20
40.2183881566
 11
17.4753211344
 21
36.7972430288
  0
LINE
  5
25D
100
AcDbEntity
  8
0
100
AcDbLine
 62
7
  6
CONTINUOUS
 10
17.4753211344
 20
58.5080423003
 11
17.4753211344
 21
61.929187428
  0
LINE
  5
25E
100
AcDbEntity
  8
0
100
AcDbLine
 62
7
  6
CONTINUOUS
 10
17.5460321069
 20
35.0335988532
 11
17.5460321069
 21
32.069695079
  0
LINE
  5
25F
100
AcDbEntity
  8
0
100
AcDbLine
 62
7
  6
CONTINUOUS
 10
17.5460321069
 20
63.6111834527
 11
17.5460321069
 21
66.5750872269
  0
LINE
  5
260
100
AcDbEntity
  8
0
100
AcDbLine
 62
7
  6
CONTINUOUS
 10
17.7935175667
 20
51.7923330498
 11
17.7935175667
 21
52.5271684988
  0
LINE
  5
261
100
AcDbEntity
  8
0
100
AcDbLine
 62
7
  6
CONTINUOUS
 10
16.3439561724
 20
51.6902619065
 11
16.3750245939
 21
51.7589269797
  0
LINE
  5
262
100
AcDbEntity
  8
0
100
AcDbLine
 62
7
  6
CONTINUOUS
 10
15.495413904
 20
62.5904743209
 11
12.9498188934
 21
61.1207831292
  0
LINE
  5
263
100
AcDbEntity
  8
0
100
AcDbLine
 62
7
  6
CONTINUOUS
 10
20.0209161449
 20
65.0400498891
 11
17.5460321069
 21
63.6111834527
  0
LINE
  5
264
100
AcDbEntity
  8
0
100
AcDbLine
 62
7
  6
CONTINUOUS
 10
21.322013191
 20
65.4075358473
 11
20.44518198
 21
64.9013001334
  0
LINE
  5
265
100
AcDbEntity
  8
0
100
AcDbLine
 62
7
  6
CONTINUOUS
 10
37.0620944812
 20
74.1438594189
 11
38.4763021557
 21
74.9603477267
  0
LINE
  5
266
100
AcDbEntity
  8
0
100
AcDbLine
 62
7
  6
CONTINUOUS
 10
37.4156982136
 20
73.2866824305
 11
38.3702883939
 21
73.8378120382
  0
LINE
  5
267
100
AcDbEntity
  8
0
100
AcDbLine
 62
7
  6
CONTINUOUS
 10
41.2340589346
 20
75.4912008614
 11
41.87551625
 21
75.8615442045
  0
LINE
  5
268
100
AcDbEntity
  8
0
100
AcDbLine
 62
7
  6
CONTINUOUS
 10
47.4212142719
 20
78.6142512485
 11
46.2191377486
 21
77.920236187
  0
LINE
  5
269
100
AcDbEntity
  8
0
100
AcDbLine
 62
7
  6
CONTINUOUS
 10
47.7040558067
 20
78.588985754
 11
47.5845170898
 21
78.5199704555
  0
LINE
  5
26A
100
AcDbEntity
  8
0
100
AcDbLine
 62
7
  6
CONTINUOUS
 10
39.0774103383
 20
73.4295642291
 11
41.2340589346
 21
74.6746984443
  0
LINE
  5
26B
100
AcDbEntity
  8
0
100
AcDbLine
 62
7
  6
CONTINUOUS
 10
47.9868973416
 20
78.5637202594
 11
47.8673586247
 21
78.494704961
  0
LINE
  5
26C
100
AcDbEntity
  8
0
100
AcDbLine
 62
7
  6
CONTINUOUS
 10
48.2697388765
 20
78.5384547648
 11
48.1502001596
 21
78.4694394664
  0
LINE
  5
26D
100
AcDbEntity
  8
0
100
AcDbLine
 62
7
  6
CONTINUOUS
 10
42.794850537
 20
75.3307783139
 11
45.0523831504
 21
76.6341575959
  0
LINE
  5
26E
100
AcDbEntity
  8
0
100
AcDbLine
 62
7
  6
CONTINUOUS
 10
37.9815031636
 20
28.3794062755
 11
35.4359081531
 21
29.8490729918
  0
LINE
  5
26F
100
AcDbEntity
  8
0
100
AcDbLine
 62
7
  6
CONTINUOUS
 10
35.011642318
 20
30.0940174445
 11
32.4660473075
 21
31.5636841607
  0
LINE
  5
270
100
AcDbEntity
  8
0
100
AcDbLine
 62
7
  6
CONTINUOUS
 10
30.4861400771
 20
32.7067582734
 11
27.9405450665
 21
34.1764249897
  0
LINE
  5
271
100
AcDbEntity
  8
0
100
AcDbLine
 62
7
  6
CONTINUOUS
 10
27.5162792315
 20
34.4213694424
 11
24.9706842209
 21
35.8910361587
  0
LINE
  5
272
100
AcDbEntity
  8
0
100
AcDbLine
 62
7
  6
CONTINUOUS
 10
22.9907769905
 20
37.0341102713
 11
20.44518198
 21
38.5037769876
  0
LINE
  5
273
100
AcDbEntity
  8
0
100
AcDbLine
 62
7
  6
CONTINUOUS
 10
20.0209161449
 20
38.7487214403
 11
17.4753211344
 21
40.2183881566
  0
LINE
  5
274
100
AcDbEntity
  8
0
100
AcDbLine
 62
7
  6
CONTINUOUS
 10
15.495413904
 20
41.3614622692
 11
12.9498188934
 21
42.8311289855
  0
LINE
  5
275
100
AcDbEntity
  8
0
100
AcDbLine
 62
7
  6
CONTINUOUS
 10
12.5255530583
 20
43.0760734382
 11
9.9799580478
 21
44.5457401545
  0
LINE
  5
276
100
AcDbEntity
  8
0
100
AcDbLine
 62
7
  6
CONTINUOUS
 10
20.0209161449
 20
65.1462445861
 11
20.0209161449
 21
62.1823408119
  0
LINE
  5
277
100
AcDbEntity
  8
0
100
AcDbLine
 62
7
  6
CONTINUOUS
 10
20.0209161449
 20
60.4595207118
 11
20.0209161449
 21
57.038375584
  0
LINE
  5
278
100
AcDbEntity
  8
0
100
AcDbLine
 62
7
  6
CONTINUOUS
 10
20.0209161449
 20
30.6408524382
 11
20.0209161449
 21
33.6047562124
  0
LINE
  5
279
100
AcDbEntity
  8
0
100
AcDbLine
 62
7
  6
CONTINUOUS
 10
20.0209161449
 20
35.3275763125
 11
20.0209161449
 21
38.7487214403
  0
LINE
  5
27A
100
AcDbEntity
  8
0
100
AcDbLine
 62
7
  6
CONTINUOUS
 10
20.44518198
 20
38.5037769876
 11
20.44518198
 21
35.0826318598
  0
LINE
  5
27B
100
AcDbEntity
  8
0
100
AcDbLine
 62
7
  6
CONTINUOUS
 10
20.44518198
 20
33.3598117597
 11
20.44518198
 21
30.3959079855
  0
LINE
  5
27C
100
AcDbEntity
  8
0
100
AcDbLine
 62
7
  6
CONTINUOUS
 10
20.44518198
 20
56.7934311313
 11
20.44518198
 21
60.2145762591
  0
LINE
  5
27D
100
AcDbEntity
  8
0
100
AcDbLine
 62
7
  6
CONTINUOUS
 10
20.44518198
 20
61.9373963592
 11
20.44518198
 21
64.9013001334
  0
LINE
  5
27E
100
AcDbEntity
  8
0
100
AcDbLine
 62
7
  6
CONTINUOUS
 10
38.6884957189
 20
72.5518490724
 11
39.6430858992
 21
73.1029786801
  0
LINE
  5
27F
100
AcDbEntity
  8
0
100
AcDbLine
 62
7
  6
CONTINUOUS
 10
42.5068564399
 20
74.7563675033
 11
43.1483137553
 21
75.1267108463
  0
LINE
  5
280
100
AcDbEntity
  8
0
100
AcDbLine
 62
7
  6
CONTINUOUS
 10
22.920066018
 20
63.3662627956
 11
20.44518198
 21
61.9373963592
  0
LINE
  5
281
100
AcDbEntity
  8
0
100
AcDbLine
 62
7
  6
CONTINUOUS
 10
39.6430858992
 20
72.286476263
 11
42.5068564399
 21
73.9398650861
  0
LINE
  5
282
100
AcDbEntity
  8
0
100
AcDbLine
 62
7
  6
CONTINUOUS
 10
49.1889885847
 20
77.5936493622
 11
47.9869120615
 21
76.8996343007
  0
LINE
  5
283
100
AcDbEntity
  8
0
100
AcDbLine
 62
7
  6
CONTINUOUS
 10
49.4718301196
 20
77.5683838677
 11
49.1889885847
 21
77.4050862061
  0
LINE
  5
284
100
AcDbEntity
  8
0
100
AcDbLine
 62
7
  6
CONTINUOUS
 10
49.7546716545
 20
77.5431183731
 11
49.4718301196
 21
77.3798207115
  0
LINE
  5
285
100
AcDbEntity
  8
0
100
AcDbLine
 62
7
  6
CONTINUOUS
 10
50.0375131894
 20
77.5178528785
 11
49.7546716545
 21
77.354555217
  0
LINE
  5
286
100
AcDbEntity
  8
0
100
AcDbLine
 62
7
  6
CONTINUOUS
 10
43.7482862525
 20
73.7583717949
 11
46.2191377486
 21
75.184910056
  0
LINE
  5
287
100
AcDbEntity
  8
0
100
AcDbLine
 62
7
  6
CONTINUOUS
 10
20.0209161449
 20
59.977733492
 11
17.4753211344
 21
58.5080423003
  0
LINE
  5
288
100
AcDbEntity
  8
0
100
AcDbLine
 62
7
  6
CONTINUOUS
 10
25.9182264045
 20
62.7539709429
 11
25.0413951934
 21
62.247735229
  0
LINE
  5
289
100
AcDbEntity
  8
0
100
AcDbLine
 62
7
  6
CONTINUOUS
 10
46.2191377486
 20
74.4500832775
 11
45.3352505922
 21
73.9397738359
  0
LINE
  5
28A
100
AcDbEntity
  8
0
100
AcDbLine
 62
7
  6
CONTINUOUS
 10
44.2039056492
 20
72.5517432521
 11
45.3352505922
 21
73.2049216605
  0
LINE
  5
28B
100
AcDbEntity
  8
0
100
AcDbLine
 62
7
  6
CONTINUOUS
 10
34.7754538004
 20
36.3625889453
 11
35.7574286096
 21
36.3625913057
  0
LINE
  5
28C
100
AcDbEntity
  8
0
100
AcDbLine
 62
7
  6
CONTINUOUS
 10
29.0408628036
 20
37.98619464
 11
28.9658647663
 21
37.9936204638
  0
LINE
  5
28D
100
AcDbEntity
  8
0
100
AcDbLine
 62
7
  6
CONTINUOUS
 10
28.9658647663
 20
37.9936204638
 11
16.4500226312
 21
45.2194818189
  0
LINE
  5
28E
100
AcDbEntity
  8
0
100
AcDbLine
 62
7
  6
CONTINUOUS
 10
36.9915495484
 20
34.6256351309
 11
33.8095557853
 21
36.4627185262
  0
LINE
  5
28F
100
AcDbEntity
  8
0
100
AcDbLine
 62
7
  6
CONTINUOUS
 10
30.5214955633
 20
38.4835133973
 11
29.7790350623
 21
38.9121634701
  0
LINE
  5
290
100
AcDbEntity
  8
0
100
AcDbLine
 62
7
  6
CONTINUOUS
 10
22.920066018
 20
63.4724574926
 11
22.920066018
 21
60.5085537184
  0
LINE
  5
291
100
AcDbEntity
  8
0
100
AcDbLine
 62
7
  6
CONTINUOUS
 10
22.920066018
 20
28.9670653447
 11
22.920066018
 21
31.9309691189
  0
LINE
  5
292
100
AcDbEntity
  8
0
100
AcDbLine
 62
7
  6
CONTINUOUS
 10
22.9907769905
 20
58.7449095428
 11
22.9907769905
 21
55.323764415
  0
LINE
  5
293
100
AcDbEntity
  8
0
100
AcDbLine
 62
7
  6
CONTINUOUS
 10
22.9907769905
 20
33.6129651435
 11
22.9907769905
 21
37.0341102713
  0
LINE
  5
294
100
AcDbEntity
  8
0
100
AcDbLine
 62
7
  6
CONTINUOUS
 10
24.9706842209
 20
35.8910361587
 11
24.9706842209
 21
32.4698910309
  0
LINE
  5
295
100
AcDbEntity
  8
0
100
AcDbLine
 62
7
  6
CONTINUOUS
 10
24.9706842209
 20
54.1806903024
 11
24.9706842209
 21
57.6018354301
  0
LINE
  5
296
100
AcDbEntity
  8
0
100
AcDbLine
 62
7
  6
CONTINUOUS
 10
25.0413951934
 20
30.7062468553
 11
25.0413951934
 21
27.7423430811
  0
LINE
  5
297
100
AcDbEntity
  8
0
100
AcDbLine
 62
7
  6
CONTINUOUS
 10
25.0413951934
 20
59.2838314548
 11
25.0413951934
 21
62.247735229
  0
LINE
  5
298
100
AcDbEntity
  8
0
100
AcDbLine
 62
7
  6
CONTINUOUS
 10
22.9907769905
 20
58.263122323
 11
20.44518198
 21
56.7934311313
  0
LINE
  5
299
100
AcDbEntity
  8
0
100
AcDbLine
 62
7
  6
CONTINUOUS
 10
27.5162792315
 20
60.7126978912
 11
25.0413951934
 21
59.2838314548
  0
LINE
  5
29A
100
AcDbEntity
  8
0
100
AcDbLine
 62
7
  6
CONTINUOUS
 10
50.6739066429
 20
73.9601987912
 11
47.9869120615
 21
72.4088710065
  0
LINE
  5
29B
100
AcDbEntity
  8
0
100
AcDbLine
 62
7
  6
CONTINUOUS
 10
28.8173762776
 20
61.0801838494
 11
27.9405450665
 21
60.5739481355
  0
LINE
  5
29C
100
AcDbEntity
  8
0
100
AcDbLine
 62
7
  6
CONTINUOUS
 10
44.2039056492
 20
69.6123853441
 11
44.5574575678
 21
69.816507421
  0
LINE
  5
29D
100
AcDbEntity
  8
0
100
AcDbLine
 62
7
  6
CONTINUOUS
 10
48.8707992179
 20
71.8985700633
 11
51.5577937993
 21
73.449897848
  0
LINE
  5
29E
100
AcDbEntity
  8
0
100
AcDbLine
 62
7
  6
CONTINUOUS
 10
30.5214955633
 20
38.8917541518
 11
29.7790350623
 21
39.3204042246
  0
LINE
  5
29F
100
AcDbEntity
  8
0
100
AcDbLine
 62
7
  6
CONTINUOUS
 10
27.5162792315
 20
60.8188925882
 11
27.5162792315
 21
57.854988814
  0
LINE
  5
2A0
100
AcDbEntity
  8
0
100
AcDbLine
 62
7
  6
CONTINUOUS
 10
27.5162792315
 20
56.1321687139
 11
27.5162792315
 21
52.7110235861
  0
LINE
  5
2A1
100
AcDbEntity
  8
0
100
AcDbLine
 62
7
  6
CONTINUOUS
 10
27.5162792315
 20
26.3135004403
 11
27.5162792315
 21
29.2774042145
  0
LINE
  5
2A2
100
AcDbEntity
  8
0
100
AcDbLine
 62
7
  6
CONTINUOUS
 10
27.5162792315
 20
31.0002243146
 11
27.5162792315
 21
34.4213694424
  0
LINE
  5
2A3
100
AcDbEntity
  8
0
100
AcDbLine
 62
7
  6
CONTINUOUS
 10
27.9405450665
 20
34.1764249897
 11
27.9405450665
 21
30.7552798619
  0
LINE
  5
2A4
100
AcDbEntity
  8
0
100
AcDbLine
 62
7
  6
CONTINUOUS
 10
27.9405450665
 20
29.0324597618
 11
27.9405450665
 21
26.0685559876
  0
LINE
  5
2A5
100
AcDbEntity
  8
0
100
AcDbLine
 62
7
  6
CONTINUOUS
 10
27.9405450665
 20
52.4660791334
 11
27.9405450665
 21
55.8872242611
  0
LINE
  5
2A6
100
AcDbEntity
  8
0
100
AcDbLine
 62
7
  6
CONTINUOUS
 10
27.9405450665
 20
57.6100443613
 11
27.9405450665
 21
60.5739481355
  0
LINE
  5
2A7
100
AcDbEntity
  8
0
100
AcDbLine
 62
7
  6
CONTINUOUS
 10
44.9110613002
 20
68.9593304326
 11
45.8656514804
 21
69.5104600403
  0
LINE
  5
2A8
100
AcDbEntity
  8
0
100
AcDbLine
 62
7
  6
CONTINUOUS
 10
48.7294220212
 20
71.1638488635
 11
51.4871269863
 21
72.7560010636
  0
LINE
  5
2A9
100
AcDbEntity
  8
0
100
AcDbLine
 62
7
  6
CONTINUOUS
 10
46.6787796777
 20
69.5715670475
 11
48.7294220212
 21
70.7554988894
  0
LINE
  5
2AA
100
AcDbEntity
  8
0
100
AcDbLine
 62
7
  6
CONTINUOUS
 10
17.0821268042
 20
52.1671739516
 11
16.375022967
 21
51.7589297977
  0
LINE
  5
2AB
100
AcDbEntity
  8
0
100
AcDbLine
 62
7
  6
CONTINUOUS
 10
17.1571264684
 20
52.1597453098
 11
16.4500226312
 21
51.7515011559
  0
LINE
  5
2AC
100
AcDbEntity
  8
0
100
AcDbLine
 62
7
  6
CONTINUOUS
 10
46.5727734248
 20
69.1022122312
 11
48.7294220212
 21
70.3473464464
  0
LINE
  5
2AD
100
AcDbEntity
  8
0
100
AcDbLine
 62
7
  6
CONTINUOUS
 10
46.1838588055
 20
68.2244970744
 11
47.1384489857
 21
68.7756266822
  0
LINE
  5
2AE
100
AcDbEntity
  8
0
100
AcDbLine
 62
7
  6
CONTINUOUS
 10
50.0022195264
 20
70.4290155053
 11
52.7599244915
 21
72.0211677054
  0
LINE
  5
2AF
100
AcDbEntity
  8
0
100
AcDbLine
 62
7
  6
CONTINUOUS
 10
30.4154291046
 20
59.0389107977
 11
27.9405450665
 21
57.6100443613
  0
LINE
  5
2B0
100
AcDbEntity
  8
0
100
AcDbLine
 62
7
  6
CONTINUOUS
 10
48.5880086136
 20
69.2450914801
 11
47.1384489857
 21
68.4081928343
  0
LINE
  5
2B1
100
AcDbEntity
  8
0
100
AcDbLine
 62
7
  6
CONTINUOUS
 10
47.1384489857
 20
67.959124265
 11
47.4566457125
 21
68.1428341343
  0
LINE
  5
2B2
100
AcDbEntity
  8
0
100
AcDbLine
 62
7
  6
CONTINUOUS
 10
48.9769189625
 20
69.0205590651
 11
50.0022195264
 21
69.6125130882
  0
LINE
  5
2B3
100
AcDbEntity
  8
0
100
AcDbLine
 62
7
  6
CONTINUOUS
 10
35.3972423064
 20
42.4863585684
 11
34.7754538004
 21
42.4863570738
  0
LINE
  5
2B4
100
AcDbEntity
  8
0
100
AcDbLine
 62
7
  6
CONTINUOUS
 10
16.4500226312
 20
51.7515011559
 11
28.9658647663
 21
44.5256398009
  0
LINE
  5
2B5
100
AcDbEntity
  8
0
100
AcDbLine
 62
7
  6
CONTINUOUS
 10
17.1571264684
 20
52.1597453098
 11
29.6729686035
 21
44.9338839548
  0
LINE
  5
2B6
100
AcDbEntity
  8
0
100
AcDbLine
 62
7
  6
CONTINUOUS
 10
17.4399656481
 20
52.7312871764
 11
30.5214955633
 21
45.1788332178
  0
LINE
  5
2B7
100
AcDbEntity
  8
0
100
AcDbLine
 62
7
  6
CONTINUOUS
 10
33.8095557853
 20
43.4029890718
 11
36.9915495484
 21
41.5659056765
  0
LINE
  5
2B8
100
AcDbEntity
  8
0
100
AcDbLine
 62
7
  6
CONTINUOUS
 10
29.0719312251
 20
44.3419283251
 11
29.0719312251
 21
38.0548597132
  0
LINE
  5
2B9
100
AcDbEntity
  8
0
100
AcDbLine
 62
7
  6
CONTINUOUS
 10
29.7790350623
 20
44.750172479
 11
29.7790350623
 21
38.4631038671
  0
LINE
  5
2BA
100
AcDbEntity
  8
0
100
AcDbLine
 62
7
  6
CONTINUOUS
 10
30.4154291046
 20
59.1451054947
 11
30.4154291046
 21
56.1812017205
  0
LINE
  5
2BB
100
AcDbEntity
  8
0
100
AcDbLine
 62
7
  6
CONTINUOUS
 10
30.4154291046
 20
24.6397133468
 11
30.4154291046
 21
27.6036171209
  0
LINE
  5
2BC
100
AcDbEntity
  8
0
100
AcDbLine
 62
7
  6
CONTINUOUS
 10
30.4861400771
 20
54.4175575449
 11
30.4861400771
 21
50.9964124171
  0
LINE
  5
2BD
100
AcDbEntity
  8
0
100
AcDbLine
 62
7
  6
CONTINUOUS
 10
30.4861400771
 20
29.2856131456
 11
30.4861400771
 21
32.7067582734
  0
LINE
  5
2BE
100
AcDbEntity
  8
0
100
AcDbLine
 62
7
  6
CONTINUOUS
 10
30.5214955633
 20
45.1788332178
 11
30.5214955633
 21
38.4835133973
  0
LINE
  5
2BF
100
AcDbEntity
  8
0
100
AcDbLine
 62
7
  6
CONTINUOUS
 10
30.9809390691
 20
79.2876997246
 11
30.9809390691
 21
84.5949654359
  0
LINE
  5
2C0
100
AcDbEntity
  8
0
100
AcDbLine
 62
7
  6
CONTINUOUS
 10
27.5162792315
 20
55.6503814941
 11
24.9706842209
 21
54.1806903024
  0
LINE
  5
2C1
100
AcDbEntity
  8
0
100
AcDbLine
 62
7
  6
CONTINUOUS
 10
33.413589491
 20
58.426618945
 11
32.53675828
 21
57.9203832311
  0
LINE
  5
2C2
100
AcDbEntity
  8
0
100
AcDbLine
 62
7
  6
CONTINUOUS
 10
53.4670283288
 20
69.898192285
 11
55.0933412475
 21
70.8371388817
  0
LINE
  5
2C3
100
AcDbEntity
  8
0
100
AcDbLine
 62
7
  6
CONTINUOUS
 10
31.8294789824
 20
77.6140646824
 11
31.8294789824
 21
77.6547319474
  0
LINE
  5
2C4
100
AcDbEntity
  8
0
100
AcDbLine
 62
7
  6
CONTINUOUS
 10
32.1477228126
 20
76.6138282609
 11
32.1477228126
 21
77.430330678
  0
LINE
  5
2C5
100
AcDbEntity
  8
0
100
AcDbLine
 62
7
  6
CONTINUOUS
 10
32.4660473075
 20
31.5636841607
 11
32.4660473075
 21
28.142539033
  0
LINE
  5
2C6
100
AcDbEntity
  8
0
100
AcDbLine
 62
7
  6
CONTINUOUS
 10
32.4660473075
 20
49.8533383044
 11
32.4660473075
 21
53.2744834322
  0
LINE
  5
2C7
100
AcDbEntity
  8
0
100
AcDbLine
 62
7
  6
CONTINUOUS
 10
32.53675828
 20
26.3788948574
 11
32.53675828
 21
23.4149910832
  0
LINE
  5
2C8
100
AcDbEntity
  8
0
100
AcDbLine
 62
7
  6
CONTINUOUS
 10
32.53675828
 20
54.9564794569
 11
32.53675828
 21
57.9203832311
  0
LINE
  5
2C9
100
AcDbEntity
  8
0
100
AcDbLine
 62
7
  6
CONTINUOUS
 10
32.7133952841
 20
78.4100964191
 11
32.7133952841
 21
77.9610278498
  0
LINE
  5
2CA
100
AcDbEntity
  8
0
100
AcDbLine
 62
7
  6
CONTINUOUS
 10
33.738695848
 20
79.0020504422
 11
33.738695848
 21
79.8185528593
  0
LINE
  5
2CB
100
AcDbEntity
  8
0
100
AcDbLine
 62
7
  6
CONTINUOUS
 10
33.8095557853
 20
36.4627185262
 11
33.8095557853
 21
43.4029890718
  0
LINE
  5
2CC
100
AcDbEntity
  8
0
100
AcDbLine
 62
7
  6
CONTINUOUS
 10
34.1900584327
 20
42.8907270385
 11
34.1900584327
 21
36.76695891
  0
LINE
  5
2CD
100
AcDbEntity
  8
0
100
AcDbLine
 62
7
  6
CONTINUOUS
 10
34.3819337314
 20
42.66338388
 11
34.3819337314
 21
36.5396157516
  0
LINE
  5
2CE
100
AcDbEntity
  8
0
100
AcDbLine
 62
7
  6
CONTINUOUS
 10
30.4861400771
 20
53.9357703251
 11
27.9405450665
 21
52.4660791334
  0
LINE
  5
2CF
100
AcDbEntity
  8
0
100
AcDbLine
 62
7
  6
CONTINUOUS
 10
35.011642318
 20
56.3853458933
 11
32.53675828
 21
54.9564794569
  0
LINE
  5
2D0
100
AcDbEntity
  8
0
100
AcDbLine
 62
7
  6
CONTINUOUS
 10
36.3127393641
 20
56.7528318515
 11
35.4359081531
 21
56.2465961376
  0
LINE
  5
2D1
100
AcDbEntity
  8
0
100
AcDbLine
 62
7
  6
CONTINUOUS
 10
51.4872733884
 20
65.1626385059
 11
53.4670283288
 21
66.3056437308
  0
LINE
  5
2D2
100
AcDbEntity
  8
0
100
AcDbLine
 62
7
  6
CONTINUOUS
 10
12.5255530583
 20
42.5942862184
 11
9.9799580478
 21
41.1245950267
  0
LINE
  5
2D3
100
AcDbEntity
  8
0
100
AcDbLine
 62
7
  6
CONTINUOUS
 10
52.4064243868
 20
64.6319784347
 11
58.9824900729
 21
68.4286490657
  0
LINE
  5
2D4
100
AcDbEntity
  8
0
100
AcDbLine
 62
7
  6
CONTINUOUS
 10
37.9815031636
 20
46.6690604192
 11
35.4359081531
 21
48.1387271355
  0
LINE
  5
2D5
100
AcDbEntity
  8
0
100
AcDbLine
 62
7
  6
CONTINUOUS
 10
35.011642318
 20
48.3836715882
 11
32.4660473075
 21
49.8533383044
  0
LINE
  5
2D6
100
AcDbEntity
  8
0
100
AcDbLine
 62
7
  6
CONTINUOUS
 10
30.4861400771
 20
50.9964124171
 11
27.9405450665
 21
52.4660791334
  0
LINE
  5
2D7
100
AcDbEntity
  8
0
100
AcDbLine
 62
7
  6
CONTINUOUS
 10
27.5162792315
 20
52.7110235861
 11
24.9706842209
 21
54.1806903024
  0
LINE
  5
2D8
100
AcDbEntity
  8
0
100
AcDbLine
 62
7
  6
CONTINUOUS
 10
22.9907769905
 20
55.323764415
 11
20.44518198
 21
56.7934311313
  0
LINE
  5
2D9
100
AcDbEntity
  8
0
100
AcDbLine
 62
7
  6
CONTINUOUS
 10
20.0209161449
 20
57.038375584
 11
17.4753211344
 21
58.5080423003
  0
LINE
  5
2DA
100
AcDbEntity
  8
0
100
AcDbLine
 62
7
  6
CONTINUOUS
 10
15.495413904
 20
59.6511164129
 11
12.9498188934
 21
61.1207831292
  0
LINE
  5
2DB
100
AcDbEntity
  8
0
100
AcDbLine
 62
7
  6
CONTINUOUS
 10
12.5255530583
 20
61.3657275819
 11
9.9799580478
 21
62.8353942982
  0
LINE
  5
2DC
100
AcDbEntity
  8
0
100
AcDbLine
 62
7
  6
CONTINUOUS
 10
34.7754538004
 20
42.4863570738
 11
34.7754538004
 21
36.3625889453
  0
LINE
  5
2DD
100
AcDbEntity
  8
0
100
AcDbLine
 62
7
  6
CONTINUOUS
 10
35.0114933533
 20
78.267217084
 11
35.0114933533
 21
79.0837195012
  0
LINE
  5
2DE
100
AcDbEntity
  8
0
100
AcDbLine
 62
7
  6
CONTINUOUS
 10
35.011642318
 20
56.4915405903
 11
35.011642318
 21
53.5276368161
  0
LINE
  5
2DF
100
AcDbEntity
  8
0
100
AcDbLine
 62
7
  6
CONTINUOUS
 10
35.011642318
 20
51.8048167159
 11
35.011642318
 21
48.3836715882
  0
LINE
  5
2E0
100
AcDbEntity
  8
0
100
AcDbLine
 62
7
  6
CONTINUOUS
 10
35.011642318
 20
21.9861484424
 11
35.011642318
 21
24.9500522166
  0
LINE
  5
2E1
100
AcDbEntity
  8
0
100
AcDbLine
 62
7
  6
CONTINUOUS
 10
35.011642318
 20
26.6728723167
 11
35.011642318
 21
30.0940174445
  0
LINE
  5
2E2
100
AcDbEntity
  8
0
100
AcDbLine
 62
7
  6
CONTINUOUS
 10
35.4359081531
 20
29.8490729918
 11
35.4359081531
 21
26.427927864
  0
LINE
  5
2E3
100
AcDbEntity
  8
0
100
AcDbLine
 62
7
  6
CONTINUOUS
 10
35.4359081531
 20
24.7051077638
 11
35.4359081531
 21
21.7412039897
  0
LINE
  5
2E4
100
AcDbEntity
  8
0
100
AcDbLine
 62
7
  6
CONTINUOUS
 10
35.4359081531
 20
48.1387271355
 11
35.4359081531
 21
51.5598722632
  0
LINE
  5
2E5
100
AcDbEntity
  8
0
100
AcDbLine
 62
7
  6
CONTINUOUS
 10
35.4359081531
 20
53.2826923634
 11
35.4359081531
 21
56.2465961376
  0
LINE
  5
2E6
100
AcDbEntity
  8
0
100
AcDbLine
 62
7
  6
CONTINUOUS
 10
35.7574317484
 20
35.9273209063
 11
35.7574301092
 21
42.278408748
  0
LINE
  5
2E7
100
AcDbEntity
  8
0
100
AcDbLine
 62
7
  6
CONTINUOUS
 10
36.3924208509
 20
41.774473178
 11
36.3924208509
 21
35.6507050496
  0
LINE
  5
2E8
100
AcDbEntity
  8
0
100
AcDbLine
 62
7
  6
CONTINUOUS
 10
36.9915495484
 20
41.5659056765
 11
36.9915495484
 21
34.6256351309
  0
LINE
  5
2E9
100
AcDbEntity
  8
0
100
AcDbLine
 62
7
  6
CONTINUOUS
 10
37.0620944812
 20
73.4908310221
 11
37.0620944812
 21
74.1438594189
  0
LINE
  5
2EA
100
AcDbEntity
  8
0
100
AcDbLine
 62
7
  6
CONTINUOUS
 10
29.0719312251
 20
38.0548597132
 11
29.0408628036
 21
37.98619464
  0
LINE
  5
2EB
100
AcDbEntity
  8
0
100
AcDbLine
 62
7
  6
CONTINUOUS
 10
29.7479666408
 20
38.3944387939
 11
29.7790350623
 21
38.4631038671
  0
LINE
  5
2EC
100
AcDbEntity
  8
0
100
AcDbLine
 62
7
  6
CONTINUOUS
 10
60.1492211193
 20
67.7550518207
 11
39.8553409913
 21
56.0384446046
  0
LINE
  5
2ED
100
AcDbEntity
  8
0
100
AcDbLine
 62
7
  6
CONTINUOUS
 10
37.9107921911
 20
54.7115587998
 11
35.4359081531
 21
53.2826923634
  0
LINE
  5
2EE
100
AcDbEntity
  8
0
100
AcDbLine
 62
7
  6
CONTINUOUS
 10
15.495413904
 20
40.8796750494
 11
12.9498188934
 21
39.4099838577
  0
LINE
  5
2EF
100
AcDbEntity
  8
0
100
AcDbLine
 62
7
  6
CONTINUOUS
 10
35.011642318
 20
51.3230294961
 11
32.4660473075
 21
49.8533383044
  0
LINE
  5
2F0
100
AcDbEntity
  8
0
100
AcDbLine
 62
7
  6
CONTINUOUS
 10
10.0506690203
 20
36.3970470769
 11
12.5255530583
 21
37.8259135133
  0
LINE
  5
2F1
100
AcDbEntity
  8
0
100
AcDbLine
 62
7
  6
CONTINUOUS
 10
16.3750245939
 20
51.7589269797
 11
16.4500226312
 21
51.7515011559
  0
LINE
  5
2F2
100
AcDbEntity
  8
0
100
AcDbLine
 62
7
  6
CONTINUOUS
 10
17.1571264684
 20
52.1597453098
 11
17.0821284311
 21
52.1671711336
  0
LINE
  5
2F3
100
AcDbEntity
  8
0
100
AcDbLine
 62
7
  6
CONTINUOUS
 10
9.9799580478
 20
66.256539426
 11
12.5255530583
 21
64.7868727097
  0
LINE
  5
2F4
100
AcDbEntity
  8
0
100
AcDbLine
 62
7
  6
CONTINUOUS
 10
12.9498188934
 20
64.541928257
 11
15.495413904
 21
63.0722615407
  0
LINE
  5
2F5
100
AcDbEntity
  8
0
100
AcDbLine
 62
7
  6
CONTINUOUS
 10
17.4753211344
 20
61.929187428
 11
20.0209161449
 21
60.4595207118
  0
LINE
  5
2F6
100
AcDbEntity
  8
0
100
AcDbLine
 62
7
  6
CONTINUOUS
 10
20.44518198
 20
60.2145762591
 11
22.9907769905
 21
58.7449095428
  0
LINE
  5
2F7
100
AcDbEntity
  8
0
100
AcDbLine
 62
7
  6
CONTINUOUS
 10
24.9706842209
 20
57.6018354301
 11
27.5162792315
 21
56.1321687139
  0
LINE
  5
2F8
100
AcDbEntity
  8
0
100
AcDbLine
 62
7
  6
CONTINUOUS
 10
27.9405450665
 20
55.8872242611
 11
30.4861400771
 21
54.4175575449
  0
LINE
  5
2F9
100
AcDbEntity
  8
0
100
AcDbLine
 62
7
  6
CONTINUOUS
 10
32.4660473075
 20
53.2744834322
 11
35.011642318
 21
51.8048167159
  0
LINE
  5
2FA
100
AcDbEntity
  8
0
100
AcDbLine
 62
7
  6
CONTINUOUS
 10
35.4359081531
 20
51.5598722632
 11
37.9815031636
 21
50.090205547
  0
LINE
  5
2FB
100
AcDbEntity
  8
0
100
AcDbLine
 62
7
  6
CONTINUOUS
 10
37.9107921911
 20
54.8177534967
 11
37.9107921911
 21
51.8538497226
  0
LINE
  5
2FC
100
AcDbEntity
  8
0
100
AcDbLine
 62
7
  6
CONTINUOUS
 10
37.9107921911
 20
20.3123613488
 11
37.9107921911
 21
23.276265123
  0
LINE
  5
2FD
100
AcDbEntity
  8
0
100
AcDbLine
 62
7
  6
CONTINUOUS
 10
37.9815031636
 20
50.090205547
 11
37.9815031636
 21
46.6690604192
  0
LINE
  5
2FE
100
AcDbEntity
  8
0
100
AcDbLine
 62
7
  6
CONTINUOUS
 10
37.9815031636
 20
24.9582611477
 11
37.9815031636
 21
28.3794062755
  0
LINE
  5
2FF
100
AcDbEntity
  8
0
100
AcDbLine
 62
7
  6
CONTINUOUS
 10
38.4763021557
 20
74.9603477267
 11
38.4763021557
 21
80.267613438
  0
LINE
  5
300
100
AcDbEntity
  8
0
100
AcDbLine
 62
7
  6
CONTINUOUS
 10
39.5017890727
 20
55.4260713191
 11
39.5017890727
 21
17.8669601311
  0
LINE
  5
301
100
AcDbEntity
  8
0
100
AcDbLine
 62
7
  6
CONTINUOUS
 10
39.6430858992
 20
72.286476263
 11
39.6430858992
 21
73.1029786801
  0
LINE
  5
302
100
AcDbEntity
  8
0
100
AcDbLine
 62
7
  6
CONTINUOUS
 10
12.5255530583
 20
35.8336645468
 11
10.8992006905
 21
34.8946951743
  0
LINE
  5
303
100
AcDbEntity
  8
0
100
AcDbLine
 62
7
  6
CONTINUOUS
 10
28.9658647663
 20
44.5256398009
 11
29.6729686035
 21
44.9338839548
  0
LINE
  5
304
100
AcDbEntity
  8
0
100
AcDbLine
 62
7
  6
CONTINUOUS
 10
11.6770213882
 20
34.4456303443
 11
12.5128166309
 21
34.9281740723
  0
LINE
  5
305
100
AcDbEntity
  8
0
100
AcDbLine
 62
7
  6
CONTINUOUS
 10
37.9815031636
 20
49.6084183272
 11
35.4359081531
 21
48.1387271355
  0
LINE
  5
306
100
AcDbEntity
  8
0
100
AcDbLine
 62
7
  6
CONTINUOUS
 10
29.7790350623
 20
44.750172479
 11
29.0719312251
 21
44.3419283251
  0
LINE
  5
307
100
AcDbEntity
  8
0
100
AcDbLine
 62
7
  6
CONTINUOUS
 10
12.9498188934
 20
34.7232599834
 11
15.4247029314
 21
36.1521264198
  0
LINE
  5
308
100
AcDbEntity
  8
0
100
AcDbLine
 62
7
  6
CONTINUOUS
 10
65.5939206659
 20
64.774763677
 11
60.8563249566
 21
62.0395278461
  0
LINE
  5
309
100
AcDbEntity
  8
0
100
AcDbLine
 62
7
  6
CONTINUOUS
 10
20.0209161449
 20
38.2669342205
 11
17.4753211344
 21
36.7972430288
  0
LINE
  5
30A
100
AcDbEntity
  8
0
100
AcDbLine
 62
7
  6
CONTINUOUS
 10
37.9107921911
 20
51.8538497226
 11
35.4359081531
 21
53.2826923634
  0
LINE
  5
30B
100
AcDbEntity
  8
0
100
AcDbLine
 62
7
  6
CONTINUOUS
 10
35.011642318
 20
53.5276368161
 11
32.53675828
 21
54.9564794569
  0
LINE
  5
30C
100
AcDbEntity
  8
0
100
AcDbLine
 62
7
  6
CONTINUOUS
 10
30.4154291046
 20
56.1812017205
 11
27.9405450665
 21
57.6100443613
  0
LINE
  5
30D
100
AcDbEntity
  8
0
100
AcDbLine
 62
7
  6
CONTINUOUS
 10
27.5162792315
 20
57.854988814
 11
25.0413951934
 21
59.2838314548
  0
LINE
  5
30E
100
AcDbEntity
  8
0
100
AcDbLine
 62
7
  6
CONTINUOUS
 10
22.920066018
 20
60.5085537184
 11
20.44518198
 21
61.9373963592
  0
LINE
  5
30F
100
AcDbEntity
  8
0
100
AcDbLine
 62
7
  6
CONTINUOUS
 10
20.0209161449
 20
62.1823408119
 11
17.5460321069
 21
63.6111834527
  0
LINE
  5
310
100
AcDbEntity
  8
0
100
AcDbLine
 62
7
  6
CONTINUOUS
 10
15.4247029314
 20
64.8359057163
 11
12.9498188934
 21
66.2647483571
  0
LINE
  5
311
100
AcDbEntity
  8
0
100
AcDbLine
 62
7
  6
CONTINUOUS
 10
12.5255530583
 20
66.5096928098
 11
10.0506690203
 21
67.9385354507
  0
LINE
  5
312
100
AcDbEntity
  8
0
100
AcDbLine
 62
7
  6
CONTINUOUS
 10
41.2340589346
 20
74.6746984443
 11
41.2340589346
 21
75.4912008614
  0
LINE
  5
313
100
AcDbEntity
  8
0
100
AcDbLine
 62
7
  6
CONTINUOUS
 10
42.5068564399
 20
73.9398650861
 11
42.5068564399
 21
74.7563675033
  0
LINE
  5
314
100
AcDbEntity
  8
0
100
AcDbLine
 62
7
  6
CONTINUOUS
 10
34.2972096978
 20
43.0710015288
 11
34.3408867347
 21
43.0962319449
  0
LINE
  5
315
100
AcDbEntity
  8
0
100
AcDbLine
 62
7
  6
CONTINUOUS
 10
15.4247029314
 20
34.1598774532
 11
13.7983505636
 21
33.2209080807
  0
LINE
  5
316
100
AcDbEntity
  8
0
100
AcDbLine
 62
7
  6
CONTINUOUS
 10
14.5761712613
 20
32.7718432508
 11
15.411966504
 21
33.2543869787
  0
LINE
  5
317
100
AcDbEntity
  8
0
100
AcDbLine
 62
7
  6
CONTINUOUS
 10
22.9907769905
 20
36.5523230515
 11
20.44518198
 21
35.0826318598
  0
LINE
  5
318
100
AcDbEntity
  8
0
100
AcDbLine
 62
7
  6
CONTINUOUS
 10
10.8992006905
 20
71.4250133167
 11
11.6770213882
 21
70.9759484867
  0
LINE
  5
319
100
AcDbEntity
  8
0
100
AcDbLine
 62
7
  6
CONTINUOUS
 10
13.7983505636
 20
69.7512262231
 11
14.5761712613
 21
69.3021613931
  0
LINE
  5
31A
100
AcDbEntity
  8
0
100
AcDbLine
 62
7
  6
CONTINUOUS
 10
18.3945637771
 20
67.0976613187
 11
19.1723844747
 21
66.6485964888
  0
LINE
  5
31B
100
AcDbEntity
  8
0
100
AcDbLine
 62
7
  6
CONTINUOUS
 10
21.2937136502
 20
65.4238742252
 11
22.0715343478
 21
64.9748093952
  0
LINE
  5
31C
100
AcDbEntity
  8
0
100
AcDbLine
 62
7
  6
CONTINUOUS
 10
25.8899268636
 20
62.7703093208
 11
26.6677475613
 21
62.3212444908
  0
LINE
  5
31D
100
AcDbEntity
  8
0
100
AcDbLine
 62
7
  6
CONTINUOUS
 10
28.7890767367
 20
61.0965222273
 11
29.5668974344
 21
60.6474573973
  0
LINE
  5
31E
100
AcDbEntity
  8
0
100
AcDbLine
 62
7
  6
CONTINUOUS
 10
33.3852899502
 20
58.4429573229
 11
34.1631106478
 21
57.9938924929
  0
LINE
  5
31F
100
AcDbEntity
  8
0
100
AcDbLine
 62
7
  6
CONTINUOUS
 10
36.2844398233
 20
56.7691702294
 11
37.0622605209
 21
56.3201053994
  0
LINE
  5
320
100
AcDbEntity
  8
0
100
AcDbLine
 62
7
  6
CONTINUOUS
 10
39.5017890727
 20
55.4260713191
 11
8.4596721387
 21
73.3478404425
  0
LINE
  5
321
100
AcDbEntity
  8
0
100
AcDbLine
 62
7
  6
CONTINUOUS
 10
8.8132240574
 20
73.960213728
 11
39.8553409913
 21
56.0384446046
  0
LINE
  5
322
100
AcDbEntity
  8
0
100
AcDbLine
 62
7
  6
CONTINUOUS
 10
44.2039056492
 20
72.7192544755
 11
44.2039056492
 21
69.6123853441
  0
LINE
  5
323
100
AcDbEntity
  8
0
100
AcDbLine
 62
7
  6
CONTINUOUS
 10
44.5574575678
 20
69.1634790242
 11
44.5574575678
 21
69.816507421
  0
LINE
  5
324
100
AcDbEntity
  8
0
100
AcDbLine
 62
7
  6
CONTINUOUS
 10
45.0523831504
 20
74.5112879957
 11
45.0523831504
 21
76.6341575959
  0
LINE
  5
325
100
AcDbEntity
  8
0
100
AcDbLine
 62
7
  6
CONTINUOUS
 10
45.3352505922
 20
73.9397738359
 11
45.3352505922
 21
70.3472363787
  0
LINE
  5
326
100
AcDbEntity
  8
0
100
AcDbLine
 62
7
  6
CONTINUOUS
 10
46.2191377486
 20
77.920236187
 11
46.2191377486
 21
73.4294728928
  0
LINE
  5
327
100
AcDbEntity
  8
0
100
AcDbLine
 62
7
  6
CONTINUOUS
 10
17.5460321069
 20
32.069695079
 11
20.0209161449
 21
33.4985615154
  0
LINE
  5
328
100
AcDbEntity
  8
0
100
AcDbLine
 62
7
  6
CONTINUOUS
 10
29.0719312251
 20
38.0548597132
 11
29.7790350623
 21
38.4631038671
  0
LINE
  5
329
100
AcDbEntity
  8
0
100
AcDbLine
 62
7
  6
CONTINUOUS
 10
29.7479682677
 20
38.3944359759
 11
29.0408644305
 21
37.986191822
  0
LINE
  5
32A
100
AcDbEntity
  8
0
100
AcDbLine
 62
7
  6
CONTINUOUS
 10
20.0209161449
 20
31.5063125488
 11
18.3945637771
 21
30.5673431764
  0
LINE
  5
32B
100
AcDbEntity
  8
0
100
AcDbLine
 62
7
  6
CONTINUOUS
 10
47.1384489857
 20
67.959124265
 11
47.1384489857
 21
68.7756266822
  0
LINE
  5
32C
100
AcDbEntity
  8
0
100
AcDbLine
 62
7
  6
CONTINUOUS
 10
47.4566457125
 20
68.1428341343
 11
47.4566457125
 21
67.4896698351
  0
LINE
  5
32D
100
AcDbEntity
  8
0
100
AcDbLine
 62
7
  6
CONTINUOUS
 10
47.9869120615
 20
76.8996343007
 11
47.9869120615
 21
72.4088710065
  0
LINE
  5
32E
100
AcDbEntity
  8
0
100
AcDbLine
 62
7
  6
CONTINUOUS
 10
48.5880086136
 20
66.8364919364
 11
48.5880086136
 21
69.2450914801
  0
LINE
  5
32F
100
AcDbEntity
  8
0
100
AcDbLine
 62
7
  6
CONTINUOUS
 10
48.7294220212
 20
70.3473464464
 11
48.7294220212
 21
71.1638488635
  0
LINE
  5
330
100
AcDbEntity
  8
0
100
AcDbLine
 62
7
  6
CONTINUOUS
 10
48.8707992179
 20
71.8985700633
 11
48.8707992179
 21
71.2454725389
  0
LINE
  5
331
100
AcDbEntity
  8
0
100
AcDbLine
 62
7
  6
CONTINUOUS
 10
48.9769189625
 20
69.0205590651
 11
48.9769189625
 21
66.6119595214
  0
LINE
  5
332
100
AcDbEntity
  8
0
100
AcDbLine
 62
7
  6
CONTINUOUS
 10
49.1889885847
 20
77.4050862061
 11
49.1889885847
 21
77.5936493622
  0
LINE
  5
333
100
AcDbEntity
  8
0
100
AcDbLine
 62
7
  6
CONTINUOUS
 10
19.1723844747
 20
30.1182783464
 11
20.0081797174
 21
30.6008220744
  0
LINE
  5
334
100
AcDbEntity
  8
0
100
AcDbLine
 62
7
  6
CONTINUOUS
 10
20.44518198
 20
30.3959079855
 11
22.920066018
 21
31.8247744219
  0
LINE
  5
335
100
AcDbEntity
  8
0
100
AcDbLine
 62
7
  6
CONTINUOUS
 10
27.5162792315
 20
33.9395822226
 11
24.9706842209
 21
32.4698910309
  0
LINE
  5
336
100
AcDbEntity
  8
0
100
AcDbLine
 62
7
  6
CONTINUOUS
 10
34.2079241123
 20
36.6927152141
 11
33.8095557853
 21
36.4627185262
  0
LINE
  5
337
100
AcDbEntity
  8
0
100
AcDbLine
 62
7
  6
CONTINUOUS
 10
22.920066018
 20
29.8325254553
 11
21.2937136502
 21
28.8935560828
  0
LINE
  5
338
100
AcDbEntity
  8
0
100
AcDbLine
 62
7
  6
CONTINUOUS
 10
49.4718301196
 20
77.3798207115
 11
49.4718301196
 21
77.5683838677
  0
LINE
  5
339
100
AcDbEntity
  8
0
100
AcDbLine
 62
7
  6
CONTINUOUS
 10
49.7546716545
 20
77.354555217
 11
49.7546716545
 21
77.5431183731
  0
LINE
  5
33A
100
AcDbEntity
  8
0
100
AcDbLine
 62
7
  6
CONTINUOUS
 10
50.0022195264
 20
69.6125130882
 11
50.0022195264
 21
70.4290155053
  0
LINE
  5
33B
100
AcDbEntity
  8
0
100
AcDbLine
 62
7
  6
CONTINUOUS
 10
50.6739066429
 20
73.9601987912
 11
50.6739066429
 21
77.2253015705
  0
LINE
  5
33C
100
AcDbEntity
  8
0
100
AcDbLine
 62
7
  6
CONTINUOUS
 10
51.5577937993
 20
72.770269282
 11
51.5577937993
 21
73.449897848
  0
LINE
  5
33D
100
AcDbEntity
  8
0
100
AcDbLine
 62
7
  6
CONTINUOUS
 10
22.0715343478
 20
28.4444912529
 11
22.9073295905
 21
28.9270349808
  0
LINE
  5
33E
100
AcDbEntity
  8
0
100
AcDbLine
 62
7
  6
CONTINUOUS
 10
30.4861400771
 20
32.2249710536
 11
27.9405450665
 21
30.7552798619
  0
LINE
  5
33F
100
AcDbEntity
  8
0
100
AcDbLine
 62
7
  6
CONTINUOUS
 10
25.0413951934
 20
27.7423430811
 11
27.5162792315
 21
29.1712095175
  0
LINE
  5
340
100
AcDbEntity
  8
0
100
AcDbLine
 62
7
  6
CONTINUOUS
 10
43.1483137553
 20
75.1267108463
 11
44.2039056492
 21
72.7192544755
  0
LINE
  5
341
100
AcDbEntity
  8
0
100
AcDbLine
 62
7
  6
CONTINUOUS
 10
53.4670283288
 20
66.3056437308
 11
53.4670283288
 21
71.6129094422
  0
LINE
  5
342
100
AcDbEntity
  8
0
100
AcDbLine
 62
7
  6
CONTINUOUS
 10
27.5162792315
 20
27.1789605509
 11
25.8899268636
 21
26.2399911784
  0
LINE
  5
343
100
AcDbEntity
  8
0
100
AcDbLine
 62
7
  6
CONTINUOUS
 10
26.6677475613
 20
25.7909263485
 11
27.503542804
 21
26.2734700764
  0
LINE
  5
344
100
AcDbEntity
  8
0
100
AcDbLine
 62
7
  6
CONTINUOUS
 10
27.9405450665
 20
26.0685559876
 11
30.4154291046
 21
27.497422424
  0
LINE
  5
345
100
AcDbEntity
  8
0
100
AcDbLine
 62
7
  6
CONTINUOUS
 10
35.011642318
 20
29.6122302247
 11
32.4660473075
 21
28.142539033
  0
LINE
  5
346
100
AcDbEntity
  8
0
100
AcDbLine
 62
7
  6
CONTINUOUS
 10
30.4154291046
 20
25.5051734574
 11
28.7890767367
 21
24.5662040849
  0
LINE
  5
347
100
AcDbEntity
  8
0
100
AcDbLine
 62
7
  6
CONTINUOUS
 10
29.5668974344
 20
24.1171392549
 11
30.4026926771
 21
24.5996829829
  0
LINE
  5
348
100
AcDbEntity
  8
0
100
AcDbLine
 62
7
  6
CONTINUOUS
 10
37.9815031636
 20
27.8976190557
 11
35.4359081531
 21
26.427927864
  0
LINE
  5
349
100
AcDbEntity
  8
0
100
AcDbLine
 62
7
  6
CONTINUOUS
 10
23.6977695458
 20
81.2065530682
 11
29.9203351271
 21
77.6140344284
  0
LINE
  5
34A
100
AcDbEntity
  8
0
100
AcDbLine
 62
7
  6
CONTINUOUS
 10
31.1931326324
 20
76.8792010703
 11
37.4156982136
 21
73.2866824305
  0
LINE
  5
34B
100
AcDbEntity
  8
0
100
AcDbLine
 62
7
  6
CONTINUOUS
 10
38.6884957189
 20
72.5518490724
 11
44.9110613002
 21
68.9593304326
  0
LINE
  5
34C
100
AcDbEntity
  8
0
100
AcDbLine
 62
7
  6
CONTINUOUS
 10
46.1838588055
 20
68.2244970744
 11
52.4064243868
 21
64.6319784347
  0
LINE
  5
34D
100
AcDbEntity
  8
0
100
AcDbLine
 62
7
  6
CONTINUOUS
 10
45.4766085662
 20
69.2858473498
 11
44.5574575678
 21
69.816507421
  0
LINE
  5
34E
100
AcDbEntity
  8
0
100
AcDbLine
 62
7
  6
CONTINUOUS
 10
37.9812454796
 20
73.6131993477
 11
37.0620944812
 21
74.1438594189
  0
LINE
  5
34F
100
AcDbEntity
  8
0
100
AcDbLine
 62
7
  6
CONTINUOUS
 10
47.1384489857
 20
68.3265409441
 11
47.4566457125
 21
68.1428341343
  0
LINE
  5
350
100
AcDbEntity
  8
0
100
AcDbLine
 62
7
  6
CONTINUOUS
 10
30.8749253073
 20
78.1651640361
 11
32.1477228126
 21
77.430330678
  0
LINE
  5
351
100
AcDbEntity
  8
0
100
AcDbLine
 62
7
  6
CONTINUOUS
 10
38.3702883939
 20
73.8378120382
 11
39.6430858992
 21
73.1029786801
  0
LINE
  5
352
100
AcDbEntity
  8
0
100
AcDbLine
 62
7
  6
CONTINUOUS
 10
45.8656514804
 20
69.5104600403
 11
47.1384489857
 21
68.7756266822
  0
LINE
  5
353
100
AcDbEntity
  8
0
100
AcDbLine
 62
7
  6
CONTINUOUS
 10
32.0061769886
 20
77.5527176138
 11
31.8294789824
 21
77.6547319474
  0
LINE
  5
354
100
AcDbEntity
  8
0
100
AcDbLine
 62
7
  6
CONTINUOUS
 10
46.6787796777
 20
69.5715670475
 11
44.2039056492
 21
71.0004039095
  0
LINE
  5
355
100
AcDbEntity
  8
0
100
AcDbLine
 62
7
  6
CONTINUOUS
 10
33.1023056329
 20
78.1855640041
 11
32.7133952841
 21
78.4100964191
  0
LINE
  5
356
100
AcDbEntity
  8
0
100
AcDbLine
 62
7
  6
CONTINUOUS
 10
48.5880086136
 20
69.2450914801
 11
48.9769189625
 21
69.0205590651
  0
LINE
  5
357
100
AcDbEntity
  8
0
100
AcDbLine
 62
7
  6
CONTINUOUS
 10
60.8563249566
 20
30.6041847866
 11
60.8563249566
 21
35.911450498
  0
LINE
  5
358
100
AcDbEntity
  8
0
100
AcDbLine
 62
7
  6
CONTINUOUS
 10
60.8563249566
 20
62.0395278461
 11
60.8563249566
 21
67.3467935575
  0
LINE
  5
359
100
AcDbEntity
  8
0
100
AcDbLine
 62
7
  6
CONTINUOUS
 10
32.53675828
 20
23.4149910832
 11
35.011642318
 21
24.8438575196
  0
LINE
  5
35A
100
AcDbEntity
  8
0
100
AcDbLine
 62
7
  6
CONTINUOUS
 10
35.011642318
 20
22.851608553
 11
33.3852899502
 21
21.9126391805
  0
LINE
  5
35B
100
AcDbEntity
  8
0
100
AcDbLine
 62
7
  6
CONTINUOUS
 10
33.738695848
 20
79.0020504422
 11
35.0114933533
 21
78.267217084
  0
LINE
  5
35C
100
AcDbEntity
  8
0
100
AcDbLine
 62
7
  6
CONTINUOUS
 10
41.2340589346
 20
74.6746984443
 11
42.5068564399
 21
73.9398650861
  0
LINE
  5
35D
100
AcDbEntity
  8
0
100
AcDbLine
 62
7
  6
CONTINUOUS
 10
48.7294220212
 20
70.3473464464
 11
50.0022195264
 21
69.6125130882
  0
LINE
  5
35E
100
AcDbEntity
  8
0
100
AcDbLine
 62
7
  6
CONTINUOUS
 10
33.738695848
 20
79.8185528593
 11
35.0114933533
 21
79.0837195012
  0
LINE
  5
35F
100
AcDbEntity
  8
0
100
AcDbLine
 62
7
  6
CONTINUOUS
 10
41.2340589346
 20
75.4912008614
 11
42.5068564399
 21
74.7563675033
  0
LINE
  5
360
100
AcDbEntity
  8
0
100
AcDbLine
 62
7
  6
CONTINUOUS
 10
48.7294220212
 20
71.1638488635
 11
50.0022195264
 21
70.4290155053
  0
LINE
  5
361
100
AcDbEntity
  8
0
100
AcDbLine
 62
7
  6
CONTINUOUS
 10
41.87551625
 20
75.8615442045
 11
43.1483137553
 21
75.1267108463
  0
LINE
  5
362
100
AcDbEntity
  8
0
100
AcDbLine
 62
7
  6
CONTINUOUS
 10
45.3352505922
 20
73.9397738359
 11
46.2191377486
 21
73.4294728928
  0
LINE
  5
363
100
AcDbEntity
  8
0
100
AcDbLine
 62
7
  6
CONTINUOUS
 10
47.9869120615
 20
72.4088710065
 11
48.8707992179
 21
71.8985700633
  0
LINE
  5
364
100
AcDbEntity
  8
0
100
AcDbLine
 62
7
  6
CONTINUOUS
 10
34.1631106478
 20
21.4635743506
 11
34.9989058906
 21
21.9461180785
  0
LINE
  5
365
100
AcDbEntity
  8
0
100
AcDbLine
 62
7
  6
CONTINUOUS
 10
35.4359081531
 20
21.7412039897
 11
37.9107921911
 21
23.170070426
  0
LINE
  5
366
100
AcDbEntity
  8
0
100
AcDbLine
 62
7
  6
CONTINUOUS
 10
60.8563249566
 20
35.911450498
 11
65.5939206659
 21
38.6466863289
  0
LINE
  5
367
100
AcDbEntity
  8
0
100
AcDbLine
 62
7
  6
CONTINUOUS
 10
37.9107921911
 20
21.1778214595
 11
36.2844398233
 21
20.238852087
  0
LINE
  5
368
100
AcDbEntity
  8
0
100
AcDbLine
 62
7
  6
CONTINUOUS
 10
50.0375131894
 20
77.5178528785
 11
50.4971306836
 21
77.4767964498
  0
LINE
  5
369
100
AcDbEntity
  8
0
100
AcDbLine
 62
7
  6
CONTINUOUS
 10
60.1492211193
 20
67.7550518207
 11
58.9824900729
 21
68.4286490657
  0
LINE
  5
36A
100
AcDbEntity
  8
0
100
AcDbLine
 62
7
  6
CONTINUOUS
 10
52.7599244916
 20
72.0211677055
 11
51.4871269863
 21
72.7560010636
  0
LINE
  5
36B
100
AcDbEntity
  8
0
100
AcDbLine
 62
7
  6
CONTINUOUS
 10
37.7691983184
 20
80.6758717013
 11
36.4964008132
 21
81.4107050594
  0
LINE
  5
36C
100
AcDbEntity
  8
0
100
AcDbLine
 62
7
  6
CONTINUOUS
 10
30.2738352319
 20
85.0032236992
 11
29.1071041854
 21
85.6768209442
  0
LINE
  5
36D
100
AcDbEntity
  8
0
100
AcDbLine
 62
7
  6
CONTINUOUS
 10
65.5939206659
 20
64.774763677
 11
60.788250668
 21
67.5492557766
  0
LINE
  5
36E
100
AcDbEntity
  8
0
100
AcDbLine
 62
7
  6
CONTINUOUS
 10
59.1918457674
 20
68.4709197248
 11
55.0933412475
 21
70.8371388817
  0
LINE
  5
36F
100
AcDbEntity
  8
0
100
AcDbLine
 62
7
  6
CONTINUOUS
 10
45.0523831504
 20
76.6341575959
 11
38.408227867
 21
80.4700756572
  0
LINE
  5
370
100
AcDbEntity
  8
0
100
AcDbLine
 62
7
  6
CONTINUOUS
 10
36.7057565077
 20
81.4529757186
 11
34.5518037319
 21
82.6965328005
  0
LINE
  5
371
100
AcDbEntity
  8
0
100
AcDbLine
 62
7
  6
CONTINUOUS
 10
60.6492126358
 20
67.8045797053
 11
59.4824815893
 21
68.4781769502
  0
LINE
  5
372
100
AcDbEntity
  8
0
100
AcDbLine
 62
7
  6
CONTINUOUS
 10
53.259916008
 20
72.07069559
 11
51.9871185028
 21
72.8055289481
  0
LINE
  5
373
100
AcDbEntity
  8
0
100
AcDbLine
 62
7
  6
CONTINUOUS
 10
38.2691898349
 20
80.7253995858
 11
36.9963923297
 21
81.460232944
  0
LINE
  5
374
100
AcDbEntity
  8
0
100
AcDbLine
 62
7
  6
CONTINUOUS
 10
30.7738267484
 20
85.0527515837
 11
29.6070957019
 21
85.7263488287
  0
LINE
  5
375
100
AcDbEntity
  8
0
100
AcDbLine
 62
7
  6
CONTINUOUS
 10
50.6739066429
 20
73.9601987912
 11
51.5577937993
 21
73.449897848
  0
LINE
  5
376
100
AcDbEntity
  8
0
100
AcDbLine
 62
7
  6
CONTINUOUS
 10
65.5939206659
 20
38.6466863289
 11
65.5939206659
 21
64.774763677
  0
LINE
  5
377
100
AcDbEntity
  8
0
100
AcDbLine
 62
7
  6
CONTINUOUS
 10
37.0622605209
 20
19.789787257
 11
37.8980557637
 21
20.272330985
  0
LINE
  5
378
100
AcDbEntity
  8
0
100
AcDbLine
 62
7
  6
CONTINUOUS
 10
48.7293563707
 20
78.4973983361
 11
48.2697388765
 21
78.5384547648
  0
LINE
  5
379
100
AcDbEntity
  8
0
100
AcDbLine
 62
7
  6
CONTINUOUS
 10
50.4971306836
 20
77.4767964498
 11
50.5703222668
 21
77.4541456235
  0
LINE
  5
37A
100
AcDbEntity
  8
0
100
AcDbLine
 62
7
  6
CONTINUOUS
 10
48.8025479539
 20
78.4747475098
 11
48.7293563707
 21
78.4973983361
  0
LINE
  5
37B
100
AcDbEntity
  8
0
100
AcDbLine
 62
7
  6
CONTINUOUS
 10
46.2191377486
 20
77.920236187
 11
47.9869120615
 21
76.8996343007
  0
LINE
  5
37C
100
AcDbEntity
  8
0
100
AcDbLine
 62
7
  6
CONTINUOUS
 10
47.4212142719
 20
78.6142512485
 11
49.1889885847
 21
77.5936493622
  0
LINE
  5
37D
100
AcDbEntity
  8
0
100
AcDbLine
 62
7
  6
CONTINUOUS
 10
47.7040558067
 20
78.588985754
 11
49.4718301196
 21
77.5683838677
  0
LINE
  5
37E
100
AcDbEntity
  8
0
100
AcDbLine
 62
7
  6
CONTINUOUS
 10
47.9868973416
 20
78.5637202594
 11
49.7546716545
 21
77.5431183731
  0
LINE
  5
37F
100
AcDbEntity
  8
0
100
AcDbLine
 62
7
  6
CONTINUOUS
 10
48.2697388765
 20
78.5384547648
 11
50.0375131894
 21
77.5178528785
  0
LINE
  5
380
100
AcDbEntity
  8
0
100
AcDbLine
 62
7
  6
CONTINUOUS
 10
50.4971306836
 20
77.4767964498
 11
48.7293563707
 21
78.4973983361
  0
LINE
  5
381
100
AcDbEntity
  8
0
100
AcDbLine
 62
7
  6
CONTINUOUS
 10
50.5703504825
 20
77.4541946444
 11
48.8025761696
 21
78.4747965307
  0
LINE
  5
382
100
AcDbEntity
  8
0
100
AcDbLine
 62
7
  6
CONTINUOUS
 10
39.8553409913
 20
17.6628309995
 11
60.1492211193
 21
29.3794382156
  0
ARC
  5
383
100
AcDbEntity
  8
0
100
AcDbCircle
 62
7
  6
CONTINUOUS
 10
91.5718673636
 20
169.3095009206
 40
138.9602627327
100
AcDbArc
 50
246.3181604756
 51
246.6037417711
  0
ARC
  5
384
100
AcDbEntity
  8
0
100
AcDbCircle
 62
7
  6
CONTINUOUS
 10
91.4950788957
 20
163.0094600328
 40
138.7679912461
100
AcDbArc
 50
246.3179626301
 51
246.6039396166
  0
ARC
  5
385
100
AcDbEntity
  8
0
100
AcDbCircle
 62
7
  6
CONTINUOUS
 10
90.4255768893
 20
166.7191725064
 40
136.12761891
100
AcDbArc
 50
245.6883740856
 51
245.8699935386
  0
ARC
  5
386
100
AcDbEntity
  8
0
100
AcDbCircle
 62
7
  6
CONTINUOUS
 10
90.4255768879
 20
160.5954043748
 40
136.1276189066
100
AcDbArc
 50
245.6883740856
 51
245.8699935386
  0
SPLINE
  5
387
100
AcDbEntity
  8
0
100
AcDbSpline
 62
7
  6
CONTINUOUS
 70
0
 71
3
 72
11
 73
7
 74
0
 42
0.0000001
 43
0.0000001
 44
0.0000000001
 40
0.0
 40
0.0
 40
0.0
 40
0.0
 40
0.2372518718
 40
0.4999985497
 40
0.7627460178
 40
1.0
 40
1.0
 40
1.0
 40
1.0
 10
8.8132240573
 20
73.960213728
 30
0.0
 10
8.7630270741
 20
73.9312326592
 30
0.0
 10
8.6680338073
 20
73.8512942044
 30
0.0
 10
8.557206185
 20
73.6997782454
 30
0.0
 10
8.4814040571
 20
73.5280398404
 30
0.0
 10
8.4596721387
 20
73.4058033552
 30
0.0
 10
8.4596721387
 20
73.3478404425
 30
0.0
  0
SPLINE
  5
388
100
AcDbEntity
  8
0
100
AcDbSpline
 62
7
  6
CONTINUOUS
 70
0
 71
3
 72
11
 73
7
 74
0
 42
0.0000001
 43
0.0000001
 44
0.0000000001
 40
0.0
 40
0.0
 40
0.0
 40
0.0
 40
0.2895411595
 40
0.5491183966
 40
0.7822559144
 40
1.0
 40
1.0
 40
1.0
 40
1.0
 10
8.4596721387
 20
35.7887292546
 30
0.0
 10
8.4596721387
 20
35.7634098286
 30
0.0
 10
8.4635381595
 20
35.7152314025
 30
0.0
 10
8.4830147136
 20
35.6490258208
 30
0.0
 10
8.5158679958
 20
35.5952852524
 30
0.0
 10
8.5467521967
 20
35.569380749
 30
0.0
 10
8.563242287
 20
35.5598604092
 30
0.0
  0
SPLINE
  5
389
100
AcDbEntity
  8
0
100
AcDbSpline
 62
7
  6
CONTINUOUS
 70
0
 71
3
 72
11
 73
7
 74
0
 42
0.0000001
 43
0.0000001
 44
0.0000000001
 40
0.0
 40
0.0
 40
0.0
 40
0.0
 40
0.2177466922
 40
0.4508874003
 40
0.7104632454
 40
1.0
 40
1.0
 40
1.0
 40
1.0
 10
51.9870946435
 20
72.8054876223
 30
0.0
 10
51.9541151714
 20
72.8245279107
 30
0.0
 10
51.8783632932
 20
72.8521133489
 30
0.0
 10
51.7524320855
 20
72.8552689716
 30
0.0
 10
51.6182895515
 20
72.8227989919
 30
0.0
 10
51.5309794599
 20
72.7813191499
 30
0.0
 10
51.4871269863
 20
72.7560010636
 30
0.0
  0
SPLINE
  5
38A
100
AcDbEntity
  8
0
100
AcDbSpline
 62
7
  6
CONTINUOUS
 70
0
 71
3
 72
11
 73
7
 74
0
 42
0.0000001
 43
0.0000001
 44
0.0000000001
 40
0.0
 40
0.0
 40
0.0
 40
0.0
 40
0.2177452872
 40
0.4508853899
 40
0.7104617589
 40
1.0
 40
1.0
 40
1.0
 40
1.0
 10
53.2598921492
 20
72.070654264
 30
0.0
 10
53.2928727204
 20
72.0516133534
 30
0.0
 10
53.3546413136
 20
71.9998019748
 30
0.0
 10
53.4203427199
 20
71.8923163313
 30
0.0
 10
53.4592957593
 20
71.7599049829
 30
0.0
 10
53.4670283288
 20
71.6635481075
 30
0.0
 10
53.4670283288
 20
71.6129094422
 30
0.0
  0
SPLINE
  5
38B
100
AcDbEntity
  8
0
100
AcDbSpline
 62
7
  6
CONTINUOUS
 70
0
 71
3
 72
13
 73
9
 74
0
 42
0.0000001
 43
0.0000001
 44
0.0000000001
 40
0.0
 40
0.0
 40
0.0
 40
0.0
 40
0.1141765806
 40
0.237570533
 40
0.5000015097
 40
0.7624316609
 40
0.885824678
 40
1.0
 40
1.0
 40
1.0
 40
1.0
 10
60.8563249566
 20
30.6041847866
 30
0.0
 10
60.8563249566
 20
30.5483289044
 30
0.0
 10
60.8460296656
 20
30.4319981284
 30
0.0
 10
60.790551324
 20
30.1931669322
 30
0.0
 10
60.6612878663
 20
29.9002911991
 30
0.0
 10
60.472283404
 20
29.6419071841
 30
0.0
 10
60.293190171
 20
29.4744464909
 30
0.0
 10
60.1975932712
 20
29.4073657238
 30
0.0
 10
60.1492211193
 20
29.3794382156
 30
0.0
  0
SPLINE
  5
38C
100
AcDbEntity
  8
0
100
AcDbSpline
 62
7
  6
CONTINUOUS
 70
0
 71
3
 72
11
 73
7
 74
0
 42
0.0000001
 43
0.0000001
 44
0.0000000001
 40
0.0
 40
0.0
 40
0.0
 40
0.0
 40
0.2895396729
 40
0.5491163863
 40
0.7822545095
 40
1.0
 40
1.0
 40
1.0
 40
1.0
 10
39.8553409913
 20
17.6628309995
 30
0.0
 10
39.8334146737
 20
17.6501719097
 30
0.0
 10
39.7897597699
 20
17.6294317659
 30
0.0
 10
39.7226885659
 20
17.6131968519
 30
0.0
 10
39.6597236238
 20
17.6147780233
 30
0.0
 10
39.6218487596
 20
17.6285712527
 30
0.0
 10
39.6053592213
 20
17.6380912856
 30
0.0
  0
SPLINE
  5
38D
100
AcDbEntity
  8
0
100
AcDbSpline
 62
7
  6
CONTINUOUS
 70
0
 71
3
 72
11
 73
7
 74
0
 42
0.0000001
 43
0.0000001
 44
0.0000000001
 40
0.0
 40
0.0
 40
0.0
 40
0.0
 40
0.2112665346
 40
0.441872764
 40
0.7039727063
 40
1.0
 40
1.0
 40
1.0
 40
1.0
 10
34.1900776641
 20
36.766959034
 30
0.0
 10
34.1900495608
 20
36.7449135412
 30
0.0
 10
34.1997199197
 20
36.6984319974
 30
0.0
 10
34.2400107448
 20
36.6355621422
 30
0.0
 10
34.3024862243
 20
36.5807561943
 30
0.0
 10
34.3537828679
 20
36.5523332787
 30
0.0
 10
34.3819337314
 20
36.5396157516
 30
0.0
  0
SPLINE
  5
38E
100
AcDbEntity
  8
0
100
AcDbSpline
 62
7
  6
CONTINUOUS
 70
0
 71
3
 72
10
 73
6
 74
0
 42
0.0000001
 43
0.0000001
 44
0.0000000001
 40
0.0
 40
0.0
 40
0.0
 40
0.0
 40
0.225313866
 40
0.4627141821
 40
1.0
 40
1.0
 40
1.0
 40
1.0
 10
34.1900795125
 20
42.8907271622
 30
0.0
 10
34.1901003117
 20
42.9069744633
 30
0.0
 10
34.1953460797
 20
42.9405052472
 30
0.0
 10
34.2254673105
 20
43.0066489914
 30
0.0
 10
34.2658629504
 20
43.0482322176
 30
0.0
 10
34.2972096978
 20
43.0710015288
 30
0.0
  0
SPLINE
  5
38F
100
AcDbEntity
  8
0
100
AcDbSpline
 62
7
  6
CONTINUOUS
 70
0
 71
3
 72
11
 73
7
 74
0
 42
0.0000001
 43
0.0000001
 44
0.0000000001
 40
0.0
 40
0.0
 40
0.0
 40
0.0
 40
0.2177466922
 40
0.4508874003
 40
0.7104632454
 40
1.0
 40
1.0
 40
1.0
 40
1.0
 10
36.9963684704
 20
81.4601916182
 30
0.0
 10
36.9633889983
 20
81.4792319065
 30
0.0
 10
36.8876371201
 20
81.5068173448
 30
0.0
 10
36.7617059124
 20
81.5099729674
 30
0.0
 10
36.6275633783
 20
81.4775029877
 30
0.0
 10
36.5402532868
 20
81.4360231457
 30
0.0
 10
36.4964008132
 20
81.4107050594
 30
0.0
  0
SPLINE
  5
390
100
AcDbEntity
  8
0
100
AcDbSpline
 62
7
  6
CONTINUOUS
 70
0
 71
3
 72
11
 73
7
 74
0
 42
0.0000001
 43
0.0000001
 44
0.0000000001
 40
0.0
 40
0.0
 40
0.0
 40
0.0
 40
0.2177452872
 40
0.4508853899
 40
0.7104617589
 40
1.0
 40
1.0
 40
1.0
 40
1.0
 10
38.2691659761
 20
80.7253582598
 30
0.0
 10
38.3021465472
 20
80.7063173492
 30
0.0
 10
38.3639151405
 20
80.6545059707
 30
0.0
 10
38.4296165468
 20
80.5470203271
 30
0.0
 10
38.4685695862
 20
80.4146089787
 30
0.0
 10
38.4763021557
 20
80.3182521034
 30
0.0
 10
38.4763021557
 20
80.267613438
 30
0.0
  0
SPLINE
  5
391
100
AcDbEntity
  8
0
100
AcDbSpline
 62
7
  6
CONTINUOUS
 70
0
 71
3
 72
11
 73
7
 74
0
 42
0.0000001
 43
0.0000001
 44
0.0000000001
 40
0.0
 40
0.0
 40
0.0
 40
0.0
 40
0.2178882654
 40
0.4509994542
 40
0.7106586796
 40
1.0
 40
1.0
 40
1.0
 40
1.0
 10
50.570330971
 20
77.4541607138
 30
0.0
 10
50.5868432519
 20
77.4446538077
 30
0.0
 10
50.6177376785
 20
77.4187353552
 30
0.0
 10
50.650588015
 20
77.3649724197
 30
0.0
 10
50.6700109811
 20
77.2987661785
 30
0.0
 10
50.6739066429
 20
77.250603397
 30
0.0
 10
50.6739066429
 20
77.2253015705
 30
0.0
  0
SPLINE
  5
392
100
AcDbEntity
  8
0
100
AcDbSpline
 62
7
  6
CONTINUOUS
 70
0
 71
3
 72
11
 73
7
 74
0
 42
0.0000001
 43
0.0000001
 44
0.0000000001
 40
0.0
 40
0.0
 40
0.0
 40
0.0
 40
0.2177466922
 40
0.4508874003
 40
0.7104632454
 40
1.0
 40
1.0
 40
1.0
 40
1.0
 10
59.4824577301
 20
68.4781356244
 30
0.0
 10
59.449478258
 20
68.4971759128
 30
0.0
 10
59.3737263798
 20
68.524761351
 30
0.0
 10
59.2477951721
 20
68.5279169737
 30
0.0
 10
59.113652638
 20
68.4954469939
 30
0.0
 10
59.0263425465
 20
68.453967152
 30
0.0
 10
58.9824900728
 20
68.4286490657
 30
0.0
  0
SPLINE
  5
393
100
AcDbEntity
  8
0
100
AcDbSpline
 62
7
  6
CONTINUOUS
 70
0
 71
3
 72
11
 73
7
 74
0
 42
0.0000001
 43
0.0000001
 44
0.0000000001
 40
0.0
 40
0.0
 40
0.0
 40
0.0
 40
0.2177452872
 40
0.4508853899
 40
0.7104617589
 40
1.0
 40
1.0
 40
1.0
 40
1.0
 10
60.649188777
 20
67.8045383792
 30
0.0
 10
60.6821693482
 20
67.7854974686
 30
0.0
 10
60.7439379414
 20
67.7336860901
 30
0.0
 10
60.8096393477
 20
67.6262004466
 30
0.0
 10
60.8485923871
 20
67.4937890982
 30
0.0
 10
60.8563249566
 20
67.3974322228
 30
0.0
 10
60.8563249566
 20
67.3467935575
 30
0.0
  0
SPLINE
  5
394
100
AcDbEntity
  8
0
100
AcDbSpline
 62
7
  6
CONTINUOUS
 70
0
 71
3
 72
11
 73
7
 74
0
 42
0.0000001
 43
0.0000001
 44
0.0000000001
 40
0.0
 40
0.0
 40
0.0
 40
0.0
 40
0.2177466922
 40
0.4508874003
 40
0.7104632454
 40
1.0
 40
1.0
 40
1.0
 40
1.0
 10
29.6070718426
 20
85.7263075029
 30
0.0
 10
29.5740923705
 20
85.7453477913
 30
0.0
 10
29.4983404923
 20
85.7729332295
 30
0.0
 10
29.3724092846
 20
85.7760888522
 30
0.0
 10
29.2382667505
 20
85.7436188724
 30
0.0
 10
29.150956659
 20
85.7021390305
 30
0.0
 10
29.1071041854
 20
85.6768209441
 30
0.0
  0
SPLINE
  5
395
100
AcDbEntity
  8
0
100
AcDbSpline
 62
7
  6
CONTINUOUS
 70
0
 71
3
 72
11
 73
7
 74
0
 42
0.0000001
 43
0.0000001
 44
0.0000000001
 40
0.0
 40
0.0
 40
0.0
 40
0.0
 40
0.2177452872
 40
0.4508853899
 40
0.7104617589
 40
1.0
 40
1.0
 40
1.0
 40
1.0
 10
30.7738028895
 20
85.0527102577
 30
0.0
 10
30.8067834607
 20
85.0336693471
 30
0.0
 10
30.8685520539
 20
84.9818579686
 30
0.0
 10
30.9342534603
 20
84.8743723251
 30
0.0
 10
30.9732064996
 20
84.7419609766
 30
0.0
 10
30.9809390691
 20
84.6456041013
 30
0.0
 10
30.9809390691
 20
84.5949654359
 30
0.0
  0
SPLINE
  5
396
100
AcDbEntity
  8
0
100
AcDbSpline
 62
7
  6
CONTINUOUS
 70
0
 71
3
 72
11
 73
7
 74
0
 42
0.0000001
 43
0.0000001
 44
0.0000000001
 40
0.0
 40
0.0
 40
0.0
 40
0.0
 40
0.2372428334
 40
0.4999989082
 40
0.7627555772
 40
1.0
 40
1.0
 40
1.0
 40
1.0
 10
16.4500226312
 20
45.2194818189
 30
0.0
 10
16.4349640468
 20
45.2281756999
 30
0.0
 10
16.4064690075
 20
45.2521598497
 30
0.0
 10
16.3732106374
 20
45.297608563
 30
0.0
 10
16.3504798016
 20
45.3491355173
 30
0.0
 10
16.3439561724
 20
45.385805121
 30
0.0
 10
16.3439561724
 20
45.4031932946
 30
0.0
  0
SPLINE
  5
397
100
AcDbEntity
  8
0
100
AcDbSpline
 62
7
  6
CONTINUOUS
 70
0
 71
3
 72
11
 73
7
 74
0
 42
0.0000001
 43
0.0000001
 44
0.0000000001
 40
0.0
 40
0.0
 40
0.0
 40
0.0
 40
0.2372444228
 40
0.5000010918
 40
0.7627571666
 40
1.0
 40
1.0
 40
1.0
 40
1.0
 10
29.7790350623
 20
44.750172479
 30
0.0
 10
29.7790350623
 20
44.7675606526
 30
0.0
 10
29.7725114331
 20
44.8042302563
 30
0.0
 10
29.7497805973
 20
44.8557572106
 30
0.0
 10
29.7165222272
 20
44.9012059239
 30
0.0
 10
29.6880271879
 20
44.9251900737
 30
0.0
 10
29.6729686035
 20
44.9338839548
 30
0.0
  0
SPLINE
  5
398
100
AcDbEntity
  8
0
100
AcDbSpline
 62
7
  6
CONTINUOUS
 70
0
 71
3
 72
11
 73
7
 74
0
 42
0.0000001
 43
0.0000001
 44
0.0000000001
 40
0.0
 40
0.0
 40
0.0
 40
0.0
 40
0.2420143659
 40
0.501318673
 40
0.7597418175
 40
1.0
 40
1.0
 40
1.0
 40
1.0
 10
36.3924208509
 20
35.6507050496
 30
0.0
 10
36.438694009
 20
35.6306843591
 30
0.0
 10
36.5400312511
 20
35.6015192442
 30
0.0
 10
36.6985913894
 20
35.5881065669
 30
0.0
 10
36.8565902681
 20
35.6037687279
 30
0.0
 10
36.9569014011
 20
35.6345532049
 30
0.0
 10
37.0024420871
 20
35.6553214579
 30
0.0
  0
SPLINE
  5
399
100
AcDbEntity
  8
0
100
AcDbSpline
 62
7
  6
CONTINUOUS
 70
0
 71
3
 72
11
 73
7
 74
0
 42
0.0000001
 43
0.0000001
 44
0.0000000001
 40
0.0
 40
0.0
 40
0.0
 40
0.0
 40
0.2895367714
 40
0.5491125021
 40
0.7822532276
 40
1.0
 40
1.0
 40
1.0
 40
1.0
 10
30.2738352319
 20
85.0032236992
 30
0.0
 10
30.3176877083
 20
85.0285417872
 30
0.0
 10
30.4049977748
 20
85.0700216514
 30
0.0
 10
30.539140303
 20
85.1024915838
 30
0.0
 10
30.6650715109
 20
85.0993360069
 30
0.0
 10
30.7408233997
 20
85.071750544
 30
0.0
 10
30.7738028895
 20
85.0527102577
 30
0.0
  0
SPLINE
  5
39A
100
AcDbEntity
  8
0
100
AcDbSpline
 62
7
  6
CONTINUOUS
 70
0
 71
3
 72
11
 73
7
 74
0
 42
0.0000001
 43
0.0000001
 44
0.0000000001
 40
0.0
 40
0.0
 40
0.0
 40
0.0
 40
0.2895367714
 40
0.5491125021
 40
0.7822532276
 40
1.0
 40
1.0
 40
1.0
 40
1.0
 10
52.7599244915
 20
72.0211677054
 30
0.0
 10
52.803776968
 20
72.0464857934
 30
0.0
 10
52.8910870345
 20
72.0879656577
 30
0.0
 10
53.0252295627
 20
72.1204355901
 30
0.0
 10
53.1511607706
 20
72.1172800131
 30
0.0
 10
53.2269126594
 20
72.0896945502
 30
0.0
 10
53.2598921492
 20
72.070654264
 30
0.0
  0
SPLINE
  5
39B
100
AcDbEntity
  8
0
100
AcDbSpline
 62
7
  6
CONTINUOUS
 70
0
 71
3
 72
11
 73
7
 74
0
 42
0.0000001
 43
0.0000001
 44
0.0000000001
 40
0.0
 40
0.0
 40
0.0
 40
0.0
 40
0.2372428334
 40
0.4999989082
 40
0.7627555772
 40
1.0
 40
1.0
 40
1.0
 40
1.0
 10
28.9658647663
 20
44.5256398009
 30
0.0
 10
28.9809233507
 20
44.5169459198
 30
0.0
 10
29.00941839
 20
44.4929617701
 30
0.0
 10
29.0426767601
 20
44.4475130567
 30
0.0
 10
29.0654075959
 20
44.3959861024
 30
0.0
 10
29.0719312251
 20
44.3593164988
 30
0.0
 10
29.0719312251
 20
44.3419283251
 30
0.0
  0
SPLINE
  5
39C
100
AcDbEntity
  8
0
100
AcDbSpline
 62
7
  6
CONTINUOUS
 70
0
 71
3
 72
11
 73
7
 74
0
 42
0.0000001
 43
0.0000001
 44
0.0000000001
 40
0.0
 40
0.0
 40
0.0
 40
0.0
 40
0.2895367714
 40
0.5491125021
 40
0.7822532276
 40
1.0
 40
1.0
 40
1.0
 40
1.0
 10
37.7691983184
 20
80.6758717013
 30
0.0
 10
37.8130507949
 20
80.7011897892
 30
0.0
 10
37.9003608614
 20
80.7426696535
 30
0.0
 10
38.0345033896
 20
80.7751395859
 30
0.0
 10
38.1604345975
 20
80.771984009
 30
0.0
 10
38.2361864863
 20
80.7443985461
 30
0.0
 10
38.2691659761
 20
80.7253582598
 30
0.0
  0
SPLINE
  5
39D
100
AcDbEntity
  8
0
100
AcDbSpline
 62
7
  6
CONTINUOUS
 70
0
 71
3
 72
9
 73
5
 74
0
 42
0.0000001
 43
0.0000001
 44
0.0000000001
 40
0.0
 40
0.0
 40
0.0
 40
0.0
 40
0.5169443077
 40
1.0
 40
1.0
 40
1.0
 40
1.0
 10
36.7285832617
 20
41.7175715843
 30
0.0
 10
36.6695293437
 20
41.7150883888
 30
0.0
 10
36.5545508278
 20
41.7218371808
 30
0.0
 10
36.4431110864
 20
41.7525413809
 30
0.0
 10
36.3924208509
 20
41.774473178
 30
0.0
  0
SPLINE
  5
39E
100
AcDbEntity
  8
0
100
AcDbSpline
 62
7
  6
CONTINUOUS
 70
0
 71
3
 72
11
 73
7
 74
0
 42
0.0000001
 43
0.0000001
 44
0.0000000001
 40
0.0
 40
0.0
 40
0.0
 40
0.0
 40
0.2960278366
 40
0.5581399596
 40
0.7887399922
 40
1.0
 40
1.0
 40
1.0
 40
1.0
 10
34.3819337314
 20
42.66338388
 30
0.0
 10
34.3537828213
 20
42.6761014283
 30
0.0
 10
34.3024868665
 20
42.7045282995
 30
0.0
 10
34.240009376
 20
42.7593317512
 30
0.0
 10
34.1997152685
 20
42.8222009332
 30
0.0
 10
34.1900512915
 20
42.8686823545
 30
0.0
 10
34.1900795125
 20
42.8907271622
 30
0.0
  0
SPLINE
  5
39F
100
AcDbEntity
  8
0
100
AcDbSpline
 62
7
  6
CONTINUOUS
 70
0
 71
3
 72
11
 73
7
 74
0
 42
0.0000001
 43
0.0000001
 44
0.0000000001
 40
0.0
 40
0.0
 40
0.0
 40
0.0
 40
0.2177442246
 40
0.4508817658
 40
0.7104588047
 40
1.0
 40
1.0
 40
1.0
 40
1.0
 10
39.6053592213
 20
17.6380912856
 30
0.0
 10
39.5888691252
 20
17.6476116404
 30
0.0
 10
39.5579849031
 20
17.6735161415
 30
0.0
 10
39.5251316482
 20
17.7272567252
 30
0.0
 10
39.5056550632
 20
17.7934622839
 30
0.0
 10
39.5017890727
 20
17.8416407016
 30
0.0
 10
39.5017890727
 20
17.8669601311
 30
0.0
  0
SPLINE
  5
3A0
100
AcDbEntity
  8
0
100
AcDbSpline
 62
7
  6
CONTINUOUS
 70
0
 71
3
 72
11
 73
7
 74
0
 42
0.0000001
 43
0.0000001
 44
0.0000000001
 40
0.0
 40
0.0
 40
0.0
 40
0.0
 40
0.2895367714
 40
0.5491125021
 40
0.7822532276
 40
1.0
 40
1.0
 40
1.0
 40
1.0
 10
60.1492211193
 20
67.7550518207
 30
0.0
 10
60.1930735958
 20
67.7803699087
 30
0.0
 10
60.2803836623
 20
67.8218497729
 30
0.0
 10
60.4145261905
 20
67.8543197054
 30
0.0
 10
60.5404573984
 20
67.8511641284
 30
0.0
 10
60.6162092872
 20
67.8235786655
 30
0.0
 10
60.649188777
 20
67.8045383792
 30
0.0
  0
SPLINE
  5
3A1
100
AcDbEntity
  8
0
100
AcDbSpline
 62
7
  6
CONTINUOUS
 70
0
 71
3
 72
11
 73
7
 74
0
 42
0.0000001
 43
0.0000001
 44
0.0000000001
 40
0.0
 40
0.0
 40
0.0
 40
0.0
 40
0.2372542275
 40
0.5000017852
 40
0.7627483734
 40
1.0
 40
1.0
 40
1.0
 40
1.0
 10
39.5017890727
 20
55.4260713191
 30
0.0
 10
39.5017890727
 20
55.4840342917
 30
0.0
 10
39.5235210266
 20
55.6062708586
 30
0.0
 10
39.5993232215
 20
55.7780092995
 30
0.0
 10
39.7101508461
 20
55.9295251825
 30
0.0
 10
39.8051440599
 20
56.0094635657
 30
0.0
 10
39.8553409913
 20
56.0384446046
 30
0.0
  0
SPLINE
  5
3A2
100
AcDbEntity
  8
INTFCLR_74
100
AcDbSpline
 62
7
420
48875
  6
CONTINUOUS
 70
0
 71
3
 72
11
 73
7
 74
0
 42
0.0000001
 43
0.0000001
 44
0.0000000001
 40
0.0
 40
0.0
 40
0.0
 40
0.0
 40
0.125
 40
0.25
 40
0.5
 40
1.0
 40
1.0
 40
1.0
 40
1.0
 10
8.4596721387
 20
73.3478404425
 30
0.0
 10
8.4601563373
 20
73.3587884609
 30
0.0
 10
8.4606442765
 20
73.380467189
 30
0.0
 10
8.4654638192
 20
73.425563115
 30
0.0
 10
8.4790342257
 20
73.5069531882
 30
0.0
 10
8.5070391143
 20
73.5793132197
 30
0.0
 10
8.5273854493
 20
73.6272016607
 30
0.0
  0
SPLINE
  5
3A3
100
AcDbEntity
  8
INTFCLR_74
100
AcDbSpline
 62
7
420
48875
  6
CONTINUOUS
 70
0
 71
3
 72
9
 73
5
 74
0
 42
0.0000001
 43
0.0000001
 44
0.0000000001
 40
0.0
 40
0.0
 40
0.0
 40
0.0
 40
0.5
 40
1.0
 40
1.0
 40
1.0
 40
1.0
 10
8.5273854514
 20
73.6272016653
 30
0.0
 10
8.5378911246
 20
73.6491036756
 30
0.0
 10
8.5612097397
 20
73.6959737768
 30
0.0
 10
8.5900205114
 20
73.7397054357
 30
0.0
 10
8.6053286077
 20
73.7621473831
 30
0.0
  0
SPLINE
  5
3A4
100
AcDbEntity
  8
INTFCLR_74
100
AcDbSpline
 62
7
420
48875
  6
CONTINUOUS
 70
0
 71
3
 72
11
 73
7
 74
0
 42
0.0000001
 43
0.0000001
 44
0.0000000001
 40
0.0
 40
0.0
 40
0.0
 40
0.0
 40
0.5
 40
0.75
 40
0.875
 40
1.0
 40
1.0
 40
1.0
 40
1.0
 10
8.6053286046
 20
73.7621473788
 30
0.0
 10
8.636359409
 20
73.8033470479
 30
0.0
 10
8.6850189647
 20
73.8637943907
 30
0.0
 10
8.7487034548
 20
73.9162536668
 30
0.0
 10
8.7853642749
 20
73.9429971265
 30
0.0
 10
8.8039595374
 20
73.9543026814
 30
0.0
 10
8.8132240621
 20
73.9602137308
 30
0.0
  0
SPLINE
  5
3A5
100
AcDbEntity
  8
INTFCLR_74
100
AcDbSpline
 62
7
420
48875
  6
CONTINUOUS
 70
0
 71
3
 72
9
 73
5
 74
0
 42
0.0000001
 43
0.0000001
 44
0.0000000001
 40
0.0
 40
0.0
 40
0.0
 40
0.0
 40
0.5
 40
1.0
 40
1.0
 40
1.0
 40
1.0
 10
8.5632282991
 20
35.5598361807
 30
0.0
 10
8.5571948281
 20
35.563491872
 30
0.0
 10
8.5444172897
 20
35.571609159
 30
0.0
 10
8.5331112958
 20
35.5820324767
 30
0.0
 10
8.5272547575
 20
35.5876881599
 30
0.0
  0
SPLINE
  5
3A6
100
AcDbEntity
  8
INTFCLR_74
100
AcDbSpline
 62
7
420
48875
  6
CONTINUOUS
 70
0
 71
3
 72
9
 73
5
 74
0
 42
0.0000001
 43
0.0000001
 44
0.0000000001
 40
0.0
 40
0.0
 40
0.0
 40
0.0
 40
0.5
 40
1.0
 40
1.0
 40
1.0
 40
1.0
 10
8.5272547585
 20
35.5876881588
 30
0.0
 10
8.5115029087
 20
35.6058498383
 30
0.0
 10
8.481187306
 20
35.6453570904
 30
0.0
 10
8.4679417067
 20
35.7057222057
 30
0.0
 10
8.4628267103
 20
35.736135973
 30
0.0
  0
SPLINE
  5
3A7
100
AcDbEntity
  8
INTFCLR_74
100
AcDbSpline
 62
7
420
48875
  6
CONTINUOUS
 70
0
 71
3
 72
12
 73
8
 74
0
 42
0.0000001
 43
0.0000001
 44
0.0000000001
 40
0.0
 40
0.0
 40
0.0
 40
0.0
 40
0.25
 40
0.375
 40
0.5
 40
0.75
 40
1.0
 40
1.0
 40
1.0
 40
1.0
 10
8.4628267099
 20
35.7361359756
 30
0.0
 10
8.4623716901
 20
35.7401159798
 30
0.0
 10
8.4616990404
 20
35.7460244417
 30
0.0
 10
8.4609937962
 20
35.7543122365
 30
0.0
 10
8.4602505107
 20
35.7645172863
 30
0.0
 10
8.4598862377
 20
35.77346714
 30
0.0
 10
8.4597294945
 20
35.783562959
 30
0.0
 10
8.4596721387
 20
35.7887292567
 30
0.0
  0
SPLINE
  5
3A8
100
AcDbEntity
  8
INTFCLR_74
100
AcDbSpline
 62
7
420
48875
  6
CONTINUOUS
 70
0
 71
3
 72
21
 73
17
 74
0
 42
0.0000001
 43
0.0000001
 44
0.0000000001
 40
0.0
 40
0.0
 40
0.0
 40
0.0
 40
0.125
 40
0.1875
 40
0.25
 40
0.3125
 40
0.375
 40
0.4375
 40
0.5
 40
0.5625
 40
0.625
 40
0.6875
 40
0.75
 40
0.8125
 40
0.875
 40
1.0
 40
1.0
 40
1.0
 40
1.0
 10
29.1071041854
 20
85.6768209441
 30
0.0
 10
29.1206662652
 20
85.6840493591
 30
0.0
 10
29.1410261053
 20
85.6950642105
 30
0.0
 10
29.168105677
 20
85.7090617631
 30
0.0
 10
29.1883427356
 20
85.7175447415
 30
0.0
 10
29.2084240661
 20
85.7269579699
 30
0.0
 10
29.2292009289
 20
85.7346653847
 30
0.0
 10
29.2499980017
 20
85.7416759868
 30
0.0
 10
29.2713420078
 20
85.7498847449
 30
0.0
 10
29.2904780706
 20
85.7539976917
 30
0.0
 10
29.3102389187
 20
85.7593311969
 30
0.0
 10
29.3297085689
 20
85.7638782796
 30
0.0
 10
29.3487626173
 20
85.7663619206
 30
0.0
 10
29.3678590544
 20
85.7699086037
 30
0.0
 10
29.3936490332
 20
85.771719212
 30
0.0
 10
29.4130805977
 20
85.7725247662
 30
0.0
 10
29.4260151783
 20
85.7731845583
 30
0.0
  0
SPLINE
  5
3A9
100
AcDbEntity
  8
INTFCLR_74
100
AcDbSpline
 62
7
420
48875
  6
CONTINUOUS
 70
0
 71
3
 72
12
 73
8
 74
0
 42
0.0000001
 43
0.0000001
 44
0.0000000001
 40
0.0
 40
0.0
 40
0.0
 40
0.0
 40
0.25
 40
0.5
 40
0.625
 40
0.75
 40
1.0
 40
1.0
 40
1.0
 40
1.0
 10
29.4260151713
 20
85.7731845583
 30
0.0
 10
29.4336771887
 20
85.7730008458
 30
0.0
 10
29.4491450229
 20
85.772593435
 30
0.0
 10
29.4726215158
 20
85.7704852512
 30
0.0
 10
29.4862574917
 20
85.7684053986
 30
0.0
 10
29.5024555486
 20
85.7656133598
 30
0.0
 10
29.5150789928
 20
85.7626490192
 30
0.0
 10
29.5234768051
 20
85.7606463648
 30
0.0
  0
SPLINE
  5
3AA
100
AcDbEntity
  8
INTFCLR_74
100
AcDbSpline
 62
7
420
48875
  6
CONTINUOUS
 70
0
 71
3
 72
13
 73
9
 74
0
 42
0.0000001
 43
0.0000001
 44
0.0000000001
 40
0.0
 40
0.0
 40
0.0
 40
0.0
 40
0.25
 40
0.375
 40
0.5
 40
0.625
 40
0.75
 40
1.0
 40
1.0
 40
1.0
 40
1.0
 10
29.5234768078
 20
85.7606463641
 30
0.0
 10
29.5303963432
 20
85.7586694498
 30
0.0
 10
29.5407053845
 20
85.7557129178
 30
0.0
 10
29.5543465523
 20
85.7509327865
 30
0.0
 10
29.5666832064
 20
85.7462991327
 30
0.0
 10
29.5754951143
 20
85.7423993821
 30
0.0
 10
29.5900778455
 20
85.7356184102
 30
0.0
 10
29.6003566294
 20
85.7300352227
 30
0.0
 10
29.6070957039
 20
85.7263488275
 30
0.0
  0
ELLIPSE
  5
3AB
100
AcDbEntity
  8
0
100
AcDbEllipse
 62
7
  6
CONTINUOUS
 10
11.6770213882
 20
69.9634854894
 30
0.0
 11
-0.5800292635
 21
1.0738557001
 31
0.0
 40
0.5767366485
 41
-2.3234365399
 42
-0.7526402131
  0
ELLIPSE
  5
3AC
100
AcDbEntity
  8
0
100
AcDbEllipse
 62
7
  6
CONTINUOUS
 10
14.5761712613
 20
68.2896983959
 30
0.0
 11
-0.5800292635
 21
1.0738557001
 31
0.0
 40
0.5767366485
 41
-2.3234365399
 42
-0.7526402131
  0
ELLIPSE
  5
3AD
100
AcDbEntity
  8
0
100
AcDbEllipse
 62
7
  6
CONTINUOUS
 10
19.1723844747
 20
65.6361334915
 30
0.0
 11
-0.5800292635
 21
1.0738557001
 31
0.0
 40
0.5767366485
 41
-2.3234365399
 42
-0.7526402131
  0
ELLIPSE
  5
3AE
100
AcDbEntity
  8
0
100
AcDbEllipse
 62
7
  6
CONTINUOUS
 10
22.0715343478
 20
63.962346398
 30
0.0
 11
-0.5800292635
 21
1.0738557001
 31
0.0
 40
0.5767366485
 41
-2.3234365399
 42
-0.7526402131
  0
ELLIPSE
  5
3AF
100
AcDbEntity
  8
0
100
AcDbEllipse
 62
7
  6
CONTINUOUS
 10
26.6677475613
 20
61.3087814936
 30
0.0
 11
-0.5800292635
 21
1.0738557001
 31
0.0
 40
0.5767366485
 41
-2.3234365399
 42
-0.7526402131
  0
ELLIPSE
  5
3B0
100
AcDbEntity
  8
0
100
AcDbEllipse
 62
7
  6
CONTINUOUS
 10
29.5668974344
 20
59.6349944001
 30
0.0
 11
-0.5800292635
 21
1.0738557001
 31
0.0
 40
0.5767366485
 41
-2.3234365399
 42
-0.7526402131
  0
ELLIPSE
  5
3B1
100
AcDbEntity
  8
0
100
AcDbEllipse
 62
7
  6
CONTINUOUS
 10
34.1631106478
 20
56.9814294957
 30
0.0
 11
-0.5800292635
 21
1.0738557001
 31
0.0
 40
0.5767366485
 41
-2.3234365399
 42
-0.7526402131
  0
ELLIPSE
  5
3B2
100
AcDbEntity
  8
0
100
AcDbEllipse
 62
7
  6
CONTINUOUS
 10
37.0622605209
 20
55.3076424022
 30
0.0
 11
-0.5800292635
 21
1.0738557001
 31
0.0
 40
0.5767366485
 41
-2.3234365399
 42
-0.7526402131
  0
ELLIPSE
  5
3B3
100
AcDbEntity
  8
0
100
AcDbEllipse
 62
7
  6
CONTINUOUS
 10
10.8992006905
 20
35.9071581715
 30
0.0
 11
-0.5800292635
 21
1.0738557001
 31
0.0
 40
0.5767366485
 41
0.8181561137
 42
2.3889524405
  0
ELLIPSE
  5
3B4
100
AcDbEntity
  8
0
100
AcDbEllipse
 62
7
  6
CONTINUOUS
 10
11.6770213882
 20
35.4580933415
 30
0.0
 11
-0.5800292635
 21
1.0738557001
 31
0.0
 40
0.5767366485
 41
-3.8942328667
 42
-2.3234365399
  0
ELLIPSE
  5
3B5
100
AcDbEntity
  8
0
100
AcDbEllipse
 62
7
  6
CONTINUOUS
 10
13.7983505636
 20
34.233371078
 30
0.0
 11
-0.5800292635
 21
1.0738557001
 31
0.0
 40
0.5767366485
 41
0.8181561137
 42
2.3889524405
  0
ELLIPSE
  5
3B6
100
AcDbEntity
  8
0
100
AcDbEllipse
 62
7
  6
CONTINUOUS
 10
14.5761712613
 20
33.784306248
 30
0.0
 11
-0.5800292635
 21
1.0738557001
 31
0.0
 40
0.5767366485
 41
-3.8942328667
 42
-2.3234365399
  0
ELLIPSE
  5
3B7
100
AcDbEntity
  8
0
100
AcDbEllipse
 62
7
  6
CONTINUOUS
 10
18.3945637771
 20
31.5798061736
 30
0.0
 11
-0.5800292635
 21
1.0738557001
 31
0.0
 40
0.5767366485
 41
0.8181561137
 42
2.3889524405
  0
ELLIPSE
  5
3B8
100
AcDbEntity
  8
0
100
AcDbEllipse
 62
7
  6
CONTINUOUS
 10
19.1723844747
 20
31.1307413436
 30
0.0
 11
-0.5800292635
 21
1.0738557001
 31
0.0
 40
0.5767366485
 41
-3.8942328667
 42
-2.3234365399
  0
ELLIPSE
  5
3B9
100
AcDbEntity
  8
0
100
AcDbEllipse
 62
7
  6
CONTINUOUS
 10
21.2937136502
 20
29.9060190801
 30
0.0
 11
-0.5800292635
 21
1.0738557001
 31
0.0
 40
0.5767366485
 41
0.8181561137
 42
2.3889524405
  0
ELLIPSE
  5
3BA
100
AcDbEntity
  8
0
100
AcDbEllipse
 62
7
  6
CONTINUOUS
 10
22.0715343478
 20
29.4569542501
 30
0.0
 11
-0.5800292635
 21
1.0738557001
 31
0.0
 40
0.5767366485
 41
-3.8942328667
 42
-2.3234365399
  0
ELLIPSE
  5
3BB
100
AcDbEntity
  8
0
100
AcDbEllipse
 62
7
  6
CONTINUOUS
 10
26.6677475613
 20
26.8033893457
 30
0.0
 11
-0.5800292635
 21
1.0738557001
 31
0.0
 40
0.5767366485
 41
-3.8942328667
 42
-2.3234365399
  0
ELLIPSE
  5
3BC
100
AcDbEntity
  8
0
100
AcDbEllipse
 62
7
  6
CONTINUOUS
 10
25.8899268636
 20
27.2524541757
 30
0.0
 11
-0.5800292635
 21
1.0738557001
 31
0.0
 40
0.5767366485
 41
0.8181561137
 42
2.3889524405
  0
ELLIPSE
  5
3BD
100
AcDbEntity
  8
0
100
AcDbEllipse
 62
7
  6
CONTINUOUS
 10
28.7890767367
 20
25.5786670822
 30
0.0
 11
-0.5800292635
 21
1.0738557001
 31
0.0
 40
0.5767366485
 41
0.8181561137
 42
2.3889524405
  0
ELLIPSE
  5
3BE
100
AcDbEntity
  8
0
100
AcDbEllipse
 62
7
  6
CONTINUOUS
 10
29.5668974344
 20
25.1296022522
 30
0.0
 11
-0.5800292635
 21
1.0738557001
 31
0.0
 40
0.5767366485
 41
-3.8942328667
 42
-2.3234365399
  0
ELLIPSE
  5
3BF
100
AcDbEntity
  8
0
100
AcDbEllipse
 62
7
  6
CONTINUOUS
 10
33.3852899502
 20
22.9251021778
 30
0.0
 11
-0.5800292635
 21
1.0738557001
 31
0.0
 40
0.5767366485
 41
0.8181561137
 42
2.3889524405
  0
ELLIPSE
  5
3C0
100
AcDbEntity
  8
0
100
AcDbEllipse
 62
7
  6
CONTINUOUS
 10
34.1631106478
 20
22.4760373478
 30
0.0
 11
-0.5800292635
 21
1.0738557001
 31
0.0
 40
0.5767366485
 41
-3.8942328667
 42
-2.3234365399
  0
ELLIPSE
  5
3C1
100
AcDbEntity
  8
0
100
AcDbEllipse
 62
7
  6
CONTINUOUS
 10
36.2844398233
 20
21.2513150842
 30
0.0
 11
-0.5800292635
 21
1.0738557001
 31
0.0
 40
0.5767366485
 41
0.8181561137
 42
2.3889524405
  0
ELLIPSE
  5
3C2
100
AcDbEntity
  8
0
100
AcDbEllipse
 62
7
  6
CONTINUOUS
 10
37.0622605209
 20
20.8022502543
 30
0.0
 11
-0.5800292635
 21
1.0738557001
 31
0.0
 40
0.5767366485
 41
-3.8942328667
 42
-2.3234365399
  0
ELLIPSE
  5
3C3
100
AcDbEntity
  8
0
100
AcDbEllipse
 62
7
  6
CONTINUOUS
 10
36.2844398233
 20
55.7567072321
 30
0.0
 11
-0.5800292635
 21
1.0738557001
 31
0.0
 40
0.5767366485
 41
5.530545094
 42
7.1013414208
  0
ELLIPSE
  5
3C4
100
AcDbEntity
  8
0
100
AcDbEllipse
 62
7
  6
CONTINUOUS
 10
33.3852899502
 20
57.4304943257
 30
0.0
 11
-0.5800292635
 21
1.0738557001
 31
0.0
 40
0.5767366485
 41
5.530545094
 42
7.1013414208
  0
ELLIPSE
  5
3C5
100
AcDbEntity
  8
0
100
AcDbEllipse
 62
7
  6
CONTINUOUS
 10
28.7890767367
 20
60.08405923
 30
0.0
 11
-0.5800292635
 21
1.0738557001
 31
0.0
 40
0.5767366485
 41
5.530545094
 42
7.1013414208
  0
ELLIPSE
  5
3C6
100
AcDbEntity
  8
0
100
AcDbEllipse
 62
7
  6
CONTINUOUS
 10
25.8899268636
 20
61.7578463236
 30
0.0
 11
-0.5800292635
 21
1.0738557001
 31
0.0
 40
0.5767366485
 41
5.530545094
 42
7.1013414208
  0
ELLIPSE
  5
3C7
100
AcDbEntity
  8
0
100
AcDbEllipse
 62
7
  6
CONTINUOUS
 10
21.2937136502
 20
64.411411228
 30
0.0
 11
-0.5800292635
 21
1.0738557001
 31
0.0
 40
0.5767366485
 41
5.530545094
 42
7.1013414208
  0
ELLIPSE
  5
3C8
100
AcDbEntity
  8
0
100
AcDbEllipse
 62
7
  6
CONTINUOUS
 10
13.7983505636
 20
68.7387632259
 30
0.0
 11
-0.5800292635
 21
1.0738557001
 31
0.0
 40
0.5767366485
 41
5.530545094
 42
7.1013414208
  0
ELLIPSE
  5
3C9
100
AcDbEntity
  8
0
100
AcDbEllipse
 62
7
  6
CONTINUOUS
 10
18.3945637771
 20
66.0851983215
 30
0.0
 11
-0.5800292635
 21
1.0738557001
 31
0.0
 40
0.5767366485
 41
5.530545094
 42
7.1013414208
  0
ELLIPSE
  5
3CA
100
AcDbEntity
  8
0
100
AcDbEllipse
 62
7
  6
CONTINUOUS
 10
10.8992006905
 20
70.4125503194
 30
0.0
 11
-0.5800292635
 21
1.0738557001
 31
0.0
 40
0.5767366485
 41
5.530545094
 42
7.1013414208
  0
ENDSEC
  0
SECTION
  2
OBJECTS
  0
DICTIONARY
  5
C
100
AcDbDictionary
280
0
281
1
  3
ACAD_GROUP
350
D
  3
ACAD_MLINESTYLE
350
17
  3
ACAD_LAYOUT
350
1A
  3
ACAD_PLOTSETTINGS
350
19
  3
ACAD_PLOTSTYLENAME
350
E
  0
DICTIONARY
  5
D
102
{ACAD_REACTORS
330
C
102
}
100
AcDbDictionary
280
0
281
1
  0
ACDBDICTIONARYWDFLT
  5
E
102
{ACAD_REACTORS
330
C
102
}
100
AcDbDictionary
281
1
  3
Normal
350
F
100
AcDbDictionaryWithDefault
340
F
  0
DICTIONARY
  5
17
102
{ACAD_REACTORS
330
C
102
}
100
AcDbDictionary
280
0
281
1
  3
Standard
350
18
  0
DICTIONARY
  5
19
102
{ACAD_REACTORS
330
C
102
}
100
AcDbDictionary
281
1
  0
DICTIONARY
  5
1A
102
{ACAD_REACTORS
330
C
102
}
100
AcDbDictionary
281
1
  3
Model
350
3CB
  3
Layout1
350
3CC
  0
ACDBPLACEHOLDER
  5
F
102
{ACAD_REACTORS
330
E
102
}
  0
MLINESTYLE
  5
18
102
{ACAD_REACTORS
330
17
102
}
100
AcDbMlineStyle
  2
STANDARD
 70
0
  3

 62
256
 51
90.0
 52
90.0
 71
2
 49
0.5
 62
256
  6
BYLAYER
 49
-0.5
 62
256
  6
BYLAYER
  0
LAYOUT
  5
3CB
102
{ACAD_REACTORS
330
1A
102
}
100
AcDbPlotSettings
  1

  2
none_device
  4

  6

 40
0.0
 41
0.0
 42
0.0
 43
0.0
 44
210.0
 45
297.0
 46
0.0
 47
0.0
 48
0.0
 49
0.0
140
0.0
141
0.0
142
1.0
143
1.0
 70
1024
 72
1
 73
0
 74
0
  7

 75
0
147
1.0
148
0.0
149
0.0
100
AcDbLayout
  1
Model
 70
0
 71
0
 10
0.0
 20
0.0
 11
210.0
 21
297.0
 12
0.0
 22
0.0
 32
0.0
 14
0.0
 24
0.0
 34
0.0
 15
0.0
 25
0.0
 35
0.0
146
0.0
 13
0.0
 23
0.0
 33
0.0
 16
1.0
 26
0.0
 36
0.0
 17
0.0
 27
1.0
 37
0.0
 76
0
330
213
345
0
346
0
  0
LAYOUT
  5
3CC
102
{ACAD_REACTORS
330
1A
102
}
100
AcDbPlotSettings
  1

  2
none_device
  4

  6

 40
0.0
 41
0.0
 42
0.0
 43
0.0
 44
210.0
 45
297.0
 46
0.0
 47
0.0
 48
0.0
 49
0.0
140
0.0
141
0.0
142
1.0
143
1.0
 70
0
 72
1
 73
0
 74
0
  7

 75
0
147
1.0
148
0.0
149
0.0
100
AcDbLayout
  1
Layout1
 70
0
 71
1
 10
0.0
 20
0.0
 11
210.0
 21
297.0
 12
0.0
 22
0.0
 32
0.0
 14
0.0
 24
0.0
 34
0.0
 15
0.0
 25
0.0
 35
0.0
146
0.0
 13
0.0
 23
0.0
 33
0.0
 16
1.0
 26
0.0
 36
0.0
 17
0.0
 27
1.0
 37
0.0
 76
0
330
214
345
0
346
0
  0
ENDSEC
  0
EOF
