999
DXF file: C:\Users\sesa63760\Dev\_Creo\CAD\MCADID0005507_3D-CAD\drw0001_1.dxf
999
Pro/ENGINEER 2019471 by Parametric Technology Corporation
  0
SECTION
  2
HEADER
  9
$ACADVER
  1
AC1024
  9
$DWGCODEPAGE
  3
ANSI_1252
  9
$EXTMAX
 10
59.2175243491
 20
83.7504987223
 30
0.0
  9
$EXTMIN
 10
0.0
 20
0.0
 30
0.0
  9
$LIMMIN
 10
0.0
 20
0.0
  9
$LIMMAX
 10
59.2175243491
 20
83.7504987223
  9
$VIEWCTR
 10
29.6087621746
 20
41.8752493612
  9
$VIEWSIZE
 40
83.7504987223
  9
$CLAYER
  8
0
  9
$LTSCALE
 40
5.4592917686
  9
$CELTYPE
  6
BYLAYER
  9
$DIMSCALE
 40
1.0
  9
$DIMASZ
 40
0.704970528
  9
$DIMEXO
 40
1.0
  9
$DIMDLI
 40
3.7718743128
  9
$DIMEXE
 40
1.0
  9
$DIMCEN
 40
0.893338653
  9
$DIMLFAC
 40
1.0
  9
$DIMBLK
  1
_FILLED
  9
$DIMALT
 70
0
  9
$DIMALTF
 40
0.0393700787
  9
$DIMTXT
 40
0.9869587392
  9
$DIMTOL
 70
1
  9
$DIMLIM
 70
0
  9
$DIMTFAC
 40
1.0
  9
$DIMTP
 40
0.01
  9
$DIMTM
 40
0.01
  9
$DIMGAP
 40
0.625
  9
$DIMDSEP
 70
46
  9
$AUNITS
 70
0
  9
$PDMODE
 70
3
  9
$PDSIZE
 40
0.3125
  9
$HANDSEED
  5
359
  9
$TILEMODE
 70
1
  9
$MEASUREMENT
 70
1
  9
$INSUNITS
 70
4
  0
ENDSEC
  0
SECTION
  2
CLASSES
  0
CLASS
  1
ACDBDICTIONARYWDFLT
  2
AcDbDictionaryWithDefault
  3
AutoCAD 2000
 90
0
 91
1
280
0
281
0
  0
CLASS
  1
ACDBPLACEHOLDER
  2
AcDbPlaceHolder
  3
AutoCAD 2000
 90
0
 91
1
280
0
281
0
  0
CLASS
  1
LAYOUT
  2
AcDbLayout
  3
AutoCAD 2000
 90
0
 91
0
280
0
281
0
  0
ENDSEC
  0
SECTION
  2
TABLES
  0
TABLE
  2
VPORT
  5
8
100
AcDbSymbolTable
 70
2
  0
VPORT
  5
1F4
100
AcDbSymbolTableRecord
100
AcDbViewportTableRecord
  2
*ACTIVE
 70
0
 10
0.0
 20
0.0
 11
1.0
 21
1.0
 12
29.6087621746
 22
41.8752493612
 13
0.0
 23
0.0
 14
1.0
 24
1.0
 15
0.0
 25
0.0
 16
0.0
 26
0.0
 36
1.0
 17
0.0
 27
0.0
 37
0.0
 40
83.7504987223
 41
0.7070707071
 42
50.0
 43
0.0
 44
0.0
 50
0.0
 51
0.0
 71
0
 72
100
 73
1
 74
1
 75
0
 76
0
 77
0
 78
0
  0
ENDTAB
  0
TABLE
  2
LTYPE
  5
5
100
AcDbSymbolTable
 70
6
  0
LTYPE
  5
14
100
AcDbSymbolTableRecord
100
AcDbLinetypeTableRecord
  2
BYBLOCK
 70
0
  3

 72
65
 73
0
 40
0.0
  0
LTYPE
  5
15
100
AcDbSymbolTableRecord
100
AcDbLinetypeTableRecord
  2
BYLAYER
 70
0
  3

 72
65
 73
0
 40
0.0
  0
LTYPE
  5
16
100
AcDbSymbolTableRecord
100
AcDbLinetypeTableRecord
  2
CONTINUOUS
 70
64
  3
Solid line
 72
65
 73
0
 40
0.0
  0
LTYPE
  5
1F5
100
AcDbSymbolTableRecord
100
AcDbLinetypeTableRecord
  2
CENTER
 70
64
  3
____ _ ____ _ ____ _ ____ _ ____ _ ____ _ ____
 72
65
 73
4
 40
0.6
 49
0.375
 74
0
 49
-0.075
 74
0
 49
0.075
 74
0
 49
-0.075
 74
0
  0
LTYPE
  5
1F6
100
AcDbSymbolTableRecord
100
AcDbLinetypeTableRecord
  2
HIDDEN
 70
64
  3
- - - - - - - - - - - - - - - - - - - -
 72
65
 73
2
 40
0.2
 49
0.1
 74
0
 49
-0.1
 74
0
  0
LTYPE
  5
1F7
100
AcDbSymbolTableRecord
100
AcDbLinetypeTableRecord
  2
PHANTOM
 70
64
  3
_____ _ _ _____ _ _ _____ _ _ _____
 72
65
 73
6
 40
0.8
 49
0.45
 74
0
 49
-0.05
 74
0
 49
0.1
 74
0
 49
-0.05
 74
0
 49
0.1
 74
0
 49
-0.05
 74
0
  0
LTYPE
  5
1F8
100
AcDbSymbolTableRecord
100
AcDbLinetypeTableRecord
  2
DOT
 70
64
  3
. . . . . . . . . . . . . . . . . . . .
 72
65
 73
2
 40
0.2
 49
0.1
 74
0
 49
-0.1
 74
0
  0
LTYPE
  5
1F9
100
AcDbSymbolTableRecord
100
AcDbLinetypeTableRecord
  2
DASHED
 70
64
  3
- - - - - - - - - - - - - - - - - - - -
 72
65
 73
2
 40
0.2
 49
0.1
 74
0
 49
-0.1
 74
0
  0
ENDTAB
  0
TABLE
  2
LAYER
  5
2
100
AcDbSymbolTable
 70
36
  0
LAYER
  5
10
100
AcDbSymbolTableRecord
100
AcDbLayerTableRecord
  2
0
 70
0
 62
7
  6
CONTINUOUS
370
-3
390
F
  0
LAYER
  5
1FA
100
AcDbSymbolTableRecord
100
AcDbLayerTableRecord
  2
DEFAULT_1
 70
0
 62
7
  6
CENTER
370
-3
390
F
  0
LAYER
  5
1FB
100
AcDbSymbolTableRecord
100
AcDbLayerTableRecord
  2
DEFAULT_2
 70
0
 62
7
  6
HIDDEN
370
-3
390
F
  0
LAYER
  5
1FC
100
AcDbSymbolTableRecord
100
AcDbLayerTableRecord
  2
DEFAULT_3
 70
0
 62
7
  6
PHANTOM
370
-3
390
F
  0
LAYER
  5
1FD
100
AcDbSymbolTableRecord
100
AcDbLayerTableRecord
  2
00_COMPONENTS
 70
0
 62
7
  6
CONTINUOUS
370
-3
390
F
  0
LAYER
  5
1FE
100
AcDbSymbolTableRecord
100
AcDbLayerTableRecord
  2
00_COMPONENTS_1
 70
0
 62
7
  6
CONTINUOUS
370
-3
390
F
  0
LAYER
  5
1FF
100
AcDbSymbolTableRecord
100
AcDbLayerTableRecord
  2
00_COMPONENTS_10
 70
0
 62
7
  6
CONTINUOUS
370
-3
390
F
  0
LAYER
  5
200
100
AcDbSymbolTableRecord
100
AcDbLayerTableRecord
  2
00_COMPONENTS_11
 70
0
 62
7
  6
CONTINUOUS
370
-3
390
F
  0
LAYER
  5
201
100
AcDbSymbolTableRecord
100
AcDbLayerTableRecord
  2
00_COMPONENTS_12
 70
0
 62
7
  6
CONTINUOUS
370
-3
390
F
  0
LAYER
  5
202
100
AcDbSymbolTableRecord
100
AcDbLayerTableRecord
  2
00_COMPONENTS_13
 70
0
 62
7
  6
CONTINUOUS
370
-3
390
F
  0
LAYER
  5
203
100
AcDbSymbolTableRecord
100
AcDbLayerTableRecord
  2
00_COMPONENTS_2
 70
0
 62
7
  6
CONTINUOUS
370
-3
390
F
  0
LAYER
  5
204
100
AcDbSymbolTableRecord
100
AcDbLayerTableRecord
  2
00_COMPONENTS_3
 70
0
 62
7
  6
CONTINUOUS
370
-3
390
F
  0
LAYER
  5
205
100
AcDbSymbolTableRecord
100
AcDbLayerTableRecord
  2
00_COMPONENTS_4
 70
0
 62
7
  6
CONTINUOUS
370
-3
390
F
  0
LAYER
  5
206
100
AcDbSymbolTableRecord
100
AcDbLayerTableRecord
  2
00_COMPONENTS_5
 70
0
 62
7
  6
CONTINUOUS
370
-3
390
F
  0
LAYER
  5
207
100
AcDbSymbolTableRecord
100
AcDbLayerTableRecord
  2
00_COMPONENTS_8
 70
0
 62
7
  6
CONTINUOUS
370
-3
390
F
  0
LAYER
  5
208
100
AcDbSymbolTableRecord
100
AcDbLayerTableRecord
  2
00_COMPONENTS_9
 70
0
 62
7
  6
CONTINUOUS
370
-3
390
F
  0
LAYER
  5
209
100
AcDbSymbolTableRecord
100
AcDbLayerTableRecord
  2
01_1_DEFAULT_DATUMS
 70
0
 62
7
  6
CONTINUOUS
370
-3
390
F
  0
LAYER
  5
20A
100
AcDbSymbolTableRecord
100
AcDbLayerTableRecord
  2
01_PLANES
 70
0
 62
7
  6
CONTINUOUS
370
-3
390
F
  0
LAYER
  5
20B
100
AcDbSymbolTableRecord
100
AcDbLayerTableRecord
  2
02_COORD_SYS
 70
0
 62
7
  6
CONTINUOUS
370
-3
390
F
  0
LAYER
  5
20C
100
AcDbSymbolTableRecord
100
AcDbLayerTableRecord
  2
03_AXES
 70
0
 62
7
  6
CONTINUOUS
370
-3
390
F
  0
LAYER
  5
20D
100
AcDbSymbolTableRecord
100
AcDbLayerTableRecord
  2
04_POINTS
 70
0
 62
7
  6
CONTINUOUS
370
-3
390
F
  0
LAYER
  5
20E
100
AcDbSymbolTableRecord
100
AcDbLayerTableRecord
  2
05_CURVES
 70
0
 62
7
  6
CONTINUOUS
370
-3
390
F
  0
LAYER
  5
20F
100
AcDbSymbolTableRecord
100
AcDbLayerTableRecord
  2
06_SURFS
 70
0
 62
7
  6
CONTINUOUS
370
-3
390
F
  0
LAYER
  5
210
100
AcDbSymbolTableRecord
100
AcDbLayerTableRecord
  2
07_COSMETICS
 70
0
 62
7
  6
CONTINUOUS
370
-3
390
F
  0
LAYER
  5
211
100
AcDbSymbolTableRecord
100
AcDbLayerTableRecord
  2
10_NOTES
 70
0
 62
7
  6
CONTINUOUS
370
-3
390
F
  0
LAYER
  5
212
100
AcDbSymbolTableRecord
100
AcDbLayerTableRecord
  2
11_NOTES_PUB
 70
0
 62
7
  6
CONTINUOUS
370
-3
390
F
  0
LAYER
  5
213
100
AcDbSymbolTableRecord
100
AcDbLayerTableRecord
  2
13_REF_GTOL
 70
0
 62
7
  6
CONTINUOUS
370
-3
390
F
  0
LAYER
  5
214
100
AcDbSymbolTableRecord
100
AcDbLayerTableRecord
  2
16_MISC
 70
0
 62
7
  6
CONTINUOUS
370
-3
390
F
  0
LAYER
  5
215
100
AcDbSymbolTableRecord
100
AcDbLayerTableRecord
  2
17_NO_PRINT
 70
0
 62
7
  6
CONTINUOUS
370
-3
390
F
  0
LAYER
  5
216
100
AcDbSymbolTableRecord
100
AcDbLayerTableRecord
  2
18_DATUM_CAMS_JOINTS
 70
0
 62
7
  6
CONTINUOUS
370
-3
390
F
  0
LAYER
  5
217
100
AcDbSymbolTableRecord
100
AcDbLayerTableRecord
  2
19_DATUM_FUNCTIONAL
 70
0
 62
7
  6
CONTINUOUS
370
-3
390
F
  0
LAYER
  5
218
100
AcDbSymbolTableRecord
100
AcDbLayerTableRecord
  2
20_DATUM_KINEMATIC_SCHEME
 70
0
 62
7
  6
CONTINUOUS
370
-3
390
F
  0
ENDTAB
  0
TABLE
  2
STYLE
  5
3
100
AcDbSymbolTable
 70
1
  0
STYLE
  5
11
100
AcDbSymbolTableRecord
100
AcDbTextStyleTableRecord
  2
STANDARD
 70
0
 40
0.0
 41
1.0
 50
0.0
 71
0
 42
0.2
  3
ARIAL.TTF
  4

  0
STYLE
  5
219
100
AcDbSymbolTableRecord
100
AcDbTextStyleTableRecord
  2
TEXTSTYLE_1
 70
0
 40
0.0
 41
0.8
 50
0.0
 71
0
 42
0.2
  3
gdt
  4

  0
ENDTAB
  0
TABLE
  2
VIEW
  5
6
100
AcDbSymbolTable
 70
0
  0
ENDTAB
  0
TABLE
  2
UCS
  5
7
100
AcDbSymbolTable
 70
0
  0
ENDTAB
  0
TABLE
  2
APPID
  5
9
100
AcDbSymbolTable
 70
1
  0
APPID
  5
21A
100
AcDbSymbolTableRecord
100
AcDbRegAppTableRecord
  2
ACAD
 70
0
  0
ENDTAB
  0
TABLE
  2
BLOCK_RECORD
  5
1
100
AcDbSymbolTable
 70
0
  0
BLOCK_RECORD
  5
21B
100
AcDbSymbolTableRecord
100
AcDbBlockTableRecord
  2
*Model_Space
  0
BLOCK_RECORD
  5
21C
100
AcDbSymbolTableRecord
100
AcDbBlockTableRecord
  2
*Paper_Space
  0
BLOCK_RECORD
  5
21D
100
AcDbSymbolTableRecord
100
AcDbBlockTableRecord
  2
_FILLED
  0
ENDTAB
  0
TABLE
  2
DIMSTYLE
  5
A
100
AcDbSymbolTable
 70
1
100
AcDbDimStyleTable
 71
0
  0
DIMSTYLE
105
21E
100
AcDbSymbolTableRecord
100
AcDbDimStyleTableRecord
  2
STANDARD
 70
0
  3

  4

 40
1.0
 41
0.704970528
 42
1.0
 43
0.38
 44
1.0
 45
0.0
 46
0.0
 47
0.01
 48
0.01
140
0.9869587392
141
0.09
142
0.0
143
25.4
144
1.0
145
0.0
146
1.0
147
0.625
 71
1
 72
0
 73
0
 74
0
 75
0
 76
0
 77
1
 78
8
 79
2
170
0
171
1
172
0
173
0
174
0
175
0
176
0
177
0
178
0
270
2
179
2
271
2
272
2
273
2
274
2
275
0
280
0
281
0
282
0
283
1
284
8
285
0
286
0
287
3
288
0
340
11
278
46
341
21D
342
21D
343
21D
344
21D
  0
ENDTAB
  0
ENDSEC
  0
SECTION
  2
BLOCKS
  0
BLOCK
  5
20
100
AcDbEntity
  8
0
100
AcDbBlockBegin
  2
*Model_Space
 70
0
 10
0.0
 20
0.0
 30
0.0
  3
*Model_Space
  1

  0
ENDBLK
  5
21
100
AcDbEntity
  8
0
100
AcDbBlockEnd
  0
BLOCK
  5
1C
100
AcDbEntity
  8
0
100
AcDbBlockBegin
  2
*Paper_Space
 70
0
 10
0.0
 20
0.0
 30
0.0
  3
*Paper_Space
  1

  0
ENDBLK
  5
1D
100
AcDbEntity
  8
0
100
AcDbBlockEnd
  0
BLOCK
  5
21F
100
AcDbEntity
  8
0
100
AcDbBlockBegin
  2
_FILLED
 70
64
 10
0.0
 20
0.0
  3
_FILLED
  1

  0
SOLID
  5
220
100
AcDbEntity
  8
0
  6
BYBLOCK
 62
0
100
AcDbTrace
 10
0.0
 20
0.0
 11
-1.0
 21
0.25
 12
-1.0
 22
-0.25
 13
-1.0
 23
-0.25
  0
ENDBLK
  5
221
100
AcDbEntity
  8
0
  6
BYBLOCK
 62
0
100
AcDbBlockEnd
  0
ENDSEC
  0
SECTION
  2
ENTITIES
  0
LINE
  5
222
100
AcDbEntity
  8
00_COMPONENTS_10
100
AcDbLine
 62
7
  6
BYLAYER
 10
33.1860660308
 20
7.1188582837
 11
29.294646265
 21
6.9282879411
  0
LINE
  5
223
100
AcDbEntity
  8
00_COMPONENTS_10
100
AcDbLine
 62
7
  6
BYLAYER
 10
29.294646265
 20
6.9282879411
 11
25.4605229616
 21
7.3663212667
  0
LINE
  5
224
100
AcDbEntity
  8
00_COMPONENTS_10
100
AcDbLine
 62
7
  6
BYLAYER
 10
36.837618518
 20
7.9234796122
 11
33.1860660308
 21
7.1188582837
  0
LINE
  5
225
100
AcDbEntity
  8
00_COMPONENTS_10
100
AcDbLine
 62
7
  6
BYLAYER
 10
25.4605229616
 20
7.3663212667
 11
21.977956177
 21
8.4023237418
  0
LWPOLYLINE
  5
226
100
AcDbEntity
  8
00_COMPONENTS_10
100
AcDbPolyline
 62
7
  6
BYLAYER
 90
9
 70
0
 10
21.6669332255
 20
8.0922600985
 10
23.3323139085
 20
7.4676335886
 10
26.9381055881
 20
6.6698924679
 10
30.7778873883
 20
6.4744063511
 10
34.5639019018
 20
6.8946343038
 10
36.3473401834
 20
7.3279372929
 10
39.5266331507
 20
8.6023196689
 10
41.9898633044
 20
10.3394585525
 10
42.8325665872
 20
11.4608369703
  0
LWPOLYLINE
  5
227
100
AcDbEntity
  8
00_COMPONENTS_11
100
AcDbPolyline
 62
7
  6
BYLAYER
 90
6
 70
0
 10
20.0373335675
 20
9.4650524931
 10
20.2843851557
 20
9.3327058733
 10
24.0703258642
 20
7.9593003066
 10
28.3892439055
 20
7.2911820388
 10
32.8573844584
 20
7.3877163099
 10
37.0777336267
 20
8.2403256263
  0
LINE
  5
228
100
AcDbEntity
  8
00_COMPONENTS_10
100
AcDbLine
 62
7
  6
BYLAYER
 10
20.3358724258
 20
8.8196331573
 11
20.3104488462
 21
8.8343111769
  0
LINE
  5
229
100
AcDbEntity
  8
00_COMPONENTS_11
100
AcDbLine
 62
7
  6
BYLAYER
 10
20.0275173874
 20
9.4467427524
 11
19.4618198324
 21
9.7733577261
  0
LWPOLYLINE
  5
22A
100
AcDbEntity
  8
00_COMPONENTS_13
100
AcDbPolyline
 62
7
  6
BYLAYER
 90
3
 70
0
 10
20.345890268
 20
67.9691611358
 10
21.7607253089
 20
68.6813933457
 10
23.502965919
 20
69.2468107182
  0
LWPOLYLINE
  5
22B
100
AcDbEntity
  8
00_COMPONENTS_10
100
AcDbPolyline
 62
7
  6
BYLAYER
 90
3
 70
0
 10
17.1279135627
 20
11.6916017653
 10
17.9567508623
 20
10.5255904929
 10
18.8533023877
 20
9.7337506568
  0
LINE
  5
22C
100
AcDbEntity
  8
00_COMPONENTS_5
100
AcDbLine
 62
7
  6
BYLAYER
 10
10.4224321829
 20
19.275331924
 11
10.4224321829
 21
21.6662169394
  0
LINE
  5
22D
100
AcDbEntity
  8
00_COMPONENTS_5
100
AcDbLine
 62
7
  6
BYLAYER
 10
10.4256676539
 20
26.9406785887
 11
10.4256676539
 21
29.3315636041
  0
LINE
  5
22E
100
AcDbEntity
  8
00_COMPONENTS_5
100
AcDbLine
 62
7
  6
BYLAYER
 10
11.170689718
 20
20.0484193809
 11
11.170689718
 21
17.6575343656
  0
LINE
  5
22F
100
AcDbEntity
  8
00_COMPONENTS_5
100
AcDbLine
 62
7
  6
BYLAYER
 10
11.1763402511
 20
27.714139014
 11
11.1763402511
 21
25.3232539986
  0
LINE
  5
230
100
AcDbEntity
  8
00_COMPONENTS_11
100
AcDbLine
 62
7
  6
BYLAYER
 10
15.33014028
 20
57.637940331
 11
16.359888734
 21
59.3369951306
  0
LWPOLYLINE
  5
231
100
AcDbEntity
  8
00_COMPONENTS_5
100
AcDbPolyline
 62
7
  6
BYLAYER
 90
4
 70
0
 10
15.2429424678
 20
22.6152541889
 10
15.7741058567
 20
21.1985759669
 10
17.8502133104
 20
18.997563046
 10
19.2850451568
 20
18.040452431
  0
LINE
  5
232
100
AcDbEntity
  8
00_COMPONENTS_11
100
AcDbLine
 62
7
  6
BYLAYER
 10
15.0686489888
 20
56.0279570284
 11
15.33014028
 21
57.637940331
  0
LINE
  5
233
100
AcDbEntity
  8
00_COMPONENTS_13
100
AcDbLine
 62
7
  6
BYLAYER
 10
33.3921366097
 20
64.887110195
 11
33.7456975816
 21
65.0912445535
  0
LINE
  5
234
100
AcDbEntity
  8
00_COMPONENTS_13
100
AcDbLine
 62
7
  6
BYLAYER
 10
16.3186489888
 20
62.3558507611
 11
16.3186489888
 21
61.9475995526
  0
LINE
  5
235
100
AcDbEntity
  8
00_COMPONENTS_11
100
AcDbLine
 62
7
  6
BYLAYER
 10
16.3186489888
 20
57.0485850498
 11
16.3186489888
 21
59.3566699341
  0
LINE
  5
236
100
AcDbEntity
  8
00_COMPONENTS_11
100
AcDbLine
 62
7
  6
BYLAYER
 10
16.3186489888
 20
59.6395146683
 11
16.3186489888
 21
61.9475995526
  0
LWPOLYLINE
  5
237
100
AcDbEntity
  8
00_COMPONENTS_5
100
AcDbPolyline
 62
7
  6
BYLAYER
 90
5
 70
0
 10
15.0686489888
 20
33.0164868819
 10
14.8574622291
 20
31.3134146881
 10
15.7786907904
 20
28.8665862064
 10
17.8580835421
 20
26.6666072696
 10
19.2850453064
 20
25.7155752384
  0
LINE
  5
238
100
AcDbEntity
  8
00_COMPONENTS_10
100
AcDbLine
 62
7
  6
BYLAYER
 10
18.6432758934
 20
10.2992473622
 11
18.6432758934
 21
9.9601326589
  0
LINE
  5
239
100
AcDbEntity
  8
00_COMPONENTS
100
AcDbLine
 62
7
  6
BYLAYER
 10
26.9538090297
 20
73.7105128144
 11
26.6363765297
 21
72.7252202583
  0
LINE
  5
23A
100
AcDbEntity
  8
00_COMPONENTS_12
100
AcDbLine
 62
7
  6
BYLAYER
 10
29.4537986212
 20
75.1538738623
 11
29.0064709285
 21
73.7653939627
  0
LINE
  5
23B
100
AcDbEntity
  8
00_COMPONENTS_13
100
AcDbLine
 62
7
  6
BYLAYER
 10
16.3187403459
 20
61.9475995412
 11
16.5186028705
 21
60.5987151687
  0
LINE
  5
23C
100
AcDbEntity
  8
00_COMPONENTS_11
100
AcDbLine
 62
7
  6
BYLAYER
 10
16.3186489888
 20
59.6395146683
 11
16.4879432611
 21
58.3976344209
  0
LINE
  5
23D
100
AcDbEntity
  8
00_COMPONENTS_10
100
AcDbLine
 62
7
  6
BYLAYER
 10
21.977956177
 20
8.0348976541
 11
21.977956177
 21
8.4023237418
  0
LINE
  5
23E
100
AcDbEntity
  8
00_COMPONENTS_3
100
AcDbLine
 62
7
  6
BYLAYER
 10
29.4538194382
 20
72.267163785
 11
29.3953455753
 21
72.0856642162
  0
LINE
  5
23F
100
AcDbEntity
  8
00_COMPONENTS_1
100
AcDbLine
 62
7
  6
BYLAYER
 10
31.9538090297
 20
73.7105248329
 11
31.5326087709
 21
72.403143013
  0
LWPOLYLINE
  5
240
100
AcDbEntity
  8
00_COMPONENTS_5
100
AcDbPolyline
 62
7
  6
BYLAYER
 90
3
 70
0
 10
12.6819647199
 20
34.6307818959
 10
14.4801243307
 20
37.1371425288
 10
15.0686489888
 20
37.57995744
  0
LWPOLYLINE
  5
241
100
AcDbEntity
  8
00_COMPONENTS_11
100
AcDbPolyline
 62
7
  6
BYLAYER
 90
4
 70
0
 10
39.7914077095
 20
56.3342891779
 10
36.314370844
 20
54.8753738047
 10
32.2326435057
 20
54.1080791049
 10
27.9016801561
 20
54.1083553945
  0
LINE
  5
242
100
AcDbEntity
  8
00_COMPONENTS_13
100
AcDbLine
 62
7
  6
BYLAYER
 10
24.0029662831
 20
62.1097503356
 11
24.0032923351
 21
62.0763110357
  0
LINE
  5
243
100
AcDbEntity
  8
00_COMPONENTS_5
100
AcDbLine
 62
7
  6
BYLAYER
 10
23.4889375572
 20
10.533480819
 11
23.4889375572
 21
12.9243658344
  0
LINE
  5
244
100
AcDbEntity
  8
00_COMPONENTS_13
100
AcDbLine
 62
7
  6
BYLAYER
 10
23.502965919
 20
72.276360773
 11
23.502965919
 21
67.5406467537
  0
LINE
  5
245
100
AcDbEntity
  8
00_COMPONENTS_5
100
AcDbLine
 62
7
  6
BYLAYER
 10
23.5052195867
 20
18.2053332242
 11
23.5052195867
 21
20.5962182396
  0
LINE
  5
246
100
AcDbEntity
  8
00_COMPONENTS_13
100
AcDbLine
 62
7
  6
BYLAYER
 10
24.002965919
 20
73.6644148821
 11
24.002965919
 21
72.6846119816
  0
LINE
  5
247
100
AcDbEntity
  8
00_COMPONENTS_13
100
AcDbLine
 62
7
  6
BYLAYER
 10
24.002965919
 20
66.210602312
 11
24.0029662831
 21
62.1097503356
  0
LINE
  5
248
100
AcDbEntity
  8
00_COMPONENTS_9
100
AcDbLine
 62
7
  6
BYLAYER
 10
24.152965919
 20
74.3176168158
 11
24.152965919
 21
73.6644148821
  0
LINE
  5
249
100
AcDbEntity
  8
00_COMPONENTS_11
100
AcDbLine
 62
7
  6
BYLAYER
 10
42.3267570037
 20
58.3512992066
 11
39.7914077095
 21
56.3342891779
  0
LWPOLYLINE
  5
24A
100
AcDbEntity
  8
00_COMPONENTS_11
100
AcDbPolyline
 62
7
  6
BYLAYER
 90
7
 70
0
 10
39.7914077095
 20
53.7433595594
 10
36.3110693673
 20
52.28347178
 10
32.219679425
 20
51.5159579178
 10
27.9177316364
 20
51.5159475772
 10
23.8263306246
 20
52.2834417704
 10
20.3459712271
 20
53.7433128183
 10
17.8173352708
 20
55.7526583713
  0
LINE
  5
24B
100
AcDbEntity
  8
00_COMPONENTS_9
100
AcDbLine
 62
7
  6
BYLAYER
 10
26.1634070814
 20
75.7353664028
 11
26.1634070814
 21
73.0296499046
  0
LINE
  5
24C
100
AcDbEntity
  8
00_COMPONENTS_5
100
AcDbLine
 62
7
  6
BYLAYER
 10
26.2897973546
 20
12.4895904742
 11
26.2897973546
 21
10.0987054588
  0
LINE
  5
24D
100
AcDbEntity
  8
00_COMPONENTS_5
100
AcDbLine
 62
7
  6
BYLAYER
 10
26.3067274548
 20
20.1628368774
 11
26.3067274548
 21
17.771951862
  0
LINE
  5
24E
100
AcDbEntity
  8
00_COMPONENTS_9
100
AcDbLine
 62
7
  6
BYLAYER
 10
26.5773028168
 20
72.7541130414
 11
26.5773028168
 21
75.4964089945
  0
LINE
  5
24F
100
AcDbEntity
  8
00_COMPONENTS_9
100
AcDbLine
 62
7
  6
BYLAYER
 10
27.5588875232
 20
75.731149383
 11
27.5588875232
 21
72.3753476032
  0
LWPOLYLINE
  5
250
100
AcDbEntity
  8
00_COMPONENTS_11
100
AcDbPolyline
 62
7
  6
BYLAYER
 90
3
 70
0
 10
17.8173352708
 20
55.7526583713
 10
16.4879432611
 20
58.1147896867
 10
16.3186489888
 20
59.3566699341
  0
LINE
  5
251
100
AcDbEntity
  8
00_COMPONENTS_11
100
AcDbLine
 62
7
  6
BYLAYER
 10
17.8076931152
 20
58.354546877
 11
16.5075641414
 21
60.6732162253
  0
LWPOLYLINE
  5
252
100
AcDbEntity
  8
00_COMPONENTS_13
100
AcDbPolyline
 62
7
  6
BYLAYER
 90
5
 70
0
 10
16.5186028705
 20
60.5987151687
 10
17.6500690025
 20
58.5397549048
 10
19.7052311435
 20
56.7303346389
 10
21.0325530094
 20
55.9640604032
 10
24.1624679076
 20
54.7788024433
  0
LINE
  5
253
100
AcDbEntity
  8
00_COMPONENTS_11
100
AcDbLine
 62
7
  6
BYLAYER
 10
16.4879432611
 20
58.3976344209
 11
17.5166198815
 21
56.398724415
  0
LINE
  5
254
100
AcDbEntity
  8
00_COMPONENTS_12
100
AcDbLine
 62
7
  6
BYLAYER
 10
28.9979555105
 20
72.1142143098
 11
28.9979555105
 21
73.7120778739
  0
LINE
  5
255
100
AcDbEntity
  8
00_COMPONENTS_12
100
AcDbLine
 62
7
  6
BYLAYER
 10
30.0079555105
 20
72.1056338171
 11
30.0079555105
 21
73.7120778739
  0
LINE
  5
256
100
AcDbEntity
  8
00_COMPONENTS_11
100
AcDbLine
 62
7
  6
BYLAYER
 10
43.6482240764
 20
60.7016208708
 11
42.3267570037
 21
58.3512992066
  0
LINE
  5
257
100
AcDbEntity
  8
00_COMPONENTS_9
100
AcDbLine
 62
7
  6
BYLAYER
 10
34.852965919
 20
74.3176168158
 11
34.852965919
 21
73.6644148821
  0
LINE
  5
258
100
AcDbEntity
  8
00_COMPONENTS_13
100
AcDbLine
 62
7
  6
BYLAYER
 10
35.002965919
 20
73.6644148821
 11
35.002965919
 21
72.6846119816
  0
LINE
  5
259
100
AcDbEntity
  8
00_COMPONENTS_13
100
AcDbLine
 62
7
  6
BYLAYER
 10
35.502965919
 20
72.276360773
 11
35.502965919
 21
67.5406467537
  0
LINE
  5
25A
100
AcDbEntity
  8
00_COMPONENTS_13
100
AcDbLine
 62
7
  6
BYLAYER
 10
35.0029656239
 20
62.1098654567
 11
35.002965919
 21
66.2781553316
  0
LINE
  5
25B
100
AcDbEntity
  8
00_COMPONENTS_13
100
AcDbLine
 62
7
  6
BYLAYER
 10
35.0026395013
 20
62.0763109523
 11
35.0029656239
 21
62.1098654567
  0
LWPOLYLINE
  5
25C
100
AcDbEntity
  8
00_COMPONENTS_11
100
AcDbPolyline
 62
7
  6
BYLAYER
 90
3
 70
0
 10
42.6206780961
 20
56.398724415
 10
43.6493726272
 20
58.397699709
 10
43.8186489888
 20
59.6395146683
  0
LWPOLYLINE
  5
25D
100
AcDbEntity
  8
00_COMPONENTS_11
100
AcDbPolyline
 62
7
  6
BYLAYER
 90
3
 70
0
 10
43.6493726272
 20
58.1148549748
 10
42.3200146857
 20
55.7527172685
 10
39.7914077095
 20
53.7433595594
  0
LWPOLYLINE
  5
25E
100
AcDbEntity
  8
00_COMPONENTS_5
100
AcDbPolyline
 62
7
  6
BYLAYER
 90
5
 70
0
 10
45.0686489888
 20
37.5799824655
 10
45.6570329502
 20
37.1372832235
 10
47.4552886003
 20
34.6308645722
 10
48.0686455733
 20
31.9411410255
 10
47.4553332577
 20
29.2514895502
  0
LINE
  5
25F
100
AcDbEntity
  8
00_COMPONENTS_12
100
AcDbLine
 62
7
  6
BYLAYER
 10
29.9994400926
 20
73.7653939627
 11
30.0079555105
 21
73.7120778739
  0
LINE
  5
260
100
AcDbEntity
  8
00_COMPONENTS
100
AcDbLine
 62
7
  6
BYLAYER
 10
27.0521228083
 20
73.7105128144
 11
27.4746089914
 21
72.399139558
  0
LINE
  5
261
100
AcDbEntity
  8
00_COMPONENTS_11
100
AcDbLine
 62
7
  6
BYLAYER
 10
43.6888557378
 20
60.9986889283
 11
43.6482240764
 21
60.7016208708
  0
LINE
  5
262
100
AcDbEntity
  8
00_COMPONENTS_3
100
AcDbLine
 62
7
  6
BYLAYER
 10
29.5521332168
 20
72.267163785
 11
29.6157075879
 21
72.0698325268
  0
LINE
  5
263
100
AcDbEntity
  8
00_COMPONENTS_12
100
AcDbLine
 62
7
  6
BYLAYER
 10
29.5521123998
 20
75.1538738623
 11
29.9994400926
 21
73.7653939627
  0
LINE
  5
264
100
AcDbEntity
  8
00_COMPONENTS_5
100
AcDbLine
 62
7
  6
BYLAYER
 10
43.135154363
 20
12.6957145551
 11
43.135154363
 21
15.0865995705
  0
LINE
  5
265
100
AcDbEntity
  8
00_COMPONENTS_5
100
AcDbLine
 62
7
  6
BYLAYER
 10
43.1482009216
 20
20.3773430166
 11
43.1482009216
 21
22.768228032
  0
LINE
  5
266
100
AcDbEntity
  8
00_COMPONENTS_13
100
AcDbLine
 62
7
  6
BYLAYER
 10
43.8186489888
 20
62.3558507611
 11
43.8186489888
 21
61.9475995526
  0
LINE
  5
267
100
AcDbEntity
  8
00_COMPONENTS_11
100
AcDbLine
 62
7
  6
BYLAYER
 10
43.8186489888
 20
57.0485850498
 11
43.8186489888
 21
59.3566699341
  0
LINE
  5
268
100
AcDbEntity
  8
00_COMPONENTS_11
100
AcDbLine
 62
7
  6
BYLAYER
 10
43.8186489888
 20
59.6395146683
 11
43.8186489888
 21
61.9475995526
  0
LINE
  5
269
100
AcDbEntity
  8
00_COMPONENTS_11
100
AcDbLine
 62
7
  6
BYLAYER
 10
43.8186489888
 20
59.3566699341
 11
43.6493726272
 21
58.1148549748
  0
LWPOLYLINE
  5
26A
100
AcDbEntity
  8
00_COMPONENTS_13
100
AcDbPolyline
 62
7
  6
BYLAYER
 90
6
 70
0
 10
24.1624679076
 20
54.7788024433
 10
27.7244674812
 20
54.1253676956
 10
31.4626250875
 20
54.0500494803
 10
35.0986959172
 20
54.5594017309
 10
38.3733896556
 20
55.6206639383
 10
39.7914077095
 20
56.3342891779
  0
LWPOLYLINE
  5
26B
100
AcDbEntity
  8
00_COMPONENTS_11
100
AcDbPolyline
 62
7
  6
BYLAYER
 90
4
 70
0
 10
27.9016801561
 20
54.1083553945
 10
23.797030716
 20
54.8830229118
 10
20.3229487914
 20
56.3475747117
 10
17.8076931152
 20
58.354546877
  0
LINE
  5
26C
100
AcDbEntity
  8
00_COMPONENTS_13
100
AcDbLine
 62
7
  6
BYLAYER
 10
25.5465270073
 20
59.9076382257
 11
25.6139430208
 21
59.865534864
  0
LINE
  5
26D
100
AcDbEntity
  8
00_COMPONENTS_1
100
AcDbLine
 62
7
  6
BYLAYER
 10
32.0521228083
 20
73.7105248329
 11
32.3687134575
 21
72.7278453342
  0
LWPOLYLINE
  5
26E
100
AcDbEntity
  8
00_COMPONENTS_5
100
AcDbPolyline
 62
7
  6
BYLAYER
 90
3
 70
0
 10
47.6021240507
 20
26.3165607084
 10
48.0686388944
 20
24.2570606793
 10
47.4513112094
 20
21.5677154154
  0
LINE
  5
26F
100
AcDbEntity
  8
00_COMPONENTS_5
100
AcDbLine
 62
7
  6
BYLAYER
 10
45.1877566254
 20
16.2696217687
 11
45.1877566254
 21
13.8787367533
  0
LINE
  5
270
100
AcDbEntity
  8
00_COMPONENTS_5
100
AcDbLine
 62
7
  6
BYLAYER
 10
45.1990361924
 20
23.9522712599
 11
45.1990361924
 21
21.5613862445
  0
LINE
  5
271
100
AcDbEntity
  8
00_COMPONENTS_13
100
AcDbLine
 62
7
  6
BYLAYER
 10
28.5789151673
 20
58.8741532118
 11
28.5938545992
 21
58.8718128125
  0
LINE
  5
272
100
AcDbEntity
  8
00_COMPONENTS_13
100
AcDbLine
 62
7
  6
BYLAYER
 10
28.5693216429
 20
58.841398625
 11
28.5846691044
 21
58.8399129371
  0
LINE
  5
273
100
AcDbEntity
  8
00_COMPONENTS_13
100
AcDbLine
 62
7
  6
BYLAYER
 10
25.2603428957
 20
65.0911818304
 11
25.6138948143
 21
64.8870526988
  0
LINE
  5
274
100
AcDbEntity
  8
00_COMPONENTS_5
100
AcDbLine
 62
7
  6
BYLAYER
 10
49.7116303236
 20
31.2846981735
 11
49.7116303236
 21
33.6755831889
  0
LINE
  5
275
100
AcDbEntity
  8
00_COMPONENTS_5
100
AcDbLine
 62
7
  6
BYLAYER
 10
49.7148657946
 20
23.5997993962
 11
49.7148657946
 21
25.9906844116
  0
LWPOLYLINE
  5
276
100
AcDbEntity
  8
00_COMPONENTS_5
100
AcDbPolyline
 62
7
  6
BYLAYER
 90
5
 70
0
 10
40.8520722973
 20
25.7154642166
 10
43.4546460948
 20
27.7230782907
 10
44.9698155374
 20
30.0687625203
 10
45.2798357485
 20
32.568856758
 10
45.0686489888
 20
33.1297792047
  0
LINE
  5
277
100
AcDbEntity
  8
00_COMPONENTS_11
100
AcDbLine
 62
7
  6
BYLAYER
 10
43.8047138806
 20
59.5073957322
 11
43.8170578531
 21
59.4911070849
  0
LINE
  5
278
100
AcDbEntity
  8
00_COMPONENTS_11
100
AcDbLine
 62
7
  6
BYLAYER
 10
43.8004936483
 20
59.5063267079
 11
43.8170578531
 21
59.4911070849
  0
LWPOLYLINE
  5
279
100
AcDbEntity
  8
00_COMPONENTS_5
100
AcDbPolyline
 62
7
  6
BYLAYER
 90
3
 70
0
 10
40.852252917
 20
18.0404523717
 10
43.4483436449
 20
20.0412956499
 10
43.9356911262
 20
20.7937927034
  0
LINE
  5
27A
100
AcDbEntity
  8
00_COMPONENTS_5
100
AcDbLine
 62
7
  6
BYLAYER
 10
40.8427734856
 20
18.0349774818
 11
40.852252917
 21
18.0404523717
  0
LINE
  5
27B
100
AcDbEntity
  8
00_COMPONENTS_9
100
AcDbLine
 62
7
  6
BYLAYER
 10
26.1634070814
 20
75.7353664028
 11
26.5773028168
 21
75.4964089945
  0
LINE
  5
27C
100
AcDbEntity
  8
00_COMPONENTS_9
100
AcDbLine
 62
7
  6
BYLAYER
 10
27.3904722296
 20
75.9658897714
 11
26.9765764942
 21
76.2048471797
  0
LWPOLYLINE
  5
27D
100
AcDbEntity
  8
00_COMPONENTS_11
100
AcDbPolyline
 62
7
  6
BYLAYER
 90
3
 70
0
 10
40.675294866
 20
9.7732519087
 10
43.3304090726
 20
11.8502879296
 10
44.187128555
 20
13.2638499922
  0
LINE
  5
27E
100
AcDbEntity
  8
00_COMPONENTS_10
100
AcDbLine
 62
7
  6
BYLAYER
 10
40.6498424022
 20
9.8064205243
 11
40.3979252969
 21
9.6131079347
  0
LWPOLYLINE
  5
27F
100
AcDbEntity
  8
00_COMPONENTS_10
100
AcDbPolyline
 62
7
  6
BYLAYER
 90
3
 70
0
 10
39.9681851408
 20
8.9159139166
 10
42.3205410549
 20
10.7201964513
 10
42.7870971708
 20
11.4252672703
  0
LINE
  5
280
100
AcDbEntity
  8
00_COMPONENTS_11
100
AcDbLine
 62
7
  6
BYLAYER
 10
40.675294866
 20
9.7732519087
 11
40.1096070859
 21
9.4466425786
  0
LINE
  5
281
100
AcDbEntity
  8
00_COMPONENTS_10
100
AcDbLine
 62
7
  6
BYLAYER
 10
39.9681851408
 20
9.2833400043
 11
36.837618518
 21
7.9234796122
  0
LINE
  5
282
100
AcDbEntity
  8
00_COMPONENTS_11
100
AcDbLine
 62
7
  6
BYLAYER
 10
37.0777336267
 20
8.2403256263
 11
40.0787487582
 21
9.5190627104
  0
ARC
  5
283
100
AcDbEntity
  8
00_COMPONENTS_5
100
AcDbCircle
 62
7
  6
BYLAYER
 10
-9.2174983363
 20
-53.9491416037
 40
100.1850099733
100
AcDbArc
 50
54.4955214353
 51
54.9202873835
  0
ARC
  5
284
100
AcDbEntity
  8
00_COMPONENTS_5
100
AcDbCircle
 62
7
  6
BYLAYER
 10
-14.1560252675
 20
-37.5181953657
 40
62.8912218107
100
AcDbArc
 50
59.9576724556
 51
60.3550229001
  0
ARC
  5
285
100
AcDbEntity
  8
00_COMPONENTS_5
100
AcDbCircle
 62
7
  6
BYLAYER
 10
24.353743244
 20
24.9570012096
 40
16.9529157239
100
AcDbArc
 50
123.2206637721
 51
123.7375876956
  0
ARC
  5
286
100
AcDbEntity
  8
00_COMPONENTS_5
100
AcDbCircle
 62
7
  6
BYLAYER
 10
25.6333452168
 20
31.2833812817
 40
16.5873976777
100
AcDbArc
 50
238.3580076066
 51
239.9607739849
  0
ARC
  5
287
100
AcDbEntity
  8
00_COMPONENTS_11
100
AcDbCircle
 62
7
  6
BYLAYER
 10
33.3070929088
 20
22.5473305272
 40
14.7467787884
100
AcDbArc
 50
297.6069917245
 51
299.9767299791
  0
ARC
  5
288
100
AcDbEntity
  8
00_COMPONENTS_11
100
AcDbCircle
 62
7
  6
BYLAYER
 10
26.7674146524
 20
22.4307857627
 40
14.6144378457
100
AcDbArc
 50
240.0074150118
 51
242.5539761375
  0
ARC
  5
289
100
AcDbEntity
  8
00_COMPONENTS_13
100
AcDbCircle
 62
7
  6
BYLAYER
 10
27.2798182842
 20
68.789588101
 40
13.9002410825
100
AcDbArc
 50
241.7220536808
 51
242.754890294
  0
ARC
  5
28A
100
AcDbEntity
  8
00_COMPONENTS_13
100
AcDbCircle
 62
7
  6
BYLAYER
 10
32.8873770013
 20
68.7341916683
 40
13.8372903071
100
AcDbArc
 50
297.2802165919
 51
298.283903008
  0
ARC
  5
28B
100
AcDbEntity
  8
00_COMPONENTS_11
100
AcDbCircle
 62
7
  6
BYLAYER
 10
33.3454634101
 20
21.1636781409
 40
13.5293223051
100
AcDbArc
 50
299.2395896147
 51
299.9974695296
  0
ARC
  5
28C
100
AcDbEntity
  8
00_COMPONENTS_13
100
AcDbCircle
 62
7
  6
BYLAYER
 10
33.1775144916
 20
68.2000680072
 40
13.2294566282
100
AcDbArc
 50
298.2734718548
 51
299.9958238378
  0
ARC
  5
28D
100
AcDbEntity
  8
00_COMPONENTS_10
100
AcDbCircle
 62
7
  6
BYLAYER
 10
33.4607751649
 20
20.5550407097
 40
13.0152841454
100
AcDbArc
 50
299.9988202095
 51
300.9421005046
  0
ARC
  5
28E
100
AcDbEntity
  8
00_COMPONENTS_10
100
AcDbCircle
 62
7
  6
BYLAYER
 10
33.4960325587
 20
20.4950597549
 40
12.9457104406
100
AcDbArc
 50
299.9964092101
 51
300.9932295702
  0
ARC
  5
28F
100
AcDbEntity
  8
00_COMPONENTS_10
100
AcDbCircle
 62
7
  6
BYLAYER
 10
33.7476755356
 20
20.0795098494
 40
12.4599092574
100
AcDbArc
 50
300.9852581643
 51
302.5893972088
  0
ARC
  5
290
100
AcDbEntity
  8
00_COMPONENTS_10
100
AcDbCircle
 62
7
  6
BYLAYER
 10
33.8018379264
 20
19.9894981386
 40
12.3548607811
100
AcDbArc
 50
300.9340346121
 51
303.9943998768
  0
ARC
  5
291
100
AcDbEntity
  8
00_COMPONENTS_10
100
AcDbCircle
 62
7
  6
BYLAYER
 10
26.2853938263
 20
19.9129122608
 40
12.2634230168
100
AcDbArc
 50
236.5148105635
 51
239.0697776164
  0
ARC
  5
292
100
AcDbEntity
  8
00_COMPONENTS_9
100
AcDbCircle
 62
7
  6
BYLAYER
 10
29.5029068532
 20
68.5696245491
 40
8.8846028689
100
AcDbArc
 50
84.775382489
 51
95.0218214689
  0
ARC
  5
293
100
AcDbEntity
  8
00_COMPONENTS_9
100
AcDbCircle
 62
7
  6
BYLAYER
 10
29.5183166986
 20
68.7744749679
 40
8.6792009314
100
AcDbArc
 50
84.6227320311
 51
84.7535450418
  0
ARC
  5
294
100
AcDbEntity
  8
00_COMPONENTS_11
100
AcDbCircle
 62
7
  6
BYLAYER
 10
37.8325610935
 20
54.968447116
 40
7.5012435409
100
AcDbArc
 50
36.082033317
 51
37.0794125222
  0
ARC
  5
295
100
AcDbEntity
  8
00_COMPONENTS_10
100
AcDbCircle
 62
7
  6
BYLAYER
 10
22.5154799326
 20
15.40137257
 40
6.6243171749
100
AcDbArc
 50
212.4886873123
 51
216.067897596
  0
ARC
  5
296
100
AcDbEntity
  8
00_COMPONENTS_13
100
AcDbCircle
 62
7
  6
BYLAYER
 10
30.9446081136
 20
69.9428514247
 40
5.6021595336
100
AcDbArc
 50
300.0001145676
 51
300.5012179057
  0
ARC
  5
297
100
AcDbEntity
  8
00_COMPONENTS_13
100
AcDbCircle
 62
7
  6
BYLAYER
 10
28.0558142796
 20
69.933295459
 40
5.5911291033
100
AcDbArc
 50
239.5115147221
 51
240.0011024427
  0
ARC
  5
298
100
AcDbEntity
  8
00_COMPONENTS_9
100
AcDbCircle
 62
7
  6
BYLAYER
 10
30.6500088605
 20
76.0519930166
 40
5.2771946326
100
AcDbArc
 50
297.9590204984
 51
299.2555502523
  0
ARC
  5
299
100
AcDbEntity
  8
00_COMPONENTS_9
100
AcDbCircle
 62
7
  6
BYLAYER
 10
28.3376124712
 20
76.0187137752
 40
5.2392140204
100
AcDbArc
 50
240.742442036
 51
242.0485492607
  0
ARC
  5
29A
100
AcDbEntity
  8
00_COMPONENTS_13
100
AcDbCircle
 62
7
  6
BYLAYER
 10
28.2321229905
 20
75.9545130896
 40
5.2369212649
100
AcDbArc
 50
240.0029366411
 51
240.7570767336
  0
ARC
  5
29B
100
AcDbEntity
  8
00_COMPONENTS_9
100
AcDbCircle
 62
7
  6
BYLAYER
 10
28.2574005117
 20
75.8755174094
 40
5.0750824951
100
AcDbArc
 50
240.0013182803
 51
240.7423763031
  0
ARC
  5
29C
100
AcDbEntity
  8
00_COMPONENTS_9
100
AcDbCircle
 62
7
  6
BYLAYER
 10
30.7374051252
 20
72.4138484516
 40
4.8144882607
100
AcDbArc
 50
59.4387794241
 51
60.0013568364
  0
ARC
  5
29D
100
AcDbEntity
  8
00_COMPONENTS_9
100
AcDbCircle
 62
7
  6
BYLAYER
 10
28.2685267128
 20
76.547986147
 40
4.8144882607
100
AcDbArc
 50
239.4387794241
 51
240.0013568364
  0
ARC
  5
29E
100
AcDbEntity
  8
00_COMPONENTS_11
100
AcDbCircle
 62
7
  6
BYLAYER
 10
39.174986776
 20
61.9505160408
 40
4.6436570926
100
AcDbArc
 50
348.145052512
 51
359.9640149008
  0
ARC
  5
29F
100
AcDbEntity
  8
00_COMPONENTS_13
100
AcDbCircle
 62
7
  6
BYLAYER
 10
39.2246285039
 20
62.3561000143
 40
4.5940095465
100
AcDbArc
 50
354.9311549334
 51
359.9968914446
  0
ARC
  5
2A0
100
AcDbEntity
  8
00_COMPONENTS_13
100
AcDbCircle
 62
7
  6
BYLAYER
 10
20.9108513736
 20
62.3559344355
 40
4.5921914405
100
AcDbArc
 50
180.0010440787
 51
185.0061910698
  0
ARC
  5
2A1
100
AcDbEntity
  8
00_COMPONENTS_11
100
AcDbCircle
 62
7
  6
BYLAYER
 10
20.8970425517
 20
59.3566315839
 40
4.578393563
100
AcDbArc
 50
178.2271704224
 51
179.9995200709
  0
ARC
  5
2A2
100
AcDbEntity
  8
00_COMPONENTS_11
100
AcDbCircle
 62
7
  6
BYLAYER
 10
39.2402834891
 20
59.3566477186
 40
4.5783654996
100
AcDbArc
 50
0.0002780151
 51
1.7725439225
  0
ARC
  5
2A3
100
AcDbEntity
  8
00_COMPONENTS_9
100
AcDbCircle
 62
7
  6
BYLAYER
 10
30.3952213172
 20
72.604350225
 40
4.1400157981
100
AcDbArc
 50
60.0202288983
 51
63.8111901431
  0
ARC
  5
2A4
100
AcDbEntity
  8
00_COMPONENTS_13
100
AcDbCircle
 62
7
  6
BYLAYER
 10
32.6131305783
 20
71.8562184867
 40
2.9946135315
100
AcDbArc
 50
35.9586016713
 51
37.0345572031
  0
ARC
  5
2A5
100
AcDbEntity
  8
00_COMPONENTS_13
100
AcDbCircle
 62
7
  6
BYLAYER
 10
26.3340105763
 20
71.8988939237
 40
2.9219734336
100
AcDbArc
 50
143.5525108128
 51
145.4462616508
  0
ARC
  5
2A6
100
AcDbEntity
  8
00_COMPONENTS_13
100
AcDbCircle
 62
7
  6
BYLAYER
 10
26.1262355319
 20
73.5859281652
 40
2.1349552495
100
AcDbArc
 50
157.1475924448
 51
157.8043447308
  0
ARC
  5
2A7
100
AcDbEntity
  8
00_COMPONENTS_13
100
AcDbCircle
 62
7
  6
BYLAYER
 10
26.0883464736
 20
73.6011590265
 40
2.0941200388
100
AcDbArc
 50
157.7985681859
 51
159.8438926991
  0
ARC
  5
2A8
100
AcDbEntity
  8
00_COMPONENTS_13
100
AcDbCircle
 62
7
  6
BYLAYER
 10
32.923908573
 20
73.6033838552
 40
2.0874250013
100
AcDbArc
 50
20.254437248
 51
21.1240574519
  0
ARC
  5
2A9
100
AcDbEntity
  8
00_COMPONENTS_13
100
AcDbCircle
 62
7
  6
BYLAYER
 10
25.7891238467
 20
62.0281782583
 40
1.886169575
100
AcDbArc
 50
172.1852777912
 51
177.3347221564
  0
ARC
  5
2AA
100
AcDbEntity
  8
00_COMPONENTS_13
100
AcDbCircle
 62
7
  6
BYLAYER
 10
25.7747260342
 20
62.0291300503
 40
1.8717430992
100
AcDbArc
 50
177.3433314244
 51
178.3493124774
  0
SPLINE
  5
2AB
100
AcDbEntity
  8
00_COMPONENTS_12
100
AcDbSpline
 62
7
  6
BYLAYER
 70
0
 71
3
 72
12
 73
8
 74
0
 42
0.0000001
 43
0.0000001
 44
0.0000000001
 40
0.0
 40
0.0
 40
0.0
 40
0.0
 40
0.2976930141
 40
0.4389568725
 40
0.5714752947
 40
0.8053342437
 40
1.0
 40
1.0
 40
1.0
 40
1.0
 10
29.5068493819
 20
75.1773744713
 30
0.0
 10
29.5121639723
 20
75.1771347893
 30
0.0
 10
29.5199992698
 20
75.1760492472
 30
0.0
 10
29.5297982923
 20
75.1731058514
 30
0.0
 10
29.538126361
 20
75.1694713356
 30
0.0
 10
29.5465548721
 20
75.1637817988
 30
0.0
 10
29.5510385509
 20
75.1571834572
 30
0.0
 10
29.5521092541
 20
75.1538735053
 30
0.0
  0
SPLINE
  5
2AC
100
AcDbEntity
  8
00_COMPONENTS_12
100
AcDbSpline
 62
7
  6
BYLAYER
 70
0
 71
3
 72
11
 73
7
 74
0
 42
0.0000001
 43
0.0000001
 44
0.0000000001
 40
0.0
 40
0.0
 40
0.0
 40
0.0
 40
0.422719663
 40
0.5580597693
 40
0.7016932434
 40
1.0
 40
1.0
 40
1.0
 40
1.0
 10
29.4538029695
 20
75.1538734606
 30
0.0
 10
29.4564217992
 20
75.1620291608
 30
0.0
 10
29.4671023957
 20
75.1697993433
 30
0.0
 10
29.4803288648
 20
75.174510404
 30
0.0
 10
29.4917966286
 20
75.1771241699
 30
0.0
 10
29.5008107344
 20
75.1776468076
 30
0.0
 10
29.5068493819
 20
75.1773744713
 30
0.0
  0
SPLINE
  5
2AD
100
AcDbEntity
  8
00_COMPONENTS_12
100
AcDbSpline
 62
7
  6
BYLAYER
 70
0
 71
3
 72
9
 73
5
 74
0
 42
0.0000001
 43
0.0000001
 44
0.0000000001
 40
0.0
 40
0.0
 40
0.0
 40
0.0
 40
0.4958757063
 40
1.0
 40
1.0
 40
1.0
 40
1.0
 10
28.9979598732
 20
73.7120778743
 30
0.0
 10
28.9979578941
 20
73.7210297084
 30
0.0
 10
28.9994039384
 20
73.739111638
 30
0.0
 10
29.0036849125
 20
73.7567313717
 30
0.0
 10
29.0064766189
 20
73.7653933514
 30
0.0
  0
SPLINE
  5
2AE
100
AcDbEntity
  8
00_COMPONENTS_12
100
AcDbSpline
 62
7
  6
BYLAYER
 70
0
 71
3
 72
16
 73
12
 74
0
 42
0.0000001
 43
0.0000001
 44
0.0000000001
 40
0.0
 40
0.0
 40
0.0
 40
0.0
 40
0.1560716728
 40
0.3072379549
 40
0.450080583
 40
0.582261884
 40
0.7022846611
 40
0.8101656209
 40
0.9078971577
 40
0.9543369661
 40
1.0
 40
1.0
 40
1.0
 40
1.0
 10
29.4636274095
 20
73.4214056341
 30
0.0
 10
29.4326101093
 20
73.4228044795
 30
0.0
 10
29.3716425695
 20
73.4288308189
 30
0.0
 10
29.2838802732
 20
73.4475253561
 30
0.0
 10
29.203499455
 20
73.4752424031
 30
0.0
 10
29.1332031733
 20
73.5110393123
 30
0.0
 10
29.0752893476
 20
73.5538840559
 30
0.0
 10
29.0317241721
 20
73.6025482137
 30
0.0
 10
29.0084983211
 20
73.6478281139
 30
0.0
 10
28.999460232
 20
73.6846367379
 30
0.0
 10
28.9979618815
 20
73.7029936914
 30
0.0
 10
28.9979598732
 20
73.7120778743
 30
0.0
  0
SPLINE
  5
2AF
100
AcDbEntity
  8
00_COMPONENTS_12
100
AcDbSpline
 62
7
  6
BYLAYER
 70
0
 71
3
 72
13
 73
9
 74
0
 42
0.0000001
 43
0.0000001
 44
0.0000000001
 40
0.0
 40
0.0
 40
0.0
 40
0.0
 40
0.3149039047
 40
0.5894207644
 40
0.7061115984
 40
0.809990264
 40
0.9054820257
 40
1.0
 40
1.0
 40
1.0
 40
1.0
 10
29.4990616391
 20
75.1198156119
 30
0.0
 10
29.4923211942
 20
75.1201195985
 30
0.0
 10
29.4797312505
 20
75.122141032
 30
0.0
 10
29.4656574221
 20
75.128529877
 30
0.0
 10
29.4577691428
 20
75.1357583567
 30
0.0
 10
29.4540774913
 20
75.1415560197
 30
0.0
 10
29.4525874385
 20
75.1478107803
 30
0.0
 10
29.4531838092
 20
75.1519452382
 30
0.0
 10
29.4538029695
 20
75.1538734606
 30
0.0
  0
SPLINE
  5
2B0
100
AcDbEntity
  8
00_COMPONENTS_12
100
AcDbSpline
 62
7
  6
BYLAYER
 70
0
 71
3
 72
13
 73
9
 74
0
 42
0.0000001
 43
0.0000001
 44
0.0000000001
 40
0.0
 40
0.0
 40
0.0
 40
0.0
 40
0.0920274643
 40
0.185904425
 40
0.2898666821
 40
0.4082290705
 40
0.6869759005
 40
1.0
 40
1.0
 40
1.0
 40
1.0
 10
29.5521092541
 20
75.1538735053
 30
0.0
 10
29.5527891978
 20
75.1517715399
 30
0.0
 10
29.5533582126
 20
75.1472031509
 30
0.0
 10
29.5513567523
 20
75.1403629133
 30
0.0
 10
29.5467569757
 20
75.1341708565
 30
0.0
 10
29.5372283934
 20
75.1266641589
 30
0.0
 10
29.520883159
 20
75.1206490158
 30
0.0
 10
29.5065684405
 20
75.1194770636
 30
0.0
 10
29.4990616391
 20
75.1198156119
 30
0.0
  0
SPLINE
  5
2B1
100
AcDbEntity
  8
00_COMPONENTS_12
100
AcDbSpline
 62
7
  6
BYLAYER
 70
0
 71
3
 72
17
 73
13
 74
0
 42
0.0000001
 43
0.0000001
 44
0.0000000001
 40
0.0
 40
0.0
 40
0.0
 40
0.0
 40
0.0445737704
 40
0.0900738759
 40
0.1373269239
 40
0.1870139239
 40
0.2952410953
 40
0.416741908
 40
0.5508386528
 40
0.6951256831
 40
0.8462689741
 40
1.0
 40
1.0
 40
1.0
 40
1.0
 10
30.0079511479
 20
73.7120778736
 30
0.0
 10
30.0079533667
 20
73.7020413364
 30
0.0
 10
30.0061242102
 20
73.681713659
 30
0.0
 10
29.9979375367
 20
73.6517469338
 30
0.0
 10
29.9844715447
 20
73.6224868293
 30
0.0
 10
29.9589604242
 20
73.583793563
 30
0.0
 10
29.9137963456
 20
73.5390140558
 30
0.0
 10
29.8444692084
 20
73.4945464233
 30
0.0
 10
29.7612659165
 20
73.459192342
 30
0.0
 10
29.6675173489
 20
73.4342819558
 30
0.0
 10
29.5670372347
 20
73.420836082
 30
0.0
 10
29.4982073989
 20
73.4198461153
 30
0.0
 10
29.4636274095
 20
73.4214056341
 30
0.0
  0
SPLINE
  5
2B2
100
AcDbEntity
  8
00_COMPONENTS_1
100
AcDbSpline
 62
7
  6
BYLAYER
 70
0
 71
3
 72
11
 73
7
 74
0
 42
0.0000001
 43
0.0000001
 44
0.0000000001
 40
0.0
 40
0.0
 40
0.0
 40
0.0
 40
0.2973772005
 40
0.4413271782
 40
0.5772267599
 40
1.0
 40
1.0
 40
1.0
 40
1.0
 10
31.996718248
 20
73.7338868703
 30
0.0
 10
32.0029550507
 20
73.7343403527
 30
0.0
 10
32.0123107741
 20
73.7340165917
 30
0.0
 10
32.0242648864
 20
73.7315438396
 30
0.0
 10
32.038088158
 20
73.726914821
 30
0.0
 10
32.0493961571
 20
73.7189880374
 30
0.0
 10
32.0521162952
 20
73.7105243034
 30
0.0
  0
SPLINE
  5
2B3
100
AcDbEntity
  8
00_COMPONENTS_1
100
AcDbSpline
 62
7
  6
BYLAYER
 70
0
 71
3
 72
11
 73
7
 74
0
 42
0.0000001
 43
0.0000001
 44
0.0000000001
 40
0.0
 40
0.0
 40
0.0
 40
0.0
 40
0.1957125469
 40
0.4293193304
 40
0.7019439688
 40
1.0
 40
1.0
 40
1.0
 40
1.0
 10
31.9538138921
 20
73.7105242957
 30
0.0
 10
31.9548436201
 20
73.7137049273
 30
0.0
 10
31.9590543418
 20
73.7200578773
 30
0.0
 10
31.9689958494
 20
73.7270487509
 30
0.0
 10
31.9819527074
 20
73.7319386956
 30
0.0
 10
31.9916402543
 20
73.7335176457
 30
0.0
 10
31.996718248
 20
73.7338868703
 30
0.0
  0
SPLINE
  5
2B4
100
AcDbEntity
  8
00_COMPONENTS_1
100
AcDbSpline
 62
7
  6
BYLAYER
 70
0
 71
3
 72
13
 73
9
 74
0
 42
0.0000001
 43
0.0000001
 44
0.0000000001
 40
0.0
 40
0.0
 40
0.0
 40
0.0
 40
0.3119789859
 40
0.5919525933
 40
0.7109368281
 40
0.815051538
 40
0.9086002228
 40
1.0
 40
1.0
 40
1.0
 40
1.0
 10
32.00921359
 20
73.6766051542
 30
0.0
 10
32.0015012349
 20
73.6760443833
 30
0.0
 10
31.9866838468
 20
73.676917575
 30
0.0
 10
31.9696646001
 20
73.6827825718
 30
0.0
 10
31.9596172144
 20
73.6903443915
 30
0.0
 10
31.9547321625
 20
73.6966505269
 30
0.0
 10
31.9525521936
 20
73.7036651995
 30
0.0
 10
31.9531161154
 20
73.7083689979
 30
0.0
 10
31.9538138921
 20
73.7105242957
 30
0.0
  0
SPLINE
  5
2B5
100
AcDbEntity
  8
00_COMPONENTS_1
100
AcDbSpline
 62
7
  6
BYLAYER
 70
0
 71
3
 72
13
 73
9
 74
0
 42
0.0000001
 43
0.0000001
 44
0.0000000001
 40
0.0
 40
0.0
 40
0.0
 40
0.0
 40
0.0954027478
 40
0.1915254777
 40
0.2954937648
 40
0.411788574
 40
0.6850035312
 40
1.0
 40
1.0
 40
1.0
 40
1.0
 10
32.0521162952
 20
73.7105243034
 30
0.0
 10
32.0527189506
 20
73.7086491357
 30
0.0
 10
32.053321673
 20
73.7046426516
 30
0.0
 10
32.0519702443
 20
73.69856802
 30
0.0
 10
32.0485406878
 20
73.6928980856
 30
0.0
 10
32.0411290896
 20
73.6857795154
 30
0.0
 10
32.0277516958
 20
73.6793155091
 30
0.0
 10
32.0156997061
 20
73.6770767644
 30
0.0
 10
32.00921359
 20
73.6766051542
 30
0.0
  0
SPLINE
  5
2B6
100
AcDbEntity
  8
00_COMPONENTS
100
AcDbSpline
 62
7
  6
BYLAYER
 70
0
 71
3
 72
11
 73
7
 74
0
 42
0.0000001
 43
0.0000001
 44
0.0000000001
 40
0.0
 40
0.0
 40
0.0
 40
0.0
 40
0.2962205178
 40
0.5646434811
 40
0.7978579514
 40
1.0
 40
1.0
 40
1.0
 40
1.0
 10
27.0206355195
 20
73.7322384543
 30
0.0
 10
27.0244724765
 20
73.7314016103
 30
0.0
 10
27.0316782158
 20
73.7292275635
 30
0.0
 10
27.041150134
 20
73.7243526383
 30
0.0
 10
27.0482869003
 20
73.7181766003
 30
0.0
 10
27.0512974887
 20
73.7130639724
 30
0.0
 10
27.0521159977
 20
73.7105121222
 30
0.0
  0
SPLINE
  5
2B7
100
AcDbEntity
  8
00_COMPONENTS
100
AcDbSpline
 62
7
  6
BYLAYER
 70
0
 71
3
 72
12
 73
8
 74
0
 42
0.0000001
 43
0.0000001
 44
0.0000000001
 40
0.0
 40
0.0
 40
0.0
 40
0.0
 40
0.1903853852
 40
0.3055633698
 40
0.4330851427
 40
0.7133952986
 40
1.0
 40
1.0
 40
1.0
 40
1.0
 10
26.9538117428
 20
73.7105124394
 30
0.0
 10
26.9552779917
 20
73.7150499007
 30
0.0
 10
26.9605278617
 20
73.7213545189
 30
0.0
 10
26.9697234994
 20
73.7270800457
 30
0.0
 10
26.9819236049
 20
73.732055326
 30
0.0
 10
26.9992961447
 20
73.7348761823
 30
0.0
 10
27.0136219528
 20
73.7337681198
 30
0.0
 10
27.0206355195
 20
73.7322384543
 30
0.0
  0
SPLINE
  5
2B8
100
AcDbEntity
  8
00_COMPONENTS
100
AcDbSpline
 62
7
  6
BYLAYER
 70
0
 71
3
 72
13
 73
9
 74
0
 42
0.0000001
 43
0.0000001
 44
0.0000000001
 40
0.0
 40
0.0
 40
0.0
 40
0.0
 40
0.0889434198
 40
0.1815311972
 40
0.2872964079
 40
0.4100049747
 40
0.6961408721
 40
1.0
 40
1.0
 40
1.0
 40
1.0
 10
27.0521159977
 20
73.7105121222
 30
0.0
 10
27.0528929681
 20
73.7080897759
 30
0.0
 10
27.0534166196
 20
73.7027008595
 30
0.0
 10
27.050252461
 20
73.6948454402
 30
0.0
 10
27.0438559782
 20
73.6880446928
 30
0.0
 10
27.031153342
 20
73.68036117
 30
0.0
 10
27.010910558
 20
73.6754987553
 30
0.0
 10
26.9937874968
 20
73.6763775992
 30
0.0
 10
26.9852963185
 20
73.6782295332
 30
0.0
  0
SPLINE
  5
2B9
100
AcDbEntity
  8
00_COMPONENTS
100
AcDbSpline
 62
7
  6
BYLAYER
 70
0
 71
3
 72
12
 73
8
 74
0
 42
0.0000001
 43
0.0000001
 44
0.0000000001
 40
0.0
 40
0.0
 40
0.0
 40
0.0
 40
0.312611778
 40
0.5798135662
 40
0.7991014567
 40
0.8993956518
 40
1.0
 40
1.0
 40
1.0
 40
1.0
 10
26.9852963185
 20
73.6782295332
 30
0.0
 10
26.9801685658
 20
73.6793479009
 30
0.0
 10
26.9708248075
 20
73.6824210303
 30
0.0
 10
26.959413327
 20
73.6898497211
 30
0.0
 10
26.9536916347
 20
73.6984285999
 30
0.0
 10
26.95271285
 20
73.7055225508
 30
0.0
 10
26.9532923966
 20
73.708905268
 30
0.0
 10
26.9538117428
 20
73.7105124394
 30
0.0
  0
SPLINE
  5
2BA
100
AcDbEntity
  8
00_COMPONENTS_3
100
AcDbSpline
 62
7
  6
BYLAYER
 70
0
 71
3
 72
10
 73
6
 74
0
 42
0.0000001
 43
0.0000001
 44
0.0000000001
 40
0.0
 40
0.0
 40
0.0
 40
0.0
 40
0.2936921455
 40
0.6805697063
 40
1.0
 40
1.0
 40
1.0
 40
1.0
 10
29.5266898238
 20
72.2872989676
 30
0.0
 10
29.5298186152
 20
72.2863258498
 30
0.0
 10
29.5369048704
 20
72.2835222855
 30
0.0
 10
29.5463706452
 20
72.2773284832
 30
0.0
 10
29.5510407946
 20
72.2705563015
 30
0.0
 10
29.5521317835
 20
72.2671636218
 30
0.0
  0
SPLINE
  5
2BB
100
AcDbEntity
  8
00_COMPONENTS_3
100
AcDbSpline
 62
7
  6
BYLAYER
 70
0
 71
3
 72
12
 73
8
 74
0
 42
0.0000001
 43
0.0000001
 44
0.0000000001
 40
0.0
 40
0.0
 40
0.0
 40
0.0
 40
0.1907775028
 40
0.3077366322
 40
0.4374688394
 40
0.719712784
 40
1.0
 40
1.0
 40
1.0
 40
1.0
 10
29.4538246738
 20
72.2671632807
 30
0.0
 10
29.4554028221
 20
72.272087403
 30
0.0
 10
29.4613850397
 20
72.2788368673
 30
0.0
 10
29.4716565166
 20
72.2847010072
 30
0.0
 10
29.4852358836
 20
72.2895752443
 30
0.0
 10
29.5041108583
 20
72.2917227116
 30
0.0
 10
29.5194356793
 20
72.2895551544
 30
0.0
 10
29.5266898238
 20
72.2872989676
 30
0.0
  0
SPLINE
  5
2BC
100
AcDbEntity
  8
00_COMPONENTS_3
100
AcDbSpline
 62
7
  6
BYLAYER
 70
0
 71
3
 72
15
 73
11
 74
0
 42
0.0000001
 43
0.0000001
 44
0.0000000001
 40
0.0
 40
0.0
 40
0.0
 40
0.0
 40
0.0878770243
 40
0.1803111832
 40
0.2874437083
 40
0.4124177671
 40
0.5526391353
 40
0.7023797496
 40
0.854410671
 40
1.0
 40
1.0
 40
1.0
 40
1.0
 10
29.5521317835
 20
72.2671636218
 30
0.0
 10
29.5529584177
 20
72.2645930134
 30
0.0
 10
29.5534102126
 20
72.2588021039
 30
0.0
 10
29.5496540657
 20
72.2504877331
 30
0.0
 10
29.5423253478
 20
72.2434763664
 30
0.0
 10
29.5321660405
 20
72.2380036021
 30
0.0
 10
29.5198828693
 20
72.2343254672
 30
0.0
 10
29.5063344085
 20
72.2327086427
 30
0.0
 10
29.4925470026
 20
72.2332885514
 30
0.0
 10
29.4835345989
 20
72.2351423542
 30
0.0
 10
29.4792628312
 20
72.236470961
 30
0.0
  0
SPLINE
  5
2BD
100
AcDbEntity
  8
00_COMPONENTS_3
100
AcDbSpline
 62
7
  6
BYLAYER
 70
0
 71
3
 72
11
 73
7
 74
0
 42
0.0000001
 43
0.0000001
 44
0.0000000001
 40
0.0
 40
0.0
 40
0.0
 40
0.0
 40
0.3088669722
 40
0.5729830461
 40
0.7943813076
 40
1.0
 40
1.0
 40
1.0
 40
1.0
 10
29.4792628312
 20
72.236470961
 30
0.0
 10
29.4749292561
 20
72.2378187912
 30
0.0
 10
29.4670982748
 20
72.2411373683
 30
0.0
 10
29.4577617482
 20
72.2484479141
 30
0.0
 10
29.452580129
 20
72.2576387441
 30
0.0
 10
29.4529025799
 20
72.2642861724
 30
0.0
 10
29.4538246738
 20
72.2671632807
 30
0.0
  0
SPLINE
  5
2BE
100
AcDbEntity
  8
00_COMPONENTS_9
100
AcDbSpline
 62
7
  6
BYLAYER
 70
0
 71
3
 72
26
 73
22
 74
0
 42
0.0000001
 43
0.0000001
 44
0.0000000001
 40
0.0
 40
0.0
 40
0.0
 40
0.0
 40
0.0623770839
 40
0.1287158369
 40
0.1983026738
 40
0.2702751779
 40
0.3436478079
 40
0.4173763023
 40
0.4903972341
 40
0.5616802246
 40
0.6302737151
 40
0.6953573099
 40
0.7563008393
 40
0.8127341791
 40
0.8646310079
 40
0.8890163562
 40
0.912463775
 40
0.9351070375
 40
0.9571105429
 40
0.9786695047
 40
1.0
 40
1.0
 40
1.0
 40
1.0
 10
26.5419686007
 20
72.7713949049
 30
0.0
 10
26.6924120515
 20
72.6845383031
 30
0.0
 10
27.0148306645
 20
72.5255763108
 30
0.0
 10
27.5349211643
 20
72.3371217732
 30
0.0
 10
28.0969683865
 20
72.1944537939
 30
0.0
 10
28.6889224017
 20
72.1005844368
 30
0.0
 10
29.2982519629
 20
72.0575156647
 30
0.0
 10
29.9119479105
 20
72.0661493179
 30
0.0
 10
30.5169228659
 20
72.1263122466
 30
0.0
 10
31.1002795434
 20
72.2367196312
 30
0.0
 10
31.6496266451
 20
72.3950440009
 30
0.0
 10
32.1533423713
 20
72.5979712373
 30
0.0
 10
32.6008711183
 20
72.8413989681
 30
0.0
 10
32.9827542838
 20
73.1204064535
 30
0.0
 10
33.2449515499
 20
73.383792267
 30
0.0
 10
33.4112239462
 20
73.6067663577
 30
0.0
 10
33.5121988233
 20
73.7755012946
 30
0.0
 10
33.5914542057
 20
73.9482241315
 30
0.0
 10
33.6484293726
 20
74.124050588
 30
0.0
 10
33.6827946244
 20
74.3019306643
 30
0.0
 10
33.6904622477
 20
74.4215132155
 30
0.0
 10
33.6904584291
 20
74.4809172675
 30
0.0
  0
SPLINE
  5
2BF
100
AcDbEntity
  8
00_COMPONENTS_9
100
AcDbSpline
 62
7
  6
BYLAYER
 70
0
 71
3
 72
15
 73
11
 74
0
 42
0.0000001
 43
0.0000001
 44
0.0000000001
 40
0.0
 40
0.0
 40
0.0
 40
0.0
 40
0.1080122728
 40
0.218058712
 40
0.3319941392
 40
0.4513557902
 40
0.5772665496
 40
0.7104867722
 40
0.8514339387
 40
1.0
 40
1.0
 40
1.0
 40
1.0
 10
25.3154734089
 20
74.4809173311
 30
0.0
 10
25.3154785049
 20
74.4016420311
 30
0.0
 10
25.3292335094
 20
74.2412757707
 30
0.0
 10
25.3906936492
 20
74.0044144599
 30
0.0
 10
25.49210761
 20
73.772643117
 30
0.0
 10
25.6322521895
 20
73.5483458411
 30
0.0
 10
25.8094776957
 20
73.3335047245
 30
0.0
 10
26.0220387812
 20
73.1300427055
 30
0.0
 10
26.26779391
 20
72.9398556387
 30
0.0
 10
26.4475369703
 20
72.8259137987
 30
0.0
 10
26.5419686007
 20
72.7713949049
 30
0.0
  0
SPLINE
  5
2C0
100
AcDbEntity
  8
00_COMPONENTS_9
100
AcDbSpline
 62
7
  6
BYLAYER
 70
0
 71
3
 72
18
 73
14
 74
0
 42
0.0000001
 43
0.0000001
 44
0.0000000001
 40
0.0
 40
0.0
 40
0.0
 40
0.0
 40
0.0565140375
 40
0.1153030283
 40
0.1761236628
 40
0.2387166029
 40
0.3678767277
 40
0.500046296
 40
0.6322156293
 40
0.7613752406
 40
0.8239677009
 40
0.8847913347
 40
1.0
 40
1.0
 40
1.0
 40
1.0
 10
25.8818711341
 20
71.3906798474
 30
0.0
 10
26.0065199123
 20
71.324519434
 30
0.0
 10
26.2662181292
 20
71.1994815307
 30
0.0
 10
26.6752755381
 20
71.0371048984
 30
0.0
 10
27.1085690889
 20
70.8972887207
 30
0.0
 10
27.7199210463
 20
70.7409775405
 30
0.0
 10
28.52007367
 20
70.6103447206
 30
0.0
 10
29.5030982119
 20
70.5580743494
 30
0.0
 10
30.4861317442
 20
70.6103777918
 30
0.0
 10
31.286248377
 20
70.7410236487
 30
0.0
 10
31.8976569143
 20
70.8973724626
 30
0.0
 10
32.4649008495
 20
71.0804618713
 30
0.0
 10
32.8700682967
 20
71.2558491864
 30
0.0
 10
33.124168447
 20
71.3907359403
 30
0.0
  0
SPLINE
  5
2C1
100
AcDbEntity
  8
00_COMPONENTS_9
100
AcDbSpline
 62
7
  6
BYLAYER
 70
0
 71
3
 72
11
 73
7
 74
0
 42
0.0000001
 43
0.0000001
 44
0.0000000001
 40
0.0
 40
0.0
 40
0.0
 40
0.0
 40
0.275000415
 40
0.5330077229
 40
0.7742452099
 40
1.0
 40
1.0
 40
1.0
 40
1.0
 10
33.2290042638
 20
71.4479115772
 30
0.0
 10
33.3745779299
 20
71.5294774219
 30
0.0
 10
33.6493566407
 20
71.7013785537
 30
0.0
 10
34.0180419727
 20
71.9943523579
 30
0.0
 10
34.3255343282
 20
72.3107653661
 30
0.0
 10
34.4918379338
 20
72.5419314119
 30
0.0
 10
34.5619628462
 20
72.6596069641
 30
0.0
  0
SPLINE
  5
2C2
100
AcDbEntity
  8
00_COMPONENTS_9
100
AcDbSpline
 62
7
  6
BYLAYER
 70
0
 71
3
 72
11
 73
7
 74
0
 42
0.0000001
 43
0.0000001
 44
0.0000000001
 40
0.0
 40
0.0
 40
0.0
 40
0.0
 40
0.2607258174
 40
0.5124601726
 40
0.7578654621
 40
1.0
 40
1.0
 40
1.0
 40
1.0
 10
34.5619628462
 20
72.6596069641
 30
0.0
 10
34.6090412176
 20
72.7386084651
 30
0.0
 10
34.6926447194
 20
72.899473777
 30
0.0
 10
34.7848554265
 20
73.1512029238
 30
0.0
 10
34.8405065111
 20
73.406793041
 30
0.0
 10
34.8529637838
 20
73.5790072772
 30
0.0
 10
34.8529640421
 20
73.6644148809
 30
0.0
  0
SPLINE
  5
2C3
100
AcDbEntity
  8
00_COMPONENTS_9
100
AcDbSpline
 62
7
  6
BYLAYER
 70
0
 71
3
 72
12
 73
8
 74
0
 42
0.0000001
 43
0.0000001
 44
0.0000000001
 40
0.0
 40
0.0
 40
0.0
 40
0.0
 40
0.2894851579
 40
0.5486779968
 40
0.781630718
 40
0.8918332777
 40
1.0
 40
1.0
 40
1.0
 40
1.0
 10
27.3904722296
 20
75.9658897714
 30
0.0
 10
27.4157028148
 20
75.9513232158
 30
0.0
 10
27.4614772923
 20
75.9197794946
 30
0.0
 10
27.5161875523
 20
75.8623492118
 30
0.0
 10
27.5455518477
 20
75.8082015522
 30
0.0
 10
27.5569794775
 20
75.7640561446
 30
0.0
 10
27.5588847401
 20
75.7420352132
 30
0.0
 10
27.5588855632
 20
75.7311493819
 30
0.0
  0
SPLINE
  5
2C4
100
AcDbEntity
  8
00_COMPONENTS_9
100
AcDbSpline
 62
7
  6
BYLAYER
 70
0
 71
3
 72
16
 73
12
 74
0
 42
0.0000001
 43
0.0000001
 44
0.0000000001
 40
0.0
 40
0.0
 40
0.0
 40
0.0
 40
0.1448799982
 40
0.2830979419
 40
0.414651576
 40
0.4781140948
 40
0.5401339586
 40
0.6602098482
 40
0.775994818
 40
0.8887367386
 40
1.0
 40
1.0
 40
1.0
 40
1.0
 10
33.244548984
 20
76.5932802686
 30
0.0
 10
33.3665645427
 20
76.5228361466
 30
0.0
 10
33.5993965548
 20
76.3751160285
 30
0.0
 10
33.9185324916
 20
76.1276355517
 30
0.0
 10
34.1528153357
 20
75.9026606304
 30
0.0
 10
34.3170029966
 20
75.7139954067
 30
0.0
 10
34.4623178855
 20
75.5243445436
 30
0.0
 10
34.6157655713
 20
75.277484351
 30
0.0
 10
34.7515111386
 20
74.9654154333
 30
0.0
 10
34.8343413469
 20
74.6440878407
 30
0.0
 10
34.852965919
 20
74.425816372
 30
0.0
 10
34.852965919
 20
74.3176168158
 30
0.0
  0
SPLINE
  5
2C5
100
AcDbEntity
  8
00_COMPONENTS_9
100
AcDbSpline
 62
7
  6
BYLAYER
 70
0
 71
3
 72
27
 73
23
 74
0
 42
0.0000001
 43
0.0000001
 44
0.0000000001
 40
0.0
 40
0.0
 40
0.0
 40
0.0
 40
0.0226011345
 40
0.0453607404
 40
0.0684672996
 40
0.0920832293
 40
0.1163432907
 40
0.1413742131
 40
0.1672778767
 40
0.1941298366
 40
0.2508141222
 40
0.3115730103
 40
0.3761558398
 40
0.4440329747
 40
0.514464846
 40
0.5865649408
 40
0.6593574146
 40
0.7318302076
 40
0.8029888701
 40
0.8719048628
 40
0.9377830484
 40
1.0
 40
1.0
 40
1.0
 40
1.0
 10
24.152965919
 20
74.3176168158
 30
0.0
 10
24.152965919
 20
74.39818472
 30
0.0
 10
24.1632328128
 20
74.5600653451
 30
0.0
 10
24.2090238574
 20
74.8004032759
 30
0.0
 10
24.2847405165
 20
75.0368539451
 30
0.0
 10
24.3893394975
 20
75.2678382876
 30
0.0
 10
24.5218690337
 20
75.4919611581
 30
0.0
 10
24.681113583
 20
75.7081030328
 30
0.0
 10
24.8659164693
 20
75.9153409009
 30
0.0
 10
25.1498549617
 20
76.1834677729
 30
0.0
 10
25.5651253913
 20
76.4904585451
 30
0.0
 10
26.1350627899
 20
76.80392345
 30
0.0
 10
26.7742074759
 20
77.0643548018
 30
0.0
 10
27.4696399678
 20
77.2672198137
 30
0.0
 10
28.2072653122
 20
77.4088375496
 30
0.0
 10
28.9718765517
 20
77.4864942063
 30
0.0
 10
29.7475730112
 20
77.4986689036
 30
0.0
 10
30.5181664714
 20
77.4451253512
 30
0.0
 10
31.2675776584
 20
77.3269103681
 30
0.0
 10
31.9803632392
 20
77.1463077627
 30
0.0
 10
32.6417902128
 20
76.9067324775
 30
0.0
 10
33.0524727455
 20
76.7041730278
 30
0.0
 10
33.244548984
 20
76.5932802686
 30
0.0
  0
SPLINE
  5
2C6
100
AcDbEntity
  8
00_COMPONENTS_9
100
AcDbSpline
 62
7
  6
BYLAYER
 70
0
 71
3
 72
11
 73
7
 74
0
 42
0.0000001
 43
0.0000001
 44
0.0000000001
 40
0.0
 40
0.0
 40
0.0
 40
0.0
 40
0.2418402689
 40
0.487075762
 40
0.7388775267
 40
1.0
 40
1.0
 40
1.0
 40
1.0
 10
24.152968528
 20
73.6644148823
 30
0.0
 10
24.1529685637
 20
73.5772569791
 30
0.0
 10
24.1659470351
 20
73.4014567829
 30
0.0
 10
24.223920411
 20
73.1406700456
 30
0.0
 10
24.3199368295
 20
72.8839936565
 30
0.0
 10
24.406908403
 20
72.7202388113
 30
0.0
 10
24.4558621258
 20
72.639866677
 30
0.0
  0
SPLINE
  5
2C7
100
AcDbEntity
  8
00_COMPONENTS_9
100
AcDbSpline
 62
7
  6
BYLAYER
 70
0
 71
3
 72
11
 73
7
 74
0
 42
0.0000001
 43
0.0000001
 44
0.0000000001
 40
0.0
 40
0.0
 40
0.0
 40
0.0
 40
0.226807624
 40
0.4684221539
 40
0.7261272133
 40
1.0
 40
1.0
 40
1.0
 40
1.0
 10
24.4558621258
 20
72.639866677
 30
0.0
 10
24.5239760442
 20
72.5280373679
 30
0.0
 10
24.6837027547
 20
72.3083253427
 30
0.0
 10
24.9760092421
 20
72.0062720933
 30
0.0
 10
25.3242147205
 20
71.7254163808
 30
0.0
 10
25.5830309389
 20
71.5593631259
 30
0.0
 10
25.7199603899
 20
71.4803086589
 30
0.0
  0
SPLINE
  5
2C8
100
AcDbEntity
  8
00_COMPONENTS_9
100
AcDbSpline
 62
7
  6
BYLAYER
 70
0
 71
3
 72
11
 73
7
 74
0
 42
0.0000001
 43
0.0000001
 44
0.0000000001
 40
0.0
 40
0.0
 40
0.0
 40
0.0
 40
0.2777834241
 40
0.536396927
 40
0.7763840942
 40
1.0
 40
1.0
 40
1.0
 40
1.0
 10
25.7199603899
 20
72.1335105926
 30
0.0
 10
25.5619821846
 20
72.2247172886
 30
0.0
 10
25.2660535944
 20
72.4175429668
 30
0.0
 10
24.8766818685
 20
72.7491397191
 30
0.0
 10
24.5638190139
 20
73.1080876664
 30
0.0
 10
24.4051785313
 20
73.3703759688
 30
0.0
 10
24.3423395353
 20
73.503096889
 30
0.0
  0
SPLINE
  5
2C9
100
AcDbEntity
  8
00_COMPONENTS_9
100
AcDbSpline
 62
7
  6
BYLAYER
 70
0
 71
3
 72
11
 73
7
 74
0
 42
0.0000001
 43
0.0000001
 44
0.0000000001
 40
0.0
 40
0.0
 40
0.0
 40
0.0
 40
0.2572307619
 40
0.5083515712
 40
0.7552534041
 40
1.0
 40
1.0
 40
1.0
 40
1.0
 10
24.3423395353
 20
73.503096889
 30
0.0
 10
24.3114176402
 20
73.5684063725
 30
0.0
 10
24.2567150993
 20
73.7006452669
 30
0.0
 10
24.1969711088
 20
73.9046546998
 30
0.0
 10
24.1610033153
 20
74.110623774
 30
0.0
 10
24.1529660371
 20
74.2488639074
 30
0.0
 10
24.152965919
 20
74.3176168158
 30
0.0
  0
SPLINE
  5
2CA
100
AcDbEntity
  8
00_COMPONENTS_9
100
AcDbSpline
 62
7
  6
BYLAYER
 70
0
 71
3
 72
19
 73
15
 74
0
 42
0.0000001
 43
0.0000001
 44
0.0000000001
 40
0.0
 40
0.0
 40
0.0
 40
0.0
 40
0.0428385741
 40
0.0874433207
 40
0.1352549764
 40
0.1871925429
 40
0.2436709144
 40
0.3046630743
 40
0.4382667828
 40
0.5825421017
 40
0.7296386972
 40
0.8711665501
 40
0.9376089289
 40
1.0
 40
1.0
 40
1.0
 40
1.0
 10
27.5588855632
 20
75.7311493819
 30
0.0
 10
27.5588868008
 20
75.7147811793
 30
0.0
 10
27.5544991915
 20
75.6812293264
 30
0.0
 10
27.5352672463
 20
75.6327765068
 30
0.0
 10
27.5040343428
 20
75.5868511243
 30
0.0
 10
27.4617156602
 20
75.5443487557
 30
0.0
 10
27.4092734111
 20
75.5060206604
 30
0.0
 10
27.3247878438
 20
75.460097516
 30
0.0
 10
27.2010027093
 20
75.4187458006
 30
0.0
 10
27.0394488711
 20
75.3960623024
 30
0.0
 10
26.8733667023
 20
75.4006422589
 30
0.0
 10
26.7394948915
 20
75.4274084632
 30
0.0
 10
26.6422327837
 20
75.4626731209
 30
0.0
 10
26.5979481318
 20
75.4844896859
 30
0.0
 10
26.5773028168
 20
75.4964089945
 30
0.0
  0
SPLINE
  5
2CB
100
AcDbEntity
  8
00_COMPONENTS_9
100
AcDbSpline
 62
7
  6
BYLAYER
 70
0
 71
3
 72
15
 73
11
 74
0
 42
0.0000001
 43
0.0000001
 44
0.0000000001
 40
0.0
 40
0.0
 40
0.0
 40
0.0
 40
0.1080122728
 40
0.218058712
 40
0.3319941392
 40
0.4513557902
 40
0.5772665496
 40
0.7104867722
 40
0.8514339387
 40
1.0
 40
1.0
 40
1.0
 40
1.0
 10
33.6904584291
 20
74.4809172675
 30
0.0
 10
33.6904533331
 20
74.5601925674
 30
0.0
 10
33.6766983286
 20
74.7205588279
 30
0.0
 10
33.6152381888
 20
74.9574201386
 30
0.0
 10
33.513824228
 20
75.1891914815
 30
0.0
 10
33.3736796485
 20
75.4134887574
 30
0.0
 10
33.1964541423
 20
75.628329874
 30
0.0
 10
32.9838930568
 20
75.831791893
 30
0.0
 10
32.738137928
 20
76.0219789598
 30
0.0
 10
32.5583948677
 20
76.1359207998
 30
0.0
 10
32.4639632373
 20
76.1904396936
 30
0.0
  0
SPLINE
  5
2CC
100
AcDbEntity
  8
00_COMPONENTS_9
100
AcDbSpline
 62
7
  6
BYLAYER
 70
0
 71
3
 72
36
 73
32
 74
0
 42
0.0000001
 43
0.0000001
 44
0.0000000001
 40
0.0
 40
0.0
 40
0.0
 40
0.0
 40
0.0308090274
 40
0.0600285246
 40
0.0876485634
 40
0.113763191
 40
0.138535899
 40
0.1622084981
 40
0.18510644
 40
0.2076185799
 40
0.2301676937
 40
0.2531735566
 40
0.2770155387
 40
0.3020050028
 40
0.315011504
 40
0.328384145
 40
0.3562765531
 40
0.3857656509
 40
0.4168556709
 40
0.4494942688
 40
0.4835796911
 40
0.5189718565
 40
0.5554978423
 40
0.6311021678
 40
0.708631955
 40
0.7861331423
 40
0.8616543541
 40
0.8981194588
 40
0.9334397015
 40
0.9674544901
 40
1.0
 40
1.0
 40
1.0
 40
1.0
 10
33.1853736846
 20
76.5595386407
 30
0.0
 10
33.2997683811
 20
76.4919881179
 30
0.0
 10
33.5173186467
 20
76.3509781183
 30
0.0
 10
33.8141362807
 20
76.1160319536
 30
0.0
 10
34.0701375762
 20
75.8651269658
 30
0.0
 10
34.2827521683
 20
75.6005626378
 30
0.0
 10
34.4498746682
 20
75.3246856645
 30
0.0
 10
34.569556451
 20
75.0399761017
 30
0.0
 10
34.6402924256
 20
74.7492303188
 30
0.0
 10
34.6611082008
 20
74.4555061159
 30
0.0
 10
34.6316192004
 20
74.1620663915
 30
0.0
 10
34.5523303308
 20
73.8721470146
 30
0.0
 10
34.4243419046
 20
73.5887826084
 30
0.0
 10
34.2802923537
 20
73.3633352431
 30
0.0
 10
34.1436005814
 20
73.1888957939
 30
0.0
 10
33.9881109017
 20
73.0138176541
 30
0.0
 10
33.7656737602
 20
72.8040045436
 30
0.0
 10
33.462093175
 20
72.5720047621
 30
0.0
 10
33.1210156992
 20
72.358317515
 30
0.0
 10
32.7456695021
 20
72.1649469669
 30
0.0
 10
32.3396047919
 20
71.993632925
 30
0.0
 10
31.9066313366
 20
71.8459796473
 30
0.0
 10
31.2919672118
 20
71.6806765037
 30
0.0
 10
30.4836492506
 20
71.5429644398
 30
0.0
 10
29.4885599531
 20
71.4889130678
 30
0.0
 10
28.4940066548
 20
71.5461538154
 30
0.0
 10
27.6868860186
 20
71.6864903357
 30
0.0
 10
27.0737320471
 20
71.8538041654
 30
0.0
 10
26.642157747
 20
72.0028636249
 30
0.0
 10
26.2377875087
 20
72.175506969
 30
0.0
 10
25.9829184397
 20
72.3082921011
 30
0.0
 10
25.8613813215
 20
72.3784600016
 30
0.0
  0
SPLINE
  5
2CD
100
AcDbEntity
  8
00_COMPONENTS_9
100
AcDbSpline
 62
7
  6
BYLAYER
 70
0
 71
3
 72
28
 73
24
 74
0
 42
0.0000001
 43
0.0000001
 44
0.0000000001
 40
0.0
 40
0.0
 40
0.0
 40
0.0
 40
0.0660289864
 40
0.1272068669
 40
0.1837561665
 40
0.2105275325
 40
0.2364414419
 40
0.2616613487
 40
0.2863762569
 40
0.3107971517
 40
0.3351471159
 40
0.3596533006
 40
0.3845352787
 40
0.409996928
 40
0.4362168121
 40
0.4914477205
 40
0.5511373439
 40
0.6156556802
 40
0.6849744183
 40
0.7587472428
 40
0.8363822022
 40
0.9171028333
 40
1.0
 40
1.0
 40
1.0
 40
1.0
 10
25.8205581534
 20
72.4022959578
 30
0.0
 10
25.6621817711
 20
72.4958178408
 30
0.0
 10
25.366957411
 20
72.6938422176
 30
0.0
 10
24.9837244978
 20
73.0357726247
 30
0.0
 10
24.7290251709
 20
73.350456247
 30
0.0
 10
24.5733473976
 20
73.6124121721
 30
0.0
 10
24.4818105529
 20
73.8096177543
 30
0.0
 10
24.4138375229
 20
74.0101201139
 30
0.0
 10
24.3698703328
 20
74.2129933014
 30
0.0
 10
24.3501032335
 20
74.4172144178
 30
0.0
 10
24.3547026616
 20
74.6217628253
 30
0.0
 10
24.3836270095
 20
74.8255947102
 30
0.0
 10
24.43668254
 20
75.0276939258
 30
0.0
 10
24.5136143034
 20
75.2270657909
 30
0.0
 10
24.6496658014
 20
75.4925144841
 30
0.0
 10
24.8810475716
 20
75.8134527062
 30
0.0
 10
25.239164613
 20
76.1649256919
 30
0.0
 10
25.6756034276
 20
76.4841264031
 30
0.0
 10
26.1822483522
 20
76.7656234504
 30
0.0
 10
26.7499053597
 20
77.0046262184
 30
0.0
 10
27.36824276
 20
77.1968879323
 30
0.0
 10
28.0258875973
 20
77.3389356562
 30
0.0
 10
28.4784243133
 20
77.3978919681
 30
0.0
 10
28.708406638
 20
77.4186263661
 30
0.0
  0
LINE
  5
2CE
100
AcDbEntity
  8
00_COMPONENTS_9
100
AcDbLine
 62
7
  6
BYLAYER
 10
28.708406638
 20
77.4186263661
 11
28.725191865
 21
77.4201232659
  0
SPLINE
  5
2CF
100
AcDbEntity
  8
00_COMPONENTS_9
100
AcDbSpline
 62
7
  6
BYLAYER
 70
0
 71
3
 72
12
 73
8
 74
0
 42
0.0000001
 43
0.0000001
 44
0.0000000001
 40
0.0
 40
0.0
 40
0.0
 40
0.0
 40
0.2664284518
 40
0.524217806
 40
0.7696930679
 40
0.8869383498
 40
1.0
 40
1.0
 40
1.0
 40
1.0
 10
30.3316734148
 20
77.4154806767
 30
0.0
 10
30.5928799281
 20
77.3908938832
 30
0.0
 10
31.1050051143
 20
77.319277796
 30
0.0
 10
31.8432954862
 20
77.1428820115
 30
0.0
 10
32.4210617444
 20
76.9397484752
 30
0.0
 10
32.8477650472
 20
76.74570188
 30
0.0
 10
33.048130485
 20
76.6390414688
 30
0.0
 10
33.1445505165
 20
76.583374597
 30
0.0
  0
SPLINE
  5
2D0
100
AcDbEntity
  8
00_COMPONENTS_9
100
AcDbSpline
 62
7
  6
BYLAYER
 70
0
 71
3
 72
14
 73
10
 74
0
 42
0.0000001
 43
0.0000001
 44
0.0000000001
 40
0.0
 40
0.0
 40
0.0
 40
0.0
 40
0.2853624245
 40
0.4191406401
 40
0.5467362512
 40
0.6682230647
 40
0.783884292
 40
0.8942250659
 40
1.0
 40
1.0
 40
1.0
 40
1.0
 10
32.2909403249
 20
60.904282397
 30
0.0
 10
32.489829507
 20
60.9925318918
 30
0.0
 10
32.7745921437
 20
61.1407997347
 30
0.0
 10
33.1195313309
 20
61.3755614049
 30
0.0
 10
33.3464505138
 20
61.5598568046
 30
0.0
 10
33.5454027302
 20
61.7548178358
 30
0.0
 10
33.7149454
 20
61.9591174418
 30
0.0
 10
33.8537237322
 20
62.1713025613
 30
0.0
 10
33.9263553725
 20
62.3198325684
 30
0.0
 10
33.9567531279
 20
62.3945382685
 30
0.0
  0
SPLINE
  5
2D1
100
AcDbEntity
  8
00_COMPONENTS_9
100
AcDbSpline
 62
7
  6
BYLAYER
 70
0
 71
3
 72
9
 73
5
 74
0
 42
0.0000001
 43
0.0000001
 44
0.0000000001
 40
0.0
 40
0.0
 40
0.0
 40
0.0
 40
0.4828148758
 40
1.0
 40
1.0
 40
1.0
 40
1.0
 10
26.1634070814
 20
75.7353664028
 30
0.0
 10
26.2837497538
 20
75.8272094745
 30
0.0
 10
26.5467212271
 20
75.9997925494
 30
0.0
 10
26.8279704703
 20
76.1399413794
 30
0.0
 10
26.9765764942
 20
76.2048471797
 30
0.0
  0
SPLINE
  5
2D2
100
AcDbEntity
  8
00_COMPONENTS_9
100
AcDbSpline
 62
7
  6
BYLAYER
 70
0
 71
3
 72
10
 73
6
 74
0
 42
0.0000001
 43
0.0000001
 44
0.0000000001
 40
0.0
 40
0.0
 40
0.0
 40
0.0
 40
0.2653906411
 40
0.5207176056
 40
1.0
 40
1.0
 40
1.0
 40
1.0
 10
26.0735123085
 20
60.6296163192
 30
0.0
 10
25.9907541022
 20
60.6773957109
 30
0.0
 10
25.8312384545
 20
60.7762978563
 30
0.0
 10
25.5388401601
 20
60.9866409892
 30
0.0
 10
25.3411384417
 20
61.164674661
 30
0.0
 10
25.2240048899
 20
61.2914132924
 30
0.0
  0
SPLINE
  5
2D3
100
AcDbEntity
  8
00_COMPONENTS_9
100
AcDbSpline
 62
7
  6
BYLAYER
 70
0
 71
3
 72
9
 73
5
 74
0
 42
0.0000001
 43
0.0000001
 44
0.0000000001
 40
0.0
 40
0.0
 40
0.0
 40
0.0
 40
0.2540243915
 40
1.0
 40
1.0
 40
1.0
 40
1.0
 10
25.2240048899
 20
61.2914132924
 30
0.0
 10
25.2099053888
 20
61.306668968
 30
0.0
 10
25.155071161
 20
61.367339557
 30
0.0
 10
25.1029787886
 20
61.4304991867
 30
0.0
 10
25.0659307597
 20
61.4789644655
 30
0.0
  0
SPLINE
  5
2D4
100
AcDbEntity
  8
00_COMPONENTS_9
100
AcDbSpline
 62
7
  6
BYLAYER
 70
0
 71
3
 72
11
 73
7
 74
0
 42
0.0000001
 43
0.0000001
 44
0.0000000001
 40
0.0
 40
0.0
 40
0.0
 40
0.0
 40
0.2447458702
 40
0.4916472336
 40
0.7427689198
 40
1.0
 40
1.0
 40
1.0
 40
1.0
 10
34.852965919
 20
74.3176168158
 30
0.0
 10
34.8529660371
 20
74.2488642075
 30
0.0
 10
34.844929282
 20
74.1106245693
 30
0.0
 10
34.8089615914
 20
73.9046558139
 30
0.0
 10
34.7492162313
 20
73.7006468475
 30
0.0
 10
34.6945132592
 20
73.5684080495
 30
0.0
 10
34.6635916209
 20
73.5030984573
 30
0.0
  0
SPLINE
  5
2D5
100
AcDbEntity
  8
00_COMPONENTS_9
100
AcDbSpline
 62
7
  6
BYLAYER
 70
0
 71
3
 72
23
 73
19
 74
0
 42
0.0000001
 43
0.0000001
 44
0.0000000001
 40
0.0
 40
0.0
 40
0.0
 40
0.0
 40
0.0451435452
 40
0.0936237594
 40
0.1458854329
 40
0.2020545672
 40
0.261993389
 40
0.3253544805
 40
0.3916285691
 40
0.4601848152
 40
0.5303052984
 40
0.6012158786
 40
0.6721148052
 40
0.7422003721
 40
0.8107011476
 40
0.8768961377
 40
0.9401704554
 40
1.0
 40
1.0
 40
1.0
 40
1.0
 10
34.6635916209
 20
73.5030984573
 30
0.0
 10
34.6002805858
 20
73.3693792197
 30
0.0
 10
34.4401825213
 20
73.1051190146
 30
0.0
 10
34.1240955836
 20
72.7438522955
 30
0.0
 10
33.7304572164
 20
72.4103490439
 30
0.0
 10
33.266117185
 20
72.1098343663
 30
0.0
 10
32.7387777826
 20
71.8468888625
 30
0.0
 10
32.1572008009
 20
71.6257292283
 30
0.0
 10
31.5310675061
 20
71.4499569976
 30
0.0
 10
30.870847337
 20
71.3224838486
 30
0.0
 10
30.1876153896
 20
71.2454388109
 30
0.0
 10
29.4928584459
 20
71.2201171434
 30
0.0
 10
28.7982731766
 20
71.2469504851
 30
0.0
 10
28.1155437961
 20
71.3254778373
 30
0.0
 10
27.4561737061
 20
71.454393191
 30
0.0
 10
26.8311541423
 20
71.6315228213
 30
0.0
 10
26.2510881434
 20
71.8539352869
 30
0.0
 10
25.8897719654
 20
72.0354720517
 30
0.0
 10
25.7199603899
 20
72.1335105926
 30
0.0
  0
SPLINE
  5
2D6
100
AcDbEntity
  8
00_COMPONENTS_9
100
AcDbSpline
 62
7
  6
BYLAYER
 70
0
 71
3
 72
9
 73
5
 74
0
 42
0.0000001
 43
0.0000001
 44
0.0000000001
 40
0.0
 40
0.0
 40
0.0
 40
0.0
 40
0.24601695
 40
1.0
 40
1.0
 40
1.0
 40
1.0
 10
33.9426395938
 20
61.4824174493
 30
0.0
 10
33.9302337122
 20
61.4661291814
 30
0.0
 10
33.8789835123
 20
61.400550966
 30
0.0
 10
33.824518104
 20
61.3374969415
 30
0.0
 10
33.7819262895
 20
61.2914153973
 30
0.0
  0
SPLINE
  5
2D7
100
AcDbEntity
  8
00_COMPONENTS_9
100
AcDbSpline
 62
7
  6
BYLAYER
 70
0
 71
3
 72
11
 73
7
 74
0
 42
0.0000001
 43
0.0000001
 44
0.0000000001
 40
0.0
 40
0.0
 40
0.0
 40
0.0
 40
0.2265128633
 40
0.468909049
 40
0.7270500535
 40
1.0
 40
1.0
 40
1.0
 40
1.0
 10
33.7819262895
 20
61.2914153973
 30
0.0
 10
33.6875951605
 20
61.1893553153
 30
0.0
 10
33.4764782954
 20
60.9923861311
 30
0.0
 10
33.1142156642
 20
60.7304870069
 30
0.0
 10
32.7009159994
 20
60.4955704661
 30
0.0
 10
32.4028861325
 20
60.3625122596
 30
0.0
 10
32.2471904996
 20
60.3008309479
 30
0.0
  0
SPLINE
  5
2D8
100
AcDbEntity
  8
00_COMPONENTS_9
100
AcDbSpline
 62
7
  6
BYLAYER
 70
0
 71
3
 72
9
 73
5
 74
0
 42
0.0000001
 43
0.0000001
 44
0.0000000001
 40
0.0
 40
0.0
 40
0.0
 40
0.0
 40
0.5104768542
 40
1.0
 40
1.0
 40
1.0
 40
1.0
 10
26.7588258909
 20
60.3007941244
 30
0.0
 10
26.6384978314
 20
60.3484647336
 30
0.0
 10
26.405796981
 20
60.4496963543
 30
0.0
 10
26.1809990498
 20
60.567560224
 30
0.0
 10
26.0735123085
 20
60.6296163192
 30
0.0
  0
SPLINE
  5
2D9
100
AcDbEntity
  8
00_COMPONENTS_9
100
AcDbSpline
 62
7
  6
BYLAYER
 70
0
 71
3
 72
26
 73
22
 74
0
 42
0.0000001
 43
0.0000001
 44
0.0000000001
 40
0.0
 40
0.0
 40
0.0
 40
0.0
 40
0.0644777807
 40
0.1324417853
 40
0.2031788448
 40
0.2758160019
 40
0.3494077335
 40
0.4229650484
 40
0.4955007613
 40
0.5660709824
 40
0.63381658
 40
0.6980101444
 40
0.7581093496
 40
0.8138206331
 40
0.8651746864
 40
0.8893641079
 40
0.9126666405
 40
0.9352117656
 40
0.9571563945
 40
0.9786849525
 40
1.0
 40
1.0
 40
1.0
 40
1.0
 10
32.2223369961
 20
76.3193709659
 30
0.0
 10
32.066553547
 20
76.3961750973
 30
0.0
 10
31.7371346979
 20
76.535286408
 30
0.0
 10
31.2133028132
 20
76.6965499326
 30
0.0
 10
30.6553956038
 20
76.8136126151
 30
0.0
 10
30.0745162241
 20
76.8840915058
 30
0.0
 10
29.482228272
 20
76.9066088392
 30
0.0
 10
28.8903524236
 20
76.8807127678
 30
0.0
 10
28.3106995391
 20
76.8069192199
 30
0.0
 10
27.7548177539
 20
76.686697753
 30
0.0
 10
27.2337414401
 20
76.5224153315
 30
0.0
 10
26.7577729626
 20
76.3172793898
 30
0.0
 10
26.3362426565
 20
76.0751551849
 30
0.0
 10
25.9775006461
 20
75.8006099261
 30
0.0
 10
25.7319606158
 20
75.5435781731
 30
0.0
 10
25.5764690496
 20
75.3269716142
 30
0.0
 10
25.482028503
 20
75.1632560786
 30
0.0
 10
25.4079463189
 20
74.9959414054
 30
0.0
 10
25.3547224112
 20
74.8258284166
 30
0.0
 10
25.3226269539
 20
74.6538703055
 30
0.0
 10
25.315469718
 20
74.5383349078
 30
0.0
 10
25.3154734089
 20
74.4809173311
 30
0.0
  0
SPLINE
  5
2DA
100
AcDbEntity
  8
00_COMPONENTS_9
100
AcDbSpline
 62
7
  6
BYLAYER
 70
0
 71
3
 72
11
 73
7
 74
0
 42
0.0000001
 43
0.0000001
 44
0.0000000001
 40
0.0
 40
0.0
 40
0.0
 40
0.0
 40
0.2231633121
 40
0.4628849604
 40
0.7216329133
 40
1.0
 40
1.0
 40
1.0
 40
1.0
 10
25.0768058373
 20
62.3302630738
 30
0.0
 10
25.1294589412
 20
62.214001683
 30
0.0
 10
25.2643313542
 20
61.9839632499
 30
0.0
 10
25.5340346023
 20
61.6692764174
 30
0.0
 10
25.8721794017
 20
61.3788557177
 30
0.0
 10
26.1300938275
 20
61.2103936275
 30
0.0
 10
26.2679658637
 20
61.130794971
 30
0.0
  0
SPLINE
  5
2DB
100
AcDbEntity
  8
00_COMPONENTS_10
100
AcDbSpline
 62
7
  6
BYLAYER
 70
0
 71
3
 72
23
 73
19
 74
0
 42
0.0000001
 43
0.0000001
 44
0.0000000001
 40
0.0
 40
0.0
 40
0.0
 40
0.0
 40
0.0554328534
 40
0.1134399272
 40
0.173786655
 40
0.2361775202
 40
0.3002686674
 40
0.3656782452
 40
0.4319962895
 40
0.4987945628
 40
0.5656352324
 40
0.6320793952
 40
0.6976957437
 40
0.762071125
 40
0.8248172714
 40
0.8855781279
 40
0.9440629366
 40
1.0
 40
1.0
 40
1.0
 40
1.0
 10
19.9820705177
 20
9.39342276
 30
0.0
 10
20.3115561843
 20
9.1958001308
 30
0.0
 10
21.0042060565
 20
8.8214278128
 30
0.0
 10
22.1069343882
 20
8.3341202241
 30
0.0
 10
23.2876096117
 20
7.9121974048
 30
0.0
 10
24.5346137864
 20
7.5597902842
 30
0.0
 10
25.8358080443
 20
7.2803074058
 30
0.0
 10
27.1784651211
 20
7.0764976814
 30
0.0
 10
28.5494406348
 20
6.9503317149
 30
0.0
 10
29.9353049807
 20
6.9030386395
 30
0.0
 10
31.3224787815
 20
6.9350956996
 30
0.0
 10
32.6973625038
 20
7.0462005894
 30
0.0
 10
34.0464901046
 20
7.2352368231
 30
0.0
 10
35.3566585456
 20
7.5003666801
 30
0.0
 10
36.6150160433
 20
7.8390193139
 30
0.0
 10
37.8093934178
 20
8.2478888256
 30
0.0
 10
38.9279131147
 20
8.723024314
 30
0.0
 10
39.6324245654
 20
9.0894897029
 30
0.0
 10
39.9681851408
 20
9.2833400043
 30
0.0
  0
SPLINE
  5
2DC
100
AcDbEntity
  8
00_COMPONENTS_10
100
AcDbSpline
 62
7
  6
BYLAYER
 70
0
 71
3
 72
13
 73
9
 74
0
 42
0.0000001
 43
0.0000001
 44
0.0000000001
 40
0.0
 40
0.0
 40
0.0
 40
0.0
 40
0.2459275692
 40
0.492634588
 40
0.6168767672
 40
0.7422673209
 40
0.8695189032
 40
1.0
 40
1.0
 40
1.0
 40
1.0
 10
20.3104488462
 20
8.8343111769
 30
0.0
 10
20.1888061444
 20
8.9045400348
 30
0.0
 10
19.9450854008
 20
9.0451299763
 30
0.0
 10
19.6405621275
 20
9.2223464669
 30
0.0
 10
19.397542203
 20
9.3683121702
 30
0.0
 10
19.2147395513
 20
9.4820044236
 30
0.0
 10
19.0318399963
 20
9.6021508224
 30
0.0
 10
18.9120619494
 20
9.6879131901
 30
0.0
 10
18.8533023771
 20
9.7337505927
 30
0.0
  0
SPLINE
  5
2DD
100
AcDbEntity
  8
00_COMPONENTS_10
100
AcDbSpline
 62
7
  6
BYLAYER
 70
0
 71
3
 72
12
 73
8
 74
0
 42
0.0000001
 43
0.0000001
 44
0.0000000001
 40
0.0
 40
0.0
 40
0.0
 40
0.0
 40
0.2533801852
 40
0.5060636335
 40
0.7562681955
 40
0.879377533
 40
1.0
 40
1.0
 40
1.0
 40
1.0
 10
20.3358724258
 20
8.8196331573
 30
0.0
 10
20.4468644549
 20
8.7555533291
 30
0.0
 10
20.6685049615
 20
8.6274998082
 30
0.0
 10
21.0004119925
 20
8.4373427081
 30
0.0
 10
21.277465312
 20
8.2839437142
 30
0.0
 10
21.4995742307
 20
8.1695162694
 30
0.0
 10
21.6110147104
 20
8.1166642418
 30
0.0
 10
21.6669332329
 20
8.0922600245
 30
0.0
  0
SPLINE
  5
2DE
100
AcDbEntity
  8
00_COMPONENTS_10
100
AcDbSpline
 62
7
  6
BYLAYER
 70
0
 71
3
 72
22
 73
18
 74
0
 42
0.0000001
 43
0.0000001
 44
0.0000000001
 40
0.0
 40
0.0
 40
0.0
 40
0.0
 40
0.0592251982
 40
0.1203140424
 40
0.1829750901
 40
0.2469414389
 40
0.3775141278
 40
0.4435094493
 40
0.5095166181
 40
0.5751983223
 40
0.6402225615
 40
0.7042683899
 40
0.7670303625
 40
0.8282215519
 40
0.8875865882
 40
0.9449176818
 40
1.0
 40
1.0
 40
1.0
 40
1.0
 10
21.977956177
 20
8.0348976541
 30
0.0
 10
22.3171697136
 20
7.8962159724
 30
0.0
 10
23.0157528166
 20
7.6372093074
 30
0.0
 10
24.0998159784
 20
7.3085060764
 30
0.0
 10
25.2295282613
 20
7.0357048233
 30
0.0
 10
26.7952815032
 20
6.7474086793
 30
0.0
 10
28.4023581741
 20
6.5820381323
 30
0.0
 10
30.0269892993
 20
6.5382327812
 30
0.0
 10
31.2504234181
 20
6.566993607
 30
0.0
 10
32.4647878028
 20
6.657311181
 30
0.0
 10
33.6608893336
 20
6.8084418062
 30
0.0
 10
34.8295953899
 20
7.0192562348
 30
0.0
 10
35.9619860578
 20
7.2881869119
 30
0.0
 10
37.0494486319
 20
7.6131024037
 30
0.0
 10
38.0837998423
 20
7.9916440361
 30
0.0
 10
39.0569779558
 20
8.4209269319
 30
0.0
 10
39.6730149895
 20
8.7454983675
 30
0.0
 10
39.9681851408
 20
8.9159139166
 30
0.0
  0
SPLINE
  5
2DF
100
AcDbEntity
  8
00_COMPONENTS_10
100
AcDbSpline
 62
7
  6
BYLAYER
 70
0
 71
3
 72
21
 73
17
 74
0
 42
0.0000001
 43
0.0000001
 44
0.0000000001
 40
0.0
 40
0.0
 40
0.0
 40
0.0
 40
0.1354044436
 40
0.2692532712
 40
0.4011607789
 40
0.5305467521
 40
0.5940275043
 40
0.6564802994
 40
0.7176635946
 40
0.7772288866
 40
0.8346571227
 40
0.8892138176
 40
0.915318118
 40
0.9409669639
 40
0.9678250565
 40
1.0
 40
1.0
 40
1.0
 40
1.0
 10
21.6669332329
 20
8.0922600245
 30
0.0
 10
21.6809522628
 20
8.0861417754
 30
0.0
 10
21.7089306667
 20
8.0742057529
 30
0.0
 10
21.7509728852
 20
8.0572805523
 30
0.0
 10
21.7928082617
 20
8.0416988638
 30
0.0
 10
21.8276261422
 20
8.0300945256
 30
0.0
 10
21.8553199429
 20
8.0220245218
 30
0.0
 10
21.8757971801
 20
8.0167620236
 30
0.0
 10
21.8960436382
 20
8.0124452447
 30
0.0
 10
21.9159549371
 20
8.0093657222
 30
0.0
 10
21.9353023561
 20
8.0080216394
 30
0.0
 10
21.9509978686
 20
8.009053647
 30
0.0
 10
21.9625956707
 20
8.0123807089
 30
0.0
 10
21.9704776514
 20
8.01673897
 30
0.0
 10
21.9767435809
 20
8.0243935468
 30
0.0
 10
21.977956177
 20
8.031263014
 30
0.0
 10
21.977956177
 20
8.0348976541
 30
0.0
  0
SPLINE
  5
2E0
100
AcDbEntity
  8
00_COMPONENTS_10
100
AcDbSpline
 62
7
  6
BYLAYER
 70
0
 71
3
 72
10
 73
6
 74
0
 42
0.0000001
 43
0.0000001
 44
0.0000000001
 40
0.0
 40
0.0
 40
0.0
 40
0.0
 40
0.2384356432
 40
0.6103148556
 40
1.0
 40
1.0
 40
1.0
 40
1.0
 10
17.1609126725
 20
11.5013485329
 30
0.0
 10
17.2611382541
 20
11.3635766804
 30
0.0
 10
17.530769254
 20
11.0203111053
 30
0.0
 10
18.0197334352
 20
10.4976954929
 30
0.0
 10
18.4274665746
 20
10.1360800897
 30
0.0
 10
18.6432758934
 20
9.9601326589
 30
0.0
  0
SPLINE
  5
2E1
100
AcDbEntity
  8
00_COMPONENTS_10
100
AcDbSpline
 62
7
  6
BYLAYER
 70
0
 71
3
 72
15
 73
11
 74
0
 42
0.0000001
 43
0.0000001
 44
0.0000000001
 40
0.0
 40
0.0
 40
0.0
 40
0.0
 40
0.239646065
 40
0.3613952279
 40
0.4848416558
 40
0.6104910422
 40
0.7391248109
 40
0.8716290297
 40
0.9385792089
 40
1.0
 40
1.0
 40
1.0
 40
1.0
 10
18.8533023771
 20
9.7337505927
 30
0.0
 10
18.8335467816
 20
9.7491616167
 30
0.0
 10
18.8040856693
 20
9.7728366694
 30
0.0
 10
18.7655897992
 20
9.8058244089
 30
0.0
 10
18.736841608
 20
9.8318465317
 30
0.0
 10
18.7085273129
 20
9.859408871
 30
0.0
 10
18.681121937
 20
9.8891341911
 30
0.0
 10
18.6600571847
 20
9.9164505786
 30
0.0
 10
18.6470729937
 20
9.9404232597
 30
0.0
 10
18.6432758934
 20
9.9537109597
 30
0.0
 10
18.6432758934
 20
9.9601326589
 30
0.0
  0
SPLINE
  5
2E2
100
AcDbEntity
  8
00_COMPONENTS_5
100
AcDbSpline
 62
7
  6
BYLAYER
 70
0
 71
3
 72
9
 73
5
 74
0
 42
0.0000001
 43
0.0000001
 44
0.0000000001
 40
0.0
 40
0.0
 40
0.0
 40
0.0
 40
0.5079613099
 40
1.0
 40
1.0
 40
1.0
 40
1.0
 10
48.9666082596
 20
27.60848197
 30
0.0
 10
49.1221420103
 20
27.3492965983
 30
0.0
 10
49.4026266907
 20
26.8230515304
 30
0.0
 10
49.623063723
 20
26.268716616
 30
0.0
 10
49.7148657946
 20
25.9906844116
 30
0.0
  0
SPLINE
  5
2E3
100
AcDbEntity
  8
00_COMPONENTS_5
100
AcDbSpline
 62
7
  6
BYLAYER
 70
0
 71
3
 72
9
 73
5
 74
0
 42
0.0000001
 43
0.0000001
 44
0.0000000001
 40
0.0
 40
0.0
 40
0.0
 40
0.0
 40
0.2561431938
 40
1.0
 40
1.0
 40
1.0
 40
1.0
 10
10.4224321829
 20
21.6662169394
 30
0.0
 10
10.5339464637
 20
21.9466290443
 30
0.0
 10
10.9725940901
 20
23.0400584214
 30
0.0
 10
11.4257470105
 20
24.1277267089
 30
0.0
 10
11.7740746661
 20
24.9318942108
 30
0.0
  0
SPLINE
  5
2E4
100
AcDbEntity
  8
00_COMPONENTS_5
100
AcDbSpline
 62
7
  6
BYLAYER
 70
0
 71
3
 72
11
 73
7
 74
0
 42
0.0000001
 43
0.0000001
 44
0.0000000001
 40
0.0
 40
0.0
 40
0.0
 40
0.0
 40
0.2559586003
 40
0.5077676597
 40
0.7556577364
 40
1.0
 40
1.0
 40
1.0
 40
1.0
 10
17.3298136372
 20
13.6579452659
 30
0.0
 10
17.8401292577
 20
13.3628127233
 30
0.0
 10
18.8607590948
 20
12.7914909359
 30
0.0
 10
20.4032536581
 20
11.9849740111
 30
0.0
 10
21.9432990184
 20
11.2329673253
 30
0.0
 10
22.9744739384
 20
10.7615691634
 30
0.0
 10
23.4889375572
 20
10.533480819
 30
0.0
  0
SPLINE
  5
2E5
100
AcDbEntity
  8
00_COMPONENTS_5
100
AcDbSpline
 62
7
  6
BYLAYER
 70
0
 71
3
 72
9
 73
5
 74
0
 42
0.0000001
 43
0.0000001
 44
0.0000000001
 40
0.0
 40
0.0
 40
0.0
 40
0.0
 40
0.2475422486
 40
1.0
 40
1.0
 40
1.0
 40
1.0
 10
23.4889375572
 20
10.533480819
 30
0.0
 10
23.7182656003
 20
10.4873553157
 30
0.0
 10
24.6467737672
 20
10.3115271153
 30
0.0
 10
25.5830920805
 20
10.177210058
 30
0.0
 10
26.2897973546
 20
10.0987054588
 30
0.0
  0
SPLINE
  5
2E6
100
AcDbEntity
  8
00_COMPONENTS_5
100
AcDbSpline
 62
7
  6
BYLAYER
 70
0
 71
3
 72
10
 73
6
 74
0
 42
0.0000001
 43
0.0000001
 44
0.0000000001
 40
0.0
 40
0.0
 40
0.0
 40
0.0
 40
0.4978254983
 40
0.7483649626
 40
1.0
 40
1.0
 40
1.0
 40
1.0
 10
26.2897973546
 20
10.0987054588
 30
0.0
 10
27.6930866821
 20
10.1765342804
 30
0.0
 10
29.8007953169
 20
10.3359048199
 30
0.0
 10
32.6062026251
 20
10.654228289
 30
0.0
 10
34.0103622156
 20
10.8514044703
 30
0.0
 10
34.7124758597
 20
10.9596476805
 30
0.0
  0
SPLINE
  5
2E7
100
AcDbEntity
  8
00_COMPONENTS_5
100
AcDbSpline
 62
7
  6
BYLAYER
 70
0
 71
3
 72
23
 73
19
 74
0
 42
0.0000001
 43
0.0000001
 44
0.0000000001
 40
0.0
 40
0.0
 40
0.0
 40
0.0
 40
0.0558334112
 40
0.1141677435
 40
0.174763765
 40
0.2373261025
 40
0.3015131972
 40
0.3669490433
 40
0.4332323023
 40
0.4999441765
 40
0.5666580866
 40
0.6329472167
 40
0.6983922544
 40
0.7625930208
 40
0.8251717924
 40
0.8857840085
 40
0.94415037
 40
1.0
 40
1.0
 40
1.0
 40
1.0
 10
19.2850453568
 20
18.0404525465
 30
0.0
 10
19.6461268291
 20
17.8319768035
 30
0.0
 10
20.4032373848
 20
17.4375798856
 30
0.0
 10
21.6047185984
 20
16.9251847019
 30
0.0
 10
22.8870226441
 20
16.482998476
 30
0.0
 10
24.2378583809
 20
16.1152973334
 30
0.0
 10
25.644382556
 20
15.8255204822
 30
0.0
 10
27.0931690076
 20
15.6164117838
 30
0.0
 10
28.57039305
 20
15.4900001113
 30
0.0
 10
30.0619380913
 20
15.4474845901
 30
0.0
 10
31.5535483123
 20
15.4892435356
 30
0.0
 10
33.0309642204
 20
15.6149047455
 30
0.0
 10
34.4800737701
 20
15.8232733759
 30
0.0
 10
35.8870424052
 20
16.1123455928
 30
0.0
 10
37.2384211532
 20
16.4793602814
 30
0.0
 10
38.521465019
 20
16.9208821262
 30
0.0
 10
39.7237039818
 20
17.4327238893
 30
0.0
 10
40.4814288114
 20
17.8267156189
 30
0.0
 10
40.8427734856
 20
18.0349774818
 30
0.0
  0
SPLINE
  5
2E8
100
AcDbEntity
  8
00_COMPONENTS_5
100
AcDbSpline
 62
7
  6
BYLAYER
 70
0
 71
3
 72
10
 73
6
 74
0
 42
0.0000001
 43
0.0000001
 44
0.0000000001
 40
0.0
 40
0.0
 40
0.0
 40
0.0
 40
0.248766791
 40
0.4984519442
 40
1.0
 40
1.0
 40
1.0
 40
1.0
 10
34.7124758597
 20
10.9596476805
 30
0.0
 10
35.4174898842
 20
11.0683380356
 30
0.0
 10
36.8272574859
 20
11.3052112726
 30
0.0
 10
39.6420063972
 20
11.8540241809
 30
0.0
 10
41.7408454366
 20
12.3431306484
 30
0.0
 10
43.135154363
 20
12.6957145551
 30
0.0
  0
SPLINE
  5
2E9
100
AcDbEntity
  8
00_COMPONENTS_5
100
AcDbSpline
 62
7
  6
BYLAYER
 70
0
 71
3
 72
9
 73
5
 74
0
 42
0.0000001
 43
0.0000001
 44
0.0000000001
 40
0.0
 40
0.0
 40
0.0
 40
0.0
 40
0.2568097102
 40
1.0
 40
1.0
 40
1.0
 40
1.0
 10
43.135154363
 20
12.6957145551
 30
0.0
 10
43.3167428111
 20
12.7861858052
 30
0.0
 10
44.0186544316
 20
13.148707713
 30
0.0
 10
44.6992575469
 20
13.553048781
 30
0.0
 10
45.1877566254
 20
13.8787367533
 30
0.0
  0
SPLINE
  5
2EA
100
AcDbEntity
  8
00_COMPONENTS_5
100
AcDbSpline
 62
7
  6
BYLAYER
 70
0
 71
3
 72
9
 73
5
 74
0
 42
0.0000001
 43
0.0000001
 44
0.0000000001
 40
0.0
 40
0.0
 40
0.0
 40
0.0
 40
0.4803105192
 40
1.0
 40
1.0
 40
1.0
 40
1.0
 10
45.1877566254
 20
13.8787367533
 30
0.0
 10
45.577449141
 20
14.5723955842
 30
0.0
 10
46.3618795241
 20
16.0318854092
 30
0.0
 10
47.087885779
 20
17.5213222301
 30
0.0
 10
47.4513112099
 20
18.3017057481
 30
0.0
  0
SPLINE
  5
2EB
100
AcDbEntity
  8
00_COMPONENTS_5
100
AcDbSpline
 62
7
  6
BYLAYER
 70
0
 71
3
 72
9
 73
5
 74
0
 42
0.0000001
 43
0.0000001
 44
0.0000000001
 40
0.0
 40
0.0
 40
0.0
 40
0.0
 40
0.4841459016
 40
1.0
 40
1.0
 40
1.0
 40
1.0
 10
47.4513112099
 20
18.3017057481
 30
0.0
 10
47.8438745108
 20
19.1446570215
 30
0.0
 10
48.6216564525
 20
20.9012367471
 30
0.0
 10
49.3487419908
 20
22.6791500782
 30
0.0
 10
49.7148657946
 20
23.5997993962
 30
0.0
  0
SPLINE
  5
2EC
100
AcDbEntity
  8
00_COMPONENTS_5
100
AcDbSpline
 62
7
  6
BYLAYER
 70
0
 71
3
 72
9
 73
5
 74
0
 42
0.0000001
 43
0.0000001
 44
0.0000000001
 40
0.0
 40
0.0
 40
0.0
 40
0.0
 40
0.4920386901
 40
1.0
 40
1.0
 40
1.0
 40
1.0
 10
10.4224321829
 20
19.275331924
 30
0.0
 10
10.5142342546
 20
18.9972997196
 30
0.0
 10
10.7346712868
 20
18.4429648051
 30
0.0
 10
11.0151559673
 20
17.9167197372
 30
0.0
 10
11.170689718
 20
17.6575343656
 30
0.0
  0
SPLINE
  5
2ED
100
AcDbEntity
  8
00_COMPONENTS_5
100
AcDbSpline
 62
7
  6
BYLAYER
 70
0
 71
3
 72
10
 73
6
 74
0
 42
0.0000001
 43
0.0000001
 44
0.0000000001
 40
0.0
 40
0.0
 40
0.0
 40
0.0
 40
0.506863339
 40
0.7553217004
 40
1.0
 40
1.0
 40
1.0
 40
1.0
 10
11.170689718
 20
17.6575343656
 30
0.0
 10
12.18114279
 20
16.9367630792
 30
0.0
 10
13.7064018793
 20
15.8892161716
 30
0.0
 10
15.7743673357
 20
14.5773834001
 30
0.0
 10
16.8111511215
 20
13.9579050965
 30
0.0
 10
17.3298136372
 20
13.6579452659
 30
0.0
  0
SPLINE
  5
2EE
100
AcDbEntity
  8
00_COMPONENTS_5
100
AcDbSpline
 62
7
  6
BYLAYER
 70
0
 71
3
 72
9
 73
5
 74
0
 42
0.0000001
 43
0.0000001
 44
0.0000000001
 40
0.0
 40
0.0
 40
0.0
 40
0.0
 40
0.2432264266
 40
1.0
 40
1.0
 40
1.0
 40
1.0
 10
45.1877566254
 20
16.2696217687
 30
0.0
 10
45.027881717
 20
16.1630313226
 30
0.0
 10
44.3631069166
 20
15.7360430377
 30
0.0
 10
43.670271133
 20
15.3532061946
 30
0.0
 10
43.135154363
 20
15.0865995705
 30
0.0
  0
SPLINE
  5
2EF
100
AcDbEntity
  8
00_COMPONENTS_5
100
AcDbSpline
 62
7
  6
BYLAYER
 70
0
 71
3
 72
10
 73
6
 74
0
 42
0.0000001
 43
0.0000001
 44
0.0000000001
 40
0.0
 40
0.0
 40
0.0
 40
0.0
 40
0.497825498
 40
0.7483649634
 40
1.0
 40
1.0
 40
1.0
 40
1.0
 10
43.135154363
 20
15.0865995705
 30
0.0
 10
41.7318650367
 20
15.008770749
 30
0.0
 10
39.6241563918
 20
14.849400286
 30
0.0
 10
36.8187491028
 20
14.53107666
 30
0.0
 10
35.4145895012
 20
14.3339005589
 30
0.0
 10
34.7124758597
 20
14.2256573491
 30
0.0
  0
SPLINE
  5
2F0
100
AcDbEntity
  8
00_COMPONENTS_5
100
AcDbSpline
 62
7
  6
BYLAYER
 70
0
 71
3
 72
18
 73
14
 74
0
 42
0.0000001
 43
0.0000001
 44
0.0000000001
 40
0.0
 40
0.0
 40
0.0
 40
0.0
 40
0.1482669081
 40
0.2886167243
 40
0.4212117875
 40
0.4847838826
 40
0.5466416232
 40
0.665669888
 40
0.7796870708
 40
0.8353855215
 40
0.890498876
 40
0.9452826511
 40
1.0
 40
1.0
 40
1.0
 40
1.0
 10
16.9314305119
 20
17.1618218004
 30
0.0
 10
16.536769404
 20
17.4051055271
 30
0.0
 10
15.7882359551
 20
17.912010157
 30
0.0
 10
14.773492362
 20
18.7550900283
 30
0.0
 10
14.0407714646
 20
19.5140185531
 30
0.0
 10
13.536697249
 20
20.1446590861
 30
0.0
 10
13.0990699159
 20
20.7719423387
 30
0.0
 10
12.6493204822
 20
21.5807734721
 30
0.0
 10
12.3336615105
 20
22.4310477262
 30
0.0
 10
12.1718422421
 20
23.1159149624
 30
0.0
 10
12.0952086134
 20
23.6286687718
 30
0.0
 10
12.0625686639
 20
24.1429640783
 30
0.0
 10
12.07024255
 20
24.4857773274
 30
0.0
 10
12.0813636273
 20
24.6565130898
 30
0.0
  0
SPLINE
  5
2F1
100
AcDbEntity
  8
00_COMPONENTS_5
100
AcDbSpline
 62
7
  6
BYLAYER
 70
0
 71
3
 72
9
 73
5
 74
0
 42
0.0000001
 43
0.0000001
 44
0.0000000001
 40
0.0
 40
0.0
 40
0.0
 40
0.0
 40
0.4803105162
 40
1.0
 40
1.0
 40
1.0
 40
1.0
 10
49.7148657946
 20
25.9906844116
 30
0.0
 10
49.3251732814
 20
25.297025585
 30
0.0
 10
48.5407428849
 20
23.8375357669
 30
0.0
 10
47.814736643
 20
22.3480989393
 30
0.0
 10
47.4513112099
 20
21.5677154166
 30
0.0
  0
SPLINE
  5
2F2
100
AcDbEntity
  8
00_COMPONENTS_5
100
AcDbSpline
 62
7
  6
BYLAYER
 70
0
 71
3
 72
16
 73
12
 74
0
 42
0.0000001
 43
0.0000001
 44
0.0000000001
 40
0.0
 40
0.0
 40
0.0
 40
0.0
 40
0.0980163539
 40
0.1497076595
 40
0.2033566813
 40
0.3168401956
 40
0.438845953
 40
0.5690847338
 40
0.706806163
 40
0.8509030852
 40
1.0
 40
1.0
 40
1.0
 40
1.0
 10
47.4513112094
 20
21.5677154154
 30
0.0
 10
47.2410900213
 20
21.1163074061
 30
0.0
 10
46.8477922684
 20
20.4585223293
 30
0.0
 10
46.2073108497
 20
19.647068124
 30
0.0
 10
45.4492185676
 20
18.832308911
 30
0.0
 10
44.3277981008
 20
17.8753523336
 30
0.0
 10
42.7672076375
 20
16.8591326688
 30
0.0
 10
40.9928703456
 20
15.9694615065
 30
0.0
 10
39.0345750646
 20
15.2208177168
 30
0.0
 10
36.9251739729
 20
14.6254339302
 30
0.0
 10
35.4610970165
 20
14.3410705132
 30
0.0
 10
34.7124758601
 20
14.2256573491
 30
0.0
  0
SPLINE
  5
2F3
100
AcDbEntity
  8
00_COMPONENTS_5
100
AcDbSpline
 62
7
  6
BYLAYER
 70
0
 71
3
 72
15
 73
11
 74
0
 42
0.0000001
 43
0.0000001
 44
0.0000000001
 40
0.0
 40
0.0
 40
0.0
 40
0.0
 40
0.1298806159
 40
0.2612434984
 40
0.3925965414
 40
0.5224479905
 40
0.649358465
 40
0.7719948798
 40
0.8891885037
 40
1.0
 40
1.0
 40
1.0
 40
1.0
 10
34.7124758601
 20
14.2256573491
 30
0.0
 10
33.9466206207
 20
14.1075872469
 30
0.0
 10
32.39610497
 20
13.9313482001
 30
0.0
 10
30.053278969
 20
13.8443716091
 30
0.0
 10
27.7105610692
 20
13.933670317
 30
0.0
 10
25.4077586027
 20
14.1977667031
 30
0.0
 10
23.1837492619
 20
14.6321842553
 30
0.0
 10
21.0759388225
 20
15.2296896472
 30
0.0
 10
19.1200652847
 20
15.9801556962
 30
0.0
 10
17.9021265589
 20
16.5929672848
 30
0.0
 10
17.3298136376
 20
16.9239549342
 30
0.0
  0
SPLINE
  5
2F4
100
AcDbEntity
  8
00_COMPONENTS_5
100
AcDbSpline
 62
7
  6
BYLAYER
 70
0
 71
3
 72
10
 73
6
 74
0
 42
0.0000001
 43
0.0000001
 44
0.0000000001
 40
0.0
 40
0.0
 40
0.0
 40
0.0
 40
0.2487667904
 40
0.4984519445
 40
1.0
 40
1.0
 40
1.0
 40
1.0
 10
34.7124758597
 20
14.2256573491
 30
0.0
 10
34.0074618367
 20
14.1169669942
 30
0.0
 10
32.59769422
 20
13.8800938361
 30
0.0
 10
29.7829453373
 20
13.3312807733
 30
0.0
 10
27.6841062805
 20
12.8421743808
 30
0.0
 10
26.2897973546
 20
12.4895904742
 30
0.0
  0
SPLINE
  5
2F5
100
AcDbEntity
  8
00_COMPONENTS_5
100
AcDbSpline
 62
7
  6
BYLAYER
 70
0
 71
3
 72
10
 73
6
 74
0
 42
0.0000001
 43
0.0000001
 44
0.0000000001
 40
0.0
 40
0.0
 40
0.0
 40
0.0
 40
0.2555724273
 40
0.5072643835
 40
1.0
 40
1.0
 40
1.0
 40
1.0
 10
16.9514991914
 20
17.1410005932
 30
0.0
 10
16.4722278236
 20
17.4137591261
 30
0.0
 10
15.5137364309
 20
17.9425766175
 30
0.0
 10
13.5971974828
 20
18.9342274021
 30
0.0
 10
12.1426299197
 20
19.6175079941
 30
0.0
 10
11.170689718
 20
20.0484193809
 30
0.0
  0
SPLINE
  5
2F6
100
AcDbEntity
  8
00_COMPONENTS_5
100
AcDbSpline
 62
7
  6
BYLAYER
 70
0
 71
3
 72
9
 73
5
 74
0
 42
0.0000001
 43
0.0000001
 44
0.0000000001
 40
0.0
 40
0.0
 40
0.0
 40
0.0
 40
0.5079613099
 40
1.0
 40
1.0
 40
1.0
 40
1.0
 10
11.170689718
 20
20.0484193809
 30
0.0
 10
11.0151559673
 20
20.3076047526
 30
0.0
 10
10.7346712868
 20
20.8338498205
 30
0.0
 10
10.5142342546
 20
21.388184735
 30
0.0
 10
10.4224321829
 20
21.6662169394
 30
0.0
  0
SPLINE
  5
2F7
100
AcDbEntity
  8
00_COMPONENTS_5
100
AcDbSpline
 62
7
  6
BYLAYER
 70
0
 71
3
 72
9
 73
5
 74
0
 42
0.0000001
 43
0.0000001
 44
0.0000000001
 40
0.0
 40
0.0
 40
0.0
 40
0.0
 40
0.2523042268
 40
1.0
 40
1.0
 40
1.0
 40
1.0
 10
26.2897973546
 20
12.4895904742
 30
0.0
 10
26.05283479
 20
12.5159135424
 30
0.0
 10
25.1147916475
 20
12.6302951512
 30
0.0
 10
24.1816161439
 20
12.7850451128
 30
0.0
 10
23.4889375572
 20
12.9243658344
 30
0.0
  0
SPLINE
  5
2F8
100
AcDbEntity
  8
00_COMPONENTS_5
100
AcDbSpline
 62
7
  6
BYLAYER
 70
0
 71
3
 72
10
 73
6
 74
0
 42
0.0000001
 43
0.0000001
 44
0.0000000001
 40
0.0
 40
0.0
 40
0.0
 40
0.0
 40
0.5068633389
 40
0.7553217001
 40
1.0
 40
1.0
 40
1.0
 40
1.0
 10
23.4889375572
 20
12.9243658344
 30
0.0
 10
22.4784844852
 20
13.6451371207
 30
0.0
 10
20.9532253955
 20
14.6926840267
 30
0.0
 10
18.8852599383
 20
16.0045167973
 30
0.0
 10
17.8484761539
 20
16.6239951034
 30
0.0
 10
17.3298136376
 20
16.9239549342
 30
0.0
  0
SPLINE
  5
2F9
100
AcDbEntity
  8
00_COMPONENTS_5
100
AcDbSpline
 62
7
  6
BYLAYER
 70
0
 71
3
 72
9
 73
5
 74
0
 42
0.0000001
 43
0.0000001
 44
0.0000000001
 40
0.0
 40
0.0
 40
0.0
 40
0.0
 40
0.484145904
 40
1.0
 40
1.0
 40
1.0
 40
1.0
 10
47.4513112099
 20
21.5677154166
 30
0.0
 10
47.0587479071
 20
20.724764139
 30
0.0
 10
46.2809659774
 20
18.9681844084
 30
0.0
 10
45.5538804275
 20
17.1902710823
 30
0.0
 10
45.1877566254
 20
16.2696217687
 30
0.0
  0
SPLINE
  5
2FA
100
AcDbEntity
  8
00_COMPONENTS_13
100
AcDbSpline
 62
7
  6
BYLAYER
 70
0
 71
3
 72
11
 73
7
 74
0
 42
0.0000001
 43
0.0000001
 44
0.0000000001
 40
0.0
 40
0.0
 40
0.0
 40
0.0
 40
0.2751050573
 40
0.5330776751
 40
0.7742132747
 40
1.0
 40
1.0
 40
1.0
 40
1.0
 10
39.7914077095
 20
56.3342891779
 30
0.0
 10
40.1599456646
 20
56.5470633954
 30
0.0
 10
40.8545642216
 20
56.9948225423
 30
0.0
 10
41.7828567217
 20
57.7561239705
 30
0.0
 10
42.5522483882
 20
58.5765130406
 30
0.0
 10
42.9641763658
 20
59.1742960513
 30
0.0
 10
43.1364259301
 20
59.4781277734
 30
0.0
  0
SPLINE
  5
2FB
100
AcDbEntity
  8
00_COMPONENTS_13
100
AcDbSpline
 62
7
  6
BYLAYER
 70
0
 71
3
 72
11
 73
7
 74
0
 42
0.0000001
 43
0.0000001
 44
0.0000000001
 40
0.0
 40
0.0
 40
0.0
 40
0.0
 40
0.2598711484
 40
0.5114485098
 40
0.7572209901
 40
1.0
 40
1.0
 40
1.0
 40
1.0
 10
43.1364259301
 20
59.4781277734
 30
0.0
 10
43.2470399091
 20
59.6732402306
 30
0.0
 10
43.4433524817
 20
60.0699616587
 30
0.0
 10
43.6592240333
 20
60.6886427197
 30
0.0
 10
43.789554803
 20
61.3158564188
 30
0.0
 10
43.8186314393
 20
61.7380649735
 30
0.0
 10
43.8186384384
 20
61.9475995631
 30
0.0
  0
SPLINE
  5
2FC
100
AcDbEntity
  8
00_COMPONENTS_13
100
AcDbSpline
 62
7
  6
BYLAYER
 70
0
 71
3
 72
22
 73
18
 74
0
 42
0.0000001
 43
0.0000001
 44
0.0000000001
 40
0.0
 40
0.0
 40
0.0
 40
0.0
 40
0.156307898
 40
0.2315549672
 40
0.3045911848
 40
0.3752600528
 40
0.4434440369
 40
0.509064536
 40
0.5720942882
 40
0.6325569604
 40
0.6905406279
 40
0.7461974235
 40
0.7997543626
 40
0.8515106493
 40
0.9018387978
 40
0.9511741187
 40
1.0
 40
1.0
 40
1.0
 40
1.0
 10
35.5260541558
 20
69.6422379836
 30
0.0
 10
36.1239485289
 20
69.4929785887
 30
0.0
 10
37.0005462589
 20
69.2311709785
 30
0.0
 10
38.1213969493
 20
68.7990381141
 30
0.0
 10
38.9092279121
 20
68.445071159
 30
0.0
 10
39.6505890989
 20
68.0590017818
 30
0.0
 10
40.3416668665
 20
67.6428734618
 30
0.0
 10
40.978789746
 20
67.1987534944
 30
0.0
 10
41.558670974
 20
66.7289977075
 30
0.0
 10
42.0781849355
 20
66.235905912
 30
0.0
 10
42.534639679
 20
65.7220606498
 30
0.0
 10
42.925474777
 20
65.1899799858
 30
0.0
 10
43.2485910147
 20
64.6424324002
 30
0.0
 10
43.5020225238
 20
64.0821973699
 30
0.0
 10
43.6842825331
 20
63.512241525
 30
0.0
 10
43.7941200761
 20
62.9357802679
 30
0.0
 10
43.8186443914
 20
62.5483466834
 30
0.0
 10
43.8186380436
 20
62.3558507685
 30
0.0
  0
SPLINE
  5
2FD
100
AcDbEntity
  8
00_COMPONENTS_13
100
AcDbSpline
 62
7
  6
BYLAYER
 70
0
 71
3
 72
14
 73
10
 74
0
 42
0.0000001
 43
0.0000001
 44
0.0000000001
 40
0.0
 40
0.0
 40
0.0
 40
0.0
 40
0.3144774757
 40
0.4542361719
 40
0.5820126867
 40
0.6984599837
 40
0.8051391689
 40
0.9045662091
 40
1.0
 40
1.0
 40
1.0
 40
1.0
 10
25.6138948143
 20
62.3150700848
 30
0.0
 10
25.5488640102
 20
62.3526147878
 30
0.0
 10
25.4515481262
 20
62.4016582208
 30
0.0
 10
25.320397875
 20
62.4481077412
 30
0.0
 10
25.2311644754
 20
62.4699928471
 30
0.0
 10
25.147691961
 20
62.4798060023
 30
0.0
 10
25.0703643533
 20
62.4771299185
 30
0.0
 10
24.999584201
 20
62.4618158427
 30
0.0
 10
24.9566597824
 20
62.4428483258
 30
0.0
 10
24.9369170559
 20
62.4314685342
 30
0.0
  0
SPLINE
  5
2FE
100
AcDbEntity
  8
00_COMPONENTS_13
100
AcDbSpline
 62
7
  6
BYLAYER
 70
0
 71
3
 72
12
 73
8
 74
0
 42
0.0000001
 43
0.0000001
 44
0.0000000001
 40
0.0
 40
0.0
 40
0.0
 40
0.0
 40
0.2270360224
 40
0.4734478719
 40
0.6026415278
 40
0.7343531554
 40
1.0
 40
1.0
 40
1.0
 40
1.0
 10
25.9320915411
 20
60.0492727027
 30
0.0
 10
25.8360823071
 20
60.1047024058
 30
0.0
 10
25.6532473167
 20
60.2513899465
 30
0.0
 10
25.4713246677
 20
60.4852217874
 30
0.0
 10
25.3471662522
 20
60.6998662778
 30
0.0
 10
25.2370232585
 20
60.9324402136
 30
0.0
 10
25.173534169
 20
61.1166278474
 30
0.0
 10
25.1390444313
 20
61.2416734748
 30
0.0
  0
SPLINE
  5
2FF
100
AcDbEntity
  8
00_COMPONENTS_13
100
AcDbSpline
 62
7
  6
BYLAYER
 70
0
 71
3
 72
10
 73
6
 74
0
 42
0.0000001
 43
0.0000001
 44
0.0000000001
 40
0.0
 40
0.0
 40
0.0
 40
0.0
 40
0.5237423625
 40
0.7699906608
 40
1.0
 40
1.0
 40
1.0
 40
1.0
 10
25.1390444313
 20
61.2416734748
 30
0.0
 10
25.104359661
 20
61.3674262109
 30
0.0
 10
25.0648785919
 20
61.5558164954
 30
0.0
 10
25.0375085091
 20
61.8034859867
 30
0.0
 10
25.0325867992
 20
61.9221442093
 30
0.0
 10
25.0325867992
 20
61.9794325851
 30
0.0
  0
SPLINE
  5
300
100
AcDbEntity
  8
00_COMPONENTS_13
100
AcDbSpline
 62
7
  6
BYLAYER
 70
0
 71
3
 72
11
 73
7
 74
0
 42
0.0000001
 43
0.0000001
 44
0.0000000001
 40
0.0
 40
0.0
 40
0.0
 40
0.0
 40
0.2929155161
 40
0.5576635625
 40
0.7927052868
 40
1.0
 40
1.0
 40
1.0
 40
1.0
 10
25.0325867992
 20
61.9794325851
 30
0.0
 10
25.0325867992
 20
62.0294306036
 30
0.0
 10
25.0360370352
 20
62.12467779
 30
0.0
 10
25.0532510794
 20
62.259128222
 30
0.0
 10
25.0824317059
 20
62.376557042
 30
0.0
 10
25.111810356
 20
62.4466359095
 30
0.0
 10
25.1288965513
 20
62.4776204478
 30
0.0
  0
SPLINE
  5
301
100
AcDbEntity
  8
00_COMPONENTS_13
100
AcDbSpline
 62
7
  6
BYLAYER
 70
0
 71
3
 72
9
 73
5
 74
0
 42
0.0000001
 43
0.0000001
 44
0.0000000001
 40
0.0
 40
0.0
 40
0.0
 40
0.0
 40
0.5052943687
 40
1.0
 40
1.0
 40
1.0
 40
1.0
 10
34.8822566645
 20
74.3260289192
 30
0.0
 10
34.9216250256
 20
74.2193370068
 30
0.0
 10
34.9822139983
 20
74.0012727177
 30
0.0
 10
35.0029673016
 20
73.7757552337
 30
0.0
 10
35.0029633758
 20
73.6644148863
 30
0.0
  0
SPLINE
  5
302
100
AcDbEntity
  8
00_COMPONENTS_13
100
AcDbSpline
 62
7
  6
BYLAYER
 70
0
 71
3
 72
13
 73
9
 74
0
 42
0.0000001
 43
0.0000001
 44
0.0000000001
 40
0.0
 40
0.0
 40
0.0
 40
0.0
 40
0.1146571382
 40
0.2304440296
 40
0.3484372124
 40
0.4696120651
 40
0.7243975338
 40
1.0
 40
1.0
 40
1.0
 40
1.0
 10
23.5029812928
 20
67.5406467537
 30
0.0
 10
23.5029813948
 20
67.4590337733
 30
0.0
 10
23.5130506426
 20
67.2948276937
 30
0.0
 10
23.558305106
 20
67.0503987712
 30
0.0
 10
23.6333766041
 20
66.8085470189
 30
0.0
 10
23.7749312566
 20
66.4859985394
 30
0.0
 10
24.0290272418
 20
66.0940854916
 30
0.0
 10
24.2899237227
 20
65.8185040692
 30
0.0
 10
24.4349382406
 20
65.6863867312
 30
0.0
  0
SPLINE
  5
303
100
AcDbEntity
  8
00_COMPONENTS_13
100
AcDbSpline
 62
7
  6
BYLAYER
 70
0
 71
3
 72
9
 73
5
 74
0
 42
0.0000001
 43
0.0000001
 44
0.0000000001
 40
0.0
 40
0.0
 40
0.0
 40
0.0
 40
0.4856738884
 40
1.0
 40
1.0
 40
1.0
 40
1.0
 10
24.4349382406
 20
65.6863867312
 30
0.0
 10
24.5511846512
 20
65.5804789467
 30
0.0
 10
24.8037015039
 20
65.3766153049
 30
0.0
 10
25.0755631895
 20
65.1997403438
 30
0.0
 10
25.2190699927
 20
65.1152453865
 30
0.0
  0
SPLINE
  5
304
100
AcDbEntity
  8
00_COMPONENTS_13
100
AcDbSpline
 62
7
  6
BYLAYER
 70
0
 71
3
 72
11
 73
7
 74
0
 42
0.0000001
 43
0.0000001
 44
0.0000000001
 40
0.0
 40
0.0
 40
0.0
 40
0.0
 40
0.2399889809
 40
0.4841884949
 40
0.736445737
 40
1.0
 40
1.0
 40
1.0
 40
1.0
 10
23.5029812928
 20
72.276360773
 30
0.0
 10
23.5029811561
 20
72.3858037008
 30
0.0
 10
23.5212414582
 20
72.6070244945
 30
0.0
 10
23.6029681922
 20
72.9341621566
 30
0.0
 10
23.7378584951
 20
73.2547708887
 30
0.0
 10
23.8593254667
 20
73.457184655
 30
0.0
 10
23.9274890715
 20
73.5561757325
 30
0.0
  0
SPLINE
  5
305
100
AcDbEntity
  8
00_COMPONENTS_13
100
AcDbSpline
 62
7
  6
BYLAYER
 70
0
 71
3
 72
21
 73
17
 74
0
 42
0.0000001
 43
0.0000001
 44
0.0000000001
 40
0.0
 40
0.0
 40
0.0
 40
0.0
 40
0.0601462047
 40
0.1245669614
 40
0.1920885253
 40
0.2616417481
 40
0.4027138153
 40
0.4725327129
 40
0.5408768162
 40
0.670718882
 40
0.7317332579
 40
0.7899395524
 40
0.8454823974
 40
0.8986897031
 40
0.9500071091
 40
1.0
 40
1.0
 40
1.0
 40
1.0
 10
33.9733645991
 20
61.9794540761
 30
0.0
 10
33.9733645991
 20
61.9219376454
 30
0.0
 10
33.9684008905
 20
61.8027881163
 30
0.0
 10
33.9481559101
 20
61.6200987747
 30
0.0
 10
33.9146879156
 20
61.4301945263
 30
0.0
 10
33.8520232468
 20
61.1715828286
 30
0.0
 10
33.7634042616
 20
60.9173317884
 30
0.0
 10
33.64676493
 20
60.6767859094
 30
0.0
 10
33.5152732945
 20
60.4566067972
 30
0.0
 10
33.3572717278
 20
60.2623627166
 30
0.0
 10
33.1738958447
 20
60.1093601091
 30
0.0
 10
33.0311866362
 20
60.0211794571
 30
0.0
 10
32.8833174049
 20
59.9591337306
 30
0.0
 10
32.7334145277
 20
59.9244180699
 30
0.0
 10
32.5850157391
 20
59.9174682907
 30
0.0
 10
32.4884183061
 20
59.9311207634
 30
0.0
 10
32.4419319587
 20
59.9422802253
 30
0.0
  0
SPLINE
  5
306
100
AcDbEntity
  8
00_COMPONENTS_13
100
AcDbSpline
 62
7
  6
BYLAYER
 70
0
 71
3
 72
12
 73
8
 74
0
 42
0.0000001
 43
0.0000001
 44
0.0000000001
 40
0.0
 40
0.0
 40
0.0
 40
0.0
 40
0.2699105852
 40
0.5231427667
 40
0.7644010759
 40
0.8826117349
 40
1.0
 40
1.0
 40
1.0
 40
1.0
 10
32.1839831279
 20
60.5630860516
 30
0.0
 10
32.1839831279
 20
60.4854466884
 30
0.0
 10
32.2000645118
 20
60.3341944558
 30
0.0
 10
32.2771056243
 20
60.125763119
 30
0.0
 10
32.3814689641
 20
59.9806876988
 30
0.0
 10
32.4834386318
 20
59.8883944499
 30
0.0
 10
32.5398379563
 20
59.8503190945
 30
0.0
 10
32.5690897531
 20
59.8334515961
 30
0.0
  0
SPLINE
  5
307
100
AcDbEntity
  8
00_COMPONENTS_13
100
AcDbSpline
 62
7
  6
BYLAYER
 70
0
 71
3
 72
15
 73
11
 74
0
 42
0.0000001
 43
0.0000001
 44
0.0000000001
 40
0.0
 40
0.0
 40
0.0
 40
0.0
 40
0.1130446023
 40
0.2338541165
 40
0.3612936983
 40
0.4933002095
 40
0.6269706142
 40
0.7586916151
 40
0.8844246201
 40
1.0
 40
1.0
 40
1.0
 40
1.0
 10
26.821988698
 20
60.563073163
 30
0.0
 10
26.821988698
 20
60.6463675098
 30
0.0
 10
26.8023138579
 20
60.8189898809
 30
0.0
 10
26.7234474929
 20
61.0744743621
 30
0.0
 10
26.6001953519
 20
61.3271524479
 30
0.0
 10
26.4404681678
 20
61.5695858101
 30
0.0
 10
26.253459797
 20
61.7955535591
 30
0.0
 10
26.0487121116
 20
61.9990102572
 30
0.0
 10
25.8358762912
 20
62.1735154658
 30
0.0
 10
25.6876451691
 20
62.2724912609
 30
0.0
 10
25.6138948143
 20
62.3150700848
 30
0.0
  0
SPLINE
  5
308
100
AcDbEntity
  8
00_COMPONENTS_13
100
AcDbSpline
 62
7
  6
BYLAYER
 70
0
 71
3
 72
9
 73
5
 74
0
 42
0.0000001
 43
0.0000001
 44
0.0000000001
 40
0.0
 40
0.0
 40
0.0
 40
0.0
 40
0.5143309914
 40
1.0
 40
1.0
 40
1.0
 40
1.0
 10
33.7880215963
 20
65.1159278489
 30
0.0
 10
33.9304033795
 20
65.1998032117
 30
0.0
 10
34.2001875376
 20
65.3752679912
 30
0.0
 10
34.4509192789
 20
65.5773335617
 30
0.0
 10
34.5664278214
 20
65.6822463663
 30
0.0
  0
SPLINE
  5
309
100
AcDbEntity
  8
00_COMPONENTS_13
100
AcDbSpline
 62
7
  6
BYLAYER
 70
0
 71
3
 72
13
 73
9
 74
0
 42
0.0000001
 43
0.0000001
 44
0.0000000001
 40
0.0
 40
0.0
 40
0.0
 40
0.0
 40
0.27571284
 40
0.5305152639
 40
0.6516724557
 40
0.7696371819
 40
0.8853863469
 40
1.0
 40
1.0
 40
1.0
 40
1.0
 10
34.5664278214
 20
65.6822463663
 30
0.0
 10
34.7121206878
 20
65.8145746503
 30
0.0
 10
34.9742666414
 20
66.0906076691
 30
0.0
 10
35.2296369766
 20
66.483406607
 30
0.0
 10
35.3718980005
 20
66.8067324816
 30
0.0
 10
35.4473462
 20
67.0491705314
 30
0.0
 10
35.4928309482
 20
67.2942078938
 30
0.0
 10
35.5029506474
 20
67.4588297825
 30
0.0
 10
35.5029505452
 20
67.5406467537
 30
0.0
  0
SPLINE
  5
30A
100
AcDbEntity
  8
00_COMPONENTS_13
100
AcDbSpline
 62
7
  6
BYLAYER
 70
0
 71
3
 72
13
 73
9
 74
0
 42
0.0000001
 43
0.0000001
 44
0.0000000001
 40
0.0
 40
0.0
 40
0.0
 40
0.0
 40
0.1173193307
 40
0.2354638112
 40
0.3551741662
 40
0.4771523746
 40
0.7302483695
 40
1.0
 40
1.0
 40
1.0
 40
1.0
 10
26.4368713923
 20
59.8334566577
 30
0.0
 10
26.4661210265
 20
59.8503262471
 30
0.0
 10
26.5225163482
 20
59.8883881072
 30
0.0
 10
26.5985352514
 20
59.9572093274
 30
0.0
 10
26.6651112415
 20
60.0369859464
 30
0.0
 10
26.7407463429
 20
60.1581066029
 30
0.0
 10
26.8059456536
 20
60.3342451282
 30
0.0
 10
26.821988698
 20
60.485435836
 30
0.0
 10
26.821988698
 20
60.563073163
 30
0.0
  0
SPLINE
  5
30B
100
AcDbEntity
  8
00_COMPONENTS_13
100
AcDbSpline
 62
7
  6
BYLAYER
 70
0
 71
3
 72
11
 73
7
 74
0
 42
0.0000001
 43
0.0000001
 44
0.0000000001
 40
0.0
 40
0.0
 40
0.0
 40
0.0
 40
0.2364779228
 40
0.4800337879
 40
0.7338210718
 40
1.0
 40
1.0
 40
1.0
 40
1.0
 10
26.5809232913
 20
59.946462898
 30
0.0
 10
26.5296387582
 20
59.9328440709
 30
0.0
 10
26.422250652
 20
59.916251058
 30
0.0
 10
26.2567530372
 20
59.9258030867
 30
0.0
 10
26.0900113091
 20
59.969378495
 30
0.0
 10
25.9838164541
 20
60.0194099858
 30
0.0
 10
25.9320915411
 20
60.0492727027
 30
0.0
  0
SPLINE
  5
30C
100
AcDbEntity
  8
00_COMPONENTS_13
100
AcDbSpline
 62
7
  6
BYLAYER
 70
0
 71
3
 72
11
 73
7
 74
0
 42
0.0000001
 43
0.0000001
 44
0.0000000001
 40
0.0
 40
0.0
 40
0.0
 40
0.0
 40
0.2646954607
 40
0.5171796626
 40
0.7608892589
 40
1.0
 40
1.0
 40
1.0
 40
1.0
 10
35.0370949868
 20
73.6146572117
 30
0.0
 10
35.111673628
 20
73.5118446545
 30
0.0
 10
35.2447184345
 20
73.3012481982
 30
0.0
 10
35.3929552396
 20
72.966043374
 30
0.0
 10
35.4828409332
 20
72.6232527024
 30
0.0
 10
35.5029504019
 20
72.3910973856
 30
0.0
 10
35.5029505452
 20
72.276360773
 30
0.0
  0
SPLINE
  5
30D
100
AcDbEntity
  8
00_COMPONENTS_13
100
AcDbSpline
 62
7
  6
BYLAYER
 70
0
 71
3
 72
22
 73
18
 74
0
 42
0.0000001
 43
0.0000001
 44
0.0000000001
 40
0.0
 40
0.0
 40
0.0
 40
0.0
 40
0.0174811512
 40
0.035384327
 40
0.0738025695
 40
0.1175324985
 40
0.1677095906
 40
0.2244691628
 40
0.2872996294
 40
0.3552554056
 40
0.4271000976
 40
0.5015010586
 40
0.5771341226
 40
0.727250897
 40
0.7999049275
 40
0.8699123496
 40
1.0
 40
1.0
 40
1.0
 40
1.0
 10
34.0690560792
 20
62.4315377242
 30
0.0
 10
34.0542823201
 20
62.4400474761
 30
0.0
 10
34.0229440568
 20
62.4549018829
 30
0.0
 10
33.9536953475
 20
62.4754171086
 30
0.0
 10
33.8551246344
 20
62.4820915714
 30
0.0
 10
33.7269314213
 20
62.4617972206
 30
0.0
 10
33.5870769881
 20
62.4150963272
 30
0.0
 10
33.4373820748
 20
62.343609111
 30
0.0
 10
33.2805502525
 20
62.2490139562
 30
0.0
 10
33.1200906073
 20
62.1333138664
 30
0.0
 10
32.9600153058
 20
61.9988038117
 30
0.0
 10
32.8045476669
 20
61.847980422
 30
0.0
 10
32.6095387533
 20
61.6294649375
 30
0.0
 10
32.4407143669
 20
61.390313824
 30
0.0
 10
32.311374264
 20
61.1351101614
 30
0.0
 10
32.2179596325
 20
60.8858157867
 30
0.0
 10
32.1839831279
 20
60.6899603039
 30
0.0
 10
32.1839831279
 20
60.5630860516
 30
0.0
  0
SPLINE
  5
30E
100
AcDbEntity
  8
00_COMPONENTS_13
100
AcDbSpline
 62
7
  6
BYLAYER
 70
0
 71
3
 72
11
 73
7
 74
0
 42
0.0000001
 43
0.0000001
 44
0.0000000001
 40
0.0
 40
0.0
 40
0.0
 40
0.0
 40
0.209489621
 40
0.4455350996
 40
0.7096278803
 40
1.0
 40
1.0
 40
1.0
 40
1.0
 10
33.8861587125
 20
62.4603171144
 30
0.0
 10
33.9015954123
 20
62.42958038
 30
0.0
 10
33.9281155347
 20
62.3609909944
 30
0.0
 10
33.9545871026
 20
62.2472655738
 30
0.0
 10
33.9702120611
 20
62.1182149426
 30
0.0
 10
33.9733645991
 20
62.0271292021
 30
0.0
 10
33.9733645991
 20
61.9794540761
 30
0.0
  0
SPLINE
  5
30F
100
AcDbEntity
  8
00_COMPONENTS_13
100
AcDbSpline
 62
7
  6
BYLAYER
 70
0
 71
3
 72
9
 73
5
 74
0
 42
0.0000001
 43
0.0000001
 44
0.0000000001
 40
0.0
 40
0.0
 40
0.0
 40
0.0
 40
0.4947385148
 40
1.0
 40
1.0
 40
1.0
 40
1.0
 10
24.0029803663
 20
73.6644149153
 30
0.0
 10
24.0029751767
 20
73.7751888409
 30
0.0
 10
24.0234766863
 20
73.9995453858
 30
0.0
 10
24.0834976488
 20
74.2165460388
 30
0.0
 10
24.1224760615
 20
74.3227491177
 30
0.0
  0
SPLINE
  5
310
100
AcDbEntity
  8
00_COMPONENTS_13
100
AcDbSpline
 62
7
  6
BYLAYER
 70
0
 71
3
 72
15
 73
11
 74
0
 42
0.0000001
 43
0.0000001
 44
0.0000000001
 40
0.0
 40
0.0
 40
0.0
 40
0.0
 40
0.1080119804
 40
0.2180607755
 40
0.3319973631
 40
0.4513553715
 40
0.57727649
 40
0.7104920126
 40
0.8514099556
 40
1.0
 40
1.0
 40
1.0
 40
1.0
 10
16.3186599339
 20
62.3558507537
 30
0.0
 10
16.3186685177
 20
62.6161539874
 30
0.0
 10
16.3638503109
 20
63.1427271169
 30
0.0
 10
16.5656398282
 20
63.9204857252
 30
0.0
 10
16.8986808433
 20
64.6814951881
 30
0.0
 10
17.358787882
 20
65.4180469627
 30
0.0
 10
17.9407804395
 20
66.1234463043
 30
0.0
 10
18.6386830848
 20
66.7914847796
 30
0.0
 10
19.4455624827
 20
67.4160254559
 30
0.0
 10
20.035771088
 20
67.7901148125
 30
0.0
 10
20.345890268
 20
67.9691611358
 30
0.0
  0
SPLINE
  5
311
100
AcDbEntity
  8
00_COMPONENTS_13
100
AcDbSpline
 62
7
  6
BYLAYER
 70
0
 71
3
 72
15
 73
11
 74
0
 42
0.0000001
 43
0.0000001
 44
0.0000000001
 40
0.0
 40
0.0
 40
0.0
 40
0.0
 40
0.113052778
 40
0.2338928091
 40
0.3613438653
 40
0.4933251393
 40
0.626935966
 40
0.7586445464
 40
0.8844161682
 40
1.0
 40
1.0
 40
1.0
 40
1.0
 10
33.3921057534
 20
59.8656025144
 30
0.0
 10
33.4642683886
 20
59.9072690184
 30
0.0
 10
33.6040644575
 20
60.0105289131
 30
0.0
 10
33.7864847647
 20
60.2061823398
 30
0.0
 10
33.9441578944
 20
60.4390837871
 30
0.0
 10
34.0745715444
 20
60.6985267626
 30
0.0
 10
34.1765114376
 20
60.9736141395
 30
0.0
 10
34.249596203
 20
61.2529209076
 30
0.0
 10
34.2940283686
 20
61.5246582111
 30
0.0
 10
34.3052946396
 20
61.7026250195
 30
0.0
 10
34.3052946396
 20
61.7878185132
 30
0.0
  0
SPLINE
  5
312
100
AcDbEntity
  8
00_COMPONENTS_13
100
AcDbSpline
 62
7
  6
BYLAYER
 70
0
 71
3
 72
14
 73
10
 74
0
 42
0.0000001
 43
0.0000001
 44
0.0000000001
 40
0.0
 40
0.0
 40
0.0
 40
0.0
 40
0.3149320243
 40
0.4546737332
 40
0.5822499084
 40
0.6985393219
 40
0.8051101479
 40
0.90448237
 40
1.0
 40
1.0
 40
1.0
 40
1.0
 10
34.3052946396
 20
61.7878185132
 30
0.0
 10
34.3052946396
 20
61.8628893824
 30
0.0
 10
34.2993304593
 20
61.9716097844
 30
0.0
 10
34.2742342666
 20
62.1082821707
 30
0.0
 10
34.2487167632
 20
62.1962881721
 30
0.0
 10
34.2157392129
 20
62.2733113938
 30
0.0
 10
34.17508736
 20
62.3388976044
 30
0.0
 10
34.1266485762
 20
62.3925538588
 30
0.0
 10
34.0887858355
 20
62.4201732958
 30
0.0
 10
34.0690560792
 20
62.4315377242
 30
0.0
  0
SPLINE
  5
313
100
AcDbEntity
  8
00_COMPONENTS_13
100
AcDbSpline
 62
7
  6
BYLAYER
 70
0
 71
3
 72
11
 73
7
 74
0
 42
0.0000001
 43
0.0000001
 44
0.0000000001
 40
0.0
 40
0.0
 40
0.0
 40
0.0
 40
0.2702019457
 40
0.5235744513
 40
0.7647386482
 40
1.0
 40
1.0
 40
1.0
 40
1.0
 10
25.6139352805
 20
59.8655394711
 30
0.0
 10
25.681096016
 20
59.8267694198
 30
0.0
 10
25.8198679282
 20
59.7651817801
 30
0.0
 10
26.0384613749
 20
59.7270145663
 30
0.0
 10
26.2495072919
 20
59.7479647445
 30
0.0
 10
26.378382057
 20
59.7997232076
 30
0.0
 10
26.4368713923
 20
59.8334566577
 30
0.0
  0
SPLINE
  5
314
100
AcDbEntity
  8
00_COMPONENTS_13
100
AcDbSpline
 62
7
  6
BYLAYER
 70
0
 71
3
 72
19
 73
15
 74
0
 42
0.0000001
 43
0.0000001
 44
0.0000000001
 40
0.0
 40
0.0
 40
0.0
 40
0.0
 40
0.0558509596
 40
0.1142038691
 40
0.1748212748
 40
0.2374051429
 40
0.3670148838
 40
0.4999985074
 40
0.6329818047
 40
0.7625938588
 40
0.825173501
 40
0.8857916979
 40
0.9441660859
 40
1.0
 40
1.0
 40
1.0
 40
1.0
 10
33.3921366097
 20
64.887110195
 30
0.0
 10
33.2618373049
 20
64.8118796988
 30
0.0
 10
32.9886168074
 20
64.6695751972
 30
0.0
 10
32.5550443185
 20
64.4846795544
 30
0.0
 10
32.0922704836
 20
64.3251634885
 30
0.0
 10
31.4347115917
 20
64.1462727704
 30
0.0
 10
30.5692126135
 20
63.996758729
 30
0.0
 10
29.5030369179
 20
63.9369045864
 30
0.0
 10
28.4368525995
 20
63.9967380886
 30
0.0
 10
27.5713607462
 20
64.146253561
 30
0.0
 10
26.9137972328
 20
64.32511365
 30
0.0
 10
26.4509722831
 20
64.4846339672
 30
0.0
 10
26.0173980724
 20
64.6695604289
 30
0.0
 10
25.7441560229
 20
64.8118480563
 30
0.0
 10
25.6138948143
 20
64.8870526988
 30
0.0
  0
SPLINE
  5
315
100
AcDbEntity
  8
00_COMPONENTS_13
100
AcDbSpline
 62
7
  6
BYLAYER
 70
0
 71
3
 72
19
 73
15
 74
0
 42
0.0000001
 43
0.0000001
 44
0.0000000001
 40
0.0
 40
0.0
 40
0.0
 40
0.0
 40
0.0558340676
 40
0.1142086575
 40
0.1748269356
 40
0.23740659
 40
0.3670185668
 40
0.5000017965
 40
0.6329847786
 40
0.7625960429
 40
0.8251751716
 40
0.8857928306
 40
0.9441667544
 40
1.0
 40
1.0
 40
1.0
 40
1.0
 10
25.6139352805
 20
59.8655394711
 30
0.0
 10
25.7441958569
 20
59.7903359761
 30
0.0
 10
26.0174371961
 20
59.6480516275
 30
0.0
 10
26.4510095583
 20
59.463130196
 30
0.0
 10
26.9138312884
 20
59.3036134777
 30
0.0
 10
27.5713888553
 20
59.124757995
 30
0.0
 10
28.4368719303
 20
58.9752457381
 30
0.0
 10
29.5030430058
 20
58.9154175307
 30
0.0
 10
30.5692111865
 20
58.9752629502
 30
0.0
 10
31.4346878556
 20
59.1247890697
 30
0.0
 10
32.0922372564
 20
59.3036556097
 30
0.0
 10
32.5550511375
 20
59.4631801032
 30
0.0
 10
32.9886148126
 20
59.6481073958
 30
0.0
 10
33.2618494023
 20
59.7903962229
 30
0.0
 10
33.3921057937
 20
59.8656025377
 30
0.0
  0
SPLINE
  5
316
100
AcDbEntity
  8
00_COMPONENTS_13
100
AcDbSpline
 62
7
  6
BYLAYER
 70
0
 71
3
 72
10
 73
6
 74
0
 42
0.0000001
 43
0.0000001
 44
0.0000000001
 40
0.0
 40
0.0
 40
0.0
 40
0.0
 40
0.2662009708
 40
0.5218175678
 40
1.0
 40
1.0
 40
1.0
 40
1.0
 10
33.3921057534
 20
59.8656025144
 30
0.0
 10
33.4905457469
 20
59.9224389504
 30
0.0
 10
33.6799475687
 20
60.040287204
 30
0.0
 10
34.0253990017
 20
60.2915450078
 30
0.0
 10
34.257320508
 20
60.5052867621
 30
0.0
 10
34.3932004848
 20
60.6576977803
 30
0.0
  0
SPLINE
  5
317
100
AcDbEntity
  8
00_COMPONENTS_13
100
AcDbSpline
 62
7
  6
BYLAYER
 70
0
 71
3
 72
11
 73
7
 74
0
 42
0.0000001
 43
0.0000001
 44
0.0000000001
 40
0.0
 40
0.0
 40
0.0
 40
0.0
 40
0.269596083
 40
0.5232711237
 40
0.7649768258
 40
1.0
 40
1.0
 40
1.0
 40
1.0
 10
34.3932004848
 20
60.6576977803
 30
0.0
 10
34.4874107224
 20
60.7633695546
 30
0.0
 10
34.6565657001
 20
60.9814456536
 30
0.0
 10
34.8495491906
 20
61.3359550921
 30
0.0
 10
34.9699658358
 20
61.702431591
 30
0.0
 10
35.0002972223
 20
61.9529201346
 30
0.0
 10
35.0026251487
 20
62.0763133751
 30
0.0
  0
SPLINE
  5
318
100
AcDbEntity
  8
00_COMPONENTS_13
100
AcDbSpline
 62
7
  6
BYLAYER
 70
0
 71
3
 72
15
 73
11
 74
0
 42
0.0000001
 43
0.0000001
 44
0.0000000001
 40
0.0
 40
0.0
 40
0.0
 40
0.0
 40
0.1147730001
 40
0.2394446447
 40
0.3701138636
 40
0.5030281431
 40
0.6348713835
 40
0.7628221831
 40
0.8849423668
 40
1.0
 40
1.0
 40
1.0
 40
1.0
 10
24.7006595225
 20
61.7877954265
 30
0.0
 10
24.7006595225
 20
61.7060653271
 30
0.0
 10
24.7110274051
 20
61.5354907014
 30
0.0
 10
24.7521234257
 20
61.2748174993
 30
0.0
 10
24.8197817134
 20
61.0063392864
 30
0.0
 10
24.9140930911
 20
60.7405367753
 30
0.0
 10
25.0347638573
 20
60.4876309184
 30
0.0
 10
25.1811471962
 20
60.2574384956
 30
0.0
 10
25.3511559637
 20
60.0595422547
 30
0.0
 10
25.4813451733
 20
59.9501532137
 30
0.0
 10
25.549337527
 20
59.904436461
 30
0.0
  0
SPLINE
  5
319
100
AcDbEntity
  8
00_COMPONENTS_13
100
AcDbSpline
 62
7
  6
BYLAYER
 70
0
 71
3
 72
19
 73
15
 74
0
 42
0.0000001
 43
0.0000001
 44
0.0000000001
 40
0.0
 40
0.0
 40
0.0
 40
0.0
 40
0.0558339141
 40
0.1142083021
 40
0.174826499
 40
0.2374061412
 40
0.3670181953
 40
0.5000014926
 40
0.6329851162
 40
0.7625948571
 40
0.8251787252
 40
0.8857961309
 40
0.9441490404
 40
1.0
 40
1.0
 40
1.0
 40
1.0
 10
25.2603428957
 20
65.0911818304
 30
0.0
 10
25.4024460323
 20
65.0091404023
 30
0.0
 10
25.7005282682
 20
64.853917536
 30
0.0
 10
26.1735183162
 20
64.6521795777
 30
0.0
 10
26.6784182613
 20
64.4781574136
 30
0.0
 10
27.3957602759
 20
64.2830373165
 30
0.0
 10
28.3399332068
 20
64.1199295283
 30
0.0
 10
29.5030433724
 20
64.0546566169
 30
0.0
 10
30.6661441312
 20
64.1199520452
 30
0.0
 10
31.6103248346
 20
64.2830582722
 30
0.0
 10
32.3276618076
 20
64.4782117829
 30
0.0
 10
32.8325059912
 20
64.6522293093
 30
0.0
 10
33.3054941609
 20
64.8539336469
 30
0.0
 10
33.6035528855
 20
65.0091749214
 30
0.0
 10
33.7456975816
 20
65.0912445535
 30
0.0
  0
SPLINE
  5
31A
100
AcDbEntity
  8
00_COMPONENTS_13
100
AcDbSpline
 62
7
  6
BYLAYER
 70
0
 71
3
 72
26
 73
22
 74
0
 42
0.0000001
 43
0.0000001
 44
0.0000000001
 40
0.0
 40
0.0
 40
0.0
 40
0.0
 40
0.0623762435
 40
0.1287188467
 40
0.198304816
 40
0.2702791596
 40
0.3436526123
 40
0.4173810706
 40
0.4904022947
 40
0.5616855736
 40
0.6302795606
 40
0.6953641042
 40
0.7563090691
 40
0.8127440982
 40
0.8392679492
 40
0.8646901868
 40
0.9124625751
 40
0.9351058978
 40
0.9571099669
 40
0.9786692276
 40
1.0
 40
1.0
 40
1.0
 40
1.0
 10
25.6138948143
 20
70.4392691353
 30
0.0
 10
25.8114869262
 20
70.3251918571
 30
0.0
 10
26.2349692033
 20
70.1164100173
 30
0.0
 10
26.9180678667
 20
69.8688779158
 30
0.0
 10
27.6562891404
 20
69.6815005614
 30
0.0
 10
28.4337758601
 20
69.5582036071
 30
0.0
 10
29.2340882855
 20
69.5016320956
 30
0.0
 10
30.0401302714
 20
69.5129690488
 30
0.0
 10
30.8347152659
 20
69.5919882675
 30
0.0
 10
31.6009103064
 20
69.7370063723
 30
0.0
 10
32.3224287136
 20
69.9449494074
 30
0.0
 10
32.9840551666
 20
70.2115003287
 30
0.0
 10
33.5717699467
 20
70.5311470723
 30
0.0
 10
33.9984373104
 20
70.84288326
 30
0.0
 10
34.2885215979
 20
71.1137699727
 30
0.0
 10
34.5330744876
 20
71.3847640081
 30
0.0
 10
34.73170937
 20
71.6771041415
 30
0.0
 10
34.8729060901
 20
71.9849472657
 30
0.0
 10
34.9477565735
 20
72.2158927707
 30
0.0
 10
34.9929037599
 20
72.4495232945
 30
0.0
 10
35.0029519238
 20
72.6065887595
 30
0.0
 10
35.0029518263
 20
72.6846119816
 30
0.0
  0
SPLINE
  5
31B
100
AcDbEntity
  8
00_COMPONENTS_13
100
AcDbSpline
 62
7
  6
BYLAYER
 70
0
 71
3
 72
15
 73
11
 74
0
 42
0.0000001
 43
0.0000001
 44
0.0000000001
 40
0.0
 40
0.0
 40
0.0
 40
0.0
 40
0.1485551998
 40
0.2895097006
 40
0.422733036
 40
0.5486404129
 40
0.6680010826
 40
0.7819398025
 40
0.8919884419
 40
1.0
 40
1.0
 40
1.0
 40
1.0
 10
25.2603428957
 20
69.8268958498
 30
0.0
 10
25.1250477649
 20
69.9050067628
 30
0.0
 10
24.8675133905
 20
70.0682714935
 30
0.0
 10
24.5153773373
 20
70.3407658466
 30
0.0
 10
24.2108111652
 20
70.6323030395
 30
0.0
 10
23.9568680725
 20
70.9401272485
 30
0.0
 10
23.7560774558
 20
71.2615155887
 30
0.0
 10
23.6107556741
 20
71.593604589
 30
0.0
 10
23.5226834497
 20
71.9329914202
 30
0.0
 10
23.5029814347
 20
72.1627730347
 30
0.0
 10
23.5029812928
 20
72.276360773
 30
0.0
  0
SPLINE
  5
31C
100
AcDbEntity
  8
00_COMPONENTS_13
100
AcDbSpline
 62
7
  6
BYLAYER
 70
0
 71
3
 72
13
 73
9
 74
0
 42
0.0000001
 43
0.0000001
 44
0.0000000001
 40
0.0
 40
0.0
 40
0.0
 40
0.0
 40
0.1174380706
 40
0.2355766196
 40
0.3551783517
 40
0.4770257866
 40
0.7300309696
 40
1.0
 40
1.0
 40
1.0
 40
1.0
 10
32.5690897531
 20
59.8334515961
 30
0.0
 10
32.5983245397
 20
59.8165939064
 30
0.0
 10
32.6594483027
 20
59.7868838583
 30
0.0
 10
32.7569071221
 20
59.7555214166
 30
0.0
 10
32.8590586956
 20
59.7378047712
 30
0.0
 10
33.0014661414
 20
59.7330491224
 30
0.0
 10
33.1862380375
 20
59.7650675229
 30
0.0
 10
33.3249225525
 20
59.826811121
 30
0.0
 10
33.3921057937
 20
59.8656025377
 30
0.0
  0
SPLINE
  5
31D
100
AcDbEntity
  8
00_COMPONENTS_13
100
AcDbSpline
 62
7
  6
BYLAYER
 70
0
 71
3
 72
23
 73
19
 74
0
 42
0.0000001
 43
0.0000001
 44
0.0000000001
 40
0.0
 40
0.0
 40
0.0
 40
0.0
 40
0.0567117544
 40
0.1156111033
 40
0.1764781499
 40
0.23904898
 40
0.3030181176
 40
0.368058607
 40
0.4338246198
 40
0.4999571651
 40
0.56609117
 40
0.6318620351
 40
0.6969108209
 40
0.7608910441
 40
0.8234753761
 40
0.8843611338
 40
0.9432787925
 40
1.0
 40
1.0
 40
1.0
 40
1.0
 10
39.229598007
 20
56.4359464375
 30
0.0
 10
38.9117314779
 20
56.2719949902
 30
0.0
 10
38.2508482018
 20
55.9622796837
 30
0.0
 10
37.212281318
 20
55.5600481258
 30
0.0
 10
36.1149002488
 20
55.2139112894
 30
0.0
 10
34.9677437007
 20
54.9266612953
 30
0.0
 10
33.7801910914
 20
54.7007125003
 30
0.0
 10
32.562050068
 20
54.5378937473
 30
0.0
 10
31.3233506333
 20
54.4395249825
 30
0.0
 10
30.0743020686
 20
54.4064592883
 30
0.0
 10
28.8252084447
 20
54.4389463205
 30
0.0
 10
27.5863682056
 20
54.5367020748
 30
0.0
 10
26.3679972725
 20
54.6989576427
 30
0.0
 10
25.1801306576
 20
54.9243580696
 30
0.0
 10
24.0325488449
 20
55.211031398
 30
0.0
 10
22.9346773278
 20
55.5566752399
 30
0.0
 10
21.895608707
 20
55.9584132602
 30
0.0
 10
21.2343425884
 20
56.2677227883
 30
0.0
 10
20.9163152403
 20
56.4314923269
 30
0.0
  0
SPLINE
  5
31E
100
AcDbEntity
  8
00_COMPONENTS_13
100
AcDbSpline
 62
7
  6
BYLAYER
 70
0
 71
3
 72
15
 73
11
 74
0
 42
0.0000001
 43
0.0000001
 44
0.0000000001
 40
0.0
 40
0.0
 40
0.0
 40
0.0
 40
0.1484960631
 40
0.2896324066
 40
0.4233398981
 40
0.549834318
 40
0.6696584327
 40
0.7837195715
 40
0.8932959927
 40
1.0
 40
1.0
 40
1.0
 40
1.0
 10
20.6945892188
 20
56.5482049966
 30
0.0
 10
20.3795020195
 20
56.717733346
 30
0.0
 10
19.7775173593
 20
57.0726628184
 30
0.0
 10
18.9469128409
 20
57.6671832542
 30
0.0
 10
18.2182644377
 20
58.3055969417
 30
0.0
 10
17.5984356834
 20
58.9823708995
 30
0.0
 10
17.0934272245
 20
59.691712869
 30
0.0
 10
16.7084385
 20
60.4275247646
 30
0.0
 10
16.4478492726
 20
61.1828405919
 30
0.0
 10
16.3586032592
 20
61.6990827869
 30
0.0
 10
16.336177882
 20
61.955204263
 30
0.0
  0
SPLINE
  5
31F
100
AcDbEntity
  8
00_COMPONENTS_13
100
AcDbSpline
 62
7
  6
BYLAYER
 70
0
 71
3
 72
14
 73
10
 74
0
 42
0.0000001
 43
0.0000001
 44
0.0000000001
 40
0.0
 40
0.0
 40
0.0
 40
0.0
 40
0.0955059481
 40
0.1948638983
 40
0.3014324679
 40
0.4177197237
 40
0.5453107606
 40
0.6850293885
 40
1.0
 40
1.0
 40
1.0
 40
1.0
 10
24.9369170559
 20
62.4314685342
 30
0.0
 10
24.9171934908
 20
62.4200997873
 30
0.0
 10
24.8793215735
 20
62.3925103252
 30
0.0
 10
24.8308605146
 20
62.3388811895
 30
0.0
 10
24.790207147
 20
62.2733020523
 30
0.0
 10
24.7572275917
 20
62.1962782633
 30
0.0
 10
24.7317251033
 20
62.1082721829
 30
0.0
 10
24.7066232555
 20
61.9715967928
 30
0.0
 10
24.7006595225
 20
61.8628740965
 30
0.0
 10
24.7006595225
 20
61.7877954265
 30
0.0
  0
SPLINE
  5
320
100
AcDbEntity
  8
00_COMPONENTS_13
100
AcDbSpline
 62
7
  6
BYLAYER
 70
0
 71
3
 72
12
 73
8
 74
0
 42
0.0000001
 43
0.0000001
 44
0.0000000001
 40
0.0
 40
0.0
 40
0.0
 40
0.0
 40
0.1173803106
 40
0.2354093587
 40
0.4765260784
 40
0.7298541465
 40
1.0
 40
1.0
 40
1.0
 40
1.0
 10
23.9037596661
 20
62.0830473827
 30
0.0
 10
23.9018422659
 20
62.0165078031
 30
0.0
 10
23.9051459714
 20
61.8827341138
 30
0.0
 10
23.940641728
 20
61.6144146954
 30
0.0
 10
24.0409119872
 20
61.2790700331
 30
0.0
 10
24.2444978644
 20
60.8936402764
 30
0.0
 10
24.4270289787
 20
60.6576127966
 30
0.0
 10
24.529275292
 20
60.5435232449
 30
0.0
  0
SPLINE
  5
321
100
AcDbEntity
  8
00_COMPONENTS_13
100
AcDbSpline
 62
7
  6
BYLAYER
 70
0
 71
3
 72
9
 73
5
 74
0
 42
0.0000001
 43
0.0000001
 44
0.0000000001
 40
0.0
 40
0.0
 40
0.0
 40
0.0
 40
0.4796631574
 40
1.0
 40
1.0
 40
1.0
 40
1.0
 10
24.529275292
 20
60.5435232449
 30
0.0
 10
24.6590646946
 20
60.3987002749
 30
0.0
 10
24.9576494968
 20
60.1213508776
 30
0.0
 10
25.2934097651
 20
59.8917186892
 30
0.0
 10
25.4744742056
 20
59.7834578574
 30
0.0
  0
SPLINE
  5
322
100
AcDbEntity
  8
00_COMPONENTS_13
100
AcDbSpline
 62
7
  6
BYLAYER
 70
0
 71
3
 72
15
 73
11
 74
0
 42
0.0000001
 43
0.0000001
 44
0.0000000001
 40
0.0
 40
0.0
 40
0.0
 40
0.0
 40
0.1080115581
 40
0.2180601975
 40
0.3319989174
 40
0.4513595871
 40
0.577266964
 40
0.7104902994
 40
0.8514448002
 40
1.0
 40
1.0
 40
1.0
 40
1.0
 10
24.0029800117
 20
72.6846119816
 30
0.0
 10
24.0029801417
 20
72.5804898882
 30
0.0
 10
24.0210403222
 20
72.3698567415
 30
0.0
 10
24.1017731945
 20
72.0587521462
 30
0.0
 10
24.2349848277
 20
71.7543372293
 30
0.0
 10
24.419042893
 20
71.4597312508
 30
0.0
 10
24.6518240614
 20
71.1775590592
 30
0.0
 10
24.9310097191
 20
70.9103166323
 30
0.0
 10
25.2538011012
 20
70.660530142
 30
0.0
 10
25.4898742778
 20
70.5108708056
 30
0.0
 10
25.6138948143
 20
70.4392691353
 30
0.0
  0
SPLINE
  5
323
100
AcDbEntity
  8
00_COMPONENTS_13
100
AcDbSpline
 62
7
  6
BYLAYER
 70
0
 71
3
 72
9
 73
5
 74
0
 42
0.0000001
 43
0.0000001
 44
0.0000000001
 40
0.0
 40
0.0
 40
0.0
 40
0.0
 40
0.2431979597
 40
1.0
 40
1.0
 40
1.0
 40
1.0
 10
25.5431845297
 20
59.7430882335
 30
0.0
 10
25.5944013456
 20
59.71351886
 30
0.0
 10
25.8070452524
 20
59.5954954009
 30
0.0
 10
26.0273039141
 20
59.4913408886
 30
0.0
 10
26.1968367469
 20
59.4197327693
 30
0.0
  0
SPLINE
  5
324
100
AcDbEntity
  8
00_COMPONENTS_13
100
AcDbSpline
 62
7
  6
BYLAYER
 70
0
 71
3
 72
10
 73
6
 74
0
 42
0.0000001
 43
0.0000001
 44
0.0000000001
 40
0.0
 40
0.0
 40
0.0
 40
0.0
 40
0.2376350473
 40
0.4848101402
 40
1.0
 40
1.0
 40
1.0
 40
1.0
 10
26.1968367469
 20
59.4197327693
 30
0.0
 10
26.375592995
 20
59.344228818
 30
0.0
 10
26.7473209834
 20
59.2063758675
 30
0.0
 10
27.5336211965
 20
58.9840524907
 30
0.0
 10
28.1506184997
 20
58.8822755866
 30
0.0
 10
28.5693216429
 20
58.841398625
 30
0.0
  0
SPLINE
  5
325
100
AcDbEntity
  8
00_COMPONENTS_13
100
AcDbSpline
 62
7
  6
BYLAYER
 70
0
 71
3
 72
14
 73
10
 74
0
 42
0.0000001
 43
0.0000001
 44
0.0000000001
 40
0.0
 40
0.0
 40
0.0
 40
0.0
 40
0.2600114874
 40
0.3898975811
 40
0.5183545843
 40
0.6444367379
 40
0.7672572725
 40
0.8860111236
 40
1.0
 40
1.0
 40
1.0
 40
1.0
 10
28.5846691044
 20
58.8399129371
 30
0.0
 10
28.9801476901
 20
58.8019549766
 30
0.0
 10
29.5775934535
 20
58.7821987177
 30
0.0
 10
30.3685926109
 20
58.8288246599
 30
0.0
 10
30.9521023123
 20
58.8999356636
 30
0.0
 10
31.5191965873
 20
59.0064258046
 30
0.0
 10
32.0635596835
 20
59.1470578964
 30
0.0
 10
32.5790009289
 20
59.3202508223
 30
0.0
 10
32.9068310901
 20
59.4592715165
 30
0.0
 10
33.06411432
 20
59.534095854
 30
0.0
  0
SPLINE
  5
326
100
AcDbEntity
  8
00_COMPONENTS_13
100
AcDbSpline
 62
7
  6
BYLAYER
 70
0
 71
3
 72
10
 73
6
 74
0
 42
0.0000001
 43
0.0000001
 44
0.0000000001
 40
0.0
 40
0.0
 40
0.0
 40
0.0
 40
0.2705358802
 40
0.5276810495
 40
1.0
 40
1.0
 40
1.0
 40
1.0
 10
33.06411432
 20
59.534095854
 30
0.0
 10
33.2063155451
 20
59.6017452306
 30
0.0
 10
33.4788010412
 20
59.7446130463
 30
0.0
 10
33.9688966482
 20
60.0590952353
 30
0.0
 10
34.2937678643
 20
60.3393712472
 30
0.0
 10
34.4772071433
 20
60.5441497785
 30
0.0
  0
SPLINE
  5
327
100
AcDbEntity
  8
00_COMPONENTS_13
100
AcDbSpline
 62
7
  6
BYLAYER
 70
0
 71
3
 72
14
 73
10
 74
0
 42
0.0000001
 43
0.0000001
 44
0.0000000001
 40
0.0
 40
0.0
 40
0.0
 40
0.0
 40
0.270702644
 40
0.3983907087
 40
0.5220096501
 40
0.642675182
 40
0.7616518186
 40
0.8803006994
 40
1.0
 40
1.0
 40
1.0
 40
1.0
 10
34.4772071433
 20
60.5441497785
 30
0.0
 10
34.6027804709
 20
60.6843308875
 30
0.0
 10
34.7700433397
 20
60.9083191337
 30
0.0
 10
34.9356784832
 20
61.2319555083
 30
0.0
 10
35.0256601673
 20
61.4751188652
 30
0.0
 10
35.0831200188
 20
61.7217512994
 30
0.0
 10
35.1075186877
 20
61.9703889243
 30
0.0
 10
35.0988032582
 20
62.2193592087
 30
0.0
 10
35.0710816052
 20
62.3832934794
 30
0.0
 10
35.0520250832
 20
62.4643006588
 30
0.0
  0
SPLINE
  5
328
100
AcDbEntity
  8
00_COMPONENTS_13
100
AcDbSpline
 62
7
  6
BYLAYER
 70
0
 71
3
 72
11
 73
7
 74
0
 42
0.0000001
 43
0.0000001
 44
0.0000000001
 40
0.0
 40
0.0
 40
0.0
 40
0.0
 40
0.2731764072
 40
0.530731094
 40
0.7726178095
 40
1.0
 40
1.0
 40
1.0
 40
1.0
 10
25.6138948143
 20
71.4190720358
 30
0.0
 10
25.4768337226
 20
71.4982025039
 30
0.0
 10
25.2173552864
 20
71.6642494051
 30
0.0
 10
24.8669679004
 20
71.9442649009
 30
0.0
 10
24.570802419
 20
72.2450731379
 30
0.0
 10
24.4072547898
 20
72.463651329
 30
0.0
 10
24.3368211359
 20
72.574973679
 30
0.0
  0
SPLINE
  5
329
100
AcDbEntity
  8
00_COMPONENTS_13
100
AcDbSpline
 62
7
  6
BYLAYER
 70
0
 71
3
 72
11
 73
7
 74
0
 42
0.0000001
 43
0.0000001
 44
0.0000000001
 40
0.0
 40
0.0
 40
0.0
 40
0.0
 40
0.2618450693
 40
0.5137758433
 40
0.7587031046
 40
1.0
 40
1.0
 40
1.0
 40
1.0
 10
24.3368211359
 20
72.574973679
 30
0.0
 10
24.2829683024
 20
72.6600895808
 30
0.0
 10
24.1871831907
 20
72.8336791781
 30
0.0
 10
24.0813123479
 20
73.1066274958
 30
0.0
 10
24.0172757412
 20
73.3842641793
 30
0.0
 10
24.0029847146
 20
73.5715973807
 30
0.0
 10
24.0029803663
 20
73.6644149153
 30
0.0
  0
SPLINE
  5
32A
100
AcDbEntity
  8
00_COMPONENTS_13
100
AcDbSpline
 62
7
  6
BYLAYER
 70
0
 71
3
 72
26
 73
22
 74
0
 42
0.0000001
 43
0.0000001
 44
0.0000000001
 40
0.0
 40
0.0
 40
0.0
 40
0.0
 40
0.0213307724
 40
0.0428900331
 40
0.0648941022
 40
0.0875374249
 40
0.1353098132
 40
0.1607320508
 40
0.1872559018
 40
0.2436909309
 40
0.3046358958
 40
0.3697204394
 40
0.4383144264
 40
0.5095977053
 40
0.5826189294
 40
0.6563473877
 40
0.7297208404
 40
0.801695184
 40
0.8712811533
 40
0.9376237565
 40
1.0
 40
1.0
 40
1.0
 40
1.0
 10
35.5029505452
 20
72.276360773
 30
0.0
 10
35.5029506515
 20
72.1912445307
 30
0.0
 10
35.4919890182
 20
72.0199003871
 30
0.0
 10
35.4427375421
 20
71.7650307247
 30
0.0
 10
35.3610824692
 20
71.5130901738
 30
0.0
 10
35.2070496837
 20
71.1772613112
 30
0.0
 10
34.9903570848
 20
70.858344802
 30
0.0
 10
34.7235721141
 20
70.5627149451
 30
0.0
 10
34.4071165277
 20
70.2672021677
 30
0.0
 10
33.941661222
 20
69.9271263265
 30
0.0
 10
33.3005178254
 20
69.5784207881
 30
0.0
 10
32.5787435131
 20
69.2876379648
 30
0.0
 10
31.7916325234
 20
69.0607910175
 30
0.0
 10
30.9557833883
 20
68.9025894486
 30
0.0
 10
30.0889633943
 20
68.8163866645
 30
0.0
 10
29.2096448642
 20
68.8040190792
 30
0.0
 10
28.3365767639
 20
68.8657334554
 30
0.0
 10
27.4884094332
 20
69.0002392237
 30
0.0
 10
26.6830771347
 20
69.2046508831
 30
0.0
 10
25.9378785928
 20
69.4746859028
 30
0.0
 10
25.4758979269
 20
69.7024479099
 30
0.0
 10
25.2603428957
 20
69.8268958498
 30
0.0
  0
SPLINE
  5
32B
100
AcDbEntity
  8
00_COMPONENTS_13
100
AcDbSpline
 62
7
  6
BYLAYER
 70
0
 71
3
 72
11
 73
7
 74
0
 42
0.0000001
 43
0.0000001
 44
0.0000000001
 40
0.0
 40
0.0
 40
0.0
 40
0.0
 40
0.2413167949
 40
0.4862561268
 40
0.7381901225
 40
1.0
 40
1.0
 40
1.0
 40
1.0
 10
35.0029633758
 20
73.6644148863
 30
0.0
 10
35.0029601075
 20
73.5717220448
 30
0.0
 10
34.9886758585
 20
73.3846480654
 30
0.0
 10
34.924848907
 20
73.1073682967
 30
0.0
 10
34.8192149578
 20
72.8347862942
 30
0.0
 10
34.7237152435
 20
72.6613791273
 30
0.0
 10
34.6699997823
 20
72.5763622655
 30
0.0
  0
SPLINE
  5
32C
100
AcDbEntity
  8
00_COMPONENTS_13
100
AcDbSpline
 62
7
  6
BYLAYER
 70
0
 71
3
 72
23
 73
19
 74
0
 42
0.0000001
 43
0.0000001
 44
0.0000000001
 40
0.0
 40
0.0
 40
0.0
 40
0.0
 40
0.0465326506
 40
0.0964928576
 40
0.150111172
 40
0.2073715435
 40
0.2680567009
 40
0.3317881076
 40
0.3980634142
 40
0.4662880351
 40
0.5358009274
 40
0.6058988994
 40
0.6758601384
 40
0.7449687235
 40
0.8125361656
 40
0.8779159345
 40
0.9405641547
 40
1.0
 40
1.0
 40
1.0
 40
1.0
 10
34.6699997823
 20
72.5763622655
 30
0.0
 10
34.589196098
 20
72.448472166
 30
0.0
 10
34.3974826318
 20
72.1980615552
 30
0.0
 10
34.044526101
 20
71.858892884
 30
0.0
 10
33.6223504905
 20
71.5481315316
 30
0.0
 10
33.1374966472
 20
71.2703079091
 30
0.0
 10
32.5972537349
 20
71.0293798154
 30
0.0
 10
32.0098053354
 20
70.8289056035
 30
0.0
 10
31.3840690342
 20
70.6718686753
 30
0.0
 10
30.729571455
 20
70.5606494666
 30
0.0
 10
30.0563034628
 20
70.4969585916
 30
0.0
 10
29.374568245
 20
70.4817583427
 30
0.0
 10
28.6948006527
 20
70.5152663659
 30
0.0
 10
28.0273942018
 20
70.5969826631
 30
0.0
 10
27.3825815116
 20
70.725682737
 30
0.0
 10
26.7701164924
 20
70.8993677242
 30
0.0
 10
26.1994522473
 20
71.1154477559
 30
0.0
 10
25.8424163045
 20
71.2906080218
 30
0.0
 10
25.6738163914
 20
71.3850041795
 30
0.0
  0
SPLINE
  5
32D
100
AcDbEntity
  8
00_COMPONENTS_13
100
AcDbSpline
 62
7
  6
BYLAYER
 70
0
 71
3
 72
10
 73
6
 74
0
 42
0.0000001
 43
0.0000001
 44
0.0000000001
 40
0.0
 40
0.0
 40
0.0
 40
0.0
 40
0.2501468423
 40
0.626675724
 40
1.0
 40
1.0
 40
1.0
 40
1.0
 10
25.5431845297
 20
59.7430882335
 30
0.0
 10
25.5374297255
 20
59.7464106961
 30
0.0
 10
25.5231375028
 20
59.7549486545
 30
0.0
 10
25.499996175
 20
59.7679992654
 30
0.0
 10
25.4829859526
 20
59.7783685709
 30
0.0
 10
25.4744742056
 20
59.7834578574
 30
0.0
  0
SPLINE
  5
32E
100
AcDbEntity
  8
00_COMPONENTS_13
100
AcDbSpline
 62
7
  6
BYLAYER
 70
0
 71
3
 72
15
 73
11
 74
0
 42
0.0000001
 43
0.0000001
 44
0.0000000001
 40
0.0
 40
0.0
 40
0.0
 40
0.0
 40
0.1077209337
 40
0.218140263
 40
0.3327565344
 40
0.4527810573
 40
0.5790948599
 40
0.7122602822
 40
0.8525865052
 40
1.0
 40
1.0
 40
1.0
 40
1.0
 10
43.8006720504
 20
61.9502069577
 30
0.0
 10
43.7790449795
 20
61.7061071664
 30
0.0
 10
43.6955023578
 20
61.2144999707
 30
0.0
 10
43.4550885212
 20
60.4938938648
 30
0.0
 10
43.1012963977
 20
59.7903214755
 30
0.0
 10
42.6378385481
 20
59.109872224
 30
0.0
 10
42.0690965346
 20
58.4578969026
 30
0.0
 10
41.4000009069
 20
57.8394930963
 30
0.0
 10
40.6363653089
 20
57.2596796955
 30
0.0
 10
40.0818325344
 20
56.9102162364
 30
0.0
 10
39.7914077095
 20
56.7425403865
 30
0.0
  0
SPLINE
  5
32F
100
AcDbEntity
  8
00_COMPONENTS_13
100
AcDbSpline
 62
7
  6
BYLAYER
 70
0
 71
3
 72
11
 73
7
 74
0
 42
0.0000001
 43
0.0000001
 44
0.0000000001
 40
0.0
 40
0.0
 40
0.0
 40
0.0
 40
0.2351047976
 40
0.4768462197
 40
0.7304683221
 40
1.0
 40
1.0
 40
1.0
 40
1.0
 10
24.0033053578
 20
62.0763136576
 30
0.0
 10
24.0056205727
 20
61.9533526437
 30
0.0
 10
24.0357662812
 20
61.7037723304
 30
0.0
 10
24.1553266537
 20
61.3385545402
 30
0.0
 10
24.3470550114
 20
60.9851913919
 30
0.0
 10
24.5150595377
 20
60.7676603447
 30
0.0
 10
24.6086421918
 20
60.6622048019
 30
0.0
  0
SPLINE
  5
330
100
AcDbEntity
  8
00_COMPONENTS_13
100
AcDbSpline
 62
7
  6
BYLAYER
 70
0
 71
3
 72
10
 73
6
 74
0
 42
0.0000001
 43
0.0000001
 44
0.0000000001
 40
0.0
 40
0.0
 40
0.0
 40
0.0
 40
0.4793019401
 40
0.7345317193
 40
1.0
 40
1.0
 40
1.0
 40
1.0
 10
24.6086421918
 20
60.6622048019
 30
0.0
 10
24.7371546934
 20
60.5173878402
 30
0.0
 10
24.9553304987
 20
60.3136107133
 30
0.0
 10
25.2799335806
 20
60.0729259647
 30
0.0
 10
25.4572784885
 20
59.9594363645
 30
0.0
 10
25.549337527
 20
59.904436461
 30
0.0
  0
SPLINE
  5
331
100
AcDbEntity
  8
00_COMPONENTS_5
100
AcDbSpline
 62
7
  6
BYLAYER
 70
0
 71
3
 72
23
 73
19
 74
0
 42
0.0000001
 43
0.0000001
 44
0.0000000001
 40
0.0
 40
0.0
 40
0.0
 40
0.0
 40
0.0558380201
 40
0.1141783825
 40
0.1747815448
 40
0.2373517105
 40
0.3015468384
 40
0.3669904217
 40
0.4332805849
 40
0.4999979947
 40
0.5667155617
 40
0.6330059889
 40
0.6984495406
 40
0.7626456892
 40
0.8252164737
 40
0.8858171933
 40
0.9441685718
 40
1.0
 40
1.0
 40
1.0
 40
1.0
 10
19.2850453478
 20
25.7155752622
 30
0.0
 10
19.6463292816
 20
25.506982027
 30
0.0
 10
20.4038840817
 20
25.1123782434
 30
0.0
 10
21.6060955173
 20
24.5997594957
 30
0.0
 10
22.8892051985
 20
24.1574324607
 30
0.0
 10
24.2409003847
 20
23.7896785044
 30
0.0
 10
25.6483154877
 20
23.4999402026
 30
0.0
 10
27.0980014111
 20
23.2909649845
 30
0.0
 10
28.5761097568
 20
23.1647828579
 30
0.0
 10
30.0684999714
 20
23.1225910476
 30
0.0
 10
31.560892671
 20
23.1647658302
 30
0.0
 10
33.0390052884
 20
23.2909309562
 30
0.0
 10
34.4887037919
 20
23.4998846899
 30
0.0
 10
35.8961330792
 20
23.789615774
 30
0.0
 10
37.2478250704
 20
24.1573542755
 30
0.0
 10
38.5310181576
 20
24.5996538065
 30
0.0
 10
39.733227515
 20
25.1123155465
 30
0.0
 10
40.4908279388
 20
25.506900934
 30
0.0
 10
40.8520722973
 20
25.7154642166
 30
0.0
  0
SPLINE
  5
332
100
AcDbEntity
  8
00_COMPONENTS_5
100
AcDbSpline
 62
7
  6
BYLAYER
 70
0
 71
3
 72
9
 73
5
 74
0
 42
0.0000001
 43
0.0000001
 44
0.0000000001
 40
0.0
 40
0.0
 40
0.0
 40
0.0
 40
0.4841317861
 40
1.0
 40
1.0
 40
1.0
 40
1.0
 10
47.4553332578
 20
25.9854798819
 30
0.0
 10
47.8466520377
 20
26.8286566555
 30
0.0
 10
48.6219573422
 20
28.5856668584
 30
0.0
 10
49.3466881709
 20
30.3638865455
 30
0.0
 10
49.7116303236
 20
31.2846981735
 30
0.0
  0
SPLINE
  5
333
100
AcDbEntity
  8
00_COMPONENTS_5
100
AcDbSpline
 62
7
  6
BYLAYER
 70
0
 71
3
 72
10
 73
6
 74
0
 42
0.0000001
 43
0.0000001
 44
0.0000000001
 40
0.0
 40
0.0
 40
0.0
 40
0.0
 40
0.2487617556
 40
0.4984453968
 40
1.0
 40
1.0
 40
1.0
 40
1.0
 10
34.7274641883
 20
18.6370851128
 30
0.0
 10
35.4323208018
 20
18.7461270674
 30
0.0
 10
36.8417732742
 20
18.9837036472
 30
0.0
 10
39.6558897076
 20
19.5339210629
 30
0.0
 10
41.754229164
 20
20.0240693025
 30
0.0
 10
43.1482009216
 20
20.3773430166
 30
0.0
  0
SPLINE
  5
334
100
AcDbEntity
  8
00_COMPONENTS_5
100
AcDbSpline
 62
7
  6
BYLAYER
 70
0
 71
3
 72
9
 73
5
 74
0
 42
0.0000001
 43
0.0000001
 44
0.0000000001
 40
0.0
 40
0.0
 40
0.0
 40
0.0
 40
0.2568158794
 40
1.0
 40
1.0
 40
1.0
 40
1.0
 10
43.1482009216
 20
20.3773430166
 30
0.0
 10
43.3296526569
 20
20.4679038145
 30
0.0
 10
44.0310059121
 20
20.8307659229
 30
0.0
 10
44.711013261
 20
21.2354484277
 30
0.0
 10
45.1990361924
 20
21.5613862445
 30
0.0
  0
SPLINE
  5
335
100
AcDbEntity
  8
00_COMPONENTS_5
100
AcDbSpline
 62
7
  6
BYLAYER
 70
0
 71
3
 72
9
 73
5
 74
0
 42
0.0000001
 43
0.0000001
 44
0.0000000001
 40
0.0
 40
0.0
 40
0.0
 40
0.0
 40
0.4802882826
 40
1.0
 40
1.0
 40
1.0
 40
1.0
 10
45.1990361924
 20
21.5613862445
 30
0.0
 10
45.5874970576
 20
22.2552704898
 30
0.0
 10
46.3694452907
 20
23.7152176974
 30
0.0
 10
47.0930877839
 20
25.2049475239
 30
0.0
 10
47.4553332578
 20
25.9854798819
 30
0.0
  0
SPLINE
  5
336
100
AcDbEntity
  8
00_COMPONENTS_5
100
AcDbSpline
 62
7
  6
BYLAYER
 70
0
 71
3
 72
11
 73
7
 74
0
 42
0.0000001
 43
0.0000001
 44
0.0000000001
 40
0.0
 40
0.0
 40
0.0
 40
0.0
 40
0.2559482707
 40
0.5077542593
 40
0.7556480205
 40
1.0
 40
1.0
 40
1.0
 40
1.0
 10
17.3407799189
 20
21.3267312848
 30
0.0
 10
17.8515431703
 20
21.0318486553
 30
0.0
 10
18.8730684948
 20
20.4610273715
 30
0.0
 10
20.4168934564
 20
19.6552796394
 30
0.0
 10
21.9582662529
 20
18.9040411611
 30
0.0
 10
22.9903179093
 20
18.4331628008
 30
0.0
 10
23.5052195867
 20
18.2053332242
 30
0.0
  0
SPLINE
  5
337
100
AcDbEntity
  8
00_COMPONENTS_5
100
AcDbSpline
 62
7
  6
BYLAYER
 70
0
 71
3
 72
9
 73
5
 74
0
 42
0.0000001
 43
0.0000001
 44
0.0000000001
 40
0.0
 40
0.0
 40
0.0
 40
0.0
 40
0.2475499932
 40
1.0
 40
1.0
 40
1.0
 40
1.0
 10
23.5052195867
 20
18.2053332242
 30
0.0
 10
23.7346140303
 20
18.1593223394
 30
0.0
 10
24.6633552918
 20
17.9839615325
 30
0.0
 10
25.5998831523
 20
17.850107185
 30
0.0
 10
26.3067274548
 20
17.771951862
 30
0.0
  0
SPLINE
  5
338
100
AcDbEntity
  8
00_COMPONENTS_5
100
AcDbSpline
 62
7
  6
BYLAYER
 70
0
 71
3
 72
10
 73
6
 74
0
 42
0.0000001
 43
0.0000001
 44
0.0000000001
 40
0.0
 40
0.0
 40
0.0
 40
0.0
 40
0.4978189119
 40
0.7483598781
 40
1.0
 40
1.0
 40
1.0
 40
1.0
 10
26.3067274548
 20
17.771951862
 30
0.0
 10
27.7097092093
 20
17.8504798368
 30
0.0
 10
29.8169475033
 20
18.0109014262
 30
0.0
 10
32.6216915533
 20
18.3306196585
 30
0.0
 10
34.02551752
 20
18.5284933293
 30
0.0
 10
34.7274641883
 20
18.6370851128
 30
0.0
  0
SPLINE
  5
339
100
AcDbEntity
  8
00_COMPONENTS_5
100
AcDbSpline
 62
7
  6
BYLAYER
 70
0
 71
3
 72
9
 73
5
 74
0
 42
0.0000001
 43
0.0000001
 44
0.0000000001
 40
0.0
 40
0.0
 40
0.0
 40
0.0
 40
0.4920208595
 40
1.0
 40
1.0
 40
1.0
 40
1.0
 10
10.4256676539
 20
26.9406785887
 30
0.0
 10
10.5178888637
 20
26.6626798867
 30
0.0
 10
10.7391630981
 20
26.1084383426
 30
0.0
 10
11.0204238101
 20
25.5823548761
 30
0.0
 10
11.1763402511
 20
25.3232539986
 30
0.0
  0
SPLINE
  5
33A
100
AcDbEntity
  8
00_COMPONENTS_5
100
AcDbSpline
 62
7
  6
BYLAYER
 70
0
 71
3
 72
10
 73
6
 74
0
 42
0.0000001
 43
0.0000001
 44
0.0000000001
 40
0.0
 40
0.0
 40
0.0
 40
0.0
 40
0.5068514692
 40
0.7553125541
 40
1.0
 40
1.0
 40
1.0
 40
1.0
 10
11.1763402511
 20
25.3232539986
 30
0.0
 10
12.1876852944
 20
24.6029716182
 30
0.0
 10
13.7142825472
 20
23.5561712231
 30
0.0
 10
15.7840115857
 20
22.2453824592
 30
0.0
 10
16.8216769544
 20
21.6264287411
 30
0.0
 10
17.3407799189
 20
21.3267312848
 30
0.0
  0
SPLINE
  5
33B
100
AcDbEntity
  8
00_COMPONENTS_5
100
AcDbSpline
 62
7
  6
BYLAYER
 70
0
 71
3
 72
9
 73
5
 74
0
 42
0.0000001
 43
0.0000001
 44
0.0000000001
 40
0.0
 40
0.0
 40
0.0
 40
0.0
 40
0.2469659147
 40
1.0
 40
1.0
 40
1.0
 40
1.0
 10
45.0695254221
 20
37.9149303614
 30
0.0
 10
45.3961227135
 20
37.7086077568
 30
0.0
 10
46.7117790852
 20
36.8624451232
 30
0.0
 10
48.0015071913
 20
35.9763307655
 30
0.0
 10
48.9609577264
 20
35.293007779
 30
0.0
  0
SPLINE
  5
33C
100
AcDbEntity
  8
00_COMPONENTS_5
100
AcDbSpline
 62
7
  6
BYLAYER
 70
0
 71
3
 72
9
 73
5
 74
0
 42
0.0000001
 43
0.0000001
 44
0.0000000001
 40
0.0
 40
0.0
 40
0.0
 40
0.0
 40
0.5079791405
 40
1.0
 40
1.0
 40
1.0
 40
1.0
 10
48.9609577264
 20
35.293007779
 30
0.0
 10
49.1168741675
 20
35.0339069015
 30
0.0
 10
49.3981348795
 20
34.5078234349
 30
0.0
 10
49.6194091138
 20
33.9535818909
 30
0.0
 10
49.7116303236
 20
33.6755831889
 30
0.0
  0
SPLINE
  5
33D
100
AcDbEntity
  8
00_COMPONENTS_5
100
AcDbSpline
 62
7
  6
BYLAYER
 70
0
 71
3
 72
9
 73
5
 74
0
 42
0.0000001
 43
0.0000001
 44
0.0000000001
 40
0.0
 40
0.0
 40
0.0
 40
0.0
 40
0.5158682144
 40
1.0
 40
1.0
 40
1.0
 40
1.0
 10
10.4256676539
 20
29.3315636041
 30
0.0
 10
10.790609807
 20
30.252375233
 30
0.0
 10
11.5153406352
 20
32.0305949203
 30
0.0
 10
12.2906459403
 20
33.7876051229
 30
0.0
 10
12.6819647198
 20
34.6307818957
 30
0.0
  0
SPLINE
  5
33E
100
AcDbEntity
  8
00_COMPONENTS_5
100
AcDbSpline
 62
7
  6
BYLAYER
 70
0
 71
3
 72
9
 73
5
 74
0
 42
0.0000001
 43
0.0000001
 44
0.0000000001
 40
0.0
 40
0.0
 40
0.0
 40
0.0
 40
0.5197117177
 40
1.0
 40
1.0
 40
1.0
 40
1.0
 10
12.6819647198
 20
34.6307818957
 30
0.0
 10
13.0442101939
 20
35.411314254
 30
0.0
 10
13.7678526876
 20
36.9010440803
 30
0.0
 10
14.5498009201
 20
38.3609912882
 30
0.0
 10
14.9382617851
 20
39.0548755331
 30
0.0
  0
SPLINE
  5
33F
100
AcDbEntity
  8
00_COMPONENTS_5
100
AcDbSpline
 62
7
  6
BYLAYER
 70
0
 71
3
 72
9
 73
5
 74
0
 42
0.0000001
 43
0.0000001
 44
0.0000000001
 40
0.0
 40
0.0
 40
0.0
 40
0.0
 40
0.4802882856
 40
1.0
 40
1.0
 40
1.0
 40
1.0
 10
49.7116303236
 20
33.6755831889
 30
0.0
 10
49.3231694559
 20
32.9816989391
 30
0.0
 10
48.5412212359
 20
31.5217517243
 30
0.0
 10
47.8175787296
 20
30.032021904
 30
0.0
 10
47.4553332578
 20
29.2514895505
 30
0.0
  0
SPLINE
  5
340
100
AcDbEntity
  8
00_COMPONENTS_5
100
AcDbSpline
 62
7
  6
BYLAYER
 70
0
 71
3
 72
16
 73
12
 74
0
 42
0.0000001
 43
0.0000001
 44
0.0000000001
 40
0.0
 40
0.0
 40
0.0
 40
0.0
 40
0.0980099477
 40
0.1496953754
 40
0.2033376156
 40
0.3168072269
 40
0.4388023502
 40
0.5690370803
 40
0.7067634421
 40
0.850875916
 40
1.0
 40
1.0
 40
1.0
 40
1.0
 10
47.4553332577
 20
29.2514895502
 30
0.0
 10
47.2457975493
 20
28.800001782
 30
0.0
 10
46.8534876084
 20
28.1420183894
 30
0.0
 10
46.2142041721
 20
27.3302277836
 30
0.0
 10
45.4573235173
 20
26.5150854037
 30
0.0
 10
44.3373077895
 20
25.5575529744
 30
0.0
 10
42.778214046
 20
24.5405501892
 30
0.0
 10
41.0051899608
 20
23.6499958704
 30
0.0
 10
39.0480023059
 20
22.9003812017
 30
0.0
 10
36.9394837927
 20
22.3039531258
 30
0.0
 10
35.4758847116
 20
22.0188761121
 30
0.0
 10
34.7274641905
 20
21.9030947816
 30
0.0
  0
SPLINE
  5
341
100
AcDbEntity
  8
00_COMPONENTS_5
100
AcDbSpline
 62
7
  6
BYLAYER
 70
0
 71
3
 72
15
 73
11
 74
0
 42
0.0000001
 43
0.0000001
 44
0.0000000001
 40
0.0
 40
0.0
 40
0.0
 40
0.0
 40
0.1298478348
 40
0.2611874393
 40
0.3925270852
 40
0.5223750553
 40
0.6492916522
 40
0.7719430934
 40
0.8891595258
 40
1.0
 40
1.0
 40
1.0
 40
1.0
 10
34.7274641905
 20
21.9030947816
 30
0.0
 10
33.9617567513
 20
21.7846391493
 30
0.0
 10
32.4114457723
 20
21.6076263766
 30
0.0
 10
30.0687498287
 20
21.5194905545
 30
0.0
 10
27.7259002069
 20
21.6076300089
 30
0.0
 10
25.4227067301
 20
21.8705868026
 30
0.0
 10
23.1980540465
 20
22.3039035562
 30
0.0
 10
21.0893596001
 20
22.9003649392
 30
0.0
 10
19.1323768328
 20
23.6498609416
 30
0.0
 10
17.91356969
 20
24.2620481061
 30
0.0
 10
17.3407799189
 20
24.5927409534
 30
0.0
  0
SPLINE
  5
342
100
AcDbEntity
  8
00_COMPONENTS_5
100
AcDbSpline
 62
7
  6
BYLAYER
 70
0
 71
3
 72
22
 73
18
 74
0
 42
0.0000001
 43
0.0000001
 44
0.0000000001
 40
0.0
 40
0.0
 40
0.0
 40
0.0
 40
0.0772174498
 40
0.1518374786
 40
0.2929990857
 40
0.3597347775
 40
0.4240316196
 40
0.4860691814
 40
0.5460951765
 40
0.6044165448
 40
0.6614002086
 40
0.7174605632
 40
0.7730478369
 40
0.828632604
 40
0.8846954993
 40
0.9416919251
 40
1.0
 40
1.0
 40
1.0
 40
1.0
 10
17.3407799189
 20
24.5927409534
 30
0.0
 10
17.0677899568
 20
24.7503482159
 30
0.0
 10
16.5394374225
 20
25.0753571119
 30
0.0
 10
15.5600350672
 20
25.7626481089
 30
0.0
 10
14.6799734008
 20
26.5150941448
 30
0.0
 10
13.9232312435
 20
27.3300787325
 30
0.0
 10
13.4350447827
 20
27.9500722234
 30
0.0
 10
13.0180354701
 20
28.5876064942
 30
0.0
 10
12.6739644401
 20
29.2399633463
 30
0.0
 10
12.4045879828
 20
29.9044429065
 30
0.0
 10
12.2111002767
 20
30.5781203873
 30
0.0
 10
12.0946621787
 20
31.2580433888
 30
0.0
 10
12.055713804
 20
31.9410826529
 30
0.0
 10
12.0946184494
 20
32.624131661
 30
0.0
 10
12.2110871659
 20
33.3041192831
 30
0.0
 10
12.4045822325
 20
33.9777434109
 30
0.0
 10
12.581761612
 20
34.4148736965
 30
0.0
 10
12.6819647199
 20
34.6307818959
 30
0.0
  0
SPLINE
  5
343
100
AcDbEntity
  8
00_COMPONENTS_5
100
AcDbSpline
 62
7
  6
BYLAYER
 70
0
 71
3
 72
9
 73
5
 74
0
 42
0.0000001
 43
0.0000001
 44
0.0000000001
 40
0.0
 40
0.0
 40
0.0
 40
0.0
 40
0.4841317836
 40
1.0
 40
1.0
 40
1.0
 40
1.0
 10
47.4553332578
 20
29.2514895505
 30
0.0
 10
47.06401448
 20
28.4083127812
 30
0.0
 10
46.2887091638
 20
26.6513025837
 30
0.0
 10
45.5639783468
 20
24.8730828921
 30
0.0
 10
45.1990361924
 20
23.9522712599
 30
0.0
  0
SPLINE
  5
344
100
AcDbEntity
  8
00_COMPONENTS_5
100
AcDbSpline
 62
7
  6
BYLAYER
 70
0
 71
3
 72
9
 73
5
 74
0
 42
0.0000001
 43
0.0000001
 44
0.0000000001
 40
0.0
 40
0.0
 40
0.0
 40
0.0
 40
0.2432208961
 40
1.0
 40
1.0
 40
1.0
 40
1.0
 10
45.1990361924
 20
23.9522712599
 30
0.0
 10
45.0393194168
 20
23.8456005815
 30
0.0
 10
44.3751670862
 20
23.4182720198
 30
0.0
 10
43.6829058985
 20
23.0350940902
 30
0.0
 10
43.1482009216
 20
22.768228032
 30
0.0
  0
SPLINE
  5
345
100
AcDbEntity
  8
00_COMPONENTS_5
100
AcDbSpline
 62
7
  6
BYLAYER
 70
0
 71
3
 72
10
 73
6
 74
0
 42
0.0000001
 43
0.0000001
 44
0.0000000001
 40
0.0
 40
0.0
 40
0.0
 40
0.0
 40
0.4978189122
 40
0.7483598772
 40
1.0
 40
1.0
 40
1.0
 40
1.0
 10
43.1482009216
 20
22.768228032
 30
0.0
 10
41.7452191662
 20
22.6897000572
 30
0.0
 10
39.6379808828
 20
22.5292783912
 30
0.0
 10
36.8332368143
 20
22.2095603161
 30
0.0
 10
35.429410859
 20
22.0116865652
 30
0.0
 10
34.7274641883
 20
21.9030947813
 30
0.0
  0
SPLINE
  5
346
100
AcDbEntity
  8
00_COMPONENTS_5
100
AcDbSpline
 62
7
  6
BYLAYER
 70
0
 71
3
 72
10
 73
6
 74
0
 42
0.0000001
 43
0.0000001
 44
0.0000000001
 40
0.0
 40
0.0
 40
0.0
 40
0.0
 40
0.2487617562
 40
0.4984453965
 40
1.0
 40
1.0
 40
1.0
 40
1.0
 10
34.7274641883
 20
21.9030947813
 30
0.0
 10
34.0226075731
 20
21.7940528264
 30
0.0
 10
32.6131551155
 20
21.5564761677
 30
0.0
 10
29.7990386526
 20
21.0062589064
 30
0.0
 10
27.7006992131
 20
20.5161105917
 30
0.0
 10
26.3067274548
 20
20.1628368774
 30
0.0
  0
SPLINE
  5
347
100
AcDbEntity
  8
00_COMPONENTS_5
100
AcDbSpline
 62
7
  6
BYLAYER
 70
0
 71
3
 72
9
 73
5
 74
0
 42
0.0000001
 43
0.0000001
 44
0.0000000001
 40
0.0
 40
0.0
 40
0.0
 40
0.0
 40
0.2522963733
 40
1.0
 40
1.0
 40
1.0
 40
1.0
 10
26.3067274548
 20
20.1628368774
 30
0.0
 10
26.0697232091
 20
20.1890422854
 30
0.0
 10
25.1314804055
 20
20.302960797
 30
0.0
 10
24.198084341
 20
20.4572466065
 30
0.0
 10
23.5052195867
 20
20.5962182396
 30
0.0
  0
SPLINE
  5
348
100
AcDbEntity
  8
00_COMPONENTS_5
100
AcDbSpline
 62
7
  6
BYLAYER
 70
0
 71
3
 72
10
 73
6
 74
0
 42
0.0000001
 43
0.0000001
 44
0.0000000001
 40
0.0
 40
0.0
 40
0.0
 40
0.0
 40
0.5068514692
 40
0.7553125544
 40
1.0
 40
1.0
 40
1.0
 40
1.0
 10
23.5052195867
 20
20.5962182396
 30
0.0
 10
22.4938745434
 20
21.3165006201
 30
0.0
 10
20.9672772911
 20
22.3633010167
 30
0.0
 10
18.8975482532
 20
23.6740897816
 30
0.0
 10
17.8598828833
 20
24.2930434972
 30
0.0
 10
17.3407799193
 20
24.5927409531
 30
0.0
  0
SPLINE
  5
349
100
AcDbEntity
  8
00_COMPONENTS_5
100
AcDbSpline
 62
7
  6
BYLAYER
 70
0
 71
3
 72
11
 73
7
 74
0
 42
0.0000001
 43
0.0000001
 44
0.0000000001
 40
0.0
 40
0.0
 40
0.0
 40
0.0
 40
0.2559482707
 40
0.5077542591
 40
0.75564802
 40
1.0
 40
1.0
 40
1.0
 40
1.0
 10
17.3407799193
 20
24.5927409531
 30
0.0
 10
16.830016668
 20
24.8876235826
 30
0.0
 10
15.8084913419
 20
25.4584448622
 30
0.0
 10
14.264666385
 20
26.2641926013
 30
0.0
 10
12.7232935773
 20
27.0154310564
 30
0.0
 10
11.6912419296
 20
27.486309437
 30
0.0
 10
11.1763402511
 20
27.714139014
 30
0.0
  0
SPLINE
  5
34A
100
AcDbEntity
  8
00_COMPONENTS_5
100
AcDbSpline
 62
7
  6
BYLAYER
 70
0
 71
3
 72
9
 73
5
 74
0
 42
0.0000001
 43
0.0000001
 44
0.0000000001
 40
0.0
 40
0.0
 40
0.0
 40
0.0
 40
0.5079791405
 40
1.0
 40
1.0
 40
1.0
 40
1.0
 10
11.1763402511
 20
27.714139014
 30
0.0
 10
11.0204238101
 20
27.9732398915
 30
0.0
 10
10.7391630981
 20
28.499323358
 30
0.0
 10
10.5178888637
 20
29.053564902
 30
0.0
 10
10.4256676539
 20
29.3315636041
 30
0.0
  0
SPLINE
  5
34B
100
AcDbEntity
  8
00_COMPONENTS_11
100
AcDbSpline
 62
7
  6
BYLAYER
 70
0
 71
3
 72
19
 73
15
 74
0
 42
0.0000001
 43
0.0000001
 44
0.0000000001
 40
0.0
 40
0.0
 40
0.0
 40
0.0
 40
0.0557689566
 40
0.114014825
 40
0.1745047366
 40
0.2369495407
 40
0.3662786607
 40
0.4990405586
 40
0.6319353874
 40
0.7616520299
 40
0.8243764661
 40
0.8851935783
 40
0.9438261283
 40
1.0
 40
1.0
 40
1.0
 40
1.0
 10
20.0275254974
 20
9.4467474328
 30
0.0
 10
20.3605645932
 20
9.2544597838
 30
0.0
 10
21.0585936153
 20
8.8904959287
 30
0.0
 10
22.1658766194
 20
8.4168719579
 30
0.0
 10
23.3472863637
 20
8.0073535603
 30
0.0
 10
25.02578507
 20
7.5467421633
 30
0.0
 10
27.2356152892
 20
7.1582534039
 30
0.0
 10
29.959937738
 20
6.9947005734
 30
0.0
 10
32.6882612596
 20
7.1342845306
 30
0.0
 10
34.9069806624
 20
7.5031617763
 30
0.0
 10
36.5966494656
 20
7.9485780743
 30
0.0
 10
37.7888668789
 20
8.3475682852
 30
0.0
 10
38.9086387599
 20
8.811363871
 30
0.0
 10
39.6160341578
 20
9.1689837751
 30
0.0
 10
39.9540327778
 20
9.3581975091
 30
0.0
  0
SPLINE
  5
34C
100
AcDbEntity
  8
00_COMPONENTS_11
100
AcDbSpline
 62
7
  6
BYLAYER
 70
0
 71
3
 72
15
 73
11
 74
0
 42
0.0000001
 43
0.0000001
 44
0.0000000001
 40
0.0
 40
0.0
 40
0.0
 40
0.0
 40
0.1077933834
 40
0.2187895488
 40
0.3341566537
 40
0.4548127057
 40
0.5814226117
 40
0.714400011
 40
0.8539299465
 40
1.0
 40
1.0
 40
1.0
 40
1.0
 10
15.1502502903
 20
14.994775243
 30
0.0
 10
15.1950255197
 20
14.7479279105
 30
0.0
 10
15.3228157421
 20
14.2529270981
 30
0.0
 10
15.6198963868
 20
13.531831221
 30
0.0
 10
16.0219880279
 20
12.8289874919
 30
0.0
 10
16.525569473
 20
12.1494936284
 30
0.0
 10
17.1267765769
 20
11.4979943093
 30
0.0
 10
17.8211190548
 20
10.8789488063
 30
0.0
 10
18.603440219
 20
10.2965698499
 30
0.0
 10
19.1674223889
 20
9.9433490864
 30
0.0
 10
19.4618337458
 20
9.7733657586
 30
0.0
  0
SPLINE
  5
34D
100
AcDbEntity
  8
00_COMPONENTS_11
100
AcDbSpline
 62
7
  6
BYLAYER
 70
0
 71
3
 72
11
 73
7
 74
0
 42
0.0000001
 43
0.0000001
 44
0.0000000001
 40
0.0
 40
0.0
 40
0.0
 40
0.0
 40
0.2647916826
 40
0.5172934358
 40
0.7609628846
 40
1.0
 40
1.0
 40
1.0
 40
1.0
 10
43.8948756145
 20
59.386251696
 30
0.0
 10
44.082744969
 20
59.1284239575
 30
0.0
 10
44.4178674385
 20
58.6001761255
 30
0.0
 10
44.7914148301
 20
57.7590462546
 30
0.0
 10
45.017916569
 20
56.8986928698
 30
0.0
 10
45.0686252498
 20
56.3159427565
 30
0.0
 10
45.0686382405
 20
56.0279570282
 30
0.0
  0
SPLINE
  5
34E
100
AcDbEntity
  8
00_COMPONENTS_11
100
AcDbSpline
 62
7
  6
BYLAYER
 70
0
 71
3
 72
10
 73
6
 74
0
 42
0.0000001
 43
0.0000001
 44
0.0000000001
 40
0.0
 40
0.0
 40
0.0
 40
0.0
 40
0.2694094239
 40
0.5260156887
 40
1.0
 40
1.0
 40
1.0
 40
1.0
 10
39.7914077095
 20
54.0262042936
 30
0.0
 10
40.0800481871
 20
54.1928499563
 30
0.0
 10
40.6315291579
 20
54.5402906433
 30
0.0
 10
41.6179814953
 20
55.2877987341
 30
0.0
 10
42.2615934316
 20
55.9351427188
 30
0.0
 10
42.6206541497
 20
56.3987305972
 30
0.0
  0
SPLINE
  5
34F
100
AcDbEntity
  8
00_COMPONENTS_11
100
AcDbSpline
 62
7
  6
BYLAYER
 70
0
 71
3
 72
9
 73
5
 74
0
 42
0.0000001
 43
0.0000001
 44
0.0000000001
 40
0.0
 40
0.0
 40
0.0
 40
0.0
 40
0.5031828827
 40
1.0
 40
1.0
 40
1.0
 40
1.0
 10
16.4972608701
 20
60.6722479275
 30
0.0
 10
16.4385064915
 20
60.8806359511
 30
0.0
 10
16.3489825569
 20
61.3030222604
 30
0.0
 10
16.3186548908
 20
61.7338261908
 30
0.0
 10
16.3186550248
 20
61.9475995523
 30
0.0
  0
SPLINE
  5
350
100
AcDbEntity
  8
00_COMPONENTS_11
100
AcDbSpline
 62
7
  6
BYLAYER
 70
0
 71
3
 72
10
 73
6
 74
0
 42
0.0000001
 43
0.0000001
 44
0.0000000001
 40
0.0
 40
0.0
 40
0.0
 40
0.0
 40
0.2694094239
 40
0.5260156887
 40
1.0
 40
1.0
 40
1.0
 40
1.0
 10
39.720696737
 20
53.925606002
 30
0.0
 10
40.0072380111
 20
54.0910396962
 30
0.0
 10
40.5547082113
 20
54.4359535418
 30
0.0
 10
41.5339863498
 20
55.1780252101
 30
0.0
 10
42.172917472
 20
55.8206612386
 30
0.0
 10
42.5293668394
 20
56.2808775688
 30
0.0
  0
SPLINE
  5
351
100
AcDbEntity
  8
00_COMPONENTS_11
100
AcDbSpline
 62
7
  6
BYLAYER
 70
0
 71
3
 72
15
 73
11
 74
0
 42
0.0000001
 43
0.0000001
 44
0.0000000001
 40
0.0
 40
0.0
 40
0.0
 40
0.0
 40
0.1080123087
 40
0.2180604841
 40
0.331998078
 40
0.4513584798
 40
0.5772753847
 40
0.710490641
 40
0.8514198746
 40
1.0
 40
1.0
 40
1.0
 40
1.0
 10
45.0686382405
 20
56.0279570282
 30
0.0
 10
45.06865105
 20
55.7439890763
 30
0.0
 10
45.0192939963
 20
55.1695513378
 30
0.0
 10
44.799232238
 20
54.3210725754
 30
0.0
 10
44.4358849504
 20
53.4908785472
 30
0.0
 10
43.93392413
 20
52.6873910864
 30
0.0
 10
43.2990636389
 20
51.9178393864
 30
0.0
 10
42.5376907523
 20
51.1890664051
 30
0.0
 10
41.6574402762
 20
50.5077710872
 30
0.0
 10
41.0135840253
 20
50.0996558819
 30
0.0
 10
40.675294866
 20
49.9043457106
 30
0.0
  0
SPLINE
  5
352
100
AcDbEntity
  8
00_COMPONENTS_11
100
AcDbSpline
 62
7
  6
BYLAYER
 70
0
 71
3
 72
15
 73
11
 74
0
 42
0.0000001
 43
0.0000001
 44
0.0000000001
 40
0.0
 40
0.0
 40
0.0
 40
0.0
 40
0.1485734141
 40
0.2895100049
 40
0.4227264932
 40
0.5486403483
 40
0.6680020592
 40
0.7819394612
 40
0.8919873695
 40
1.0
 40
1.0
 40
1.0
 40
1.0
 10
39.7914077095
 20
51.4352746751
 30
0.0
 10
40.1014920285
 20
51.6143008715
 30
0.0
 10
40.6916874878
 20
51.9884180617
 30
0.0
 10
41.4985994112
 20
52.61292435
 30
0.0
 10
42.1965359565
 20
53.2809763231
 30
0.0
 10
42.7784702077
 20
53.986411466
 30
0.0
 10
43.238630725
 20
54.7229187795
 30
0.0
 10
43.5716658597
 20
55.4839469162
 30
0.0
 10
43.7734080493
 20
56.2617125691
 30
0.0
 10
43.8186485337
 20
56.7882803771
 30
0.0
 10
43.8186489887
 20
57.0485850498
 30
0.0
  0
SPLINE
  5
353
100
AcDbEntity
  8
00_COMPONENTS_11
100
AcDbSpline
 62
7
  6
BYLAYER
 70
0
 71
3
 72
27
 73
23
 74
0
 42
0.0000001
 43
0.0000001
 44
0.0000000001
 40
0.0
 40
0.0
 40
0.0
 40
0.0
 40
0.0623769608
 40
0.1287092282
 40
0.1982948685
 40
0.2702645668
 40
0.3436347123
 40
0.4173593434
 40
0.4903768187
 40
0.5616566498
 40
0.6302474658
 40
0.6953289565
 40
0.7562708471
 40
0.7850786725
 40
0.8127400121
 40
0.8646355821
 40
0.8890198333
 40
0.9124669551
 40
0.9351091977
 40
0.9571122209
 40
0.9786702725
 40
1.0
 40
1.0
 40
1.0
 40
1.0
 10
40.675294866
 20
49.9043457106
 30
0.0
 10
40.1363738499
 20
49.5932013741
 30
0.0
 10
38.9814640145
 20
49.0237652973
 30
0.0
 10
37.1184405015
 20
48.3487286985
 30
0.0
 10
35.1051695359
 20
47.8376274503
 30
0.0
 10
32.984709247
 20
47.5013925362
 30
0.0
 10
30.8020389512
 20
47.3470909812
 30
0.0
 10
28.6037319089
 20
47.3780204185
 30
0.0
 10
26.4366678168
 20
47.5935216705
 30
0.0
 10
24.3470472135
 20
47.9890028762
 30
0.0
 10
22.3791877255
 20
48.5561410531
 30
0.0
 10
20.5749546381
 20
49.2829946064
 30
0.0
 10
19.2141433761
 20
50.0230746134
 30
0.0
 10
18.2465756564
 20
50.6849881365
 30
0.0
 10
17.4003668821
 20
51.3586996972
 30
0.0
 10
16.6644596103
 20
52.0979370945
 30
0.0
 10
16.0689548678
 20
52.8966606692
 30
0.0
 10
15.7071735832
 20
53.5010570601
 30
0.0
 10
15.4233393275
 20
54.1198045746
 30
0.0
 10
15.2191909723
 20
54.7496137647
 30
0.0
 10
15.0961208394
 20
55.3868115958
 30
0.0
 10
15.0686693358
 20
55.8151652048
 30
0.0
 10
15.068659737
 20
56.0279570285
 30
0.0
  0
SPLINE
  5
354
100
AcDbEntity
  8
00_COMPONENTS_11
100
AcDbSpline
 62
7
  6
BYLAYER
 70
0
 71
3
 72
24
 73
20
 74
0
 42
0.0000001
 43
0.0000001
 44
0.0000000001
 40
0.0
 40
0.0
 40
0.0
 40
0.0
 40
0.0479519081
 40
0.0993587495
 40
0.1264056815
 40
0.1543312485
 40
0.2127117976
 40
0.2742417577
 40
0.3385115577
 40
0.405011729
 40
0.4731580811
 40
0.5423142945
 40
0.6118140894
 40
0.6809809889
 40
0.7491485198
 40
0.8156806512
 40
0.8799864497
 40
0.9415724419
 40
1.0
 40
1.0
 40
1.0
 40
1.0
 10
17.5166351707
 20
56.3987283623
 30
0.0
 10
17.750758464
 20
56.0964526322
 30
0.0
 10
18.2872744436
 20
55.5089708825
 30
0.0
 10
19.063797858
 20
54.8622892953
 30
0.0
 10
19.7608594573
 20
54.3783535501
 30
0.0
 10
20.5312220862
 20
53.9048822631
 30
0.0
 10
21.5832760523
 20
53.3685207555
 30
0.0
 10
22.9496744337
 20
52.825392773
 30
0.0
 10
24.4189441291
 20
52.3810255146
 30
0.0
 10
25.9698386251
 20
52.041795772
 30
0.0
 10
27.5800310433
 20
51.8125847329
 30
0.0
 10
29.2262352178
 20
51.6966888025
 30
0.0
 10
30.8846320192
 20
51.6957704626
 30
0.0
 10
32.5312172715
 20
51.8098380795
 30
0.0
 10
34.1421782131
 20
52.0372595888
 30
0.0
 10
35.6941638117
 20
52.3747848241
 30
0.0
 10
37.1649809756
 20
52.8174935046
 30
0.0
 10
38.5331018852
 20
53.3591211349
 30
0.0
 10
39.3879541619
 20
53.7932716697
 30
0.0
 10
39.7914077095
 20
54.0262042936
 30
0.0
  0
SPLINE
  5
355
100
AcDbEntity
  8
00_COMPONENTS_11
100
AcDbSpline
 62
7
  6
BYLAYER
 70
0
 71
3
 72
24
 73
20
 74
0
 42
0.0000001
 43
0.0000001
 44
0.0000000001
 40
0.0
 40
0.0
 40
0.0
 40
0.0
 40
0.0584275581
 40
0.1200135503
 40
0.1843193488
 40
0.2508514802
 40
0.3190190111
 40
0.3881859106
 40
0.4576857055
 40
0.5268419189
 40
0.594988271
 40
0.6614884423
 40
0.7257582423
 40
0.7872882024
 40
0.8456687515
 40
0.8735943185
 40
0.9006412505
 40
0.9520480919
 40
1.0
 40
1.0
 40
1.0
 40
1.0
 10
39.720696737
 20
53.925606002
 30
0.0
 10
39.320177397
 20
53.6943674335
 30
0.0
 10
38.4715422277
 20
53.2633743571
 30
0.0
 10
37.1133712884
 20
52.7256858369
 30
0.0
 10
35.6532509766
 20
52.2861968558
 30
0.0
 10
34.112552546
 20
51.9511263496
 30
0.0
 10
32.513307684
 20
51.7253588148
 30
0.0
 10
30.8786975972
 20
51.6121207806
 30
0.0
 10
29.2323618634
 20
51.6130324417
 30
0.0
 10
27.5981300829
 20
51.7280854926
 30
0.0
 10
25.999648155
 20
51.9556295424
 30
0.0
 10
24.4600328917
 20
52.2923921596
 30
0.0
 10
23.0014487941
 20
52.733527656
 30
0.0
 10
21.6449878555
 20
53.2727056168
 30
0.0
 10
20.6005851909
 20
53.8051663135
 30
0.0
 10
19.8358251993
 20
54.275194173
 30
0.0
 10
19.143833139
 20
54.7556103855
 30
0.0
 10
18.3729571676
 20
55.3975888338
 30
0.0
 10
17.8403431224
 20
55.980797989
 30
0.0
 10
17.6079225439
 20
56.2808753501
 30
0.0
  0
SPLINE
  5
356
100
AcDbEntity
  8
00_COMPONENTS_11
100
AcDbSpline
 62
7
  6
BYLAYER
 70
0
 71
3
 72
26
 73
22
 74
0
 42
0.0000001
 43
0.0000001
 44
0.0000000001
 40
0.0
 40
0.0
 40
0.0
 40
0.0
 40
0.0213305303
 40
0.0428893497
 40
0.0648932641
 40
0.0875362916
 40
0.1109843325
 40
0.1353695105
 40
0.1872670971
 40
0.2437012352
 40
0.3046454121
 40
0.3697292991
 40
0.4383226034
 40
0.5096050036
 40
0.582625097
 40
0.6563524326
 40
0.729725164
 40
0.8016978428
 40
0.8712853418
 40
0.9376216351
 40
1.0
 40
1.0
 40
1.0
 40
1.0
 10
16.3186489888
 20
57.0485850498
 30
0.0
 10
16.3186486479
 20
56.8535258613
 30
0.0
 10
16.3438654601
 20
56.4608727859
 30
0.0
 10
16.4566202407
 20
55.8767641797
 30
0.0
 10
16.6438033192
 20
55.2994537413
 30
0.0
 10
16.9039514749
 20
54.7322518184
 30
0.0
 10
17.2356010653
 20
54.178242403
 30
0.0
 10
17.7815010652
 20
53.4460243711
 30
0.0
 10
18.6425135796
 20
52.5812020224
 30
0.0
 10
19.8964746385
 20
51.665046482
 30
0.0
 10
21.3660054396
 20
50.8657402125
 30
0.0
 10
23.0200145085
 20
50.1994199266
 30
0.0
 10
24.8238462736
 20
49.6795562608
 30
0.0
 10
26.7393396169
 20
49.3170294125
 30
0.0
 10
28.7258092816
 20
49.1194860438
 30
0.0
 10
30.74092142
 20
49.0911346504
 30
0.0
 10
32.7417035112
 20
49.2325707953
 30
0.0
 10
34.6854514626
 20
49.5407924345
 30
0.0
 10
36.5309637448
 20
50.0092874253
 30
0.0
 10
38.2387291761
 20
50.6280844367
 30
0.0
 10
39.2974042082
 20
51.1500633231
 30
0.0
 10
39.7914077095
 20
51.4352746751
 30
0.0
  0
ENDSEC
  0
SECTION
  2
OBJECTS
  0
DICTIONARY
  5
C
100
AcDbDictionary
280
0
281
1
  3
ACAD_GROUP
350
D
  3
ACAD_MLINESTYLE
350
17
  3
ACAD_LAYOUT
350
1A
  3
ACAD_PLOTSETTINGS
350
19
  3
ACAD_PLOTSTYLENAME
350
E
  0
DICTIONARY
  5
D
102
{ACAD_REACTORS
330
C
102
}
100
AcDbDictionary
280
0
281
1
  0
ACDBDICTIONARYWDFLT
  5
E
102
{ACAD_REACTORS
330
C
102
}
100
AcDbDictionary
281
1
  3
Normal
350
F
100
AcDbDictionaryWithDefault
340
F
  0
DICTIONARY
  5
17
102
{ACAD_REACTORS
330
C
102
}
100
AcDbDictionary
280
0
281
1
  3
Standard
350
18
  0
DICTIONARY
  5
19
102
{ACAD_REACTORS
330
C
102
}
100
AcDbDictionary
281
1
  0
DICTIONARY
  5
1A
102
{ACAD_REACTORS
330
C
102
}
100
AcDbDictionary
281
1
  3
Model
350
357
  3
Layout1
350
358
  0
ACDBPLACEHOLDER
  5
F
102
{ACAD_REACTORS
330
E
102
}
  0
MLINESTYLE
  5
18
102
{ACAD_REACTORS
330
17
102
}
100
AcDbMlineStyle
  2
STANDARD
 70
0
  3

 62
256
 51
90.0
 52
90.0
 71
2
 49
0.5
 62
256
  6
BYLAYER
 49
-0.5
 62
256
  6
BYLAYER
  0
LAYOUT
  5
357
102
{ACAD_REACTORS
330
1A
102
}
100
AcDbPlotSettings
  1

  2
none_device
  4

  6

 40
0.0
 41
0.0
 42
0.0
 43
0.0
 44
210.0
 45
297.0
 46
0.0
 47
0.0
 48
0.0
 49
0.0
140
0.0
141
0.0
142
1.0
143
1.0
 70
1024
 72
1
 73
0
 74
0
  7

 75
0
147
1.0
148
0.0
149
0.0
100
AcDbLayout
  1
Model
 70
0
 71
0
 10
0.0
 20
0.0
 11
210.0
 21
297.0
 12
0.0
 22
0.0
 32
0.0
 14
0.0
 24
0.0
 34
0.0
 15
0.0
 25
0.0
 35
0.0
146
0.0
 13
0.0
 23
0.0
 33
0.0
 16
1.0
 26
0.0
 36
0.0
 17
0.0
 27
1.0
 37
0.0
 76
0
330
21B
345
0
346
0
  0
LAYOUT
  5
358
102
{ACAD_REACTORS
330
1A
102
}
100
AcDbPlotSettings
  1

  2
none_device
  4

  6

 40
0.0
 41
0.0
 42
0.0
 43
0.0
 44
210.0
 45
297.0
 46
0.0
 47
0.0
 48
0.0
 49
0.0
140
0.0
141
0.0
142
1.0
143
1.0
 70
0
 72
1
 73
0
 74
0
  7

 75
0
147
1.0
148
0.0
149
0.0
100
AcDbLayout
  1
Layout1
 70
0
 71
1
 10
0.0
 20
0.0
 11
210.0
 21
297.0
 12
0.0
 22
0.0
 32
0.0
 14
0.0
 24
0.0
 34
0.0
 15
0.0
 25
0.0
 35
0.0
146
0.0
 13
0.0
 23
0.0
 33
0.0
 16
1.0
 26
0.0
 36
0.0
 17
0.0
 27
1.0
 37
0.0
 76
0
330
21C
345
0
346
0
  0
ENDSEC
  0
EOF
