999
DXF file: C:\Users\sesa63760\Dev\_Creo\CAD\MCADID0004252_3D-CAD\drw0001_5.dxf
999
Pro/ENGINEER 2019471 by Parametric Technology Corporation
  0
SECTION
  2
HEADER
  9
$ACADVER
  1
AC1024
  9
$DWGCODEPAGE
  3
ANSI_1252
  9
$EXTMAX
 10
1721.3251918734
 20
2434.4456285066
 30
0.0
  9
$EXTMIN
 10
0.0
 20
0.0
 30
0.0
  9
$LIMMIN
 10
0.0
 20
0.0
  9
$LIMMAX
 10
1721.3251918734
 20
2434.4456285066
  9
$VIEWCTR
 10
860.6625959367
 20
1217.2228142533
  9
$VIEWSIZE
 40
2434.4456285066
  9
$CLAYER
  8
0
  9
$LTSCALE
 40
158.6897891175
  9
$CELTYPE
  6
BYLAYER
  9
$DIMSCALE
 40
1.0
  9
$DIMASZ
 40
20.4919665699
  9
$DIMEXO
 40
1.0
  9
$DIMDLI
 40
109.6402179357
  9
$DIMEXE
 40
1.0
  9
$DIMCEN
 40
25.9674200374
  9
$DIMLFAC
 40
1.0
  9
$DIMBLK
  1
_FILLED
  9
$DIMALT
 70
0
  9
$DIMALTF
 40
0.0393700787
  9
$DIMTXT
 40
28.6887531979
  9
$DIMTOL
 70
1
  9
$DIMLIM
 70
0
  9
$DIMTFAC
 40
1.0
  9
$DIMTP
 40
0.01
  9
$DIMTM
 40
0.01
  9
$DIMGAP
 40
0.625
  9
$DIMDSEP
 70
46
  9
$AUNITS
 70
0
  9
$PDMODE
 70
3
  9
$PDSIZE
 40
0.3125
  9
$HANDSEED
  5
3A1
  9
$TILEMODE
 70
1
  9
$MEASUREMENT
 70
1
  9
$INSUNITS
 70
4
  0
ENDSEC
  0
SECTION
  2
CLASSES
  0
CLASS
  1
ACDBDICTIONARYWDFLT
  2
AcDbDictionaryWithDefault
  3
AutoCAD 2000
 90
0
 91
1
280
0
281
0
  0
CLASS
  1
ACDBPLACEHOLDER
  2
AcDbPlaceHolder
  3
AutoCAD 2000
 90
0
 91
1
280
0
281
0
  0
CLASS
  1
LAYOUT
  2
AcDbLayout
  3
AutoCAD 2000
 90
0
 91
0
280
0
281
0
  0
ENDSEC
  0
SECTION
  2
TABLES
  0
TABLE
  2
VPORT
  5
8
100
AcDbSymbolTable
 70
2
  0
VPORT
  5
1F4
100
AcDbSymbolTableRecord
100
AcDbViewportTableRecord
  2
*ACTIVE
 70
0
 10
0.0
 20
0.0
 11
1.0
 21
1.0
 12
860.6625959367
 22
1217.2228142533
 13
0.0
 23
0.0
 14
1.0
 24
1.0
 15
0.0
 25
0.0
 16
0.0
 26
0.0
 36
1.0
 17
0.0
 27
0.0
 37
0.0
 40
2434.4456285066
 41
0.7070707071
 42
50.0
 43
0.0
 44
0.0
 50
0.0
 51
0.0
 71
0
 72
100
 73
1
 74
1
 75
0
 76
0
 77
0
 78
0
  0
ENDTAB
  0
TABLE
  2
LTYPE
  5
5
100
AcDbSymbolTable
 70
6
  0
LTYPE
  5
14
100
AcDbSymbolTableRecord
100
AcDbLinetypeTableRecord
  2
BYBLOCK
 70
0
  3

 72
65
 73
0
 40
0.0
  0
LTYPE
  5
15
100
AcDbSymbolTableRecord
100
AcDbLinetypeTableRecord
  2
BYLAYER
 70
0
  3

 72
65
 73
0
 40
0.0
  0
LTYPE
  5
16
100
AcDbSymbolTableRecord
100
AcDbLinetypeTableRecord
  2
CONTINUOUS
 70
64
  3
Solid line
 72
65
 73
0
 40
0.0
  0
LTYPE
  5
1F5
100
AcDbSymbolTableRecord
100
AcDbLinetypeTableRecord
  2
CENTER
 70
64
  3
____ _ ____ _ ____ _ ____ _ ____ _ ____ _ ____
 72
65
 73
4
 40
0.6
 49
0.375
 74
0
 49
-0.075
 74
0
 49
0.075
 74
0
 49
-0.075
 74
0
  0
LTYPE
  5
1F6
100
AcDbSymbolTableRecord
100
AcDbLinetypeTableRecord
  2
HIDDEN
 70
64
  3
- - - - - - - - - - - - - - - - - - - -
 72
65
 73
2
 40
0.2
 49
0.1
 74
0
 49
-0.1
 74
0
  0
LTYPE
  5
1F7
100
AcDbSymbolTableRecord
100
AcDbLinetypeTableRecord
  2
PHANTOM
 70
64
  3
_____ _ _ _____ _ _ _____ _ _ _____
 72
65
 73
6
 40
0.8
 49
0.45
 74
0
 49
-0.05
 74
0
 49
0.1
 74
0
 49
-0.05
 74
0
 49
0.1
 74
0
 49
-0.05
 74
0
  0
LTYPE
  5
1F8
100
AcDbSymbolTableRecord
100
AcDbLinetypeTableRecord
  2
DOT
 70
64
  3
. . . . . . . . . . . . . . . . . . . .
 72
65
 73
2
 40
0.2
 49
0.1
 74
0
 49
-0.1
 74
0
  0
LTYPE
  5
1F9
100
AcDbSymbolTableRecord
100
AcDbLinetypeTableRecord
  2
DASHED
 70
64
  3
- - - - - - - - - - - - - - - - - - - -
 72
65
 73
2
 40
0.2
 49
0.1
 74
0
 49
-0.1
 74
0
  0
ENDTAB
  0
TABLE
  2
LAYER
  5
2
100
AcDbSymbolTable
 70
36
  0
LAYER
  5
10
100
AcDbSymbolTableRecord
100
AcDbLayerTableRecord
  2
0
 70
0
 62
7
  6
CONTINUOUS
370
-3
390
F
  0
LAYER
  5
1FA
100
AcDbSymbolTableRecord
100
AcDbLayerTableRecord
  2
DEFAULT_1
 70
0
 62
7
  6
CENTER
370
-3
390
F
  0
LAYER
  5
1FB
100
AcDbSymbolTableRecord
100
AcDbLayerTableRecord
  2
DEFAULT_2
 70
0
 62
7
  6
HIDDEN
370
-3
390
F
  0
LAYER
  5
1FC
100
AcDbSymbolTableRecord
100
AcDbLayerTableRecord
  2
DEFAULT_3
 70
0
 62
7
  6
PHANTOM
370
-3
390
F
  0
LAYER
  5
1FD
100
AcDbSymbolTableRecord
100
AcDbLayerTableRecord
  2
00_COMPONENTS
 70
0
 62
7
  6
CONTINUOUS
370
-3
390
F
  0
LAYER
  5
1FE
100
AcDbSymbolTableRecord
100
AcDbLayerTableRecord
  2
01_1_DEFAULT_DATUMS
 70
0
 62
7
  6
CONTINUOUS
370
-3
390
F
  0
LAYER
  5
1FF
100
AcDbSymbolTableRecord
100
AcDbLayerTableRecord
  2
01_PLANES
 70
0
 62
7
  6
CONTINUOUS
370
-3
390
F
  0
LAYER
  5
200
100
AcDbSymbolTableRecord
100
AcDbLayerTableRecord
  2
02_COORD_SYS
 70
0
 62
7
  6
CONTINUOUS
370
-3
390
F
  0
LAYER
  5
201
100
AcDbSymbolTableRecord
100
AcDbLayerTableRecord
  2
03_AXES
 70
0
 62
7
  6
CONTINUOUS
370
-3
390
F
  0
LAYER
  5
202
100
AcDbSymbolTableRecord
100
AcDbLayerTableRecord
  2
04_POINTS
 70
0
 62
7
  6
CONTINUOUS
370
-3
390
F
  0
LAYER
  5
203
100
AcDbSymbolTableRecord
100
AcDbLayerTableRecord
  2
05_CURVES
 70
0
 62
7
  6
CONTINUOUS
370
-3
390
F
  0
LAYER
  5
204
100
AcDbSymbolTableRecord
100
AcDbLayerTableRecord
  2
06_SURFS
 70
0
 62
7
  6
CONTINUOUS
370
-3
390
F
  0
LAYER
  5
205
100
AcDbSymbolTableRecord
100
AcDbLayerTableRecord
  2
07_COSMETICS
 70
0
 62
7
  6
CONTINUOUS
370
-3
390
F
  0
LAYER
  5
206
100
AcDbSymbolTableRecord
100
AcDbLayerTableRecord
  2
10_NOTES
 70
0
 62
7
  6
CONTINUOUS
370
-3
390
F
  0
LAYER
  5
207
100
AcDbSymbolTableRecord
100
AcDbLayerTableRecord
  2
11_NOTES_PUB
 70
0
 62
7
  6
CONTINUOUS
370
-3
390
F
  0
LAYER
  5
208
100
AcDbSymbolTableRecord
100
AcDbLayerTableRecord
  2
13_REF_GTOL
 70
0
 62
7
  6
CONTINUOUS
370
-3
390
F
  0
LAYER
  5
209
100
AcDbSymbolTableRecord
100
AcDbLayerTableRecord
  2
16_MISC
 70
0
 62
7
  6
CONTINUOUS
370
-3
390
F
  0
LAYER
  5
20A
100
AcDbSymbolTableRecord
100
AcDbLayerTableRecord
  2
17_NO_PRINT
 70
0
 62
7
  6
CONTINUOUS
370
-3
390
F
  0
LAYER
  5
20B
100
AcDbSymbolTableRecord
100
AcDbLayerTableRecord
  2
18_DATUM_CAMS_JOINTS
 70
0
 62
7
  6
CONTINUOUS
370
-3
390
F
  0
LAYER
  5
20C
100
AcDbSymbolTableRecord
100
AcDbLayerTableRecord
  2
19_DATUM_FUNCTIONAL
 70
0
 62
7
  6
CONTINUOUS
370
-3
390
F
  0
LAYER
  5
20D
100
AcDbSymbolTableRecord
100
AcDbLayerTableRecord
  2
20_DATUM_KINEMATIC_SCHEME
 70
0
 62
7
  6
CONTINUOUS
370
-3
390
F
  0
LAYER
  5
20E
100
AcDbSymbolTableRecord
100
AcDbLayerTableRecord
  2
3
 70
0
 62
7
  6
CONTINUOUS
370
-3
390
F
  0
LAYER
  5
20F
100
AcDbSymbolTableRecord
100
AcDbLayerTableRecord
  2
4
 70
0
 62
7
  6
CONTINUOUS
370
-3
390
F
  0
ENDTAB
  0
TABLE
  2
STYLE
  5
3
100
AcDbSymbolTable
 70
1
  0
STYLE
  5
11
100
AcDbSymbolTableRecord
100
AcDbTextStyleTableRecord
  2
STANDARD
 70
0
 40
0.0
 41
1.0
 50
0.0
 71
0
 42
0.2
  3
ARIAL.TTF
  4

  0
STYLE
  5
210
100
AcDbSymbolTableRecord
100
AcDbTextStyleTableRecord
  2
TEXTSTYLE_1
 70
0
 40
0.0
 41
0.8
 50
0.0
 71
0
 42
0.2
  3
gdt
  4

  0
ENDTAB
  0
TABLE
  2
VIEW
  5
6
100
AcDbSymbolTable
 70
0
  0
ENDTAB
  0
TABLE
  2
UCS
  5
7
100
AcDbSymbolTable
 70
0
  0
ENDTAB
  0
TABLE
  2
APPID
  5
9
100
AcDbSymbolTable
 70
1
  0
APPID
  5
211
100
AcDbSymbolTableRecord
100
AcDbRegAppTableRecord
  2
ACAD
 70
0
  0
ENDTAB
  0
TABLE
  2
BLOCK_RECORD
  5
1
100
AcDbSymbolTable
 70
0
  0
BLOCK_RECORD
  5
212
100
AcDbSymbolTableRecord
100
AcDbBlockTableRecord
  2
*Model_Space
  0
BLOCK_RECORD
  5
213
100
AcDbSymbolTableRecord
100
AcDbBlockTableRecord
  2
*Paper_Space
  0
BLOCK_RECORD
  5
214
100
AcDbSymbolTableRecord
100
AcDbBlockTableRecord
  2
_FILLED
  0
ENDTAB
  0
TABLE
  2
DIMSTYLE
  5
A
100
AcDbSymbolTable
 70
1
100
AcDbDimStyleTable
 71
0
  0
DIMSTYLE
105
215
100
AcDbSymbolTableRecord
100
AcDbDimStyleTableRecord
  2
STANDARD
 70
0
  3

  4

 40
1.0
 41
20.4919665699
 42
1.0
 43
0.38
 44
1.0
 45
0.0
 46
0.0
 47
0.01
 48
0.01
140
28.6887531979
141
0.09
142
0.0
143
25.4
144
1.0
145
0.0
146
1.0
147
0.625
 71
1
 72
0
 73
0
 74
0
 75
0
 76
0
 77
1
 78
8
 79
2
170
0
171
1
172
0
173
0
174
0
175
0
176
0
177
0
178
0
270
2
179
2
271
2
272
2
273
2
274
2
275
0
280
0
281
0
282
0
283
1
284
8
285
0
286
0
287
3
288
0
340
11
278
46
341
214
342
214
343
214
344
214
  0
ENDTAB
  0
ENDSEC
  0
SECTION
  2
BLOCKS
  0
BLOCK
  5
20
100
AcDbEntity
  8
0
100
AcDbBlockBegin
  2
*Model_Space
 70
0
 10
0.0
 20
0.0
 30
0.0
  3
*Model_Space
  1

  0
ENDBLK
  5
21
100
AcDbEntity
  8
0
100
AcDbBlockEnd
  0
BLOCK
  5
1C
100
AcDbEntity
  8
0
100
AcDbBlockBegin
  2
*Paper_Space
 70
0
 10
0.0
 20
0.0
 30
0.0
  3
*Paper_Space
  1

  0
ENDBLK
  5
1D
100
AcDbEntity
  8
0
100
AcDbBlockEnd
  0
BLOCK
  5
216
100
AcDbEntity
  8
0
100
AcDbBlockBegin
  2
_FILLED
 70
64
 10
0.0
 20
0.0
  3
_FILLED
  1

  0
SOLID
  5
217
100
AcDbEntity
  8
0
  6
BYBLOCK
 62
0
100
AcDbTrace
 10
0.0
 20
0.0
 11
-1.0
 21
0.25
 12
-1.0
 22
-0.25
 13
-1.0
 23
-0.25
  0
ENDBLK
  5
218
100
AcDbEntity
  8
0
  6
BYBLOCK
 62
0
100
AcDbBlockEnd
  0
ENDSEC
  0
SECTION
  2
ENTITIES
  0
LINE
  5
219
100
AcDbEntity
  8
0
100
AcDbLine
 62
7
  6
BYLAYER
 10
928.9130115851
 20
198.1525511575
 11
924.3131882828
 21
198.1525511575
  0
LINE
  5
21A
100
AcDbEntity
  8
0
100
AcDbLine
 62
7
  6
BYLAYER
 10
888.9129997119
 20
198.1525511575
 11
884.3131764096
 21
198.1525511575
  0
LINE
  5
21B
100
AcDbEntity
  8
0
100
AcDbLine
 62
7
  6
BYLAYER
 10
936.1125968945
 20
198.252441019
 11
929.2858898446
 21
198.252441019
  0
LINE
  5
21C
100
AcDbEntity
  8
0
100
AcDbLine
 62
7
  6
BYLAYER
 10
883.1125968945
 20
198.252441019
 11
883.9402896496
 21
198.252441019
  0
LINE
  5
21D
100
AcDbEntity
  8
0
100
AcDbLine
 62
7
  6
BYLAYER
 10
889.2858779715
 20
198.252441019
 11
923.9403015227
 21
198.252441019
  0
LINE
  5
21E
100
AcDbEntity
  8
0
100
AcDbLine
 62
7
  6
BYLAYER
 10
913.7540450746
 20
198.752441019
 11
905.4721132404
 21
198.752441019
  0
LINE
  5
21F
100
AcDbEntity
  8
0
100
AcDbLine
 62
7
  6
BYLAYER
 10
929.9130956837
 20
199.1525511575
 11
923.3130956837
 21
199.1525511575
  0
LINE
  5
220
100
AcDbEntity
  8
0
100
AcDbLine
 62
7
  6
BYLAYER
 10
889.9130838105
 20
199.1525511575
 11
883.3130838105
 21
199.1525511575
  0
LINE
  5
221
100
AcDbEntity
  8
0
100
AcDbLine
 62
7
  6
BYLAYER
 10
937.1125968945
 20
199.252441019
 11
929.9130956837
 21
199.252441019
  0
LINE
  5
222
100
AcDbEntity
  8
0
100
AcDbLine
 62
7
  6
BYLAYER
 10
923.3130956837
 20
199.252441019
 11
913.6125968945
 21
199.2524410257
  0
LINE
  5
223
100
AcDbEntity
  8
0
100
AcDbLine
 62
7
  6
BYLAYER
 10
905.6125968945
 20
199.2524410191
 11
889.9130838105
 21
199.252441019
  0
LINE
  5
224
100
AcDbEntity
  8
0
100
AcDbLine
 62
7
  6
BYLAYER
 10
883.3130838105
 20
199.252441019
 11
882.1125968945
 21
199.252441019
  0
LINE
  5
225
100
AcDbEntity
  8
0
100
AcDbLine
 62
7
  6
BYLAYER
 10
882.1125968945
 20
200.2524409501
 11
883.3130838105
 21
200.252441019
  0
LINE
  5
226
100
AcDbEntity
  8
0
100
AcDbLine
 62
7
  6
BYLAYER
 10
889.9130838105
 20
200.252441019
 11
891.1125968945
 21
200.2524409501
  0
LINE
  5
227
100
AcDbEntity
  8
0
100
AcDbLine
 62
7
  6
BYLAYER
 10
922.1125968945
 20
200.2524409501
 11
923.3130956837
 21
200.252441019
  0
LINE
  5
228
100
AcDbEntity
  8
0
100
AcDbLine
 62
7
  6
BYLAYER
 10
929.9130956837
 20
200.252441019
 11
930.5249121033
 21
200.252441019
  0
LINE
  5
229
100
AcDbEntity
  8
0
100
AcDbLine
 62
7
  6
BYLAYER
 10
882.6125968945
 20
200.752441019
 11
889.6125968945
 21
200.752441019
  0
LINE
  5
22A
100
AcDbEntity
  8
0
100
AcDbLine
 62
7
  6
BYLAYER
 10
923.6125968945
 20
200.752441019
 11
930.1623503869
 21
200.752441019
  0
LINE
  5
22B
100
AcDbEntity
  8
0
100
AcDbLine
 62
7
  6
BYLAYER
 10
932.0246785863
 20
201.252441019
 11
923.6125968945
 21
201.252441019
  0
LINE
  5
22C
100
AcDbEntity
  8
0
100
AcDbLine
 62
7
  6
BYLAYER
 10
889.6125968945
 20
201.252441019
 11
882.1125968945
 21
201.252441019
  0
LINE
  5
22D
100
AcDbEntity
  8
0
100
AcDbLine
 62
7
  6
BYLAYER
 10
882.1125968945
 20
215.752441019
 11
905.6125968945
 21
215.752441019
  0
LINE
  5
22E
100
AcDbEntity
  8
0
100
AcDbLine
 62
7
  6
BYLAYER
 10
905.6130956837
 20
215.752441019
 11
937.1125968945
 21
215.752441019
  0
LINE
  5
22F
100
AcDbEntity
  8
3
100
AcDbLine
 62
7
  6
BYLAYER
 10
882.1130783688
 20
215.752563966
 11
937.1190504869
 21
215.752563966
  0
LINE
  5
230
100
AcDbEntity
  8
3
100
AcDbLine
 62
7
  6
BYLAYER
 10
836.8711768166
 20
243.1007262807
 11
881.8711768166
 21
243.1007262807
  0
LINE
  5
231
100
AcDbEntity
  8
3
100
AcDbLine
 62
7
  6
BYLAYER
 10
877.5344621328
 20
246.7482262807
 11
878.7790613946
 21
246.7482262807
  0
LINE
  5
232
100
AcDbEntity
  8
3
100
AcDbLine
 62
7
  6
BYLAYER
 10
881.8711768166
 20
248.1007262807
 11
878.8711768166
 21
248.1007262807
  0
LINE
  5
233
100
AcDbEntity
  8
3
100
AcDbLine
 62
7
  6
BYLAYER
 10
877.4309771988
 20
248.4241891003
 11
874.4309771988
 21
248.4241891003
  0
LINE
  5
234
100
AcDbEntity
  8
3
100
AcDbLine
 62
7
  6
BYLAYER
 10
840.0711768166
 20
249.8507262807
 11
853.5711768166
 21
249.8507262807
  0
LINE
  5
235
100
AcDbEntity
  8
3
100
AcDbLine
 62
7
  6
BYLAYER
 10
870.1605217914
 20
250.1007262807
 11
874.4309771988
 21
250.1007262807
  0
LINE
  5
236
100
AcDbEntity
  8
3
100
AcDbLine
 62
7
  6
BYLAYER
 10
877.4309771988
 20
250.1007262807
 11
877.5344621328
 21
250.1007262807
  0
LINE
  5
237
100
AcDbEntity
  8
3
100
AcDbLine
 62
7
  6
BYLAYER
 10
878.7790613946
 20
250.1007262807
 11
878.8711768166
 21
250.1007262807
  0
LINE
  5
238
100
AcDbEntity
  8
3
100
AcDbLine
 62
7
  6
BYLAYER
 10
881.8711768166
 20
250.1007262807
 11
882.1130783688
 21
250.1007262807
  0
LINE
  5
239
100
AcDbEntity
  8
3
100
AcDbLine
 62
7
  6
BYLAYER
 10
877.4309771988
 20
253.1007262807
 11
874.4309771988
 21
253.1007262807
  0
LINE
  5
23A
100
AcDbEntity
  8
3
100
AcDbLine
 62
7
  6
BYLAYER
 10
870.1605217914
 20
256.1007262807
 11
874.4309771988
 21
256.1007262807
  0
LINE
  5
23B
100
AcDbEntity
  8
3
100
AcDbLine
 62
7
  6
BYLAYER
 10
877.4309771988
 20
256.1007262807
 11
877.5344621328
 21
256.1007262807
  0
LINE
  5
23C
100
AcDbEntity
  8
3
100
AcDbLine
 62
7
  6
BYLAYER
 10
878.7790613946
 20
256.1007262807
 11
878.8711768166
 21
256.1007262807
  0
LINE
  5
23D
100
AcDbEntity
  8
3
100
AcDbLine
 62
7
  6
BYLAYER
 10
881.8711768166
 20
256.1007262807
 11
882.1130783688
 21
256.1007262807
  0
LINE
  5
23E
100
AcDbEntity
  8
3
100
AcDbLine
 62
7
  6
BYLAYER
 10
853.5711768166
 20
256.3507262807
 11
840.0711768166
 21
256.3507262807
  0
LINE
  5
23F
100
AcDbEntity
  8
3
100
AcDbLine
 62
7
  6
BYLAYER
 10
877.4309771988
 20
257.7772634612
 11
874.4309771988
 21
257.7772634612
  0
LINE
  5
240
100
AcDbEntity
  8
3
100
AcDbLine
 62
7
  6
BYLAYER
 10
878.7790613946
 20
259.4532262807
 11
877.5344621328
 21
259.4532262807
  0
LINE
  5
241
100
AcDbEntity
  8
3
100
AcDbLine
 62
7
  6
BYLAYER
 10
877.5344621328
 20
276.7482262807
 11
878.7790613946
 21
276.7482262807
  0
LINE
  5
242
100
AcDbEntity
  8
3
100
AcDbLine
 62
7
  6
BYLAYER
 10
877.4309771988
 20
278.4241891003
 11
874.4309771988
 21
278.4241891003
  0
LINE
  5
243
100
AcDbEntity
  8
3
100
AcDbLine
 62
7
  6
BYLAYER
 10
840.0711768166
 20
279.8507262807
 11
853.5711768166
 21
279.8507262807
  0
LINE
  5
244
100
AcDbEntity
  8
3
100
AcDbLine
 62
7
  6
BYLAYER
 10
870.1605217914
 20
280.1007262807
 11
874.4309771988
 21
280.1007262807
  0
LINE
  5
245
100
AcDbEntity
  8
3
100
AcDbLine
 62
7
  6
BYLAYER
 10
877.4309771988
 20
280.1007262807
 11
877.5344621328
 21
280.1007262807
  0
LINE
  5
246
100
AcDbEntity
  8
3
100
AcDbLine
 62
7
  6
BYLAYER
 10
878.7790613946
 20
280.1007262807
 11
878.8711768166
 21
280.1007262807
  0
LINE
  5
247
100
AcDbEntity
  8
3
100
AcDbLine
 62
7
  6
BYLAYER
 10
881.8711768166
 20
280.1007262807
 11
882.1130783688
 21
280.1007262807
  0
LINE
  5
248
100
AcDbEntity
  8
3
100
AcDbLine
 62
7
  6
BYLAYER
 10
877.4309771988
 20
283.1007262807
 11
874.4309771988
 21
283.1007262807
  0
LINE
  5
249
100
AcDbEntity
  8
3
100
AcDbLine
 62
7
  6
BYLAYER
 10
870.1605217914
 20
286.1007262807
 11
874.4309771988
 21
286.1007262807
  0
LINE
  5
24A
100
AcDbEntity
  8
3
100
AcDbLine
 62
7
  6
BYLAYER
 10
877.4309771988
 20
286.1007262807
 11
877.5344621328
 21
286.1007262807
  0
LINE
  5
24B
100
AcDbEntity
  8
3
100
AcDbLine
 62
7
  6
BYLAYER
 10
878.7790613946
 20
286.1007262807
 11
878.8711768166
 21
286.1007262807
  0
LINE
  5
24C
100
AcDbEntity
  8
3
100
AcDbLine
 62
7
  6
BYLAYER
 10
881.8711768166
 20
286.1007262807
 11
882.1130783688
 21
286.1007262807
  0
LINE
  5
24D
100
AcDbEntity
  8
3
100
AcDbLine
 62
7
  6
BYLAYER
 10
853.5711768166
 20
286.3507262807
 11
840.0711768166
 21
286.3507262807
  0
LINE
  5
24E
100
AcDbEntity
  8
3
100
AcDbLine
 62
7
  6
BYLAYER
 10
877.4309771988
 20
287.7772634612
 11
874.4309771988
 21
287.7772634612
  0
LINE
  5
24F
100
AcDbEntity
  8
3
100
AcDbLine
 62
7
  6
BYLAYER
 10
878.8711768166
 20
288.1007262807
 11
881.8711768166
 21
288.1007262807
  0
LINE
  5
250
100
AcDbEntity
  8
3
100
AcDbLine
 62
7
  6
BYLAYER
 10
878.7790613946
 20
289.4532262807
 11
877.5344621328
 21
289.4532262807
  0
LINE
  5
251
100
AcDbEntity
  8
3
100
AcDbLine
 62
7
  6
BYLAYER
 10
836.8711768166
 20
293.1007262807
 11
881.8711768166
 21
293.1007262807
  0
LINE
  5
252
100
AcDbEntity
  8
0
100
AcDbLine
 62
7
  6
BYLAYER
 10
889.8628376317
 20
2237.7525511575
 11
890.3628376317
 21
2238.2525511575
  0
LINE
  5
253
100
AcDbEntity
  8
0
100
AcDbLine
 62
7
  6
BYLAYER
 10
914.1128360837
 20
2241.7525517681
 11
914.6128370674
 21
2242.2525525719
  0
LINE
  5
254
100
AcDbEntity
  8
0
100
AcDbLine
 62
7
  6
BYLAYER
 10
912.3628376317
 20
2237.7525511575
 11
912.8628376317
 21
2238.2525511575
  0
LINE
  5
255
100
AcDbEntity
  8
3
100
AcDbLine
 62
7
  6
BYLAYER
 10
831.8711768166
 20
2184.4356287416
 11
831.8711768166
 21
2144.4356287416
  0
LINE
  5
256
100
AcDbEntity
  8
3
100
AcDbLine
 62
7
  6
BYLAYER
 10
831.8711768166
 20
1235.3848671205
 11
831.8711768166
 21
1195.3848671205
  0
LINE
  5
257
100
AcDbEntity
  8
3
100
AcDbLine
 62
7
  6
BYLAYER
 10
831.8711768166
 20
288.1007262807
 11
831.8711768166
 21
248.1007262807
  0
LINE
  5
258
100
AcDbEntity
  8
3
100
AcDbLine
 62
7
  6
BYLAYER
 10
870.1605217914
 20
250.1008492567
 11
870.1605217914
 21
256.1006033048
  0
LINE
  5
259
100
AcDbEntity
  8
3
100
AcDbLine
 62
7
  6
BYLAYER
 10
870.1605217914
 20
280.1008492567
 11
870.1605217914
 21
286.1006033048
  0
LINE
  5
25A
100
AcDbEntity
  8
3
100
AcDbLine
 62
7
  6
BYLAYER
 10
870.1605217914
 20
1197.3849900965
 11
870.1605217914
 21
1203.3847441446
  0
LINE
  5
25B
100
AcDbEntity
  8
3
100
AcDbLine
 62
7
  6
BYLAYER
 10
870.1605217914
 20
1227.3849900965
 11
870.1605217914
 21
1233.3847441446
  0
LINE
  5
25C
100
AcDbEntity
  8
3
100
AcDbLine
 62
7
  6
BYLAYER
 10
870.1605217914
 20
2146.4357517175
 11
870.1605217914
 21
2152.4355057657
  0
LINE
  5
25D
100
AcDbEntity
  8
3
100
AcDbLine
 62
7
  6
BYLAYER
 10
870.1605217914
 20
2176.4357517175
 11
870.1605217914
 21
2182.4355057657
  0
LINE
  5
25E
100
AcDbEntity
  8
3
100
AcDbLine
 62
7
  6
BYLAYER
 10
874.4309771988
 20
248.4241891003
 11
874.4309771988
 21
257.7772634612
  0
LINE
  5
25F
100
AcDbEntity
  8
3
100
AcDbLine
 62
7
  6
BYLAYER
 10
874.4309771988
 20
278.4241891003
 11
874.4309771988
 21
287.7772634612
  0
LINE
  5
260
100
AcDbEntity
  8
3
100
AcDbLine
 62
7
  6
BYLAYER
 10
874.4309771988
 20
1195.7083299401
 11
874.4309771988
 21
1205.061404301
  0
LINE
  5
261
100
AcDbEntity
  8
3
100
AcDbLine
 62
7
  6
BYLAYER
 10
874.4309771988
 20
1225.7083299401
 11
874.4309771988
 21
1235.061404301
  0
LINE
  5
262
100
AcDbEntity
  8
3
100
AcDbLine
 62
7
  6
BYLAYER
 10
874.4309771988
 20
2144.7590915612
 11
874.4309771988
 21
2154.112165922
  0
LINE
  5
263
100
AcDbEntity
  8
3
100
AcDbLine
 62
7
  6
BYLAYER
 10
874.4309771988
 20
2174.7590915612
 11
874.4309771988
 21
2184.112165922
  0
LINE
  5
264
100
AcDbEntity
  8
3
100
AcDbLine
 62
7
  6
BYLAYER
 10
874.8711768166
 20
2189.4356287416
 11
874.8711768166
 21
2184.112165922
  0
LINE
  5
265
100
AcDbEntity
  8
3
100
AcDbLine
 62
7
  6
BYLAYER
 10
874.8711768166
 20
2174.7590915612
 11
874.8711768166
 21
2154.112165922
  0
LINE
  5
266
100
AcDbEntity
  8
3
100
AcDbLine
 62
7
  6
BYLAYER
 10
874.8711768166
 20
2144.7590915612
 11
874.8711768166
 21
2139.4356287416
  0
LINE
  5
267
100
AcDbEntity
  8
3
100
AcDbLine
 62
7
  6
BYLAYER
 10
874.8711768166
 20
1240.3848671205
 11
874.8711768166
 21
1235.061404301
  0
LINE
  5
268
100
AcDbEntity
  8
3
100
AcDbLine
 62
7
  6
BYLAYER
 10
874.8711768166
 20
1225.7083299401
 11
874.8711768166
 21
1205.061404301
  0
LINE
  5
269
100
AcDbEntity
  8
3
100
AcDbLine
 62
7
  6
BYLAYER
 10
874.8711768166
 20
1195.7083299401
 11
874.8711768166
 21
1190.3848671205
  0
LINE
  5
26A
100
AcDbEntity
  8
3
100
AcDbLine
 62
7
  6
BYLAYER
 10
874.8711768166
 20
293.1007262807
 11
874.8711768166
 21
287.7772634612
  0
LINE
  5
26B
100
AcDbEntity
  8
3
100
AcDbLine
 62
7
  6
BYLAYER
 10
874.8711768166
 20
278.4241891003
 11
874.8711768166
 21
257.7772634612
  0
LINE
  5
26C
100
AcDbEntity
  8
3
100
AcDbLine
 62
7
  6
BYLAYER
 10
874.8711768166
 20
248.4241891003
 11
874.8711768166
 21
243.1007262807
  0
LINE
  5
26D
100
AcDbEntity
  8
3
100
AcDbLine
 62
7
  6
BYLAYER
 10
877.4309771988
 20
2184.112165922
 11
877.4309771988
 21
2174.7590915612
  0
LINE
  5
26E
100
AcDbEntity
  8
3
100
AcDbLine
 62
7
  6
BYLAYER
 10
877.4309771988
 20
2154.112165922
 11
877.4309771988
 21
2144.7590915612
  0
LINE
  5
26F
100
AcDbEntity
  8
3
100
AcDbLine
 62
7
  6
BYLAYER
 10
877.4309771988
 20
1235.061404301
 11
877.4309771988
 21
1225.7083299401
  0
LINE
  5
270
100
AcDbEntity
  8
3
100
AcDbLine
 62
7
  6
BYLAYER
 10
877.4309771988
 20
1205.061404301
 11
877.4309771988
 21
1195.7083299401
  0
LINE
  5
271
100
AcDbEntity
  8
3
100
AcDbLine
 62
7
  6
BYLAYER
 10
877.4309771988
 20
287.7772634612
 11
877.4309771988
 21
278.4241891003
  0
LINE
  5
272
100
AcDbEntity
  8
3
100
AcDbLine
 62
7
  6
BYLAYER
 10
877.4309771988
 20
257.7772634612
 11
877.4309771988
 21
248.4241891003
  0
LINE
  5
273
100
AcDbEntity
  8
3
100
AcDbLine
 62
7
  6
BYLAYER
 10
877.5344621328
 20
246.7482262807
 11
877.5344621328
 21
259.4532262807
  0
LINE
  5
274
100
AcDbEntity
  8
3
100
AcDbLine
 62
7
  6
BYLAYER
 10
877.5344621328
 20
276.7482262807
 11
877.5344621328
 21
289.4532262807
  0
LINE
  5
275
100
AcDbEntity
  8
3
100
AcDbLine
 62
7
  6
BYLAYER
 10
877.5344621328
 20
1194.0323671205
 11
877.5344621328
 21
1206.7373671205
  0
LINE
  5
276
100
AcDbEntity
  8
3
100
AcDbLine
 62
7
  6
BYLAYER
 10
877.5344621328
 20
1224.0323671205
 11
877.5344621328
 21
1236.7373671205
  0
LINE
  5
277
100
AcDbEntity
  8
3
100
AcDbLine
 62
7
  6
BYLAYER
 10
877.5344621328
 20
2143.0831287416
 11
877.5344621328
 21
2155.7881287416
  0
LINE
  5
278
100
AcDbEntity
  8
3
100
AcDbLine
 62
7
  6
BYLAYER
 10
877.5344621328
 20
2173.0831287416
 11
877.5344621328
 21
2185.7881287416
  0
LINE
  5
279
100
AcDbEntity
  8
3
100
AcDbLine
 62
7
  6
BYLAYER
 10
878.7790613946
 20
2185.7881287416
 11
878.7790613946
 21
2173.0831287416
  0
LINE
  5
27A
100
AcDbEntity
  8
3
100
AcDbLine
 62
7
  6
BYLAYER
 10
878.7790613946
 20
2155.7881287416
 11
878.7790613946
 21
2143.0831287416
  0
LINE
  5
27B
100
AcDbEntity
  8
3
100
AcDbLine
 62
7
  6
BYLAYER
 10
878.7790613946
 20
1236.7373671205
 11
878.7790613946
 21
1224.0323671205
  0
LINE
  5
27C
100
AcDbEntity
  8
3
100
AcDbLine
 62
7
  6
BYLAYER
 10
878.7790613946
 20
1206.7373671205
 11
878.7790613946
 21
1194.0323671205
  0
LINE
  5
27D
100
AcDbEntity
  8
3
100
AcDbLine
 62
7
  6
BYLAYER
 10
878.7790613946
 20
289.4532262807
 11
878.7790613946
 21
276.7482262807
  0
LINE
  5
27E
100
AcDbEntity
  8
3
100
AcDbLine
 62
7
  6
BYLAYER
 10
878.7790613946
 20
259.4532262807
 11
878.7790613946
 21
246.7482262807
  0
LINE
  5
27F
100
AcDbEntity
  8
3
100
AcDbLine
 62
7
  6
BYLAYER
 10
878.8711768166
 20
243.1007262807
 11
878.8711768166
 21
293.1007262807
  0
LINE
  5
280
100
AcDbEntity
  8
3
100
AcDbLine
 62
7
  6
BYLAYER
 10
878.8711768166
 20
1190.3848671205
 11
878.8711768166
 21
1240.3848671205
  0
LINE
  5
281
100
AcDbEntity
  8
3
100
AcDbLine
 62
7
  6
BYLAYER
 10
878.8711768166
 20
2139.4356287416
 11
878.8711768166
 21
2189.4356287416
  0
LINE
  5
282
100
AcDbEntity
  8
3
100
AcDbLine
 62
7
  6
BYLAYER
 10
881.8711768166
 20
2189.4356287416
 11
881.8711768166
 21
2139.4356287416
  0
LINE
  5
283
100
AcDbEntity
  8
3
100
AcDbLine
 62
7
  6
BYLAYER
 10
881.8711768166
 20
1240.3848671205
 11
881.8711768166
 21
1190.3848671205
  0
LINE
  5
284
100
AcDbEntity
  8
3
100
AcDbLine
 62
7
  6
BYLAYER
 10
881.8711768166
 20
293.1007262807
 11
881.8711768166
 21
243.1007262807
  0
LINE
  5
285
100
AcDbEntity
  8
0
100
AcDbLine
 62
7
  6
BYLAYER
 10
882.1128393521
 20
2229.7525923074
 11
882.1128376305
 21
2228.9540986252
  0
LINE
  5
286
100
AcDbEntity
  8
0
100
AcDbLine
 62
7
  6
BYLAYER
 10
882.1125968945
 20
199.252441019
 11
882.1125968945
 21
215.752441019
  0
LINE
  5
287
100
AcDbEntity
  8
0
100
AcDbLine
 62
7
  6
BYLAYER
 10
882.1128376317
 20
2228.7525511575
 11
882.1128376317
 21
2214.2525511575
  0
LINE
  5
288
100
AcDbEntity
  8
0
100
AcDbLine
 62
7
  6
BYLAYER
 10
882.1128376317
 20
2230.7525511575
 11
882.1128376316
 21
2228.7645412037
  0
LINE
  5
289
100
AcDbEntity
  8
3
100
AcDbLine
 62
7
  6
BYLAYER
 10
882.1130783688
 20
2214.252563966
 11
882.1130783688
 21
215.752563966
  0
LINE
  5
28A
100
AcDbEntity
  8
0
100
AcDbLine
 62
7
  6
BYLAYER
 10
883.1125968945
 20
198.252441019
 11
883.1125968928
 21
200.252441019
  0
LINE
  5
28B
100
AcDbEntity
  8
0
100
AcDbLine
 62
7
  6
BYLAYER
 10
883.11283763
 20
2229.7525511575
 11
883.1128376317
 21
2231.7525511575
  0
LINE
  5
28C
100
AcDbEntity
  8
0
100
AcDbLine
 62
7
  6
BYLAYER
 10
883.3128376317
 20
2229.2525511575
 11
883.3128376317
 21
2230.8525511575
  0
LINE
  5
28D
100
AcDbEntity
  8
0
100
AcDbLine
 62
7
  6
BYLAYER
 10
883.3130838105
 20
200.7525511575
 11
883.3130838105
 21
199.1525511575
  0
LINE
  5
28E
100
AcDbEntity
  8
0
100
AcDbLine
 62
7
  6
BYLAYER
 10
886.1125968945
 20
200.752441019
 11
886.1125968945
 21
215.752441019
  0
LINE
  5
28F
100
AcDbEntity
  8
0
100
AcDbLine
 62
7
  6
BYLAYER
 10
886.1128376317
 20
2214.2525511575
 11
886.1128376317
 21
2229.2525511575
  0
LINE
  5
290
100
AcDbEntity
  8
3
100
AcDbLine
 62
7
  6
BYLAYER
 10
886.1130783688
 20
215.752563966
 11
886.1130783688
 21
2214.252563966
  0
LINE
  5
291
100
AcDbEntity
  8
0
100
AcDbLine
 62
7
  6
BYLAYER
 10
889.612596822
 20
201.252441019
 11
889.612596822
 21
200.752441019
  0
LINE
  5
292
100
AcDbEntity
  8
0
100
AcDbLine
 62
7
  6
BYLAYER
 10
889.6128375588
 20
2229.2525511575
 11
889.6128375588
 21
2228.7525511575
  0
LINE
  5
293
100
AcDbEntity
  8
0
100
AcDbLine
 62
7
  6
BYLAYER
 10
889.8628376317
 20
2231.7525511575
 11
889.8628376317
 21
2237.7525511575
  0
LINE
  5
294
100
AcDbEntity
  8
0
100
AcDbLine
 62
7
  6
BYLAYER
 10
889.9128376317
 20
2229.3567335923
 11
889.9128376317
 21
2230.8525511575
  0
LINE
  5
295
100
AcDbEntity
  8
0
100
AcDbLine
 62
7
  6
BYLAYER
 10
889.9130838105
 20
200.6503552263
 11
889.9130838105
 21
199.1525511575
  0
LINE
  5
296
100
AcDbEntity
  8
0
100
AcDbLine
 62
7
  6
BYLAYER
 10
890.1125968945
 20
200.252441019
 11
890.1125968945
 21
199.252441019
  0
LINE
  5
297
100
AcDbEntity
  8
0
100
AcDbLine
 62
7
  6
BYLAYER
 10
890.1128376317
 20
2230.7525511575
 11
890.1128376317
 21
2229.7525511575
  0
LINE
  5
298
100
AcDbEntity
  8
0
100
AcDbLine
 62
7
  6
BYLAYER
 10
891.1125968945
 20
198.252441019
 11
891.1125968945
 21
200.252441019
  0
LINE
  5
299
100
AcDbEntity
  8
0
100
AcDbLine
 62
7
  6
BYLAYER
 10
891.1128376317
 20
2229.7525511575
 11
891.1128376317
 21
2231.7525511575
  0
LINE
  5
29A
100
AcDbEntity
  8
0
100
AcDbLine
 62
7
  6
BYLAYER
 10
893.4890976317
 20
2239.4525511575
 11
893.4890976317
 21
2238.2525511575
  0
LINE
  5
29B
100
AcDbEntity
  8
3
100
AcDbLine
 62
7
  6
BYLAYER
 10
836.8711768166
 20
1190.3848671205
 11
881.8711768166
 21
1190.3848671205
  0
LINE
  5
29C
100
AcDbEntity
  8
3
100
AcDbLine
 62
7
  6
BYLAYER
 10
877.5344621328
 20
1194.0323671205
 11
878.7790613946
 21
1194.0323671205
  0
LINE
  5
29D
100
AcDbEntity
  8
3
100
AcDbLine
 62
7
  6
BYLAYER
 10
881.8711768166
 20
1195.3848671205
 11
878.8711768166
 21
1195.3848671205
  0
LINE
  5
29E
100
AcDbEntity
  8
3
100
AcDbLine
 62
7
  6
BYLAYER
 10
877.4309771988
 20
1195.7083299401
 11
874.4309771988
 21
1195.7083299401
  0
LINE
  5
29F
100
AcDbEntity
  8
3
100
AcDbLine
 62
7
  6
BYLAYER
 10
840.0711768166
 20
1197.1348671205
 11
853.5711768166
 21
1197.1348671205
  0
LINE
  5
2A0
100
AcDbEntity
  8
3
100
AcDbLine
 62
7
  6
BYLAYER
 10
870.1605217914
 20
1197.3848671205
 11
874.4309771988
 21
1197.3848671205
  0
LINE
  5
2A1
100
AcDbEntity
  8
3
100
AcDbLine
 62
7
  6
BYLAYER
 10
877.4309771988
 20
1197.3848671205
 11
877.5344621328
 21
1197.3848671205
  0
LINE
  5
2A2
100
AcDbEntity
  8
3
100
AcDbLine
 62
7
  6
BYLAYER
 10
878.7790613946
 20
1197.3848671205
 11
878.8711768166
 21
1197.3848671205
  0
LINE
  5
2A3
100
AcDbEntity
  8
3
100
AcDbLine
 62
7
  6
BYLAYER
 10
881.8711768166
 20
1197.3848671205
 11
882.1130783688
 21
1197.3848671205
  0
LINE
  5
2A4
100
AcDbEntity
  8
3
100
AcDbLine
 62
7
  6
BYLAYER
 10
877.4309771988
 20
1200.3848671205
 11
874.4309771988
 21
1200.3848671205
  0
LINE
  5
2A5
100
AcDbEntity
  8
3
100
AcDbLine
 62
7
  6
BYLAYER
 10
870.1605217914
 20
1203.3848671205
 11
874.4309771988
 21
1203.3848671205
  0
LINE
  5
2A6
100
AcDbEntity
  8
3
100
AcDbLine
 62
7
  6
BYLAYER
 10
877.4309771988
 20
1203.3848671205
 11
877.5344621328
 21
1203.3848671205
  0
LINE
  5
2A7
100
AcDbEntity
  8
3
100
AcDbLine
 62
7
  6
BYLAYER
 10
878.7790613946
 20
1203.3848671205
 11
878.8711768166
 21
1203.3848671205
  0
LINE
  5
2A8
100
AcDbEntity
  8
3
100
AcDbLine
 62
7
  6
BYLAYER
 10
881.8711768166
 20
1203.3848671205
 11
882.1130783688
 21
1203.3848671205
  0
LINE
  5
2A9
100
AcDbEntity
  8
3
100
AcDbLine
 62
7
  6
BYLAYER
 10
853.5711768166
 20
1203.6348671205
 11
840.0711768166
 21
1203.6348671205
  0
LINE
  5
2AA
100
AcDbEntity
  8
3
100
AcDbLine
 62
7
  6
BYLAYER
 10
877.4309771988
 20
1205.061404301
 11
874.4309771988
 21
1205.061404301
  0
LINE
  5
2AB
100
AcDbEntity
  8
3
100
AcDbLine
 62
7
  6
BYLAYER
 10
878.7790613946
 20
1206.7373671205
 11
877.5344621328
 21
1206.7373671205
  0
LINE
  5
2AC
100
AcDbEntity
  8
3
100
AcDbLine
 62
7
  6
BYLAYER
 10
877.5344621328
 20
1224.0323671205
 11
878.7790613946
 21
1224.0323671205
  0
LINE
  5
2AD
100
AcDbEntity
  8
3
100
AcDbLine
 62
7
  6
BYLAYER
 10
877.4309771988
 20
1225.7083299401
 11
874.4309771988
 21
1225.7083299401
  0
LINE
  5
2AE
100
AcDbEntity
  8
3
100
AcDbLine
 62
7
  6
BYLAYER
 10
840.0711768166
 20
1227.1348671205
 11
853.5711768166
 21
1227.1348671205
  0
LINE
  5
2AF
100
AcDbEntity
  8
3
100
AcDbLine
 62
7
  6
BYLAYER
 10
870.1605217914
 20
1227.3848671205
 11
874.4309771988
 21
1227.3848671205
  0
LINE
  5
2B0
100
AcDbEntity
  8
3
100
AcDbLine
 62
7
  6
BYLAYER
 10
877.4309771988
 20
1227.3848671205
 11
877.5344621328
 21
1227.3848671205
  0
LINE
  5
2B1
100
AcDbEntity
  8
3
100
AcDbLine
 62
7
  6
BYLAYER
 10
878.7790613946
 20
1227.3848671205
 11
878.8711768166
 21
1227.3848671205
  0
LINE
  5
2B2
100
AcDbEntity
  8
3
100
AcDbLine
 62
7
  6
BYLAYER
 10
881.8711768166
 20
1227.3848671205
 11
882.1130783688
 21
1227.3848671205
  0
LINE
  5
2B3
100
AcDbEntity
  8
0
100
AcDbLine
 62
7
  6
BYLAYER
 10
901.7390976317
 20
2239.4525511575
 11
901.7390976317
 21
2238.2525511575
  0
LINE
  5
2B4
100
AcDbEntity
  8
0
100
AcDbLine
 62
7
  6
BYLAYER
 10
905.1125968945
 20
215.752441019
 11
905.1125968945
 21
199.252441019
  0
LINE
  5
2B5
100
AcDbEntity
  8
0
100
AcDbLine
 62
7
  6
BYLAYER
 10
905.1128376317
 20
2230.7525511575
 11
905.1128376317
 21
2214.2525511575
  0
LINE
  5
2B6
100
AcDbEntity
  8
3
100
AcDbLine
 62
7
  6
BYLAYER
 10
905.1130956837
 20
2214.252563966
 11
905.1130956837
 21
215.752563966
  0
LINE
  5
2B7
100
AcDbEntity
  8
0
100
AcDbLine
 62
7
  6
BYLAYER
 10
905.3628376317
 20
2231.7525511575
 11
905.3628376317
 21
2237.7525511575
  0
LINE
  5
2B8
100
AcDbEntity
  8
0
100
AcDbLine
 62
7
  6
BYLAYER
 10
905.6125968945
 20
199.2524410191
 11
905.6125968945
 21
215.752441019
  0
LINE
  5
2B9
100
AcDbEntity
  8
0
100
AcDbLine
 62
7
  6
BYLAYER
 10
905.6128376317
 20
2214.2525511575
 11
905.6128376317
 21
2230.7525511575
  0
LINE
  5
2BA
100
AcDbEntity
  8
3
100
AcDbLine
 62
7
  6
BYLAYER
 10
905.6130956837
 20
215.752563966
 11
905.6130956837
 21
2214.252563966
  0
LINE
  5
2BB
100
AcDbEntity
  8
0
100
AcDbLine
 62
7
  6
BYLAYER
 10
912.3628376317
 20
2231.7525511575
 11
912.3628376317
 21
2237.7525511575
  0
LINE
  5
2BC
100
AcDbEntity
  8
0
100
AcDbLine
 62
7
  6
BYLAYER
 10
913.6125968945
 20
215.752441019
 11
913.6125968945
 21
199.2524410191
  0
LINE
  5
2BD
100
AcDbEntity
  8
0
100
AcDbLine
 62
7
  6
BYLAYER
 10
913.6128376317
 20
2230.7525511575
 11
913.6128376317
 21
2214.2525511575
  0
LINE
  5
2BE
100
AcDbEntity
  8
3
100
AcDbLine
 62
7
  6
BYLAYER
 10
913.6130956837
 20
2214.252563966
 11
913.6130956837
 21
215.752563966
  0
LINE
  5
2BF
100
AcDbEntity
  8
0
100
AcDbLine
 62
7
  6
BYLAYER
 10
914.1125968945
 20
199.252441019
 11
914.1125968945
 21
215.752441019
  0
LINE
  5
2C0
100
AcDbEntity
  8
0
100
AcDbLine
 62
7
  6
BYLAYER
 10
914.1128376317
 20
2214.2525511575
 11
914.1128376317
 21
2230.7525511575
  0
LINE
  5
2C1
100
AcDbEntity
  8
0
100
AcDbLine
 62
7
  6
BYLAYER
 10
914.1128376317
 20
2238.2525511575
 11
914.1128376317
 21
2241.7525502201
  0
LINE
  5
2C2
100
AcDbEntity
  8
3
100
AcDbLine
 62
7
  6
BYLAYER
 10
914.1130956837
 20
215.752563966
 11
914.1130956837
 21
2214.252563966
  0
LINE
  5
2C3
100
AcDbEntity
  8
0
100
AcDbLine
 62
7
  6
BYLAYER
 10
915.9884176317
 20
2239.4525511575
 11
915.9884176317
 21
2238.2525511575
  0
LINE
  5
2C4
100
AcDbEntity
  8
0
100
AcDbLine
 62
7
  6
BYLAYER
 10
922.1125968945
 20
200.252441019
 11
922.1125968945
 21
198.252441019
  0
LINE
  5
2C5
100
AcDbEntity
  8
0
100
AcDbLine
 62
7
  6
BYLAYER
 10
922.1128376317
 20
2231.7525511575
 11
922.1128376317
 21
2229.7525511575
  0
LINE
  5
2C6
100
AcDbEntity
  8
0
100
AcDbLine
 62
7
  6
BYLAYER
 10
923.1125968945
 20
199.252441019
 11
923.1125968945
 21
200.252441019
  0
LINE
  5
2C7
100
AcDbEntity
  8
0
100
AcDbLine
 62
7
  6
BYLAYER
 10
923.1128376317
 20
2229.7525511575
 11
923.1128376317
 21
2230.7525511575
  0
LINE
  5
2C8
100
AcDbEntity
  8
0
100
AcDbLine
 62
7
  6
BYLAYER
 10
923.3128376317
 20
2229.3541500342
 11
923.3128376317
 21
2230.8525511575
  0
LINE
  5
2C9
100
AcDbEntity
  8
0
100
AcDbLine
 62
7
  6
BYLAYER
 10
923.3130956837
 20
200.6513409316
 11
923.3130956837
 21
199.1525511575
  0
LINE
  5
2CA
100
AcDbEntity
  8
0
100
AcDbLine
 62
7
  6
BYLAYER
 10
923.6125969673
 20
200.752441019
 11
923.6125969673
 21
201.252441019
  0
LINE
  5
2CB
100
AcDbEntity
  8
0
100
AcDbLine
 62
7
  6
BYLAYER
 10
923.6128376992
 20
2228.7525511575
 11
923.6128376992
 21
2229.2525511575
  0
LINE
  5
2CC
100
AcDbEntity
  8
0
100
AcDbLine
 62
7
  6
BYLAYER
 10
924.1785898297
 20
2238.2525511575
 11
924.1785898297
 21
2239.4525511575
  0
LINE
  5
2CD
100
AcDbEntity
  8
0
100
AcDbLine
 62
7
  6
BYLAYER
 10
926.1128376317
 20
2238.2525511575
 11
926.1128376317
 21
2241.7525502201
  0
LINE
  5
2CE
100
AcDbEntity
  8
0
100
AcDbLine
 62
7
  6
BYLAYER
 10
927.8628376317
 20
2231.8525511575
 11
927.8628376317
 21
2237.7525511575
  0
LINE
  5
2CF
100
AcDbEntity
  8
0
100
AcDbLine
 62
7
  6
BYLAYER
 10
928.7120474481
 20
215.752441019
 11
928.7120474481
 21
200.752441019
  0
LINE
  5
2D0
100
AcDbEntity
  8
0
100
AcDbLine
 62
7
  6
BYLAYER
 10
928.7122881853
 20
2229.2525511575
 11
928.7122881853
 21
2214.2525511575
  0
LINE
  5
2D1
100
AcDbEntity
  8
3
100
AcDbLine
 62
7
  6
BYLAYER
 10
928.7125462373
 20
2214.252563966
 11
928.7125462373
 21
215.752563966
  0
LINE
  5
2D2
100
AcDbEntity
  8
0
100
AcDbLine
 62
7
  6
BYLAYER
 10
929.9128376317
 20
2229.3541500342
 11
929.9128376317
 21
2230.8525511575
  0
LINE
  5
2D3
100
AcDbEntity
  8
0
100
AcDbLine
 62
7
  6
BYLAYER
 10
929.9130956837
 20
200.6503433531
 11
929.9130956837
 21
199.1525511575
  0
LINE
  5
2D4
100
AcDbEntity
  8
0
100
AcDbLine
 62
7
  6
BYLAYER
 10
930.1125968945
 20
200.252441019
 11
930.1125968945
 21
199.252441019
  0
LINE
  5
2D5
100
AcDbEntity
  8
0
100
AcDbLine
 62
7
  6
BYLAYER
 10
930.1128376317
 20
2230.7525511575
 11
930.1128376317
 21
2229.7525511575
  0
LINE
  5
2D6
100
AcDbEntity
  8
0
100
AcDbLine
 62
7
  6
BYLAYER
 10
931.459258727
 20
201.252441019
 11
931.459258727
 21
215.752441019
  0
LINE
  5
2D7
100
AcDbEntity
  8
0
100
AcDbLine
 62
7
  6
BYLAYER
 10
931.4594994642
 20
2214.2525511575
 11
931.4594994642
 21
2228.7525511575
  0
LINE
  5
2D8
100
AcDbEntity
  8
3
100
AcDbLine
 62
7
  6
BYLAYER
 10
931.4597575163
 20
215.752563966
 11
931.4597575163
 21
2214.252563966
  0
LINE
  5
2D9
100
AcDbEntity
  8
0
100
AcDbLine
 62
7
  6
BYLAYER
 10
932.0246785863
 20
199.252441019
 11
932.0246785863
 21
201.252441019
  0
LINE
  5
2DA
100
AcDbEntity
  8
0
100
AcDbLine
 62
7
  6
BYLAYER
 10
932.0249193235
 20
2228.7525511575
 11
932.0249193235
 21
2230.7525511575
  0
LINE
  5
2DB
100
AcDbEntity
  8
0
100
AcDbLine
 62
7
  6
BYLAYER
 10
935.6620391503
 20
215.752441019
 11
935.6620391503
 21
199.252441019
  0
LINE
  5
2DC
100
AcDbEntity
  8
0
100
AcDbLine
 62
7
  6
BYLAYER
 10
935.6622798874
 20
2230.7525511575
 11
935.6622798874
 21
2214.2525511575
  0
LINE
  5
2DD
100
AcDbEntity
  8
3
100
AcDbLine
 62
7
  6
BYLAYER
 10
935.6625379394
 20
2214.252563966
 11
935.6625379394
 21
215.752563966
  0
LINE
  5
2DE
100
AcDbEntity
  8
3
100
AcDbLine
 62
7
  6
BYLAYER
 10
937.1089855416
 20
215.752563966
 11
937.1120678841
 21
1865.752563966
  0
LINE
  5
2DF
100
AcDbEntity
  8
0
100
AcDbLine
 62
7
  6
BYLAYER
 10
937.1125968945
 20
199.252441019
 11
937.1125968945
 21
215.752441019
  0
LINE
  5
2E0
100
AcDbEntity
  8
0
100
AcDbLine
 62
7
  6
BYLAYER
 10
937.1128376317
 20
2214.2525511575
 11
937.1128376317
 21
2230.7525511575
  0
LINE
  5
2E1
100
AcDbEntity
  8
3
100
AcDbLine
 62
7
  6
BYLAYER
 10
937.1130956837
 20
2214.252563966
 11
937.1130956837
 21
215.752563966
  0
LINE
  5
2E2
100
AcDbEntity
  8
3
100
AcDbLine
 62
7
  6
BYLAYER
 10
877.4309771988
 20
1230.3848671205
 11
874.4309771988
 21
1230.3848671205
  0
LINE
  5
2E3
100
AcDbEntity
  8
3
100
AcDbLine
 62
7
  6
BYLAYER
 10
870.1605217914
 20
1233.3848671205
 11
874.4309771988
 21
1233.3848671205
  0
LINE
  5
2E4
100
AcDbEntity
  8
3
100
AcDbLine
 62
7
  6
BYLAYER
 10
877.4309771988
 20
1233.3848671205
 11
877.5344621328
 21
1233.3848671205
  0
LINE
  5
2E5
100
AcDbEntity
  8
3
100
AcDbLine
 62
7
  6
BYLAYER
 10
878.7790613946
 20
1233.3848671205
 11
878.8711768166
 21
1233.3848671205
  0
LINE
  5
2E6
100
AcDbEntity
  8
3
100
AcDbLine
 62
7
  6
BYLAYER
 10
881.8711768166
 20
1233.3848671205
 11
882.1130783688
 21
1233.3848671205
  0
LINE
  5
2E7
100
AcDbEntity
  8
3
100
AcDbLine
 62
7
  6
BYLAYER
 10
853.5711768166
 20
1233.6348671205
 11
840.0711768166
 21
1233.6348671205
  0
LINE
  5
2E8
100
AcDbEntity
  8
3
100
AcDbLine
 62
7
  6
BYLAYER
 10
877.4309771988
 20
1235.061404301
 11
874.4309771988
 21
1235.061404301
  0
LINE
  5
2E9
100
AcDbEntity
  8
3
100
AcDbLine
 62
7
  6
BYLAYER
 10
878.8711768166
 20
1235.3848671205
 11
881.8711768166
 21
1235.3848671205
  0
LINE
  5
2EA
100
AcDbEntity
  8
3
100
AcDbLine
 62
7
  6
BYLAYER
 10
878.7790613946
 20
1236.7373671205
 11
877.5344621328
 21
1236.7373671205
  0
LINE
  5
2EB
100
AcDbEntity
  8
3
100
AcDbLine
 62
7
  6
BYLAYER
 10
836.8711768166
 20
1240.3848671205
 11
881.8711768166
 21
1240.3848671205
  0
LINE
  5
2EC
100
AcDbEntity
  8
0
100
AcDbLine
 62
7
  6
BYLAYER
 10
904.8628376317
 20
2238.2525511575
 11
905.3628376317
 21
2237.7525511575
  0
LINE
  5
2ED
100
AcDbEntity
  8
0
100
AcDbLine
 62
7
  6
BYLAYER
 10
927.3628376317
 20
2238.2525511575
 11
927.8628376317
 21
2237.7525511575
  0
LINE
  5
2EE
100
AcDbEntity
  8
0
100
AcDbLine
 62
7
  6
BYLAYER
 10
925.6128381959
 20
2242.2525525719
 11
926.1128391796
 21
2241.7525517681
  0
LINE
  5
2EF
100
AcDbEntity
  8
3
100
AcDbLine
 62
7
  6
BYLAYER
 10
836.8711768166
 20
2139.4356287416
 11
881.8711768166
 21
2139.4356287416
  0
LINE
  5
2F0
100
AcDbEntity
  8
3
100
AcDbLine
 62
7
  6
BYLAYER
 10
877.5344621328
 20
2143.0831287416
 11
878.7790613946
 21
2143.0831287416
  0
LINE
  5
2F1
100
AcDbEntity
  8
3
100
AcDbLine
 62
7
  6
BYLAYER
 10
881.8711768166
 20
2144.4356287416
 11
878.8711768166
 21
2144.4356287416
  0
LINE
  5
2F2
100
AcDbEntity
  8
3
100
AcDbLine
 62
7
  6
BYLAYER
 10
877.4309771988
 20
2144.7590915612
 11
874.4309771988
 21
2144.7590915612
  0
LINE
  5
2F3
100
AcDbEntity
  8
3
100
AcDbLine
 62
7
  6
BYLAYER
 10
840.0711768166
 20
2146.1856287416
 11
853.5711768166
 21
2146.1856287416
  0
LINE
  5
2F4
100
AcDbEntity
  8
3
100
AcDbLine
 62
7
  6
BYLAYER
 10
870.1605217914
 20
2146.4356287416
 11
874.4309771988
 21
2146.4356287416
  0
LINE
  5
2F5
100
AcDbEntity
  8
3
100
AcDbLine
 62
7
  6
BYLAYER
 10
877.4309771988
 20
2146.4356287416
 11
877.5344621328
 21
2146.4356287416
  0
LINE
  5
2F6
100
AcDbEntity
  8
3
100
AcDbLine
 62
7
  6
BYLAYER
 10
878.7790613946
 20
2146.4356287416
 11
878.8711768166
 21
2146.4356287416
  0
LINE
  5
2F7
100
AcDbEntity
  8
3
100
AcDbLine
 62
7
  6
BYLAYER
 10
881.8711768166
 20
2146.4356287416
 11
882.1130783688
 21
2146.4356287416
  0
LINE
  5
2F8
100
AcDbEntity
  8
3
100
AcDbLine
 62
7
  6
BYLAYER
 10
877.4309771988
 20
2149.4356287416
 11
874.4309771988
 21
2149.4356287416
  0
LINE
  5
2F9
100
AcDbEntity
  8
3
100
AcDbLine
 62
7
  6
BYLAYER
 10
870.1605217914
 20
2152.4356287416
 11
874.4309771988
 21
2152.4356287416
  0
LINE
  5
2FA
100
AcDbEntity
  8
3
100
AcDbLine
 62
7
  6
BYLAYER
 10
877.4309771988
 20
2152.4356287416
 11
877.5344621328
 21
2152.4356287416
  0
LINE
  5
2FB
100
AcDbEntity
  8
3
100
AcDbLine
 62
7
  6
BYLAYER
 10
878.7790613946
 20
2152.4356287416
 11
878.8711768166
 21
2152.4356287416
  0
LINE
  5
2FC
100
AcDbEntity
  8
3
100
AcDbLine
 62
7
  6
BYLAYER
 10
881.8711768166
 20
2152.4356287416
 11
882.1130783688
 21
2152.4356287416
  0
LINE
  5
2FD
100
AcDbEntity
  8
3
100
AcDbLine
 62
7
  6
BYLAYER
 10
853.5711768166
 20
2152.6856287416
 11
840.0711768166
 21
2152.6856287416
  0
LINE
  5
2FE
100
AcDbEntity
  8
3
100
AcDbLine
 62
7
  6
BYLAYER
 10
877.4309771988
 20
2154.112165922
 11
874.4309771988
 21
2154.112165922
  0
LINE
  5
2FF
100
AcDbEntity
  8
3
100
AcDbLine
 62
7
  6
BYLAYER
 10
878.7790613946
 20
2155.7881287416
 11
877.5344621328
 21
2155.7881287416
  0
LINE
  5
300
100
AcDbEntity
  8
3
100
AcDbLine
 62
7
  6
BYLAYER
 10
877.5344621328
 20
2173.0831287416
 11
878.7790613946
 21
2173.0831287416
  0
LINE
  5
301
100
AcDbEntity
  8
3
100
AcDbLine
 62
7
  6
BYLAYER
 10
877.4309771988
 20
2174.7590915612
 11
874.4309771988
 21
2174.7590915612
  0
LINE
  5
302
100
AcDbEntity
  8
3
100
AcDbLine
 62
7
  6
BYLAYER
 10
840.0711768166
 20
2176.1856287416
 11
853.5711768166
 21
2176.1856287416
  0
LINE
  5
303
100
AcDbEntity
  8
3
100
AcDbLine
 62
7
  6
BYLAYER
 10
870.1605217914
 20
2176.4356287416
 11
874.4309771988
 21
2176.4356287416
  0
LINE
  5
304
100
AcDbEntity
  8
3
100
AcDbLine
 62
7
  6
BYLAYER
 10
877.4309771988
 20
2176.4356287416
 11
877.5344621328
 21
2176.4356287416
  0
LINE
  5
305
100
AcDbEntity
  8
3
100
AcDbLine
 62
7
  6
BYLAYER
 10
878.7790613946
 20
2176.4356287416
 11
878.8711768166
 21
2176.4356287416
  0
LINE
  5
306
100
AcDbEntity
  8
3
100
AcDbLine
 62
7
  6
BYLAYER
 10
881.8711768166
 20
2176.4356287416
 11
882.1130783688
 21
2176.4356287416
  0
LINE
  5
307
100
AcDbEntity
  8
3
100
AcDbLine
 62
7
  6
BYLAYER
 10
877.4309771988
 20
2179.4356287416
 11
874.4309771988
 21
2179.4356287416
  0
LINE
  5
308
100
AcDbEntity
  8
3
100
AcDbLine
 62
7
  6
BYLAYER
 10
870.1605217914
 20
2182.4356287416
 11
874.4309771988
 21
2182.4356287416
  0
LINE
  5
309
100
AcDbEntity
  8
3
100
AcDbLine
 62
7
  6
BYLAYER
 10
877.4309771988
 20
2182.4356287416
 11
877.5344621328
 21
2182.4356287416
  0
LINE
  5
30A
100
AcDbEntity
  8
3
100
AcDbLine
 62
7
  6
BYLAYER
 10
878.7790613946
 20
2182.4356287416
 11
878.8711768166
 21
2182.4356287416
  0
LINE
  5
30B
100
AcDbEntity
  8
3
100
AcDbLine
 62
7
  6
BYLAYER
 10
881.8711768166
 20
2182.4356287416
 11
882.1130783688
 21
2182.4356287416
  0
LINE
  5
30C
100
AcDbEntity
  8
3
100
AcDbLine
 62
7
  6
BYLAYER
 10
853.5711768166
 20
2182.6856287416
 11
840.0711768166
 21
2182.6856287416
  0
LINE
  5
30D
100
AcDbEntity
  8
3
100
AcDbLine
 62
7
  6
BYLAYER
 10
877.4309771988
 20
2184.112165922
 11
874.4309771988
 21
2184.112165922
  0
LINE
  5
30E
100
AcDbEntity
  8
3
100
AcDbLine
 62
7
  6
BYLAYER
 10
878.8711768166
 20
2184.4356287416
 11
881.8711768166
 21
2184.4356287416
  0
LINE
  5
30F
100
AcDbEntity
  8
3
100
AcDbLine
 62
7
  6
BYLAYER
 10
878.7790613946
 20
2185.7881287416
 11
877.5344621328
 21
2185.7881287416
  0
LINE
  5
310
100
AcDbEntity
  8
3
100
AcDbLine
 62
7
  6
BYLAYER
 10
836.8711768166
 20
2189.4356287416
 11
881.8711768166
 21
2189.4356287416
  0
LINE
  5
311
100
AcDbEntity
  8
0
100
AcDbLine
 62
7
  6
BYLAYER
 10
882.1128376317
 20
2214.2525511575
 11
937.1128376317
 21
2214.2525511575
  0
LINE
  5
312
100
AcDbEntity
  8
3
100
AcDbLine
 62
7
  6
BYLAYER
 10
882.1130783688
 20
2214.252563966
 11
937.1130956837
 21
2214.252563966
  0
LINE
  5
313
100
AcDbEntity
  8
0
100
AcDbLine
 62
7
  6
BYLAYER
 10
920.1292395402
 20
2227.7525511575
 11
912.1128376317
 21
2227.7525511575
  0
LINE
  5
314
100
AcDbEntity
  8
0
100
AcDbLine
 62
7
  6
BYLAYER
 10
897.5964357231
 20
2227.7525511575
 11
905.6128376317
 21
2227.7525511575
  0
LINE
  5
315
100
AcDbEntity
  8
0
100
AcDbLine
 62
7
  6
BYLAYER
 10
920.1290238366
 20
2227.7637454085
 11
912.2180466605
 21
2227.7637454085
  0
LINE
  5
316
100
AcDbEntity
  8
0
100
AcDbLine
 62
7
  6
BYLAYER
 10
897.5966516061
 20
2227.7637642404
 11
905.507541147
 21
2227.7637642404
  0
LINE
  5
317
100
AcDbEntity
  8
0
100
AcDbLine
 62
7
  6
BYLAYER
 10
897.5962198402
 20
2228.7413380746
 11
905.7181341163
 21
2228.7413380746
  0
LINE
  5
318
100
AcDbEntity
  8
0
100
AcDbLine
 62
7
  6
BYLAYER
 10
920.1294552438
 20
2228.7413569065
 11
912.0076286028
 21
2228.7413569065
  0
LINE
  5
319
100
AcDbEntity
  8
0
100
AcDbLine
 62
7
  6
BYLAYER
 10
882.1128376317
 20
2228.7525511575
 11
889.6128376317
 21
2228.7525511575
  0
LINE
  5
31A
100
AcDbEntity
  8
0
100
AcDbLine
 62
7
  6
BYLAYER
 10
923.6128376317
 20
2228.7525511575
 11
932.0249193235
 21
2228.7525511575
  0
LINE
  5
31B
100
AcDbEntity
  8
0
100
AcDbLine
 62
7
  6
BYLAYER
 10
882.6128376317
 20
2229.2525511575
 11
889.6128376317
 21
2229.2525511575
  0
LINE
  5
31C
100
AcDbEntity
  8
0
100
AcDbLine
 62
7
  6
BYLAYER
 10
923.6128376317
 20
2229.2525511575
 11
930.1625911253
 21
2229.2525511575
  0
LINE
  5
31D
100
AcDbEntity
  8
0
100
AcDbLine
 62
7
  6
BYLAYER
 10
930.5251528612
 20
2229.7525511575
 11
929.9128376317
 21
2229.7525511575
  0
LINE
  5
31E
100
AcDbEntity
  8
0
100
AcDbLine
 62
7
  6
BYLAYER
 10
923.3128376317
 20
2229.7525511575
 11
922.1128376317
 21
2229.7525512147
  0
LINE
  5
31F
100
AcDbEntity
  8
0
100
AcDbLine
 62
7
  6
BYLAYER
 10
891.1128376317
 20
2229.7525512264
 11
889.9128376317
 21
2229.7525511575
  0
LINE
  5
320
100
AcDbEntity
  8
0
100
AcDbLine
 62
7
  6
BYLAYER
 10
883.3128376317
 20
2229.7525511575
 11
882.1128376317
 21
2229.7525512265
  0
LINE
  5
321
100
AcDbEntity
  8
0
100
AcDbLine
 62
7
  6
BYLAYER
 10
882.1128376317
 20
2230.7525511575
 11
883.3128376317
 21
2230.7525511575
  0
LINE
  5
322
100
AcDbEntity
  8
0
100
AcDbLine
 62
7
  6
BYLAYER
 10
889.9128376317
 20
2230.7525511575
 11
905.6128376317
 21
2230.7525511509
  0
LINE
  5
323
100
AcDbEntity
  8
0
100
AcDbLine
 62
7
  6
BYLAYER
 10
913.6128376317
 20
2230.7525511575
 11
923.3128376317
 21
2230.7525511575
  0
LINE
  5
324
100
AcDbEntity
  8
0
100
AcDbLine
 62
7
  6
BYLAYER
 10
929.9128376317
 20
2230.7525511575
 11
937.1128376317
 21
2230.7525511575
  0
LINE
  5
325
100
AcDbEntity
  8
0
100
AcDbLine
 62
7
  6
BYLAYER
 10
883.3128376317
 20
2230.8525511575
 11
889.9128376317
 21
2230.8525511575
  0
LINE
  5
326
100
AcDbEntity
  8
0
100
AcDbLine
 62
7
  6
BYLAYER
 10
923.3128376317
 20
2230.8525511575
 11
929.9128376317
 21
2230.8525511575
  0
LINE
  5
327
100
AcDbEntity
  8
0
100
AcDbLine
 62
7
  6
BYLAYER
 10
905.4713894515
 20
2231.2525511575
 11
913.7533212859
 21
2231.2525511575
  0
LINE
  5
328
100
AcDbEntity
  8
0
100
AcDbLine
 62
7
  6
BYLAYER
 10
883.9396324282
 20
2231.7525511575
 11
883.1128376317
 21
2231.7525511575
  0
LINE
  5
329
100
AcDbEntity
  8
0
100
AcDbLine
 62
7
  6
BYLAYER
 10
889.2860428351
 20
2231.7525511575
 11
923.9396324282
 21
2231.7525511575
  0
LINE
  5
32A
100
AcDbEntity
  8
0
100
AcDbLine
 62
7
  6
BYLAYER
 10
929.2860428351
 20
2231.7525511575
 11
936.1128376317
 21
2231.7525511575
  0
LINE
  5
32B
100
AcDbEntity
  8
0
100
AcDbLine
 62
7
  6
BYLAYER
 10
884.3129302308
 20
2231.8525511575
 11
888.9127535331
 21
2231.8525511575
  0
LINE
  5
32C
100
AcDbEntity
  8
0
100
AcDbLine
 62
7
  6
BYLAYER
 10
924.3129302308
 20
2231.8525511575
 11
928.9127535331
 21
2231.8525511575
  0
LINE
  5
32D
100
AcDbEntity
  8
0
100
AcDbLine
 62
7
  6
BYLAYER
 10
927.8627733348
 20
2233.2525511575
 11
912.3629019285
 21
2233.2525511575
  0
LINE
  5
32E
100
AcDbEntity
  8
0
100
AcDbLine
 62
7
  6
BYLAYER
 10
905.3627733348
 20
2233.2525511575
 11
889.8629019285
 21
2233.2525511575
  0
LINE
  5
32F
100
AcDbEntity
  8
0
100
AcDbLine
 62
7
  6
BYLAYER
 10
927.8628376317
 20
2236.2525511575
 11
912.3628376317
 21
2236.2525511575
  0
LINE
  5
330
100
AcDbEntity
  8
0
100
AcDbLine
 62
7
  6
BYLAYER
 10
905.3628376317
 20
2236.2525511575
 11
889.8628376317
 21
2236.2525511575
  0
LINE
  5
331
100
AcDbEntity
  8
0
100
AcDbLine
 62
7
  6
BYLAYER
 10
889.8628376317
 20
2237.7525511575
 11
905.3628376317
 21
2237.7525511575
  0
LINE
  5
332
100
AcDbEntity
  8
0
100
AcDbLine
 62
7
  6
BYLAYER
 10
912.3628376317
 20
2237.7525511575
 11
927.8628376317
 21
2237.7525511575
  0
LINE
  5
333
100
AcDbEntity
  8
0
100
AcDbLine
 62
7
  6
BYLAYER
 10
890.3628376317
 20
2238.2525511575
 11
904.8628376317
 21
2238.2525511575
  0
LINE
  5
334
100
AcDbEntity
  8
0
100
AcDbLine
 62
7
  6
BYLAYER
 10
912.8628376317
 20
2238.2525511575
 11
927.3628376317
 21
2238.2525511575
  0
LINE
  5
335
100
AcDbEntity
  8
0
100
AcDbLine
 62
7
  6
BYLAYER
 10
893.4890976317
 20
2239.4525511575
 11
901.7390976317
 21
2239.4525511575
  0
LINE
  5
336
100
AcDbEntity
  8
0
100
AcDbLine
 62
7
  6
BYLAYER
 10
915.9884176317
 20
2239.4525511575
 11
924.1785898297
 21
2239.4525511575
  0
LINE
  5
337
100
AcDbEntity
  8
0
100
AcDbLine
 62
7
  6
BYLAYER
 10
893.7891851077
 20
2239.7525511575
 11
901.4391162488
 21
2239.7525511575
  0
LINE
  5
338
100
AcDbEntity
  8
0
100
AcDbLine
 62
7
  6
BYLAYER
 10
916.2884262959
 20
2239.7525511575
 11
923.8738122656
 21
2239.7525511575
  0
LINE
  5
339
100
AcDbEntity
  8
0
100
AcDbLine
 62
7
  6
BYLAYER
 10
914.1128376317
 20
2241.7525502201
 11
926.1128376317
 21
2241.7525502201
  0
LINE
  5
33A
100
AcDbEntity
  8
0
100
AcDbLine
 62
7
  6
BYLAYER
 10
914.6128370674
 20
2242.2525511575
 11
925.6128381959
 21
2242.2525511575
  0
ARC
  5
33B
100
AcDbEntity
  8
3
100
AcDbCircle
 62
7
  6
BYLAYER
 10
836.8711768166
 20
288.1007262807
 40
5.0
100
AcDbArc
 50
90.0
 51
180.0
  0
ARC
  5
33C
100
AcDbEntity
  8
3
100
AcDbCircle
 62
7
  6
BYLAYER
 10
836.8711768166
 20
248.1007262807
 40
5.0
100
AcDbArc
 50
180.0
 51
270.0
  0
ARC
  5
33D
100
AcDbEntity
  8
3
100
AcDbCircle
 62
7
  6
BYLAYER
 10
840.0711768166
 20
253.1007262807
 40
3.25
100
AcDbArc
 50
90.0
 51
270.0
  0
ARC
  5
33E
100
AcDbEntity
  8
3
100
AcDbCircle
 62
7
  6
BYLAYER
 10
853.5711768166
 20
253.1007262807
 40
3.25
100
AcDbArc
 50
270.0
 51
90.0
  0
ARC
  5
33F
100
AcDbEntity
  8
3
100
AcDbCircle
 62
7
  6
BYLAYER
 10
840.0711768166
 20
283.1007262807
 40
3.25
100
AcDbArc
 50
90.0
 51
270.0
  0
ARC
  5
340
100
AcDbEntity
  8
3
100
AcDbCircle
 62
7
  6
BYLAYER
 10
853.5711768166
 20
283.1007262807
 40
3.25
100
AcDbArc
 50
270.0
 51
90.0
  0
ARC
  5
341
100
AcDbEntity
  8
3
100
AcDbCircle
 62
7
  6
BYLAYER
 10
836.8711768166
 20
1195.3848671205
 40
5.0
100
AcDbArc
 50
180.0
 51
270.0
  0
ARC
  5
342
100
AcDbEntity
  8
3
100
AcDbCircle
 62
7
  6
BYLAYER
 10
840.0711768166
 20
1200.3848671205
 40
3.25
100
AcDbArc
 50
90.0
 51
270.0
  0
ARC
  5
343
100
AcDbEntity
  8
3
100
AcDbCircle
 62
7
  6
BYLAYER
 10
853.5711768166
 20
1200.3848671205
 40
3.25
100
AcDbArc
 50
270.0
 51
90.0
  0
ARC
  5
344
100
AcDbEntity
  8
0
100
AcDbCircle
 62
7
  6
BYLAYER
 10
884.3130838105
 20
199.1525511575
 40
1.0
100
AcDbArc
 50
180.0
 51
270.0
  0
ARC
  5
345
100
AcDbEntity
  8
0
100
AcDbCircle
 62
7
  6
BYLAYER
 10
883.1125968945
 20
199.252441019
 40
1.0
100
AcDbArc
 50
180.0000000001
 51
270.0
  0
ARC
  5
346
100
AcDbEntity
  8
0
100
AcDbCircle
 62
7
  6
BYLAYER
 10
882.6125968945
 20
201.252441019
 40
0.5
100
AcDbArc
 50
180.0
 51
270.0
  0
ARC
  5
347
100
AcDbEntity
  8
3
100
AcDbCircle
 62
7
  6
BYLAYER
 10
836.8711768166
 20
1235.3848671205
 40
5.0
100
AcDbArc
 50
90.0
 51
180.0
  0
ARC
  5
348
100
AcDbEntity
  8
3
100
AcDbCircle
 62
7
  6
BYLAYER
 10
840.0711768166
 20
1230.3848671205
 40
3.25
100
AcDbArc
 50
90.0
 51
270.0
  0
ARC
  5
349
100
AcDbEntity
  8
3
100
AcDbCircle
 62
7
  6
BYLAYER
 10
853.5711768166
 20
1230.3848671205
 40
3.25
100
AcDbArc
 50
270.0
 51
90.0
  0
ARC
  5
34A
100
AcDbEntity
  8
3
100
AcDbCircle
 62
7
  6
BYLAYER
 10
836.8711768166
 20
2184.4356287416
 40
5.0
100
AcDbArc
 50
90.0
 51
180.0
  0
ARC
  5
34B
100
AcDbEntity
  8
3
100
AcDbCircle
 62
7
  6
BYLAYER
 10
836.8711768166
 20
2144.4356287416
 40
5.0
100
AcDbArc
 50
180.0
 51
270.0
  0
ARC
  5
34C
100
AcDbEntity
  8
3
100
AcDbCircle
 62
7
  6
BYLAYER
 10
840.0711768166
 20
2149.4356287416
 40
3.25
100
AcDbArc
 50
90.0
 51
270.0
  0
ARC
  5
34D
100
AcDbEntity
  8
3
100
AcDbCircle
 62
7
  6
BYLAYER
 10
853.5711768166
 20
2149.4356287416
 40
3.25
100
AcDbArc
 50
270.0
 51
90.0
  0
ARC
  5
34E
100
AcDbEntity
  8
3
100
AcDbCircle
 62
7
  6
BYLAYER
 10
840.0711768166
 20
2179.4356287416
 40
3.25
100
AcDbArc
 50
90.0
 51
270.0
  0
ARC
  5
34F
100
AcDbEntity
  8
3
100
AcDbCircle
 62
7
  6
BYLAYER
 10
853.5711768166
 20
2179.4356287416
 40
3.25
100
AcDbArc
 50
270.0
 51
90.0
  0
ARC
  5
350
100
AcDbEntity
  8
0
100
AcDbCircle
 62
7
  6
BYLAYER
 10
884.3128376317
 20
2230.8525511575
 40
1.0
100
AcDbArc
 50
90.0
 51
180.0
  0
ARC
  5
351
100
AcDbEntity
  8
0
100
AcDbCircle
 62
7
  6
BYLAYER
 10
883.1128376317
 20
2230.7525511575
 40
1.0
100
AcDbArc
 50
90.0
 51
180.0000000001
  0
ARC
  5
352
100
AcDbEntity
  8
0
100
AcDbCircle
 62
7
  6
BYLAYER
 10
882.6128376317
 20
2228.7525511575
 40
0.5
100
AcDbArc
 50
90.0
 51
180.0
  0
ARC
  5
353
100
AcDbEntity
  8
0
100
AcDbCircle
 62
7
  6
BYLAYER
 10
909.8393995425
 20
186.6779123722
 40
25.9492032829
100
AcDbArc
 50
33.0803197527
 51
33.6236390984
  0
ARC
  5
354
100
AcDbEntity
  8
0
100
AcDbCircle
 62
7
  6
BYLAYER
 10
888.9130838105
 20
199.1525511575
 40
1.0
100
AcDbArc
 50
270.0
 51
360.0
  0
ARC
  5
355
100
AcDbEntity
  8
0
100
AcDbCircle
 62
7
  6
BYLAYER
 10
904.6125968945
 20
199.252441019
 40
1.0
100
AcDbArc
 50
270.0
 51
360.0
  0
ARC
  5
356
100
AcDbEntity
  8
0
100
AcDbCircle
 62
7
  6
BYLAYER
 10
891.1125968945
 20
199.252441019
 40
1.0
100
AcDbArc
 50
180.0
 51
270.0
  0
ARC
  5
357
100
AcDbEntity
  8
0
100
AcDbCircle
 62
7
  6
BYLAYER
 10
889.6125968945
 20
200.252441019
 40
0.5
100
AcDbArc
 50
0.0
 51
90.0
  0
ARC
  5
358
100
AcDbEntity
  8
0
100
AcDbCircle
 62
7
  6
BYLAYER
 10
924.3130956837
 20
199.1525511575
 40
1.0
100
AcDbArc
 50
180.0
 51
270.0
  0
ARC
  5
359
100
AcDbEntity
  8
0
100
AcDbCircle
 62
7
  6
BYLAYER
 10
928.9130956837
 20
199.1525511575
 40
1.0
100
AcDbArc
 50
270.0
 51
360.0
  0
ARC
  5
35A
100
AcDbEntity
  8
0
100
AcDbCircle
 62
7
  6
BYLAYER
 10
914.6125968945
 20
199.252441019
 40
1.0
100
AcDbArc
 50
179.9999999984
 51
270.0
  0
ARC
  5
35B
100
AcDbEntity
  8
0
100
AcDbCircle
 62
7
  6
BYLAYER
 10
922.1125968945
 20
199.252441019
 40
1.0
100
AcDbArc
 50
270.0
 51
360.0
  0
ARC
  5
35C
100
AcDbEntity
  8
0
100
AcDbCircle
 62
7
  6
BYLAYER
 10
931.1125968945
 20
199.252441019
 40
1.0
100
AcDbArc
 50
180.0
 51
270.0
  0
ARC
  5
35D
100
AcDbEntity
  8
0
100
AcDbCircle
 62
7
  6
BYLAYER
 10
936.1125968944
 20
199.252441019
 40
1.0
100
AcDbArc
 50
270.0000000017
 51
360.0
  0
ARC
  5
35E
100
AcDbEntity
  8
0
100
AcDbCircle
 62
7
  6
BYLAYER
 10
923.6125968945
 20
200.252441019
 40
0.5
100
AcDbArc
 50
90.0
 51
180.0
  0
ARC
  5
35F
100
AcDbEntity
  8
0
100
AcDbCircle
 62
7
  6
BYLAYER
 10
929.6125968945
 20
200.252441019
 40
0.5
100
AcDbArc
 50
0.0
 51
90.0
  0
ARC
  5
360
100
AcDbEntity
  8
0
100
AcDbCircle
 62
7
  6
BYLAYER
 10
888.9128376317
 20
2230.8525511575
 40
1.0
100
AcDbArc
 50
0.0
 51
90.0
  0
ARC
  5
361
100
AcDbEntity
  8
0
100
AcDbCircle
 62
7
  6
BYLAYER
 10
891.1128376317
 20
2230.7525511575
 40
1.0
100
AcDbArc
 50
90.0
 51
180.0
  0
ARC
  5
362
100
AcDbEntity
  8
0
100
AcDbCircle
 62
7
  6
BYLAYER
 10
904.6128376317
 20
2230.7525511575
 40
1.0
100
AcDbArc
 50
0.0
 51
90.0
  0
ARC
  5
363
100
AcDbEntity
  8
0
100
AcDbCircle
 62
7
  6
BYLAYER
 10
889.6128376317
 20
2229.7525511575
 40
0.5
100
AcDbArc
 50
270.0
 51
360.0
  0
ARC
  5
364
100
AcDbEntity
  8
0
100
AcDbCircle
 62
7
  6
BYLAYER
 10
912.1128376317
 20
2228.2525511575
 40
0.5
100
AcDbArc
 50
102.1468526143
 51
282.1468526144
  0
ARC
  5
365
100
AcDbEntity
  8
0
100
AcDbCircle
 62
7
  6
BYLAYER
 10
905.6128376317
 20
2228.2525511575
 40
0.5
100
AcDbArc
 50
257.8196647598
 51
77.8196647598
  0
ARC
  5
366
100
AcDbEntity
  8
0
100
AcDbCircle
 62
7
  6
BYLAYER
 10
909.8396406796
 20
2243.3270795412
 40
25.9492028042
100
AcDbArc
 50
326.3763608965
 51
326.9196802523
  0
ARC
  5
367
100
AcDbEntity
  8
0
100
AcDbCircle
 62
7
  6
BYLAYER
 10
893.7890976317
 20
2239.4525511575
 40
0.3
100
AcDbArc
 50
90.0
 51
180.0
  0
ARC
  5
368
100
AcDbEntity
  8
0
100
AcDbCircle
 62
7
  6
BYLAYER
 10
901.4390976317
 20
2239.4525511575
 40
0.3
100
AcDbArc
 50
0.0000000001
 51
90.0
  0
ARC
  5
369
100
AcDbEntity
  8
0
100
AcDbCircle
 62
7
  6
BYLAYER
 10
924.3128376317
 20
2230.8525511575
 40
1.0
100
AcDbArc
 50
90.0
 51
180.0
  0
ARC
  5
36A
100
AcDbEntity
  8
0
100
AcDbCircle
 62
7
  6
BYLAYER
 10
928.9128376317
 20
2230.8525511575
 40
1.0
100
AcDbArc
 50
0.0
 51
90.0
  0
ARC
  5
36B
100
AcDbEntity
  8
0
100
AcDbCircle
 62
7
  6
BYLAYER
 10
914.6128376317
 20
2230.7525511575
 40
1.0
100
AcDbArc
 50
90.0
 51
180.0000000008
  0
ARC
  5
36C
100
AcDbEntity
  8
0
100
AcDbCircle
 62
7
  6
BYLAYER
 10
936.1128376317
 20
2230.7525511575
 40
1.0
100
AcDbArc
 50
0.0000000002
 51
90.0000000009
  0
ARC
  5
36D
100
AcDbEntity
  8
0
100
AcDbCircle
 62
7
  6
BYLAYER
 10
922.1128376317
 20
2230.7525511575
 40
1.0
100
AcDbArc
 50
0.0
 51
90.0
  0
ARC
  5
36E
100
AcDbEntity
  8
0
100
AcDbCircle
 62
7
  6
BYLAYER
 10
931.1128376317
 20
2230.7525511575
 40
1.0
100
AcDbArc
 50
90.0000000003
 51
180.0
  0
ARC
  5
36F
100
AcDbEntity
  8
0
100
AcDbCircle
 62
7
  6
BYLAYER
 10
929.6128376317
 20
2229.7525511575
 40
0.5
100
AcDbArc
 50
270.0
 51
360.0
  0
ARC
  5
370
100
AcDbEntity
  8
0
100
AcDbCircle
 62
7
  6
BYLAYER
 10
923.6128376317
 20
2229.7525511575
 40
0.5
100
AcDbArc
 50
179.9999999999
 51
270.0
  0
ARC
  5
371
100
AcDbEntity
  8
0
100
AcDbCircle
 62
7
  6
BYLAYER
 10
923.8756822465
 20
2239.4477810735
 40
0.3044707676
100
AcDbArc
 50
36.4827958934
 51
54.5150619298
  0
ARC
  5
372
100
AcDbEntity
  8
0
100
AcDbCircle
 62
7
  6
BYLAYER
 10
916.2884176317
 20
2239.4525511575
 40
0.3
100
AcDbArc
 50
90.0
 51
180.0
  0
SPLINE
  5
373
100
AcDbEntity
  8
0
100
AcDbSpline
 62
7
  6
BYLAYER
 70
0
 71
3
 72
8
 73
4
 74
0
 42
0.0000001
 43
0.0000001
 44
0.0000000001
 40
0.0
 40
0.0
 40
0.0
 40
0.0
 40
1.0
 40
1.0
 40
1.0
 40
1.0
 10
924.1785898297
 20
2239.4525511575
 30
0.0
 10
924.1785898297
 20
2239.5144151389
 30
0.0
 10
924.1572040919
 20
2239.5790237021
 30
0.0
 10
924.1204875313
 20
2239.6288137248
 30
0.0
  0
SPLINE
  5
374
100
AcDbEntity
  8
0
100
AcDbSpline
 62
7
  6
BYLAYER
 70
0
 71
3
 72
8
 73
4
 74
0
 42
0.0000001
 43
0.0000001
 44
0.0000000001
 40
0.0
 40
0.0
 40
0.0
 40
0.0
 40
1.0
 40
1.0
 40
1.0
 40
1.0
 10
924.0524241537
 20
2239.6957019208
 30
0.0
 10
924.0015255052
 20
2239.7319387126
 30
0.0
 10
923.9362926079
 20
2239.7525526634
 30
0.0
 10
923.8738123911
 20
2239.7525511575
 30
0.0
  0
SPLINE
  5
375
100
AcDbEntity
  8
0
100
AcDbSpline
 62
7
  6
BYLAYER
 70
0
 71
3
 72
13
 73
9
 74
0
 42
0.0000001
 43
0.0000001
 44
0.0000000001
 40
0.0
 40
0.0
 40
0.0
 40
0.0
 40
0.263683202
 40
0.5741154223
 40
0.7239646888
 40
0.8563112027
 40
0.9572588386
 40
1.0
 40
1.0
 40
1.0
 40
1.0
 10
883.1128376433
 20
2229.7525511575
 30
0.0
 10
883.1128374884
 20
2229.6892571428
 30
0.0
 10
883.0186070983
 20
2229.5668564758
 30
0.0
 10
882.8912570411
 20
2229.4571034145
 30
0.0
 10
882.7805502055
 20
2229.3665523228
 30
0.0
 10
882.7050656815
 20
2229.3138663143
 30
0.0
 10
882.6548244551
 20
2229.2709653539
 30
0.0
 10
882.6192128545
 20
2229.2605894517
 30
0.0
 10
882.6128376399
 20
2229.2525511604
 30
0.0
  0
SPLINE
  5
376
100
AcDbEntity
  8
0
100
AcDbSpline
 62
7
  6
BYLAYER
 70
0
 71
3
 72
11
 73
7
 74
0
 42
0.0000001
 43
0.0000001
 44
0.0000000001
 40
0.0
 40
0.0
 40
0.0
 40
0.0
 40
0.3404385698
 40
0.6266185405
 40
0.8401374976
 40
1.0
 40
1.0
 40
1.0
 40
1.0
 10
905.1128362085
 20
2230.7525511575
 30
0.0
 10
905.1128362081
 20
2230.8891521757
 30
0.0
 10
905.0879746941
 20
2231.1417999657
 30
0.0
 10
904.9802251239
 20
2231.4640632937
 30
0.0
 10
904.8257448589
 20
2231.6869680029
 30
0.0
 10
904.676979538
 20
2231.7525366642
 30
0.0
 10
904.6128346908
 20
2231.752551158
 30
0.0
  0
SPLINE
  5
377
100
AcDbEntity
  8
0
100
AcDbSpline
 62
7
  6
BYLAYER
 70
0
 71
3
 72
11
 73
7
 74
0
 42
0.0000001
 43
0.0000001
 44
0.0000000001
 40
0.0
 40
0.0
 40
0.0
 40
0.0
 40
0.2478324097
 40
0.4979557222
 40
0.7486362922
 40
1.0
 40
1.0
 40
1.0
 40
1.0
 10
922.1128376317
 20
2229.7525511575
 30
0.0
 10
922.1128378999
 20
2229.5884297376
 30
0.0
 10
922.2449974481
 20
2229.2583510797
 30
0.0
 10
922.6325144527
 20
2228.9318226752
 30
0.0
 10
923.1110806984
 20
2228.7590769463
 30
0.0
 10
923.4463776893
 20
2228.7525511498
 30
0.0
 10
923.6128376317
 20
2228.7525511575
 30
0.0
  0
SPLINE
  5
378
100
AcDbEntity
  8
0
100
AcDbSpline
 62
7
  6
BYLAYER
 70
0
 71
3
 72
11
 73
7
 74
0
 42
0.0000001
 43
0.0000001
 44
0.0000000001
 40
0.0
 40
0.0
 40
0.0
 40
0.0
 40
0.120571506
 40
0.2170399303
 40
0.3388564874
 40
1.0
 40
1.0
 40
1.0
 40
1.0
 10
935.3875587596
 20
2231.7525511575
 30
0.0
 10
935.4308243129
 20
2231.7525511575
 30
0.0
 10
935.4956946583
 20
2231.6839365157
 30
0.0
 10
935.5453524583
 20
2231.577412781
 30
0.0
 10
935.6438938487
 20
2231.2739414589
 30
0.0
 10
935.6622798875
 20
2230.9897941088
 30
0.0
 10
935.6622798875
 20
2230.7525511575
 30
0.0
  0
SPLINE
  5
379
100
AcDbEntity
  8
0
100
AcDbSpline
 62
7
  6
BYLAYER
 70
0
 71
3
 72
8
 73
4
 74
0
 42
0.0000001
 43
0.0000001
 44
0.0000000001
 40
0.0
 40
0.0
 40
0.0
 40
0.0
 40
1.0
 40
1.0
 40
1.0
 40
1.0
 10
932.0249193235
 20
2228.7525511575
 30
0.0
 10
931.8331180008
 20
2228.8230549468
 30
0.0
 10
931.6408432291
 20
2228.8923567988
 30
0.0
 10
931.4473563555
 20
2228.9580938615
 30
0.0
  0
SPLINE
  5
37A
100
AcDbEntity
  8
0
100
AcDbSpline
 62
7
  6
BYLAYER
 70
0
 71
3
 72
8
 73
4
 74
0
 42
0.0000001
 43
0.0000001
 44
0.0000000001
 40
0.0
 40
0.0
 40
0.0
 40
0.0
 40
1.0
 40
1.0
 40
1.0
 40
1.0
 10
931.5826398598
 20
2229.1636366735
 30
0.0
 10
931.7345258931
 20
2229.0315684592
 30
0.0
 10
931.8812055377
 20
2228.8934686169
 30
0.0
 10
932.0249194178
 20
2228.7525512616
 30
0.0
  0
SPLINE
  5
37B
100
AcDbEntity
  8
0
100
AcDbSpline
 62
7
  6
BYLAYER
 70
0
 71
3
 72
10
 73
6
 74
0
 42
0.0000001
 43
0.0000001
 44
0.0000000001
 40
0.0
 40
0.0
 40
0.0
 40
0.0
 40
0.2114258548
 40
0.4596612947
 40
1.0
 40
1.0
 40
1.0
 40
1.0
 10
930.5251528612
 20
2229.7525511575
 30
0.0
 10
930.6115538642
 20
2229.752550571
 30
0.0
 10
930.7968479717
 20
2229.6967961962
 30
0.0
 10
931.1557882274
 20
2229.5034144918
 30
0.0
 10
931.4159940214
 20
2229.3085091126
 30
0.0
 10
931.5826397659
 20
2229.1636365655
 30
0.0
  0
SPLINE
  5
37C
100
AcDbEntity
  8
0
100
AcDbSpline
 62
7
  6
BYLAYER
 70
0
 71
3
 72
9
 73
5
 74
0
 42
0.0000001
 43
0.0000001
 44
0.0000000001
 40
0.0
 40
0.0
 40
0.0
 40
0.0
 40
0.5196726509
 40
1.0
 40
1.0
 40
1.0
 40
1.0
 10
931.4473564149
 20
2228.9580940672
 30
0.0
 10
931.2316421351
 20
2229.0345972555
 30
0.0
 10
930.8105513732
 20
2229.1597850997
 30
0.0
 10
930.3741409748
 20
2229.2525506605
 30
0.0
 10
930.1625912144
 20
2229.2525511575
 30
0.0
  0
SPLINE
  5
37D
100
AcDbEntity
  8
0
100
AcDbSpline
 62
7
  6
BYLAYER
 70
0
 71
3
 72
8
 73
4
 74
0
 42
0.0000001
 43
0.0000001
 44
0.0000000001
 40
0.0
 40
0.0
 40
0.0
 40
0.0
 40
1.0
 40
1.0
 40
1.0
 40
1.0
 10
931.4594994642
 20
2228.7525511575
 30
0.0
 10
931.4594994642
 20
2228.8211848537
 30
0.0
 10
931.4557945845
 20
2228.8899808632
 30
0.0
 10
931.4473563555
 20
2228.9580938615
 30
0.0
  0
SPLINE
  5
37E
100
AcDbEntity
  8
0
100
AcDbSpline
 62
7
  6
BYLAYER
 70
0
 71
3
 72
11
 73
7
 74
0
 42
0.0000001
 43
0.0000001
 44
0.0000000001
 40
0.0
 40
0.0
 40
0.0
 40
0.0
 40
0.6609774156
 40
0.7828338934
 40
0.8793721578
 40
1.0
 40
1.0
 40
1.0
 40
1.0
 10
932.0249193235
 20
2230.7525511575
 30
0.0
 10
932.0249193235
 20
2230.9897339888
 30
0.0
 10
932.0065334651
 20
2231.2738273653
 30
0.0
 10
931.9080399781
 20
2231.5772938107
 30
0.0
 10
931.8583781959
 20
2231.6838743221
 30
0.0
 10
931.7934838699
 20
2231.7525511575
 30
0.0
 10
931.7501981956
 20
2231.7525511575
 30
0.0
  0
SPLINE
  5
37F
100
AcDbEntity
  8
0
100
AcDbSpline
 62
7
  6
BYLAYER
 70
0
 71
3
 72
10
 73
6
 74
0
 42
0.0000001
 43
0.0000001
 44
0.0000000001
 40
0.0
 40
0.0
 40
0.0
 40
0.0
 40
0.5485257156
 40
0.7949517469
 40
1.0
 40
1.0
 40
1.0
 40
1.0
 10
930.5251528621
 20
2229.7525511575
 30
0.0
 10
930.5251528489
 20
2229.6294989062
 30
0.0
 10
930.4772164424
 20
2229.4416379553
 30
0.0
 10
930.3111302305
 20
2229.2812837384
 30
0.0
 10
930.2085902455
 20
2229.2525511572
 30
0.0
 10
930.1625912185
 20
2229.2525511575
 30
0.0
  0
SPLINE
  5
380
100
AcDbEntity
  8
0
100
AcDbSpline
 62
7
  6
BYLAYER
 70
0
 71
3
 72
11
 73
7
 74
0
 42
0.0000001
 43
0.0000001
 44
0.0000000001
 40
0.0
 40
0.0
 40
0.0
 40
0.0
 40
0.1598605771
 40
0.3733762137
 40
0.6595504004
 40
1.0
 40
1.0
 40
1.0
 40
1.0
 10
914.6128396659
 20
2231.7525511579
 30
0.0
 10
914.5486955848
 20
2231.7525380266
 30
0.0
 10
914.3999321752
 20
2231.6869689498
 30
0.0
 10
914.245452861
 20
2231.4640702777
 30
0.0
 10
914.1377002518
 20
2231.1418065721
 30
0.0
 10
914.1128388174
 20
2230.8891566146
 30
0.0
 10
914.1128381725
 20
2230.7525511576
 30
0.0
  0
SPLINE
  5
381
100
AcDbEntity
  8
0
100
AcDbSpline
 62
7
  6
BYLAYER
 70
0
 71
3
 72
11
 73
7
 74
0
 42
0.0000001
 43
0.0000001
 44
0.0000000001
 40
0.0
 40
0.0
 40
0.0
 40
0.0
 40
0.2478327053
 40
0.4979558062
 40
0.7486361583
 40
1.0
 40
1.0
 40
1.0
 40
1.0
 10
891.1128376317
 20
2229.7525511575
 30
0.0
 10
891.1128371961
 20
2229.588429542
 30
0.0
 10
890.9806777179
 20
2229.2583508281
 30
0.0
 10
890.5931606048
 20
2228.9318226511
 30
0.0
 10
890.1145946145
 20
2228.7590769311
 30
0.0
 10
889.7792976625
 20
2228.7525511162
 30
0.0
 10
889.6128376317
 20
2228.7525511575
 30
0.0
  0
SPLINE
  5
382
100
AcDbEntity
  8
0
100
AcDbSpline
 62
7
  6
BYLAYER
 70
0
 71
3
 72
11
 73
7
 74
0
 42
0.0000001
 43
0.0000001
 44
0.0000000001
 40
0.0
 40
0.0
 40
0.0
 40
0.0
 40
0.3404385908
 40
0.6266185618
 40
0.8401375074
 40
1.0
 40
1.0
 40
1.0
 40
1.0
 10
914.1125982022
 20
199.252441019
 30
0.0
 10
914.1125982026
 20
199.1158399902
 30
0.0
 10
914.1374597199
 20
198.863192187
 30
0.0
 10
914.2452092986
 20
198.5409288526
 30
0.0
 10
914.3996895706
 20
198.3180241495
 30
0.0
 10
914.5484548931
 20
198.2524555073
 30
0.0
 10
914.6125997374
 20
198.2524410186
 30
0.0
  0
SPLINE
  5
383
100
AcDbEntity
  8
0
100
AcDbSpline
 62
7
  6
BYLAYER
 70
0
 71
3
 72
11
 73
7
 74
0
 42
0.0000001
 43
0.0000001
 44
0.0000000001
 40
0.0
 40
0.0
 40
0.0
 40
0.0
 40
0.120571506
 40
0.2170399303
 40
0.3388564874
 40
1.0
 40
1.0
 40
1.0
 40
1.0
 10
931.7499574584
 20
198.252441019
 30
0.0
 10
931.7932230118
 20
198.252441019
 30
0.0
 10
931.8580933572
 20
198.3210556608
 30
0.0
 10
931.9077511572
 20
198.4275793955
 30
0.0
 10
932.0062925476
 20
198.7310507177
 30
0.0
 10
932.0246785863
 20
199.0151980677
 30
0.0
 10
932.0246785863
 20
199.252441019
 30
0.0
  0
SPLINE
  5
384
100
AcDbEntity
  8
0
100
AcDbSpline
 62
7
  6
BYLAYER
 70
0
 71
3
 72
13
 73
9
 74
0
 42
0.0000001
 43
0.0000001
 44
0.0000000001
 40
0.0
 40
0.0
 40
0.0
 40
0.0
 40
0.0427411614
 40
0.1436887974
 40
0.2760353114
 40
0.425884578
 40
0.7363167985
 40
1.0
 40
1.0
 40
1.0
 40
1.0
 10
882.6125969019
 20
200.7524410162
 30
0.0
 10
882.6189651371
 20
200.7443971945
 30
0.0
 10
882.6545915706
 20
200.7340330458
 30
0.0
 10
882.7048212341
 20
200.6911229229
 30
0.0
 10
882.7803107071
 20
200.6384408359
 30
0.0
 10
882.8910155184
 20
200.5478881402
 30
0.0
 10
883.0183666023
 20
200.4381358928
 30
0.0
 10
883.1125967495
 20
200.3157350336
 30
0.0
 10
883.1125969044
 20
200.252441019
 30
0.0
  0
SPLINE
  5
385
100
AcDbEntity
  8
0
100
AcDbSpline
 62
7
  6
BYLAYER
 70
0
 71
3
 72
11
 73
7
 74
0
 42
0.0000001
 43
0.0000001
 44
0.0000000001
 40
0.0
 40
0.0
 40
0.0
 40
0.0
 40
0.2478325037
 40
0.497955658
 40
0.7486362695
 40
1.0
 40
1.0
 40
1.0
 40
1.0
 10
891.1125968945
 20
200.252441019
 30
0.0
 10
891.1125964588
 20
200.4165625013
 30
0.0
 10
890.9804371324
 20
200.7466411212
 30
0.0
 10
890.5929200419
 20
201.0731694836
 30
0.0
 10
890.1143538938
 20
201.2459152209
 30
0.0
 10
889.7790568519
 20
201.2524410604
 30
0.0
 10
889.6125968945
 20
201.252441019
 30
0.0
  0
SPLINE
  5
386
100
AcDbEntity
  8
0
100
AcDbSpline
 62
7
  6
BYLAYER
 70
0
 71
3
 72
11
 73
7
 74
0
 42
0.0000001
 43
0.0000001
 44
0.0000000001
 40
0.0
 40
0.0
 40
0.0
 40
0.0
 40
0.1598605678
 40
0.3733761936
 40
0.6595503807
 40
1.0
 40
1.0
 40
1.0
 40
1.0
 10
904.6125949526
 20
198.2524410187
 30
0.0
 10
904.676739031
 20
198.2524541429
 30
0.0
 10
904.825502442
 20
198.3180232054
 30
0.0
 10
904.9799817629
 20
198.5409218697
 30
0.0
 10
905.0877343801
 20
198.8631855822
 30
0.0
 10
905.1125958175
 20
199.1158355519
 30
0.0
 10
905.1125964625
 20
199.252441019
 30
0.0
  0
SPLINE
  5
387
100
AcDbEntity
  8
0
100
AcDbSpline
 62
7
  6
BYLAYER
 70
0
 71
3
 72
11
 73
7
 74
0
 42
0.0000001
 43
0.0000001
 44
0.0000000001
 40
0.0
 40
0.0
 40
0.0
 40
0.0
 40
0.2478327053
 40
0.4979558062
 40
0.7486361583
 40
1.0
 40
1.0
 40
1.0
 40
1.0
 10
922.1125968945
 20
200.252441019
 30
0.0
 10
922.1125973301
 20
200.4165626345
 30
0.0
 10
922.2447568082
 20
200.7466413484
 30
0.0
 10
922.6322739213
 20
201.0731695254
 30
0.0
 10
923.1108399116
 20
201.2459152455
 30
0.0
 10
923.4461368637
 20
201.2524410604
 30
0.0
 10
923.6125968945
 20
201.252441019
 30
0.0
  0
SPLINE
  5
388
100
AcDbEntity
  8
0
100
AcDbSpline
 62
7
  6
BYLAYER
 70
0
 71
3
 72
8
 73
4
 74
0
 42
0.0000001
 43
0.0000001
 44
0.0000000001
 40
0.0
 40
0.0
 40
0.0
 40
0.0
 40
1.0
 40
1.0
 40
1.0
 40
1.0
 10
932.0246787185
 20
201.2524408732
 30
0.0
 10
931.8809648
 20
201.1115235565
 30
0.0
 10
931.7342851927
 20
200.9734236758
 30
0.0
 10
931.5823991602
 20
200.8413554597
 30
0.0
  0
SPLINE
  5
389
100
AcDbEntity
  8
0
100
AcDbSpline
 62
7
  6
BYLAYER
 70
0
 71
3
 72
8
 73
4
 74
0
 42
0.0000001
 43
0.0000001
 44
0.0000000001
 40
0.0
 40
0.0
 40
0.0
 40
0.0
 40
1.0
 40
1.0
 40
1.0
 40
1.0
 10
932.0246785863
 20
201.252441019
 30
0.0
 10
931.8328772466
 20
201.1819372762
 30
0.0
 10
931.6406024955
 20
201.1126353674
 30
0.0
 10
931.4471156183
 20
201.046898315
 30
0.0
  0
SPLINE
  5
38A
100
AcDbEntity
  8
0
100
AcDbSpline
 62
7
  6
BYLAYER
 70
0
 71
3
 72
10
 73
6
 74
0
 42
0.0000001
 43
0.0000001
 44
0.0000000001
 40
0.0
 40
0.0
 40
0.0
 40
0.0
 40
0.211426268
 40
0.4596614222
 40
1.0
 40
1.0
 40
1.0
 40
1.0
 10
930.5249121033
 20
200.252441019
 30
0.0
 10
930.611313276
 20
200.2524416014
 30
0.0
 10
930.796607425
 20
200.3081960931
 30
0.0
 10
931.1555476491
 20
200.5015778241
 30
0.0
 10
931.4157533352
 20
200.6964830816
 30
0.0
 10
931.5823990287
 20
200.841355611
 30
0.0
  0
SPLINE
  5
38B
100
AcDbEntity
  8
0
100
AcDbSpline
 62
7
  6
BYLAYER
 70
0
 71
3
 72
10
 73
6
 74
0
 42
0.0000001
 43
0.0000001
 44
0.0000000001
 40
0.0
 40
0.0
 40
0.0
 40
0.0
 40
0.2050482569
 40
0.4514742889
 40
1.0
 40
1.0
 40
1.0
 40
1.0
 10
930.1623504632
 20
200.752441019
 30
0.0
 10
930.2083494911
 20
200.7524410194
 30
0.0
 10
930.3108894774
 20
200.7237084384
 30
0.0
 10
930.4769756897
 20
200.563354221
 30
0.0
 10
930.5249120935
 20
200.3754932695
 30
0.0
 10
930.5249121044
 20
200.252441019
 30
0.0
  0
SPLINE
  5
38C
100
AcDbEntity
  8
0
100
AcDbSpline
 62
7
  6
BYLAYER
 70
0
 71
3
 72
8
 73
4
 74
0
 42
0.0000001
 43
0.0000001
 44
0.0000000001
 40
0.0
 40
0.0
 40
0.0
 40
0.0
 40
1.0
 40
1.0
 40
1.0
 40
1.0
 10
931.4471156183
 20
201.046898315
 30
0.0
 10
931.4555538474
 20
201.1150113133
 30
0.0
 10
931.459258727
 20
201.1838073229
 30
0.0
 10
931.459258727
 20
201.252441019
 30
0.0
  0
SPLINE
  5
38D
100
AcDbEntity
  8
0
100
AcDbSpline
 62
7
  6
BYLAYER
 70
0
 71
3
 72
9
 73
5
 74
0
 42
0.0000001
 43
0.0000001
 44
0.0000000001
 40
0.0
 40
0.0
 40
0.0
 40
0.0
 40
0.480327371
 40
1.0
 40
1.0
 40
1.0
 40
1.0
 10
930.1623504839
 20
200.752441019
 30
0.0
 10
930.3739002529
 20
200.7524415139
 30
0.0
 10
930.8103106495
 20
200.8452070747
 30
0.0
 10
931.231401412
 20
200.9703949111
 30
0.0
 10
931.4471156808
 20
201.0468980986
 30
0.0
  0
SPLINE
  5
38E
100
AcDbEntity
  8
0
100
AcDbSpline
 62
7
  6
BYLAYER
 70
0
 71
3
 72
11
 73
7
 74
0
 42
0.0000001
 43
0.0000001
 44
0.0000000001
 40
0.0
 40
0.0
 40
0.0
 40
0.0
 40
0.6609774156
 40
0.7828338934
 40
0.8793721578
 40
1.0
 40
1.0
 40
1.0
 40
1.0
 10
935.6620391503
 20
199.252441019
 30
0.0
 10
935.6620391503
 20
199.0152581877
 30
0.0
 10
935.6436532918
 20
198.7311648113
 30
0.0
 10
935.5451598049
 20
198.4276983659
 30
0.0
 10
935.4954980227
 20
198.3211178544
 30
0.0
 10
935.4306036967
 20
198.252441019
 30
0.0
 10
935.3873180224
 20
198.252441019
 30
0.0
  0
SPLINE
  5
38F
100
AcDbEntity
  8
0
100
AcDbSpline
 62
7
  6
BYLAYER
 70
0
 71
3
 72
16
 73
12
 74
0
 42
0.0000001
 43
0.0000001
 44
0.0000000001
 40
0.0
 40
0.0
 40
0.0
 40
0.0
 40
0.0660819509
 40
0.1837076052
 40
0.3386899351
 40
0.5123359223
 40
0.6837013925
 40
0.8321172397
 40
0.9396824817
 40
0.9934236715
 40
1.0
 40
1.0
 40
1.0
 40
1.0
 10
920.0962200195
 20
2228.7413569065
 30
0.0
 10
920.096012173
 20
2228.719536886
 30
0.0
 10
920.0958373211
 20
2228.6588835849
 30
0.0
 10
920.0955703293
 20
2228.5469660873
 30
0.0
 10
920.0954517702
 20
2228.4000386762
 30
0.0
 10
920.0953410936
 20
2228.2330693799
 30
0.0
 10
920.0956312255
 20
2228.0768344769
 30
0.0
 10
920.0951449889
 20
2227.9158926999
 30
0.0
 10
920.0968699758
 20
2227.8587332179
 30
0.0
 10
920.0949660101
 20
2227.738054785
 30
0.0
 10
920.0966307423
 20
2227.7615739287
 30
0.0
 10
920.0966514268
 20
2227.7637454085
 30
0.0
  0
SPLINE
  5
390
100
AcDbEntity
  8
0
100
AcDbSpline
 62
7
  6
BYLAYER
 70
0
 71
3
 72
16
 73
12
 74
0
 42
0.0000001
 43
0.0000001
 44
0.0000000001
 40
0.0
 40
0.0
 40
0.0
 40
0.0
 40
0.0660819509
 40
0.1837076052
 40
0.3386899351
 40
0.5123359223
 40
0.6837013925
 40
0.8321172397
 40
0.9396824817
 40
0.9934236715
 40
1.0
 40
1.0
 40
1.0
 40
1.0
 10
920.1294552438
 20
2228.7413569065
 30
0.0
 10
920.1296630903
 20
2228.719536886
 30
0.0
 10
920.1298379422
 20
2228.6588835849
 30
0.0
 10
920.130104934
 20
2228.5469660873
 30
0.0
 10
920.1302234932
 20
2228.4000386762
 30
0.0
 10
920.1303341697
 20
2228.2330693799
 30
0.0
 10
920.1300440378
 20
2228.0768344769
 30
0.0
 10
920.1305302744
 20
2227.9158926999
 30
0.0
 10
920.1288052875
 20
2227.8587332179
 30
0.0
 10
920.1307092532
 20
2227.738054785
 30
0.0
 10
920.129044521
 20
2227.7615739287
 30
0.0
 10
920.1290238366
 20
2227.7637454085
 30
0.0
  0
SPLINE
  5
391
100
AcDbEntity
  8
0
100
AcDbSpline
 62
7
  6
BYLAYER
 70
0
 71
3
 72
16
 73
12
 74
0
 42
0.0000001
 43
0.0000001
 44
0.0000000001
 40
0.0
 40
0.0
 40
0.0
 40
0.0
 40
0.0660819509
 40
0.1837076052
 40
0.3386899351
 40
0.5123359223
 40
0.6837013925
 40
0.8321172397
 40
0.9396824817
 40
0.9934236715
 40
1.0
 40
1.0
 40
1.0
 40
1.0
 10
920.0962200195
 20
2228.7413569065
 30
0.0
 10
920.096012173
 20
2228.719536886
 30
0.0
 10
920.0958373211
 20
2228.6588835849
 30
0.0
 10
920.0955703293
 20
2228.5469660873
 30
0.0
 10
920.0954517702
 20
2228.4000386762
 30
0.0
 10
920.0953410936
 20
2228.2330693799
 30
0.0
 10
920.0956312255
 20
2228.0768344769
 30
0.0
 10
920.0951449889
 20
2227.9158926999
 30
0.0
 10
920.0968699758
 20
2227.8587332179
 30
0.0
 10
920.0949660101
 20
2227.738054785
 30
0.0
 10
920.0966307423
 20
2227.7615739287
 30
0.0
 10
920.0966514268
 20
2227.7637454085
 30
0.0
  0
SPLINE
  5
392
100
AcDbEntity
  8
0
100
AcDbSpline
 62
7
  6
BYLAYER
 70
0
 71
3
 72
16
 73
12
 74
0
 42
0.0000001
 43
0.0000001
 44
0.0000000001
 40
0.0
 40
0.0
 40
0.0
 40
0.0
 40
0.0660819509
 40
0.1837076052
 40
0.3386899351
 40
0.5123359223
 40
0.6837013925
 40
0.8321172397
 40
0.9396824817
 40
0.9934236715
 40
1.0
 40
1.0
 40
1.0
 40
1.0
 10
920.1294552438
 20
2228.7413569065
 30
0.0
 10
920.1296630903
 20
2228.719536886
 30
0.0
 10
920.1298379422
 20
2228.6588835849
 30
0.0
 10
920.130104934
 20
2228.5469660873
 30
0.0
 10
920.1302234932
 20
2228.4000386762
 30
0.0
 10
920.1303341697
 20
2228.2330693799
 30
0.0
 10
920.1300440378
 20
2228.0768344769
 30
0.0
 10
920.1305302744
 20
2227.9158926999
 30
0.0
 10
920.1288052875
 20
2227.8587332179
 30
0.0
 10
920.1307092532
 20
2227.738054785
 30
0.0
 10
920.129044521
 20
2227.7615739287
 30
0.0
 10
920.1290238366
 20
2227.7637454085
 30
0.0
  0
SPLINE
  5
393
100
AcDbEntity
  8
0
100
AcDbSpline
 62
7
  6
BYLAYER
 70
0
 71
3
 72
16
 73
12
 74
0
 42
0.0000001
 43
0.0000001
 44
0.0000000001
 40
0.0
 40
0.0
 40
0.0
 40
0.0
 40
0.066109371
 40
0.1837553808
 40
0.338748546
 40
0.5123945412
 40
0.6837491914
 40
0.8321446955
 40
0.9396825251
 40
0.9933925399
 40
1.0
 40
1.0
 40
1.0
 40
1.0
 10
897.6294554231
 20
2228.7413380746
 30
0.0
 10
897.6296631803
 20
2228.719508461
 30
0.0
 10
897.6298381235
 20
2228.6588378944
 30
0.0
 10
897.6301049943
 20
2228.5468982877
 30
0.0
 10
897.6302236265
 20
2228.3999568836
 30
0.0
 10
897.6303338493
 20
2228.2329839831
 30
0.0
 10
897.6300450687
 20
2228.0767530498
 30
0.0
 10
897.6305270332
 20
2227.9158361422
 30
0.0
 10
897.6288118958
 20
2227.8586719431
 30
0.0
 10
897.6307014412
 20
2227.7380447313
 30
0.0
 10
897.629044422
 20
2227.7615824272
 30
0.0
 10
897.6290236573
 20
2227.7637642404
 30
0.0
  0
SPLINE
  5
394
100
AcDbEntity
  8
0
100
AcDbSpline
 62
7
  6
BYLAYER
 70
0
 71
3
 72
16
 73
12
 74
0
 42
0.0000001
 43
0.0000001
 44
0.0000000001
 40
0.0
 40
0.0
 40
0.0
 40
0.0
 40
0.066109371
 40
0.1837553808
 40
0.338748546
 40
0.5123945412
 40
0.6837491914
 40
0.8321446955
 40
0.9396825251
 40
0.9933925399
 40
1.0
 40
1.0
 40
1.0
 40
1.0
 10
897.5962198402
 20
2228.7413380746
 30
0.0
 10
897.596012083
 20
2228.719508461
 30
0.0
 10
897.5958371398
 20
2228.6588378944
 30
0.0
 10
897.595570269
 20
2228.5468982877
 30
0.0
 10
897.5954516368
 20
2228.3999568836
 30
0.0
 10
897.595341414
 20
2228.2329839831
 30
0.0
 10
897.5956301946
 20
2228.0767530498
 30
0.0
 10
897.5951482301
 20
2227.9158361422
 30
0.0
 10
897.5968633675
 20
2227.8586719431
 30
0.0
 10
897.5949738221
 20
2227.7380447313
 30
0.0
 10
897.5966308413
 20
2227.7615824272
 30
0.0
 10
897.5966516061
 20
2227.7637642404
 30
0.0
  0
SPLINE
  5
395
100
AcDbEntity
  8
0
100
AcDbSpline
 62
7
  6
BYLAYER
 70
0
 71
3
 72
16
 73
12
 74
0
 42
0.0000001
 43
0.0000001
 44
0.0000000001
 40
0.0
 40
0.0
 40
0.0
 40
0.0
 40
0.0661715043
 40
0.1838636386
 40
0.3388813558
 40
0.5125273691
 40
0.6838575011
 40
0.8322069082
 40
0.9396826219
 40
0.9933219952
 40
1.0
 40
1.0
 40
1.0
 40
1.0
 10
897.6294558294
 20
2228.7412953408
 30
0.0
 10
897.6296633847
 20
2228.7194439903
 30
0.0
 10
897.6298385339
 20
2228.6587343046
 30
0.0
 10
897.6301051317
 20
2228.5467446087
 30
0.0
 10
897.6302239259
 20
2228.3997715112
 30
0.0
 10
897.6303331337
 20
2228.2327904651
 30
0.0
 10
897.6300473672
 20
2228.0765685399
 30
0.0
 10
897.6305197964
 20
2227.9157080225
 30
0.0
 10
897.6288266359
 20
2227.8585331318
 30
0.0
 10
897.6306840035
 20
2227.7380220198
 30
0.0
 10
897.6290441973
 20
2227.7616017437
 30
0.0
 10
897.6290232509
 20
2227.7638069743
 30
0.0
  0
SPLINE
  5
396
100
AcDbEntity
  8
0
100
AcDbSpline
 62
7
  6
BYLAYER
 70
0
 71
3
 72
16
 73
12
 74
0
 42
0.0000001
 43
0.0000001
 44
0.0000000001
 40
0.0
 40
0.0
 40
0.0
 40
0.0
 40
0.0661715043
 40
0.1838636386
 40
0.3388813558
 40
0.5125273691
 40
0.6838575011
 40
0.8322069082
 40
0.9396826219
 40
0.9933219952
 40
1.0
 40
1.0
 40
1.0
 40
1.0
 10
897.5962194339
 20
2228.7412953408
 30
0.0
 10
897.5960118786
 20
2228.7194439903
 30
0.0
 10
897.5958367294
 20
2228.6587343046
 30
0.0
 10
897.5955701316
 20
2228.5467446087
 30
0.0
 10
897.5954513374
 20
2228.3997715112
 30
0.0
 10
897.5953421296
 20
2228.2327904651
 30
0.0
 10
897.5956278961
 20
2228.0765685399
 30
0.0
 10
897.5951554669
 20
2227.9157080225
 30
0.0
 10
897.5968486275
 20
2227.8585331318
 30
0.0
 10
897.5949912598
 20
2227.7380220198
 30
0.0
 10
897.596631066
 20
2227.7616017437
 30
0.0
 10
897.5966520124
 20
2227.7638069743
 30
0.0
  0
SPLINE
  5
397
100
AcDbEntity
  8
0
100
AcDbSpline
 62
7
  6
BYLAYER
 70
0
 71
3
 72
16
 73
12
 74
0
 42
0.0000001
 43
0.0000001
 44
0.0000000001
 40
0.0
 40
0.0
 40
0.0
 40
0.0
 40
0.0660819509
 40
0.1837076052
 40
0.3386899351
 40
0.5123359223
 40
0.6837013925
 40
0.8321172397
 40
0.9396824817
 40
0.9934236715
 40
1.0
 40
1.0
 40
1.0
 40
1.0
 10
920.0962200195
 20
2228.7413569065
 30
0.0
 10
920.096012173
 20
2228.719536886
 30
0.0
 10
920.0958373211
 20
2228.6588835849
 30
0.0
 10
920.0955703293
 20
2228.5469660873
 30
0.0
 10
920.0954517702
 20
2228.4000386762
 30
0.0
 10
920.0953410936
 20
2228.2330693799
 30
0.0
 10
920.0956312255
 20
2228.0768344769
 30
0.0
 10
920.0951449889
 20
2227.9158926999
 30
0.0
 10
920.0968699758
 20
2227.8587332179
 30
0.0
 10
920.0949660101
 20
2227.738054785
 30
0.0
 10
920.0966307423
 20
2227.7615739287
 30
0.0
 10
920.0966514268
 20
2227.7637454085
 30
0.0
  0
SPLINE
  5
398
100
AcDbEntity
  8
0
100
AcDbSpline
 62
7
  6
BYLAYER
 70
0
 71
3
 72
16
 73
12
 74
0
 42
0.0000001
 43
0.0000001
 44
0.0000000001
 40
0.0
 40
0.0
 40
0.0
 40
0.0
 40
0.0660819509
 40
0.1837076052
 40
0.3386899351
 40
0.5123359223
 40
0.6837013925
 40
0.8321172397
 40
0.9396824817
 40
0.9934236715
 40
1.0
 40
1.0
 40
1.0
 40
1.0
 10
920.1294552438
 20
2228.7413569065
 30
0.0
 10
920.1296630903
 20
2228.719536886
 30
0.0
 10
920.1298379422
 20
2228.6588835849
 30
0.0
 10
920.130104934
 20
2228.5469660873
 30
0.0
 10
920.1302234932
 20
2228.4000386762
 30
0.0
 10
920.1303341697
 20
2228.2330693799
 30
0.0
 10
920.1300440378
 20
2228.0768344769
 30
0.0
 10
920.1305302744
 20
2227.9158926999
 30
0.0
 10
920.1288052875
 20
2227.8587332179
 30
0.0
 10
920.1307092532
 20
2227.738054785
 30
0.0
 10
920.129044521
 20
2227.7615739287
 30
0.0
 10
920.1290238366
 20
2227.7637454085
 30
0.0
  0
SPLINE
  5
399
100
AcDbEntity
  8
0
100
AcDbSpline
 62
7
  6
BYLAYER
 70
0
 71
3
 72
16
 73
12
 74
0
 42
0.0000001
 43
0.0000001
 44
0.0000000001
 40
0.0
 40
0.0
 40
0.0
 40
0.0
 40
0.0660819509
 40
0.1837076052
 40
0.3386899351
 40
0.5123359223
 40
0.6837013925
 40
0.8321172397
 40
0.9396824817
 40
0.9934236715
 40
1.0
 40
1.0
 40
1.0
 40
1.0
 10
920.0962200195
 20
2228.7413569065
 30
0.0
 10
920.096012173
 20
2228.719536886
 30
0.0
 10
920.0958373211
 20
2228.6588835849
 30
0.0
 10
920.0955703293
 20
2228.5469660873
 30
0.0
 10
920.0954517702
 20
2228.4000386762
 30
0.0
 10
920.0953410936
 20
2228.2330693799
 30
0.0
 10
920.0956312255
 20
2228.0768344769
 30
0.0
 10
920.0951449889
 20
2227.9158926999
 30
0.0
 10
920.0968699758
 20
2227.8587332179
 30
0.0
 10
920.0949660101
 20
2227.738054785
 30
0.0
 10
920.0966307423
 20
2227.7615739287
 30
0.0
 10
920.0966514268
 20
2227.7637454085
 30
0.0
  0
SPLINE
  5
39A
100
AcDbEntity
  8
0
100
AcDbSpline
 62
7
  6
BYLAYER
 70
0
 71
3
 72
16
 73
12
 74
0
 42
0.0000001
 43
0.0000001
 44
0.0000000001
 40
0.0
 40
0.0
 40
0.0
 40
0.0
 40
0.0660819509
 40
0.1837076052
 40
0.3386899351
 40
0.5123359223
 40
0.6837013925
 40
0.8321172397
 40
0.9396824817
 40
0.9934236715
 40
1.0
 40
1.0
 40
1.0
 40
1.0
 10
920.1294552438
 20
2228.7413569065
 30
0.0
 10
920.1296630903
 20
2228.719536886
 30
0.0
 10
920.1298379422
 20
2228.6588835849
 30
0.0
 10
920.130104934
 20
2228.5469660873
 30
0.0
 10
920.1302234932
 20
2228.4000386762
 30
0.0
 10
920.1303341697
 20
2228.2330693799
 30
0.0
 10
920.1300440378
 20
2228.0768344769
 30
0.0
 10
920.1305302744
 20
2227.9158926999
 30
0.0
 10
920.1288052875
 20
2227.8587332179
 30
0.0
 10
920.1307092532
 20
2227.738054785
 30
0.0
 10
920.129044521
 20
2227.7615739287
 30
0.0
 10
920.1290238366
 20
2227.7637454085
 30
0.0
  0
SPLINE
  5
39B
100
AcDbEntity
  8
0
100
AcDbSpline
 62
7
  6
BYLAYER
 70
0
 71
3
 72
16
 73
12
 74
0
 42
0.0000001
 43
0.0000001
 44
0.0000000001
 40
0.0
 40
0.0
 40
0.0
 40
0.0
 40
0.066109371
 40
0.1837553808
 40
0.338748546
 40
0.5123945412
 40
0.6837491914
 40
0.8321446955
 40
0.9396825251
 40
0.9933925399
 40
1.0
 40
1.0
 40
1.0
 40
1.0
 10
897.6294554231
 20
2228.7413380746
 30
0.0
 10
897.6296631803
 20
2228.719508461
 30
0.0
 10
897.6298381235
 20
2228.6588378944
 30
0.0
 10
897.6301049943
 20
2228.5468982877
 30
0.0
 10
897.6302236265
 20
2228.3999568836
 30
0.0
 10
897.6303338493
 20
2228.2329839831
 30
0.0
 10
897.6300450687
 20
2228.0767530498
 30
0.0
 10
897.6305270332
 20
2227.9158361422
 30
0.0
 10
897.6288118958
 20
2227.8586719431
 30
0.0
 10
897.6307014412
 20
2227.7380447313
 30
0.0
 10
897.629044422
 20
2227.7615824272
 30
0.0
 10
897.6290236573
 20
2227.7637642404
 30
0.0
  0
SPLINE
  5
39C
100
AcDbEntity
  8
0
100
AcDbSpline
 62
7
  6
BYLAYER
 70
0
 71
3
 72
16
 73
12
 74
0
 42
0.0000001
 43
0.0000001
 44
0.0000000001
 40
0.0
 40
0.0
 40
0.0
 40
0.0
 40
0.066109371
 40
0.1837553808
 40
0.338748546
 40
0.5123945412
 40
0.6837491914
 40
0.8321446955
 40
0.9396825251
 40
0.9933925399
 40
1.0
 40
1.0
 40
1.0
 40
1.0
 10
897.5962198402
 20
2228.7413380746
 30
0.0
 10
897.596012083
 20
2228.719508461
 30
0.0
 10
897.5958371398
 20
2228.6588378944
 30
0.0
 10
897.595570269
 20
2228.5468982877
 30
0.0
 10
897.5954516368
 20
2228.3999568836
 30
0.0
 10
897.595341414
 20
2228.2329839831
 30
0.0
 10
897.5956301946
 20
2228.0767530498
 30
0.0
 10
897.5951482301
 20
2227.9158361422
 30
0.0
 10
897.5968633675
 20
2227.8586719431
 30
0.0
 10
897.5949738221
 20
2227.7380447313
 30
0.0
 10
897.5966308413
 20
2227.7615824272
 30
0.0
 10
897.5966516061
 20
2227.7637642404
 30
0.0
  0
SPLINE
  5
39D
100
AcDbEntity
  8
0
100
AcDbSpline
 62
7
  6
BYLAYER
 70
0
 71
3
 72
16
 73
12
 74
0
 42
0.0000001
 43
0.0000001
 44
0.0000000001
 40
0.0
 40
0.0
 40
0.0
 40
0.0
 40
0.0661715043
 40
0.1838636386
 40
0.3388813558
 40
0.5125273691
 40
0.6838575011
 40
0.8322069082
 40
0.9396826219
 40
0.9933219952
 40
1.0
 40
1.0
 40
1.0
 40
1.0
 10
897.6294558294
 20
2228.7412953408
 30
0.0
 10
897.6296633847
 20
2228.7194439903
 30
0.0
 10
897.6298385339
 20
2228.6587343046
 30
0.0
 10
897.6301051317
 20
2228.5467446087
 30
0.0
 10
897.6302239259
 20
2228.3997715112
 30
0.0
 10
897.6303331337
 20
2228.2327904651
 30
0.0
 10
897.6300473672
 20
2228.0765685399
 30
0.0
 10
897.6305197964
 20
2227.9157080225
 30
0.0
 10
897.6288266359
 20
2227.8585331318
 30
0.0
 10
897.6306840035
 20
2227.7380220198
 30
0.0
 10
897.6290441973
 20
2227.7616017437
 30
0.0
 10
897.6290232509
 20
2227.7638069743
 30
0.0
  0
SPLINE
  5
39E
100
AcDbEntity
  8
0
100
AcDbSpline
 62
7
  6
BYLAYER
 70
0
 71
3
 72
16
 73
12
 74
0
 42
0.0000001
 43
0.0000001
 44
0.0000000001
 40
0.0
 40
0.0
 40
0.0
 40
0.0
 40
0.0661715043
 40
0.1838636386
 40
0.3388813558
 40
0.5125273691
 40
0.6838575011
 40
0.8322069082
 40
0.9396826219
 40
0.9933219952
 40
1.0
 40
1.0
 40
1.0
 40
1.0
 10
897.5962194339
 20
2228.7412953408
 30
0.0
 10
897.5960118786
 20
2228.7194439903
 30
0.0
 10
897.5958367294
 20
2228.6587343046
 30
0.0
 10
897.5955701316
 20
2228.5467446087
 30
0.0
 10
897.5954513374
 20
2228.3997715112
 30
0.0
 10
897.5953421296
 20
2228.2327904651
 30
0.0
 10
897.5956278961
 20
2228.0765685399
 30
0.0
 10
897.5951554669
 20
2227.9157080225
 30
0.0
 10
897.5968486275
 20
2227.8585331318
 30
0.0
 10
897.5949912598
 20
2227.7380220198
 30
0.0
 10
897.596631066
 20
2227.7616017437
 30
0.0
 10
897.5966520124
 20
2227.7638069743
 30
0.0
  0
ENDSEC
  0
SECTION
  2
OBJECTS
  0
DICTIONARY
  5
C
100
AcDbDictionary
280
0
281
1
  3
ACAD_GROUP
350
D
  3
ACAD_MLINESTYLE
350
17
  3
ACAD_LAYOUT
350
1A
  3
ACAD_PLOTSETTINGS
350
19
  3
ACAD_PLOTSTYLENAME
350
E
  0
DICTIONARY
  5
D
102
{ACAD_REACTORS
330
C
102
}
100
AcDbDictionary
280
0
281
1
  0
ACDBDICTIONARYWDFLT
  5
E
102
{ACAD_REACTORS
330
C
102
}
100
AcDbDictionary
281
1
  3
Normal
350
F
100
AcDbDictionaryWithDefault
340
F
  0
DICTIONARY
  5
17
102
{ACAD_REACTORS
330
C
102
}
100
AcDbDictionary
280
0
281
1
  3
Standard
350
18
  0
DICTIONARY
  5
19
102
{ACAD_REACTORS
330
C
102
}
100
AcDbDictionary
281
1
  0
DICTIONARY
  5
1A
102
{ACAD_REACTORS
330
C
102
}
100
AcDbDictionary
281
1
  3
Model
350
39F
  3
Layout1
350
3A0
  0
ACDBPLACEHOLDER
  5
F
102
{ACAD_REACTORS
330
E
102
}
  0
MLINESTYLE
  5
18
102
{ACAD_REACTORS
330
17
102
}
100
AcDbMlineStyle
  2
STANDARD
 70
0
  3

 62
256
 51
90.0
 52
90.0
 71
2
 49
0.5
 62
256
  6
BYLAYER
 49
-0.5
 62
256
  6
BYLAYER
  0
LAYOUT
  5
39F
102
{ACAD_REACTORS
330
1A
102
}
100
AcDbPlotSettings
  1

  2
none_device
  4

  6

 40
0.0
 41
0.0
 42
0.0
 43
0.0
 44
210.0
 45
297.0
 46
0.0
 47
0.0
 48
0.0
 49
0.0
140
0.0
141
0.0
142
1.0
143
1.0
 70
1024
 72
1
 73
0
 74
0
  7

 75
0
147
1.0
148
0.0
149
0.0
100
AcDbLayout
  1
Model
 70
0
 71
0
 10
0.0
 20
0.0
 11
210.0
 21
297.0
 12
0.0
 22
0.0
 32
0.0
 14
0.0
 24
0.0
 34
0.0
 15
0.0
 25
0.0
 35
0.0
146
0.0
 13
0.0
 23
0.0
 33
0.0
 16
1.0
 26
0.0
 36
0.0
 17
0.0
 27
1.0
 37
0.0
 76
0
330
212
345
0
346
0
  0
LAYOUT
  5
3A0
102
{ACAD_REACTORS
330
1A
102
}
100
AcDbPlotSettings
  1

  2
none_device
  4

  6

 40
0.0
 41
0.0
 42
0.0
 43
0.0
 44
210.0
 45
297.0
 46
0.0
 47
0.0
 48
0.0
 49
0.0
140
0.0
141
0.0
142
1.0
143
1.0
 70
0
 72
1
 73
0
 74
0
  7

 75
0
147
1.0
148
0.0
149
0.0
100
AcDbLayout
  1
Layout1
 70
0
 71
1
 10
0.0
 20
0.0
 11
210.0
 21
297.0
 12
0.0
 22
0.0
 32
0.0
 14
0.0
 24
0.0
 34
0.0
 15
0.0
 25
0.0
 35
0.0
146
0.0
 13
0.0
 23
0.0
 33
0.0
 16
1.0
 26
0.0
 36
0.0
 17
0.0
 27
1.0
 37
0.0
 76
0
330
213
345
0
346
0
  0
ENDSEC
  0
EOF
