999
DXF file: C:\Users\sesa63760\Dev\_Creo\CAD\MCADPD0005320_3D-CAD\drw0001_4.dxf
999
Pro/ENGINEER 2019471 by Parametric Technology Corporation
  0
SECTION
  2
HEADER
  9
$ACADVER
  1
AC1024
  9
$DWGCODEPAGE
  3
ANSI_1252
  9
$EXTMAX
 10
178.6565003483
 20
252.6713362069
 30
0.0
  9
$EXTMIN
 10
0.0
 20
0.0
 30
0.0
  9
$LIMMIN
 10
0.0
 20
0.0
  9
$LIMMAX
 10
178.6565003483
 20
252.6713362069
  9
$VIEWCTR
 10
89.3282501742
 20
126.3356681034
  9
$VIEWSIZE
 40
252.6713362069
  9
$CLAYER
  8
0
  9
$LTSCALE
 40
16.4704278416
  9
$CELTYPE
  6
BYLAYER
  9
$DIMSCALE
 40
1.0
  9
$DIMASZ
 40
2.1268630994
  9
$DIMEXO
 40
1.0
  9
$DIMDLI
 40
11.3795683269
  9
$DIMEXE
 40
1.0
  9
$DIMCEN
 40
2.6951609195
  9
$DIMLFAC
 40
1.0
  9
$DIMBLK
  1
_FILLED
  9
$DIMALT
 70
0
  9
$DIMALTF
 40
0.0393700787
  9
$DIMTXT
 40
2.9776083391
  9
$DIMTOL
 70
1
  9
$DIMLIM
 70
0
  9
$DIMTFAC
 40
1.0
  9
$DIMTP
 40
0.01
  9
$DIMTM
 40
0.01
  9
$DIMGAP
 40
0.625
  9
$DIMDSEP
 70
46
  9
$AUNITS
 70
0
  9
$PDMODE
 70
3
  9
$PDSIZE
 40
0.3125
  9
$HANDSEED
  5
2AA
  9
$TILEMODE
 70
1
  9
$MEASUREMENT
 70
1
  9
$INSUNITS
 70
4
  0
ENDSEC
  0
SECTION
  2
CLASSES
  0
CLASS
  1
ACDBDICTIONARYWDFLT
  2
AcDbDictionaryWithDefault
  3
AutoCAD 2000
 90
0
 91
1
280
0
281
0
  0
CLASS
  1
ACDBPLACEHOLDER
  2
AcDbPlaceHolder
  3
AutoCAD 2000
 90
0
 91
1
280
0
281
0
  0
CLASS
  1
LAYOUT
  2
AcDbLayout
  3
AutoCAD 2000
 90
0
 91
0
280
0
281
0
  0
ENDSEC
  0
SECTION
  2
TABLES
  0
TABLE
  2
VPORT
  5
8
100
AcDbSymbolTable
 70
2
  0
VPORT
  5
1F4
100
AcDbSymbolTableRecord
100
AcDbViewportTableRecord
  2
*ACTIVE
 70
0
 10
0.0
 20
0.0
 11
1.0
 21
1.0
 12
89.3282501742
 22
126.3356681034
 13
0.0
 23
0.0
 14
1.0
 24
1.0
 15
0.0
 25
0.0
 16
0.0
 26
0.0
 36
1.0
 17
0.0
 27
0.0
 37
0.0
 40
252.6713362069
 41
0.7070707071
 42
50.0
 43
0.0
 44
0.0
 50
0.0
 51
0.0
 71
0
 72
100
 73
1
 74
1
 75
0
 76
0
 77
0
 78
0
  0
ENDTAB
  0
TABLE
  2
LTYPE
  5
5
100
AcDbSymbolTable
 70
6
  0
LTYPE
  5
14
100
AcDbSymbolTableRecord
100
AcDbLinetypeTableRecord
  2
BYBLOCK
 70
0
  3

 72
65
 73
0
 40
0.0
  0
LTYPE
  5
15
100
AcDbSymbolTableRecord
100
AcDbLinetypeTableRecord
  2
BYLAYER
 70
0
  3

 72
65
 73
0
 40
0.0
  0
LTYPE
  5
16
100
AcDbSymbolTableRecord
100
AcDbLinetypeTableRecord
  2
CONTINUOUS
 70
64
  3
Solid line
 72
65
 73
0
 40
0.0
  0
LTYPE
  5
1F5
100
AcDbSymbolTableRecord
100
AcDbLinetypeTableRecord
  2
CENTER
 70
64
  3
____ _ ____ _ ____ _ ____ _ ____ _ ____ _ ____
 72
65
 73
4
 40
0.6
 49
0.375
 74
0
 49
-0.075
 74
0
 49
0.075
 74
0
 49
-0.075
 74
0
  0
LTYPE
  5
1F6
100
AcDbSymbolTableRecord
100
AcDbLinetypeTableRecord
  2
HIDDEN
 70
64
  3
- - - - - - - - - - - - - - - - - - - -
 72
65
 73
2
 40
0.2
 49
0.1
 74
0
 49
-0.1
 74
0
  0
LTYPE
  5
1F7
100
AcDbSymbolTableRecord
100
AcDbLinetypeTableRecord
  2
PHANTOM
 70
64
  3
_____ _ _ _____ _ _ _____ _ _ _____
 72
65
 73
6
 40
0.8
 49
0.45
 74
0
 49
-0.05
 74
0
 49
0.1
 74
0
 49
-0.05
 74
0
 49
0.1
 74
0
 49
-0.05
 74
0
  0
LTYPE
  5
1F8
100
AcDbSymbolTableRecord
100
AcDbLinetypeTableRecord
  2
DOT
 70
64
  3
. . . . . . . . . . . . . . . . . . . .
 72
65
 73
2
 40
0.2
 49
0.1
 74
0
 49
-0.1
 74
0
  0
LTYPE
  5
1F9
100
AcDbSymbolTableRecord
100
AcDbLinetypeTableRecord
  2
DASHED
 70
64
  3
- - - - - - - - - - - - - - - - - - - -
 72
65
 73
2
 40
0.2
 49
0.1
 74
0
 49
-0.1
 74
0
  0
ENDTAB
  0
TABLE
  2
LAYER
  5
2
100
AcDbSymbolTable
 70
36
  0
LAYER
  5
10
100
AcDbSymbolTableRecord
100
AcDbLayerTableRecord
  2
0
 70
0
 62
7
  6
CONTINUOUS
370
-3
390
F
  0
LAYER
  5
1FA
100
AcDbSymbolTableRecord
100
AcDbLayerTableRecord
  2
DEFAULT_1
 70
0
 62
7
  6
CENTER
370
-3
390
F
  0
LAYER
  5
1FB
100
AcDbSymbolTableRecord
100
AcDbLayerTableRecord
  2
DEFAULT_2
 70
0
 62
7
  6
HIDDEN
370
-3
390
F
  0
LAYER
  5
1FC
100
AcDbSymbolTableRecord
100
AcDbLayerTableRecord
  2
DEFAULT_3
 70
0
 62
7
  6
PHANTOM
370
-3
390
F
  0
LAYER
  5
1FD
100
AcDbSymbolTableRecord
100
AcDbLayerTableRecord
  2
00_COMPONENTS
 70
0
 62
7
  6
CONTINUOUS
370
-3
390
F
  0
LAYER
  5
1FE
100
AcDbSymbolTableRecord
100
AcDbLayerTableRecord
  2
01_1_DEFAULT_DATUMS
 70
0
 62
7
  6
CONTINUOUS
370
-3
390
F
  0
LAYER
  5
1FF
100
AcDbSymbolTableRecord
100
AcDbLayerTableRecord
  2
01_PLANES
 70
0
 62
7
  6
CONTINUOUS
370
-3
390
F
  0
LAYER
  5
200
100
AcDbSymbolTableRecord
100
AcDbLayerTableRecord
  2
02_COORD_SYS
 70
0
 62
7
  6
CONTINUOUS
370
-3
390
F
  0
LAYER
  5
201
100
AcDbSymbolTableRecord
100
AcDbLayerTableRecord
  2
03_AXES
 70
0
 62
7
  6
CONTINUOUS
370
-3
390
F
  0
LAYER
  5
202
100
AcDbSymbolTableRecord
100
AcDbLayerTableRecord
  2
04_POINTS
 70
0
 62
7
  6
CONTINUOUS
370
-3
390
F
  0
LAYER
  5
203
100
AcDbSymbolTableRecord
100
AcDbLayerTableRecord
  2
05_CURVES
 70
0
 62
7
  6
CONTINUOUS
370
-3
390
F
  0
LAYER
  5
204
100
AcDbSymbolTableRecord
100
AcDbLayerTableRecord
  2
06_SURFS
 70
0
 62
7
  6
CONTINUOUS
370
-3
390
F
  0
LAYER
  5
205
100
AcDbSymbolTableRecord
100
AcDbLayerTableRecord
  2
07_COSMETICS
 70
0
 62
7
  6
CONTINUOUS
370
-3
390
F
  0
LAYER
  5
206
100
AcDbSymbolTableRecord
100
AcDbLayerTableRecord
  2
10_NOTES
 70
0
 62
7
  6
CONTINUOUS
370
-3
390
F
  0
LAYER
  5
207
100
AcDbSymbolTableRecord
100
AcDbLayerTableRecord
  2
11_NOTES_PUB
 70
0
 62
7
  6
CONTINUOUS
370
-3
390
F
  0
LAYER
  5
208
100
AcDbSymbolTableRecord
100
AcDbLayerTableRecord
  2
13_REF_GTOL
 70
0
 62
7
  6
CONTINUOUS
370
-3
390
F
  0
LAYER
  5
209
100
AcDbSymbolTableRecord
100
AcDbLayerTableRecord
  2
16_MISC
 70
0
 62
7
  6
CONTINUOUS
370
-3
390
F
  0
LAYER
  5
20A
100
AcDbSymbolTableRecord
100
AcDbLayerTableRecord
  2
17_NO_PRINT
 70
0
 62
7
  6
CONTINUOUS
370
-3
390
F
  0
LAYER
  5
20B
100
AcDbSymbolTableRecord
100
AcDbLayerTableRecord
  2
18_DATUM_CAMS_JOINTS
 70
0
 62
7
  6
CONTINUOUS
370
-3
390
F
  0
LAYER
  5
20C
100
AcDbSymbolTableRecord
100
AcDbLayerTableRecord
  2
19_DATUM_FUNCTIONAL
 70
0
 62
7
  6
CONTINUOUS
370
-3
390
F
  0
LAYER
  5
20D
100
AcDbSymbolTableRecord
100
AcDbLayerTableRecord
  2
20_DATUM_KINEMATIC_SCHEME
 70
0
 62
7
  6
CONTINUOUS
370
-3
390
F
  0
ENDTAB
  0
TABLE
  2
STYLE
  5
3
100
AcDbSymbolTable
 70
1
  0
STYLE
  5
11
100
AcDbSymbolTableRecord
100
AcDbTextStyleTableRecord
  2
STANDARD
 70
0
 40
0.0
 41
1.0
 50
0.0
 71
0
 42
0.2
  3
ARIAL.TTF
  4

  0
STYLE
  5
20E
100
AcDbSymbolTableRecord
100
AcDbTextStyleTableRecord
  2
TEXTSTYLE_1
 70
0
 40
0.0
 41
0.8
 50
0.0
 71
0
 42
0.2
  3
gdt
  4

  0
ENDTAB
  0
TABLE
  2
VIEW
  5
6
100
AcDbSymbolTable
 70
0
  0
ENDTAB
  0
TABLE
  2
UCS
  5
7
100
AcDbSymbolTable
 70
0
  0
ENDTAB
  0
TABLE
  2
APPID
  5
9
100
AcDbSymbolTable
 70
1
  0
APPID
  5
20F
100
AcDbSymbolTableRecord
100
AcDbRegAppTableRecord
  2
ACAD
 70
0
  0
ENDTAB
  0
TABLE
  2
BLOCK_RECORD
  5
1
100
AcDbSymbolTable
 70
0
  0
BLOCK_RECORD
  5
210
100
AcDbSymbolTableRecord
100
AcDbBlockTableRecord
  2
*Model_Space
  0
BLOCK_RECORD
  5
211
100
AcDbSymbolTableRecord
100
AcDbBlockTableRecord
  2
*Paper_Space
  0
BLOCK_RECORD
  5
212
100
AcDbSymbolTableRecord
100
AcDbBlockTableRecord
  2
_FILLED
  0
ENDTAB
  0
TABLE
  2
DIMSTYLE
  5
A
100
AcDbSymbolTable
 70
1
100
AcDbDimStyleTable
 71
0
  0
DIMSTYLE
105
213
100
AcDbSymbolTableRecord
100
AcDbDimStyleTableRecord
  2
STANDARD
 70
0
  3

  4

 40
1.0
 41
2.1268630994
 42
1.0
 43
0.38
 44
1.0
 45
0.0
 46
0.0
 47
0.01
 48
0.01
140
2.9776083391
141
0.09
142
0.0
143
25.4
144
1.0
145
0.0
146
1.0
147
0.625
 71
1
 72
0
 73
0
 74
0
 75
0
 76
0
 77
1
 78
8
 79
2
170
0
171
1
172
0
173
0
174
0
175
0
176
0
177
0
178
0
270
2
179
2
271
2
272
2
273
2
274
2
275
0
280
0
281
0
282
0
283
1
284
8
285
0
286
0
287
3
288
0
340
11
278
46
341
212
342
212
343
212
344
212
  0
ENDTAB
  0
ENDSEC
  0
SECTION
  2
BLOCKS
  0
BLOCK
  5
20
100
AcDbEntity
  8
0
100
AcDbBlockBegin
  2
*Model_Space
 70
0
 10
0.0
 20
0.0
 30
0.0
  3
*Model_Space
  1

  0
ENDBLK
  5
21
100
AcDbEntity
  8
0
100
AcDbBlockEnd
  0
BLOCK
  5
1C
100
AcDbEntity
  8
0
100
AcDbBlockBegin
  2
*Paper_Space
 70
0
 10
0.0
 20
0.0
 30
0.0
  3
*Paper_Space
  1

  0
ENDBLK
  5
1D
100
AcDbEntity
  8
0
100
AcDbBlockEnd
  0
BLOCK
  5
214
100
AcDbEntity
  8
0
100
AcDbBlockBegin
  2
_FILLED
 70
64
 10
0.0
 20
0.0
  3
_FILLED
  1

  0
SOLID
  5
215
100
AcDbEntity
  8
0
  6
BYBLOCK
 62
0
100
AcDbTrace
 10
0.0
 20
0.0
 11
-1.0
 21
0.25
 12
-1.0
 22
-0.25
 13
-1.0
 23
-0.25
  0
ENDBLK
  5
216
100
AcDbEntity
  8
0
  6
BYBLOCK
 62
0
100
AcDbBlockEnd
  0
ENDSEC
  0
SECTION
  2
ENTITIES
  0
LINE
  5
217
100
AcDbEntity
  8
0
100
AcDbLine
 62
7
  6
BYLAYER
 10
30.9677544845
 20
70.0601514489
 11
32.7349556392
 21
67.0601514489
  0
LINE
  5
218
100
AcDbEntity
  8
0
100
AcDbLine
 62
7
  6
BYLAYER
 10
36.8977544845
 20
71.6389190909
 11
36.0605533298
 21
73.0601514489
  0
LINE
  5
219
100
AcDbEntity
  8
0
100
AcDbLine
 62
7
  6
BYLAYER
 10
19.8977544845
 20
55.0601514489
 11
19.8977544845
 21
145.0601514489
  0
LINE
  5
21A
100
AcDbEntity
  8
0
100
AcDbLine
 62
7
  6
BYLAYER
 10
21.8977544845
 20
145.0601514489
 11
21.8977544845
 21
55.0601514489
  0
LINE
  5
21B
100
AcDbEntity
  8
0
100
AcDbLine
 62
7
  6
BYLAYER
 10
19.8977544845
 20
55.0601514489
 11
163.3977544845
 21
55.0601514489
  0
LINE
  5
21C
100
AcDbEntity
  8
0
100
AcDbLine
 62
7
  6
BYLAYER
 10
40.3977544845
 20
56.0601514489
 11
123.3977544845
 21
56.0601514489
  0
LINE
  5
21D
100
AcDbEntity
  8
0
100
AcDbLine
 62
7
  6
BYLAYER
 10
36.8977544845
 20
58.5601514489
 11
37.8977544845
 21
58.5601514489
  0
LINE
  5
21E
100
AcDbEntity
  8
0
100
AcDbLine
 62
7
  6
BYLAYER
 10
125.8977544845
 20
58.5601514489
 11
126.8977544845
 21
58.5601514489
  0
LINE
  5
21F
100
AcDbEntity
  8
0
100
AcDbLine
 62
7
  6
BYLAYER
 10
30.9677544845
 20
100.0601514489
 11
32.7349556392
 21
97.0601514489
  0
LINE
  5
220
100
AcDbEntity
  8
0
100
AcDbLine
 62
7
  6
BYLAYER
 10
36.8977544845
 20
58.5601514254
 11
36.8977544845
 21
141.5601514695
  0
LINE
  5
221
100
AcDbEntity
  8
0
100
AcDbLine
 62
7
  6
BYLAYER
 10
37.8977544845
 20
141.5601514489
 11
37.8977544845
 21
58.5601514489
  0
LINE
  5
222
100
AcDbEntity
  8
0
100
AcDbLine
 62
7
  6
BYLAYER
 10
32.7349556392
 20
133.0601514489
 11
30.9677544845
 21
130.0601514489
  0
LINE
  5
223
100
AcDbEntity
  8
0
100
AcDbLine
 62
7
  6
BYLAYER
 10
36.0605533298
 20
67.0601514489
 11
32.7349556392
 21
67.0601514489
  0
LINE
  5
224
100
AcDbEntity
  8
0
100
AcDbLine
 62
7
  6
BYLAYER
 10
36.8977544845
 20
101.6389190909
 11
36.0605533298
 21
103.0601514489
  0
LINE
  5
225
100
AcDbEntity
  8
0
100
AcDbLine
 62
7
  6
BYLAYER
 10
40.3977544845
 20
145.0601514489
 11
40.3977544845
 21
144.0601514489
  0
LINE
  5
226
100
AcDbEntity
  8
0
100
AcDbLine
 62
7
  6
BYLAYER
 10
40.3977544845
 20
56.0601514489
 11
40.3977544845
 21
55.0601514489
  0
LINE
  5
227
100
AcDbEntity
  8
0
100
AcDbLine
 62
7
  6
BYLAYER
 10
36.0605533298
 20
127.0601514489
 11
36.8977544845
 21
128.4813838068
  0
LINE
  5
228
100
AcDbEntity
  8
0
100
AcDbLine
 62
7
  6
BYLAYER
 10
32.7349556392
 20
73.0601514489
 11
36.0605533298
 21
73.0601514489
  0
LINE
  5
229
100
AcDbEntity
  8
0
100
AcDbLine
 62
7
  6
BYLAYER
 10
73.4587215802
 20
79.7429423435
 11
73.4720673338
 21
79.7374041388
  0
LINE
  5
22A
100
AcDbEntity
  8
0
100
AcDbLine
 62
7
  6
BYLAYER
 10
72.8559980052
 20
80.6611477062
 11
72.4282189761
 21
80.8440699075
  0
LINE
  5
22B
100
AcDbEntity
  8
0
100
AcDbLine
 62
7
  6
BYLAYER
 10
72.4282189761
 20
80.8440699075
 11
72.000449596
 21
81.0384817712
  0
LINE
  5
22C
100
AcDbEntity
  8
0
100
AcDbLine
 62
7
  6
BYLAYER
 10
72.000449596
 20
81.0384817712
 11
71.5726904897
 21
81.244383012
  0
LINE
  5
22D
100
AcDbEntity
  8
0
100
AcDbLine
 62
7
  6
BYLAYER
 10
72.0867487871
 20
80.3687500228
 11
72.1258334271
 21
80.3493489515
  0
LINE
  5
22E
100
AcDbEntity
  8
0
100
AcDbLine
 62
7
  6
BYLAYER
 10
30.9677544845
 20
130.0601514489
 11
32.7349556392
 21
127.0601514489
  0
LINE
  5
22F
100
AcDbEntity
  8
0
100
AcDbLine
 62
7
  6
BYLAYER
 10
32.7349556392
 20
103.0601514489
 11
30.9677544845
 21
100.0601514489
  0
LINE
  5
230
100
AcDbEntity
  8
0
100
AcDbLine
 62
7
  6
BYLAYER
 10
72.8559980052
 20
80.6611612322
 11
73.8550462268
 21
80.6611612322
  0
LINE
  5
231
100
AcDbEntity
  8
0
100
AcDbLine
 62
7
  6
BYLAYER
 10
89.9404627423
 20
80.6611612322
 11
90.9395109638
 21
80.6611612322
  0
LWPOLYLINE
  5
232
100
AcDbEntity
  8
0
100
AcDbPolyline
 62
7
  6
BYLAYER
 90
9
 70
0
 10
62.7080511575
 20
89.3008976136
 10
65.0692089146
 20
85.8895425154
 10
67.2324255124
 20
83.6609601121
 10
68.8881320893
 20
82.3187886489
 10
70.1076043687
 20
81.4860137554
 10
70.9678034107
 20
80.967153606
 10
71.5425985012
 20
80.6494031144
 10
71.8961693431
 20
80.4648785945
 10
72.0867487871
 20
80.3687500228
  0
LINE
  5
233
100
AcDbEntity
  8
0
100
AcDbLine
 62
7
  6
BYLAYER
 10
36.8977544845
 20
131.6389190909
 11
36.0605533298
 21
133.0601514489
  0
LINE
  5
234
100
AcDbEntity
  8
0
100
AcDbLine
 62
7
  6
BYLAYER
 10
36.0605533298
 20
97.0601514489
 11
36.8977544845
 21
98.4813838068
  0
LINE
  5
235
100
AcDbEntity
  8
0
100
AcDbLine
 62
7
  6
BYLAYER
 10
79.2637798883
 20
88.3601514489
 11
84.5317290807
 21
88.3601514489
  0
LINE
  5
236
100
AcDbEntity
  8
0
100
AcDbLine
 62
7
  6
BYLAYER
 10
78.3977544845
 20
89.0601514489
 11
72.8559980052
 21
89.0601514489
  0
LINE
  5
237
100
AcDbEntity
  8
0
100
AcDbLine
 62
7
  6
BYLAYER
 10
85.3977544845
 20
89.0601514489
 11
90.9395109638
 21
89.0601514489
  0
LINE
  5
238
100
AcDbEntity
  8
0
100
AcDbLine
 62
7
  6
BYLAYER
 10
72.8559980052
 20
89.3601514489
 11
78.1477544845
 21
89.3601514489
  0
LINE
  5
239
100
AcDbEntity
  8
0
100
AcDbLine
 62
7
  6
BYLAYER
 10
85.6477544845
 20
89.3601514489
 11
90.9395109638
 21
89.3601514489
  0
LINE
  5
23A
100
AcDbEntity
  8
0
100
AcDbLine
 62
7
  6
BYLAYER
 10
63.5803047159
 20
89.7899512793
 11
63.5803047154
 21
110.3303516171
  0
LINE
  5
23B
100
AcDbEntity
  8
0
100
AcDbLine
 62
7
  6
BYLAYER
 10
36.0605533298
 20
97.0601514489
 11
32.7349556392
 21
97.0601514489
  0
LINE
  5
23C
100
AcDbEntity
  8
0
100
AcDbLine
 62
7
  6
BYLAYER
 10
63.5803047199
 20
110.3303516254
 11
62.7080511188
 21
110.8194054623
  0
LINE
  5
23D
100
AcDbEntity
  8
0
100
AcDbLine
 62
7
  6
BYLAYER
 10
100.2152042452
 20
89.7899512654
 11
101.0874578462
 21
89.3008974282
  0
LINE
  5
23E
100
AcDbEntity
  8
0
100
AcDbLine
 62
7
  6
BYLAYER
 10
78.8307671864
 20
87.6101514489
 11
81.4647417826
 21
83.0479736224
  0
LINE
  5
23F
100
AcDbEntity
  8
0
100
AcDbLine
 62
7
  6
BYLAYER
 10
70.4980606106
 20
119.4314279082
 11
70.4980606106
 21
119.8390977638
  0
LINE
  5
240
100
AcDbEntity
  8
0
100
AcDbLine
 62
7
  6
BYLAYER
 10
70.618309955
 20
119.4314279384
 11
70.618309955
 21
120.3756509363
  0
LINE
  5
241
100
AcDbEntity
  8
0
100
AcDbLine
 62
7
  6
BYLAYER
 10
71.5726904887
 20
121.0588750489
 11
71.5726904897
 21
81.244383012
  0
LINE
  5
242
100
AcDbEntity
  8
0
100
AcDbLine
 62
7
  6
BYLAYER
 10
32.7349556392
 20
73.0601514489
 11
30.9677544845
 21
70.0601514489
  0
LINE
  5
243
100
AcDbEntity
  8
0
100
AcDbLine
 62
7
  6
BYLAYER
 10
32.7349556392
 20
103.0601514489
 11
36.0605533298
 21
103.0601514489
  0
LINE
  5
244
100
AcDbEntity
  8
0
100
AcDbLine
 62
7
  6
BYLAYER
 10
72.8978128798
 20
121.6542238452
 11
72.242840341
 21
186.4100091105
  0
LINE
  5
245
100
AcDbEntity
  8
0
100
AcDbLine
 62
7
  6
BYLAYER
 10
73.874460663
 20
122.0415208988
 11
73.2428392354
 21
186.4134894603
  0
LINE
  5
246
100
AcDbEntity
  8
0
100
AcDbLine
 62
7
  6
BYLAYER
 10
72.8322630701
 20
89.0601514489
 11
72.8322630701
 21
89.3601514489
  0
LINE
  5
247
100
AcDbEntity
  8
0
100
AcDbLine
 62
7
  6
BYLAYER
 10
72.8559980052
 20
80.6611477062
 11
72.8559980052
 21
89.0601514489
  0
LINE
  5
248
100
AcDbEntity
  8
0
100
AcDbLine
 62
7
  6
BYLAYER
 10
72.8559980052
 20
89.3601514489
 11
72.8559980052
 21
121.6425512023
  0
LINE
  5
249
100
AcDbEntity
  8
0
100
AcDbLine
 62
7
  6
BYLAYER
 10
73.8550462268
 20
89.0601514489
 11
73.8550462268
 21
80.6611612322
  0
LINE
  5
24A
100
AcDbEntity
  8
0
100
AcDbLine
 62
7
  6
BYLAYER
 10
78.1477544845
 20
89.3601514489
 11
78.1477544845
 21
120.5601514489
  0
LINE
  5
24B
100
AcDbEntity
  8
0
100
AcDbLine
 62
7
  6
BYLAYER
 10
78.3977544845
 20
120.5601514489
 11
78.3977544845
 21
89.0601514489
  0
LINE
  5
24C
100
AcDbEntity
  8
0
100
AcDbLine
 62
7
  6
BYLAYER
 10
73.8550462268
 20
89.3601514489
 11
73.874460663
 21
122.0415208988
  0
LINE
  5
24D
100
AcDbEntity
  8
0
100
AcDbLine
 62
7
  6
BYLAYER
 10
36.0605533298
 20
67.0601514489
 11
36.8977544845
 21
68.4813838068
  0
LINE
  5
24E
100
AcDbEntity
  8
0
100
AcDbLine
 62
7
  6
BYLAYER
 10
89.9404627423
 20
80.6611612322
 11
90.3234462542
 21
79.7374060538
  0
LINE
  5
24F
100
AcDbEntity
  8
0
100
AcDbLine
 62
7
  6
BYLAYER
 10
85.3977544845
 20
89.0601514489
 11
85.3977544845
 21
120.5601514489
  0
LINE
  5
250
100
AcDbEntity
  8
0
100
AcDbLine
 62
7
  6
BYLAYER
 10
85.6477544845
 20
120.5601514489
 11
85.6477544845
 21
89.3601514489
  0
LINE
  5
251
100
AcDbEntity
  8
0
100
AcDbLine
 62
7
  6
BYLAYER
 10
70.4980606106
 20
119.4314472481
 11
70.6183099556
 21
119.4314675696
  0
LINE
  5
252
100
AcDbEntity
  8
0
100
AcDbLine
 62
7
  6
BYLAYER
 10
93.1771990131
 20
119.4314282519
 11
93.2974483585
 21
119.4314282519
  0
LINE
  5
253
100
AcDbEntity
  8
0
100
AcDbLine
 62
7
  6
BYLAYER
 10
89.9016435528
 20
122.0485844529
 11
89.9404627423
 21
89.3601514489
  0
LINE
  5
254
100
AcDbEntity
  8
0
100
AcDbLine
 62
7
  6
BYLAYER
 10
89.9404627423
 20
80.6611612322
 11
89.9404627423
 21
89.0601514489
  0
LINE
  5
255
100
AcDbEntity
  8
0
100
AcDbLine
 62
7
  6
BYLAYER
 10
90.9395109638
 20
121.6425512023
 11
90.9395109638
 21
89.3601514489
  0
LINE
  5
256
100
AcDbEntity
  8
0
100
AcDbLine
 62
7
  6
BYLAYER
 10
90.9395109638
 20
89.0601514489
 11
90.9395109638
 21
80.6611477256
  0
LINE
  5
257
100
AcDbEntity
  8
0
100
AcDbLine
 62
7
  6
BYLAYER
 10
90.9632458989
 20
89.0601514489
 11
90.9632458989
 21
89.3601514489
  0
LINE
  5
258
100
AcDbEntity
  8
0
100
AcDbLine
 62
7
  6
BYLAYER
 10
92.2228184804
 20
121.0588750489
 11
92.2228184806
 21
81.2443830131
  0
LINE
  5
259
100
AcDbEntity
  8
0
100
AcDbLine
 62
7
  6
BYLAYER
 10
90.5526402008
 20
186.4105700226
 11
89.9016435528
 21
122.0485844529
  0
LINE
  5
25A
100
AcDbEntity
  8
0
100
AcDbLine
 62
7
  6
BYLAYER
 10
91.5526686227
 20
186.4100085864
 11
90.8976955903
 21
121.6541745198
  0
LINE
  5
25B
100
AcDbEntity
  8
0
100
AcDbLine
 62
7
  6
BYLAYER
 10
73.4720627148
 20
79.7374060538
 11
73.8550462268
 21
80.6611612322
  0
LINE
  5
25C
100
AcDbEntity
  8
0
100
AcDbLine
 62
7
  6
BYLAYER
 10
83.6477544845
 20
122.3101514489
 11
80.1477544845
 21
122.3101514489
  0
LINE
  5
25D
100
AcDbEntity
  8
0
100
AcDbLine
 62
7
  6
BYLAYER
 10
80.1477544845
 20
122.5601514489
 11
83.6477544845
 21
122.5601514489
  0
LINE
  5
25E
100
AcDbEntity
  8
0
100
AcDbLine
 62
7
  6
BYLAYER
 10
93.1771990131
 20
119.4314282519
 11
93.1771990131
 21
120.3757041282
  0
LINE
  5
25F
100
AcDbEntity
  8
0
100
AcDbLine
 62
7
  6
BYLAYER
 10
93.2974483585
 20
119.9540810817
 11
93.2974483585
 21
119.4314281731
  0
LINE
  5
260
100
AcDbEntity
  8
0
100
AcDbLine
 62
7
  6
BYLAYER
 10
36.0605533298
 20
127.0601514489
 11
32.7349556392
 21
127.0601514489
  0
LINE
  5
261
100
AcDbEntity
  8
0
100
AcDbLine
 62
7
  6
BYLAYER
 10
32.7349556392
 20
133.0601514489
 11
36.0605533298
 21
133.0601514489
  0
LINE
  5
262
100
AcDbEntity
  8
0
100
AcDbLine
 62
7
  6
BYLAYER
 10
100.2152042533
 20
110.3303516178
 11
100.2152042531
 21
89.7899512794
  0
LINE
  5
263
100
AcDbEntity
  8
0
100
AcDbLine
 62
7
  6
BYLAYER
 10
82.3307671864
 20
83.0479736224
 11
84.9647417826
 21
87.6101514489
  0
LINE
  5
264
100
AcDbEntity
  8
0
100
AcDbLine
 62
7
  6
BYLAYER
 10
101.0874578468
 20
110.8194054683
 11
100.2152042459
 21
110.3303516312
  0
LINE
  5
265
100
AcDbEntity
  8
0
100
AcDbLine
 62
7
  6
BYLAYER
 10
62.7080511239
 20
89.3008974263
 11
63.5803047248
 21
89.7899512635
  0
LINE
  5
266
100
AcDbEntity
  8
0
100
AcDbLine
 62
7
  6
BYLAYER
 10
126.8977544845
 20
141.5601514489
 11
125.8977544845
 21
141.5601514489
  0
LINE
  5
267
100
AcDbEntity
  8
0
100
AcDbLine
 62
7
  6
BYLAYER
 10
37.8977544845
 20
141.5601514489
 11
36.8977544845
 21
141.5601514489
  0
LINE
  5
268
100
AcDbEntity
  8
0
100
AcDbLine
 62
7
  6
BYLAYER
 10
123.3977544845
 20
144.0601514489
 11
91.1243208954
 21
144.0601514489
  0
LINE
  5
269
100
AcDbEntity
  8
0
100
AcDbLine
 62
7
  6
BYLAYER
 10
72.6711880736
 20
144.0601514489
 11
40.3977544845
 21
144.0601514489
  0
LINE
  5
26A
100
AcDbEntity
  8
0
100
AcDbLine
 62
7
  6
BYLAYER
 10
19.8977544845
 20
145.0601514489
 11
72.6610735713
 21
145.0601514489
  0
LINE
  5
26B
100
AcDbEntity
  8
0
100
AcDbLine
 62
7
  6
BYLAYER
 10
91.1344353977
 20
145.0601514489
 11
163.3977544845
 21
145.0601514489
  0
LINE
  5
26C
100
AcDbEntity
  8
0
100
AcDbLine
 62
7
  6
BYLAYER
 10
123.3977544845
 20
55.0601514489
 11
123.3977544845
 21
56.0601514489
  0
LINE
  5
26D
100
AcDbEntity
  8
0
100
AcDbLine
 62
7
  6
BYLAYER
 10
123.3977544845
 20
144.0601514489
 11
123.3977544845
 21
145.0601514489
  0
LINE
  5
26E
100
AcDbEntity
  8
0
100
AcDbLine
 62
7
  6
BYLAYER
 10
125.8977544845
 20
58.5601514489
 11
125.8977544845
 21
141.5601514489
  0
LINE
  5
26F
100
AcDbEntity
  8
0
100
AcDbLine
 62
7
  6
BYLAYER
 10
126.8977544845
 20
141.5601514724
 11
126.8977544845
 21
58.5601514282
  0
LINE
  5
270
100
AcDbEntity
  8
0
100
AcDbLine
 62
7
  6
BYLAYER
 10
91.3672899934
 20
80.8440699096
 11
90.9395109638
 21
80.6611477256
  0
LINE
  5
271
100
AcDbEntity
  8
0
100
AcDbLine
 62
7
  6
BYLAYER
 10
90.3234416383
 20
79.7374041401
 11
90.3367980882
 21
79.7429467877
  0
LINE
  5
272
100
AcDbEntity
  8
0
100
AcDbLine
 62
7
  6
BYLAYER
 10
148.1977544845
 20
145.0601514489
 11
148.1977544845
 21
55.0601514489
  0
LINE
  5
273
100
AcDbEntity
  8
0
100
AcDbLine
 62
7
  6
BYLAYER
 10
73.2427741624
 20
186.4201213811
 11
72.2428403568
 21
186.4100075483
  0
LINE
  5
274
100
AcDbEntity
  8
0
100
AcDbLine
 62
7
  6
BYLAYER
 10
90.5526174695
 20
186.410008297
 11
91.5526686185
 21
186.4100081715
  0
LINE
  5
275
100
AcDbEntity
  8
0
100
AcDbLine
 62
7
  6
BYLAYER
 10
163.3977544845
 20
145.0601514489
 11
163.3977544845
 21
55.0601514489
  0
ARC
  5
276
100
AcDbEntity
  8
0
100
AcDbCircle
 62
7
  6
BYLAYER
 10
34.3977544845
 20
100.0601514489
 40
4.25
100
AcDbArc
 50
51.9452492143
 51
307.9973019757
  0
ARC
  5
277
100
AcDbEntity
  8
0
100
AcDbCircle
 62
7
  6
BYLAYER
 10
34.3977544845
 20
70.0601514489
 40
4.25
100
AcDbArc
 50
51.9452492143
 51
307.9973019757
  0
ARC
  5
278
100
AcDbEntity
  8
0
100
AcDbCircle
 62
7
  6
BYLAYER
 10
40.3977544845
 20
58.5601514489
 40
3.5
100
AcDbArc
 50
180.0000001924
 51
269.9999998307
  0
ARC
  5
279
100
AcDbEntity
  8
0
100
AcDbCircle
 62
7
  6
BYLAYER
 10
40.3977544845
 20
58.5601514489
 40
2.5
100
AcDbArc
 50
180.0000000002
 51
270.0
  0
ARC
  5
27A
100
AcDbEntity
  8
0
100
AcDbCircle
 62
7
  6
BYLAYER
 10
68.6150138926
 20
119.3403741979
 40
1.9854142936
100
AcDbArc
 50
333.2245188352
 51
334.6712296407
  0
ARC
  5
27B
100
AcDbEntity
  8
0
100
AcDbCircle
 62
7
  6
BYLAYER
 10
71.5005137589
 20
119.8961780961
 40
1.0040834491
100
AcDbArc
 50
117.6582727214
 51
183.2589397914
  0
ARC
  5
27C
100
AcDbEntity
  8
0
100
AcDbCircle
 62
7
  6
BYLAYER
 10
69.4986902745
 20
119.43128268
 40
0.9993685608
100
AcDbArc
 50
302.6229080295
 51
0.0068752826
  0
ARC
  5
27D
100
AcDbEntity
  8
0
100
AcDbCircle
 62
7
  6
BYLAYER
 10
73.8546262578
 20
80.6598513033
 40
0.9986291117
100
AcDbArc
 50
179.9248435532
 51
247.4748635165
  0
ARC
  5
27E
100
AcDbEntity
  8
0
100
AcDbCircle
 62
7
  6
BYLAYER
 10
34.3977544845
 20
130.0601514489
 40
4.25
100
AcDbArc
 50
51.9452492143
 51
307.9973019757
  0
ARC
  5
27F
100
AcDbEntity
  8
0
100
AcDbCircle
 62
7
  6
BYLAYER
 10
40.3977544845
 20
141.5601514489
 40
3.5
100
AcDbArc
 50
90.0
 51
179.9999998307
  0
ARC
  5
280
100
AcDbEntity
  8
0
100
AcDbCircle
 62
7
  6
BYLAYER
 10
40.3977544845
 20
141.5601514489
 40
2.5
100
AcDbArc
 50
90.0000000002
 51
180.0
  0
ARC
  5
281
100
AcDbEntity
  8
0
100
AcDbCircle
 62
7
  6
BYLAYER
 10
91.2241037466
 20
81.243160792
 40
0.9987155458
100
AcDbArc
 50
296.3792728133
 51
0.0739219573
  0
ARC
  5
282
100
AcDbEntity
  8
0
100
AcDbCircle
 62
7
  6
BYLAYER
 10
89.9408834653
 20
80.6598507998
 40
0.9986283577
100
AcDbArc
 50
292.52510759
 51
0.0751853953
  0
ARC
  5
283
100
AcDbEntity
  8
0
100
AcDbCircle
 62
7
  6
BYLAYER
 10
81.8977544845
 20
83.2979736224
 40
0.5
100
AcDbArc
 50
209.999999999
 51
330.0
  0
ARC
  5
284
100
AcDbEntity
  8
0
100
AcDbCircle
 62
7
  6
BYLAYER
 10
79.2637798883
 20
87.8601514489
 40
0.5
100
AcDbArc
 50
90.0
 51
210.0000000002
  0
ARC
  5
285
100
AcDbEntity
  8
0
100
AcDbCircle
 62
7
  6
BYLAYER
 10
84.5317290807
 20
87.8601514489
 40
0.5
100
AcDbArc
 50
330.0000000007
 51
90.0
  0
ARC
  5
286
100
AcDbEntity
  8
0
100
AcDbCircle
 62
7
  6
BYLAYER
 10
81.8977544845
 20
100.0601514489
 40
23.399857678
100
AcDbArc
 50
62.3384982589
 51
67.3759335614
  0
ARC
  5
287
100
AcDbEntity
  8
0
100
AcDbCircle
 62
7
  6
BYLAYER
 10
81.8977544845
 20
100.0601514489
 40
23.399857678
100
AcDbArc
 50
112.6240330962
 51
117.6615543352
  0
ARC
  5
288
100
AcDbEntity
  8
0
100
AcDbCircle
 62
7
  6
BYLAYER
 10
81.8977544845
 20
100.0601514489
 40
22.000142322
100
AcDbArc
 50
122.6224551553
 51
57.3774835675
  0
ARC
  5
289
100
AcDbEntity
  8
0
100
AcDbCircle
 62
7
  6
BYLAYER
 10
82.7325267617
 20
100.4121920677
 40
21.3885609816
100
AcDbArc
 50
293.8102770821
 51
296.3407547046
  0
ARC
  5
28A
100
AcDbEntity
  8
0
100
AcDbCircle
 62
7
  6
BYLAYER
 10
81.8977544845
 20
100.0601514489
 40
21.000142322
100
AcDbArc
 50
247.4813888612
 51
292.5186111388
  0
ARC
  5
28B
100
AcDbEntity
  8
0
100
AcDbCircle
 62
7
  6
BYLAYER
 10
81.8977544845
 20
100.0601514489
 40
21.000142322
100
AcDbArc
 50
150.7215880564
 51
209.2784119475
  0
ARC
  5
28C
100
AcDbEntity
  8
0
100
AcDbCircle
 62
7
  6
BYLAYER
 10
81.8977544845
 20
100.0601514489
 40
21.000142322
100
AcDbArc
 50
330.7215880526
 51
29.2784119457
  0
ARC
  5
28D
100
AcDbEntity
  8
0
100
AcDbCircle
 62
7
  6
BYLAYER
 10
80.1477544845
 20
120.5601514489
 40
2.0
100
AcDbArc
 50
90.0
 51
180.0
  0
ARC
  5
28E
100
AcDbEntity
  8
0
100
AcDbCircle
 62
7
  6
BYLAYER
 10
83.6477544845
 20
120.5601514489
 40
2.0
100
AcDbArc
 50
0.0
 51
90.0
  0
ARC
  5
28F
100
AcDbEntity
  8
0
100
AcDbCircle
 62
7
  6
BYLAYER
 10
83.6477544845
 20
120.5601514489
 40
1.75
100
AcDbArc
 50
0.0
 51
90.0
  0
ARC
  5
290
100
AcDbEntity
  8
0
100
AcDbCircle
 62
7
  6
BYLAYER
 10
80.1477544845
 20
120.5601514489
 40
1.75
100
AcDbArc
 50
90.0
 51
180.0
  0
ARC
  5
291
100
AcDbEntity
  8
0
100
AcDbCircle
 62
7
  6
BYLAYER
 10
92.2948259678
 20
119.8960202778
 40
1.0043034807
100
AcDbArc
 50
3.3142366948
 51
62.3385981346
  0
ARC
  5
292
100
AcDbEntity
  8
0
100
AcDbCircle
 62
7
  6
BYLAYER
 10
94.2968988915
 20
119.4313281889
 40
0.9994505394
100
AcDbArc
 50
179.9942681776
 51
237.375980004
  0
ARC
  5
293
100
AcDbEntity
  8
0
100
AcDbCircle
 62
7
  6
BYLAYER
 10
123.3977544845
 20
58.5601514489
 40
3.5
100
AcDbArc
 50
270.0000001924
 51
359.9999998307
  0
ARC
  5
294
100
AcDbEntity
  8
0
100
AcDbCircle
 62
7
  6
BYLAYER
 10
123.3977544845
 20
58.5601514489
 40
2.5
100
AcDbArc
 50
270.0000000002
 51
360.0
  0
ARC
  5
295
100
AcDbEntity
  8
0
100
AcDbCircle
 62
7
  6
BYLAYER
 10
81.8977544845
 20
186.4100091268
 40
9.6549141436
100
AcDbArc
 50
0.0
 51
180.0000000485
  0
ARC
  5
296
100
AcDbEntity
  8
0
100
AcDbCircle
 62
7
  6
BYLAYER
 10
81.8977544845
 20
186.4100091268
 40
8.6549141436
100
AcDbArc
 50
0.003713158
 51
179.9769600971
  0
ARC
  5
297
100
AcDbEntity
  8
0
100
AcDbCircle
 62
7
  6
BYLAYER
 10
123.3977544845
 20
141.5601514489
 40
3.5
100
AcDbArc
 50
0.0000001924
 51
90.0
  0
ARC
  5
298
100
AcDbEntity
  8
0
100
AcDbCircle
 62
7
  6
BYLAYER
 10
123.3977544845
 20
141.5601514489
 40
2.5
100
AcDbArc
 50
0.0000000002
 51
90.0
  0
SPLINE
  5
299
100
AcDbEntity
  8
0
100
AcDbSpline
 62
7
  6
BYLAYER
 70
0
 71
3
 72
10
 73
6
 74
0
 42
0.0000001
 43
0.0000001
 44
0.0000000001
 40
0.0
 40
0.0
 40
0.0
 40
0.0
 40
0.4699477418
 40
0.733014568
 40
1.0
 40
1.0
 40
1.0
 40
1.0
 10
70.037475936
 20
118.5895889789
 30
0.0
 10
69.915731964
 20
118.5116650603
 30
0.0
 10
69.7815528456
 20
118.2978547709
 30
0.0
 10
69.7561148241
 20
117.9901676147
 30
0.0
 10
69.779046045
 20
117.82695028
 30
0.0
 10
69.7992088259
 20
117.7473445923
 30
0.0
  0
SPLINE
  5
29A
100
AcDbEntity
  8
0
100
AcDbSpline
 62
7
  6
BYLAYER
 70
0
 71
3
 72
10
 73
6
 74
0
 42
0.0000001
 43
0.0000001
 44
0.0000000001
 40
0.0
 40
0.0
 40
0.0
 40
0.0
 40
0.26698586
 40
0.5300528787
 40
1.0
 40
1.0
 40
1.0
 40
1.0
 10
93.9963319795
 20
117.747321642
 30
0.0
 10
94.0164950084
 20
117.8269267092
 30
0.0
 10
94.0394270687
 20
117.9901427348
 30
0.0
 10
94.0139918632
 20
118.2978274724
 30
0.0
 10
93.8798168021
 20
118.5116375027
 30
0.0
 10
93.7580749224
 20
118.5895621411
 30
0.0
  0
SPLINE
  5
29B
100
AcDbEntity
  8
0
100
AcDbSpline
 62
7
  6
BYLAYER
 70
0
 71
3
 72
9
 73
5
 74
0
 42
0.0000001
 43
0.0000001
 44
0.0000000001
 40
0.0
 40
0.0
 40
0.0
 40
0.0
 40
0.479481024
 40
1.0
 40
1.0
 40
1.0
 40
1.0
 10
93.9963288052
 20
117.7473239279
 30
0.0
 10
93.8646085691
 20
117.8528507132
 30
0.0
 10
93.6008080977
 20
118.0912755562
 30
0.0
 10
93.4221293084
 20
118.4020357217
 30
0.0
 10
93.3502860749
 20
118.5705869
 30
0.0
  0
SPLINE
  5
29C
100
AcDbEntity
  8
0
100
AcDbSpline
 62
7
  6
BYLAYER
 70
0
 71
3
 72
9
 73
5
 74
0
 42
0.0000001
 43
0.0000001
 44
0.0000000001
 40
0.0
 40
0.0
 40
0.0
 40
0.0
 40
0.4745666541
 40
1.0
 40
1.0
 40
1.0
 40
1.0
 10
93.3502860749
 20
118.5705869
 30
0.0
 10
93.2955527132
 20
118.6989966632
 30
0.0
 10
93.2057766874
 20
118.981974654
 30
0.0
 10
93.1827664076
 20
119.2769786693
 30
0.0
 10
93.1771990131
 20
119.4314281703
 30
0.0
  0
SPLINE
  5
29D
100
AcDbEntity
  8
0
100
AcDbSpline
 62
7
  6
BYLAYER
 70
0
 71
3
 72
9
 73
5
 74
0
 42
0.0000001
 43
0.0000001
 44
0.0000000001
 40
0.0
 40
0.0
 40
0.0
 40
0.0
 40
0.483477884
 40
1.0
 40
1.0
 40
1.0
 40
1.0
 10
69.7992121259
 20
117.7473469686
 30
0.0
 10
69.9249951825
 20
117.8257790869
 30
0.0
 10
70.1425194927
 20
118.0505164472
 30
0.0
 10
70.3162019432
 20
118.3045724572
 30
0.0
 10
70.3875494504
 20
118.4459539309
 30
0.0
  0
SPLINE
  5
29E
100
AcDbEntity
  8
0
100
AcDbSpline
 62
7
  6
BYLAYER
 70
0
 71
3
 72
9
 73
5
 74
0
 42
0.0000001
 43
0.0000001
 44
0.0000000001
 40
0.0
 40
0.0
 40
0.0
 40
0.0
 40
0.4716365932
 40
1.0
 40
1.0
 40
1.0
 40
1.0
 10
70.4095660282
 20
118.4909905684
 30
0.0
 10
70.4747516664
 20
118.62870011
 30
0.0
 10
70.578821641
 20
118.9366022531
 30
0.0
 10
70.6227448664
 20
119.260802013
 30
0.0
 10
70.618309955
 20
119.4314279384
 30
0.0
  0
SPLINE
  5
29F
100
AcDbEntity
  8
0
100
AcDbSpline
 62
7
  6
BYLAYER
 70
0
 71
3
 72
9
 73
5
 74
0
 42
0.0000001
 43
0.0000001
 44
0.0000000001
 40
0.0
 40
0.0
 40
0.0
 40
0.0
 40
0.5381858983
 40
1.0
 40
1.0
 40
1.0
 40
1.0
 10
63.5803025061
 20
110.3303527186
 30
0.0
 10
64.360527347
 20
111.895852203
 30
0.0
 10
66.168569202
 20
114.6439489295
 30
0.0
 10
68.5812250444
 20
116.8702372084
 30
0.0
 10
69.7992114849
 20
117.7473492179
 30
0.0
  0
SPLINE
  5
2A0
100
AcDbEntity
  8
0
100
AcDbSpline
 62
7
  6
BYLAYER
 70
0
 71
3
 72
11
 73
7
 74
0
 42
0.0000001
 43
0.0000001
 44
0.0000000001
 40
0.0
 40
0.0
 40
0.0
 40
0.0
 40
0.3465762207
 40
0.4994955172
 40
0.6625428745
 40
1.0
 40
1.0
 40
1.0
 40
1.0
 10
71.5726904874
 20
81.2444274939
 30
0.0
 10
70.3759144465
 20
81.9118611032
 30
0.0
 10
68.7534976607
 20
83.0761398997
 30
0.0
 10
66.8908094219
 20
84.9210623995
 30
0.0
 10
65.2226658958
 20
86.8979742685
 30
0.0
 10
64.1754519016
 20
88.5957878406
 30
0.0
 10
63.5803032755
 20
89.7899505615
 30
0.0
  0
SPLINE
  5
2A1
100
AcDbEntity
  8
0
100
AcDbSpline
 62
7
  6
BYLAYER
 70
0
 71
3
 72
11
 73
7
 74
0
 42
0.0000001
 43
0.0000001
 44
0.0000000001
 40
0.0
 40
0.0
 40
0.0
 40
0.0
 40
0.1250909188
 40
0.3562505086
 40
0.660433003
 40
1.0
 40
1.0
 40
1.0
 40
1.0
 10
72.8672485646
 20
121.6508609616
 30
0.0
 10
72.9038846059
 20
121.6770945058
 30
0.0
 10
73.0263533323
 20
121.7216982015
 30
0.0
 10
73.2459285123
 20
121.8097704682
 30
0.0
 10
73.5421213683
 20
121.9191539316
 30
0.0
 10
73.7598585455
 20
121.9984822232
 30
0.0
 10
73.8744568431
 20
122.0412480934
 30
0.0
  0
SPLINE
  5
2A2
100
AcDbEntity
  8
0
100
AcDbSpline
 62
7
  6
BYLAYER
 70
0
 71
3
 72
9
 73
5
 74
0
 42
0.0000001
 43
0.0000001
 44
0.0000000001
 40
0.0
 40
0.0
 40
0.0
 40
0.0
 40
0.4618034638
 40
1.0
 40
1.0
 40
1.0
 40
1.0
 10
93.9963292997
 20
117.7473256631
 30
0.0
 10
95.2142826613
 20
116.8702375154
 30
0.0
 10
97.6269229042
 20
114.6439549965
 30
0.0
 10
99.4349685939
 20
111.8958762503
 30
0.0
 10
100.2152059578
 20
110.3303524675
 30
0.0
  0
SPLINE
  5
2A3
100
AcDbEntity
  8
0
100
AcDbSpline
 62
7
  6
BYLAYER
 70
0
 71
3
 72
11
 73
7
 74
0
 42
0.0000001
 43
0.0000001
 44
0.0000000001
 40
0.0
 40
0.0
 40
0.0
 40
0.0
 40
0.3373555118
 40
0.5003467929
 40
0.6532318026
 40
1.0
 40
1.0
 40
1.0
 40
1.0
 10
100.215208069
 20
89.7899493775
 30
0.0
 10
99.6202385095
 20
88.5961457392
 30
0.0
 10
98.5733882343
 20
86.8988592476
 30
0.0
 10
96.9059362165
 20
84.9223651241
 30
0.0
 10
95.0431664655
 20
83.0769360682
 30
0.0
 10
93.4201635409
 20
81.9123975871
 30
0.0
 10
92.222818485
 20
81.2444248376
 30
0.0
  0
SPLINE
  5
2A4
100
AcDbEntity
  8
0
100
AcDbSpline
 62
7
  6
BYLAYER
 70
0
 71
3
 72
8
 73
4
 74
0
 42
0.0000001
 43
0.0000001
 44
0.0000000001
 40
0.0
 40
0.0
 40
0.0
 40
0.0
 40
1.0
 40
1.0
 40
1.0
 40
1.0
 10
72.1276648005
 20
80.3484389472
 30
0.0
 10
72.0189238921
 20
80.4023332139
 30
0.0
 10
71.9194730362
 20
80.4786829683
 30
0.0
 10
71.8370403877
 20
80.5677561721
 30
0.0
  0
SPLINE
  5
2A5
100
AcDbEntity
  8
0
100
AcDbSpline
 62
7
  6
BYLAYER
 70
0
 71
3
 72
9
 73
5
 74
0
 42
0.0000001
 43
0.0000001
 44
0.0000000001
 40
0.0
 40
0.0
 40
0.0
 40
0.0
 40
0.2545954008
 40
1.0
 40
1.0
 40
1.0
 40
1.0
 10
71.8370403877
 20
80.5677561721
 30
0.0
 10
71.8158432488
 20
80.5906608963
 30
0.0
 10
71.7365507365
 20
80.6842222052
 30
0.0
 10
71.67518813
 20
80.7929323869
 30
0.0
 10
71.6420359786
 20
80.8780770216
 30
0.0
  0
SPLINE
  5
2A6
100
AcDbEntity
  8
0
100
AcDbSpline
 62
7
  6
BYLAYER
 70
0
 71
3
 72
9
 73
5
 74
0
 42
0.0000001
 43
0.0000001
 44
0.0000000001
 40
0.0
 40
0.0
 40
0.0
 40
0.0
 40
0.2601046186
 40
1.0
 40
1.0
 40
1.0
 40
1.0
 10
71.6420359786
 20
80.8780770216
 30
0.0
 10
71.6302684724
 20
80.9082994952
 30
0.0
 10
71.5907063646
 20
81.0266170888
 30
0.0
 10
71.5726034861
 20
81.1521712117
 30
0.0
 10
71.5726904898
 20
81.2444291043
 30
0.0
  0
SPLINE
  5
2A7
100
AcDbEntity
  8
0
100
AcDbSpline
 62
7
  6
BYLAYER
 70
0
 71
3
 72
13
 73
9
 74
0
 42
0.0000001
 43
0.0000001
 44
0.0000000001
 40
0.0
 40
0.0
 40
0.0
 40
0.0
 40
0.3395253758
 40
0.6454148833
 40
0.7725170433
 40
0.8762423157
 40
0.9529748683
 40
1.0
 40
1.0
 40
1.0
 40
1.0
 10
89.9016639998
 20
122.0477794132
 30
0.0
 10
90.0180696348
 20
122.0033560586
 30
0.0
 10
90.2408880225
 20
121.9230571905
 30
0.0
 10
90.5069978644
 20
121.8251742779
 30
0.0
 10
90.6906549042
 20
121.7542235068
 30
0.0
 10
90.7963925414
 20
121.7143083096
 30
0.0
 10
90.8735770536
 20
121.683473729
 30
0.0
 10
90.9156167077
 20
121.6647225784
 30
0.0
 10
90.9292740762
 20
121.6541742665
 30
0.0
  0
ENDSEC
  0
SECTION
  2
OBJECTS
  0
DICTIONARY
  5
C
100
AcDbDictionary
280
0
281
1
  3
ACAD_GROUP
350
D
  3
ACAD_MLINESTYLE
350
17
  3
ACAD_LAYOUT
350
1A
  3
ACAD_PLOTSETTINGS
350
19
  3
ACAD_PLOTSTYLENAME
350
E
  0
DICTIONARY
  5
D
102
{ACAD_REACTORS
330
C
102
}
100
AcDbDictionary
280
0
281
1
  0
ACDBDICTIONARYWDFLT
  5
E
102
{ACAD_REACTORS
330
C
102
}
100
AcDbDictionary
281
1
  3
Normal
350
F
100
AcDbDictionaryWithDefault
340
F
  0
DICTIONARY
  5
17
102
{ACAD_REACTORS
330
C
102
}
100
AcDbDictionary
280
0
281
1
  3
Standard
350
18
  0
DICTIONARY
  5
19
102
{ACAD_REACTORS
330
C
102
}
100
AcDbDictionary
281
1
  0
DICTIONARY
  5
1A
102
{ACAD_REACTORS
330
C
102
}
100
AcDbDictionary
281
1
  3
Model
350
2A8
  3
Layout1
350
2A9
  0
ACDBPLACEHOLDER
  5
F
102
{ACAD_REACTORS
330
E
102
}
  0
MLINESTYLE
  5
18
102
{ACAD_REACTORS
330
17
102
}
100
AcDbMlineStyle
  2
STANDARD
 70
0
  3

 62
256
 51
90.0
 52
90.0
 71
2
 49
0.5
 62
256
  6
BYLAYER
 49
-0.5
 62
256
  6
BYLAYER
  0
LAYOUT
  5
2A8
102
{ACAD_REACTORS
330
1A
102
}
100
AcDbPlotSettings
  1

  2
none_device
  4

  6

 40
0.0
 41
0.0
 42
0.0
 43
0.0
 44
210.0
 45
297.0
 46
0.0
 47
0.0
 48
0.0
 49
0.0
140
0.0
141
0.0
142
1.0
143
1.0
 70
1024
 72
1
 73
0
 74
0
  7

 75
0
147
1.0
148
0.0
149
0.0
100
AcDbLayout
  1
Model
 70
0
 71
0
 10
0.0
 20
0.0
 11
210.0
 21
297.0
 12
0.0
 22
0.0
 32
0.0
 14
0.0
 24
0.0
 34
0.0
 15
0.0
 25
0.0
 35
0.0
146
0.0
 13
0.0
 23
0.0
 33
0.0
 16
1.0
 26
0.0
 36
0.0
 17
0.0
 27
1.0
 37
0.0
 76
0
330
210
345
0
346
0
  0
LAYOUT
  5
2A9
102
{ACAD_REACTORS
330
1A
102
}
100
AcDbPlotSettings
  1

  2
none_device
  4

  6

 40
0.0
 41
0.0
 42
0.0
 43
0.0
 44
210.0
 45
297.0
 46
0.0
 47
0.0
 48
0.0
 49
0.0
140
0.0
141
0.0
142
1.0
143
1.0
 70
0
 72
1
 73
0
 74
0
  7

 75
0
147
1.0
148
0.0
149
0.0
100
AcDbLayout
  1
Layout1
 70
0
 71
1
 10
0.0
 20
0.0
 11
210.0
 21
297.0
 12
0.0
 22
0.0
 32
0.0
 14
0.0
 24
0.0
 34
0.0
 15
0.0
 25
0.0
 35
0.0
146
0.0
 13
0.0
 23
0.0
 33
0.0
 16
1.0
 26
0.0
 36
0.0
 17
0.0
 27
1.0
 37
0.0
 76
0
330
211
345
0
346
0
  0
ENDSEC
  0
EOF
