999
DXF file: C:\SESA671053\Gen2D\CAD\MCADPP0003734_3D-simplified\drw0001_5.dxf
999
Pro/ENGINEER 2019471 by Parametric Technology Corporation
  0
SECTION
  2
HEADER
  9
$ACADVER
  1
AC1024
  9
$DWGCODEPAGE
  3
ANSI_1252
  9
$EXTMAX
 10
173.3970354542
 20
245.2329501424
 30
0.0
  9
$EXTMIN
 10
0.0
 20
0.0
 30
0.0
  9
$LIMMIN
 10
0.0
 20
0.0
  9
$LIMMAX
 10
173.3970354542
 20
245.2329501424
  9
$VIEWCTR
 10
86.6985177271
 20
122.6164750712
  9
$VIEWSIZE
 40
245.2329501424
  9
$CLAYER
  8
0
  9
$LTSCALE
 40
15.9855552685
  9
$CELTYPE
  6
BYLAYER
  9
$DIMSCALE
 40
1.0
  9
$DIMASZ
 40
2.0642504221
  9
$DIMEXO
 40
1.0
  9
$DIMDLI
 40
11.0445654583
  9
$DIMEXE
 40
1.0
  9
$DIMCEN
 40
2.6158181349
  9
$DIMLFAC
 40
1.0
  9
$DIMBLK
  1
_FILLED
  9
$DIMALT
 70
0
  9
$DIMALTF
 40
0.0393700787
  9
$DIMTXT
 40
2.8899505909
  9
$DIMTOL
 70
1
  9
$DIMLIM
 70
0
  9
$DIMTFAC
 40
1.0
  9
$DIMTP
 40
0.01
  9
$DIMTM
 40
0.01
  9
$DIMGAP
 40
0.625
  9
$DIMDSEP
 70
46
  9
$AUNITS
 70
0
  9
$PDMODE
 70
3
  9
$PDSIZE
 40
0.3125
  9
$HANDSEED
  5
2E5
  9
$TILEMODE
 70
1
  9
$MEASUREMENT
 70
1
  9
$INSUNITS
 70
4
  0
ENDSEC
  0
SECTION
  2
CLASSES
  0
CLASS
  1
ACDBDICTIONARYWDFLT
  2
AcDbDictionaryWithDefault
  3
AutoCAD 2000
 90
0
 91
1
280
0
281
0
  0
CLASS
  1
ACDBPLACEHOLDER
  2
AcDbPlaceHolder
  3
AutoCAD 2000
 90
0
 91
1
280
0
281
0
  0
CLASS
  1
LAYOUT
  2
AcDbLayout
  3
AutoCAD 2000
 90
0
 91
0
280
0
281
0
  0
ENDSEC
  0
SECTION
  2
TABLES
  0
TABLE
  2
VPORT
  5
8
100
AcDbSymbolTable
 70
2
  0
VPORT
  5
1F4
100
AcDbSymbolTableRecord
100
AcDbViewportTableRecord
  2
*ACTIVE
 70
0
 10
0.0
 20
0.0
 11
1.0
 21
1.0
 12
86.6985177271
 22
122.6164750712
 13
0.0
 23
0.0
 14
1.0
 24
1.0
 15
0.0
 25
0.0
 16
0.0
 26
0.0
 36
1.0
 17
0.0
 27
0.0
 37
0.0
 40
245.2329501424
 41
0.7070707071
 42
50.0
 43
0.0
 44
0.0
 50
0.0
 51
0.0
 71
0
 72
100
 73
1
 74
1
 75
0
 76
0
 77
0
 78
0
  0
ENDTAB
  0
TABLE
  2
LTYPE
  5
5
100
AcDbSymbolTable
 70
6
  0
LTYPE
  5
14
100
AcDbSymbolTableRecord
100
AcDbLinetypeTableRecord
  2
BYBLOCK
 70
0
  3

 72
65
 73
0
 40
0.0
  0
LTYPE
  5
15
100
AcDbSymbolTableRecord
100
AcDbLinetypeTableRecord
  2
BYLAYER
 70
0
  3

 72
65
 73
0
 40
0.0
  0
LTYPE
  5
16
100
AcDbSymbolTableRecord
100
AcDbLinetypeTableRecord
  2
CONTINUOUS
 70
64
  3
Solid line
 72
65
 73
0
 40
0.0
  0
LTYPE
  5
1F5
100
AcDbSymbolTableRecord
100
AcDbLinetypeTableRecord
  2
CENTER
 70
64
  3
____ _ ____ _ ____ _ ____ _ ____ _ ____ _ ____
 72
65
 73
4
 40
0.6
 49
0.375
 74
0
 49
-0.075
 74
0
 49
0.075
 74
0
 49
-0.075
 74
0
  0
LTYPE
  5
1F6
100
AcDbSymbolTableRecord
100
AcDbLinetypeTableRecord
  2
HIDDEN
 70
64
  3
- - - - - - - - - - - - - - - - - - - -
 72
65
 73
2
 40
0.2
 49
0.1
 74
0
 49
-0.1
 74
0
  0
LTYPE
  5
1F7
100
AcDbSymbolTableRecord
100
AcDbLinetypeTableRecord
  2
PHANTOM
 70
64
  3
_____ _ _ _____ _ _ _____ _ _ _____
 72
65
 73
6
 40
0.8
 49
0.45
 74
0
 49
-0.05
 74
0
 49
0.1
 74
0
 49
-0.05
 74
0
 49
0.1
 74
0
 49
-0.05
 74
0
  0
LTYPE
  5
1F8
100
AcDbSymbolTableRecord
100
AcDbLinetypeTableRecord
  2
DOT
 70
64
  3
. . . . . . . . . . . . . . . . . . . .
 72
65
 73
2
 40
0.2
 49
0.1
 74
0
 49
-0.1
 74
0
  0
LTYPE
  5
1F9
100
AcDbSymbolTableRecord
100
AcDbLinetypeTableRecord
  2
DASHED
 70
64
  3
- - - - - - - - - - - - - - - - - - - -
 72
65
 73
2
 40
0.2
 49
0.1
 74
0
 49
-0.1
 74
0
  0
ENDTAB
  0
TABLE
  2
LAYER
  5
2
100
AcDbSymbolTable
 70
36
  0
LAYER
  5
10
100
AcDbSymbolTableRecord
100
AcDbLayerTableRecord
  2
0
 70
0
 62
7
  6
CONTINUOUS
370
-3
390
F
  0
LAYER
  5
1FA
100
AcDbSymbolTableRecord
100
AcDbLayerTableRecord
  2
DEFAULT_1
 70
0
 62
7
  6
CENTER
370
-3
390
F
  0
LAYER
  5
1FB
100
AcDbSymbolTableRecord
100
AcDbLayerTableRecord
  2
DEFAULT_2
 70
0
 62
8
  6
HIDDEN
370
-3
390
F
  0
LAYER
  5
1FC
100
AcDbSymbolTableRecord
100
AcDbLayerTableRecord
  2
DEFAULT_3
 70
0
 62
7
  6
PHANTOM
370
-3
390
F
  0
LAYER
  5
1FD
100
AcDbSymbolTableRecord
100
AcDbLayerTableRecord
  2
00_COMPONENTS
 70
0
 62
7
  6
CONTINUOUS
370
-3
390
F
  0
LAYER
  5
1FE
100
AcDbSymbolTableRecord
100
AcDbLayerTableRecord
  2
00_COMPONENTS_1
 70
0
 62
7
  6
CONTINUOUS
370
-3
390
F
  0
LAYER
  5
1FF
100
AcDbSymbolTableRecord
100
AcDbLayerTableRecord
  2
01_1_DEFAULT_DATUMS
 70
0
 62
7
  6
CONTINUOUS
370
-3
390
F
  0
LAYER
  5
200
100
AcDbSymbolTableRecord
100
AcDbLayerTableRecord
  2
01_PLANES
 70
0
 62
7
  6
CONTINUOUS
370
-3
390
F
  0
LAYER
  5
201
100
AcDbSymbolTableRecord
100
AcDbLayerTableRecord
  2
02_COORD_SYS
 70
0
 62
7
  6
CONTINUOUS
370
-3
390
F
  0
LAYER
  5
202
100
AcDbSymbolTableRecord
100
AcDbLayerTableRecord
  2
03_AXES
 70
0
 62
7
  6
CONTINUOUS
370
-3
390
F
  0
LAYER
  5
203
100
AcDbSymbolTableRecord
100
AcDbLayerTableRecord
  2
03_AXES_1
 70
0
 62
7
  6
CONTINUOUS
370
-3
390
F
  0
LAYER
  5
204
100
AcDbSymbolTableRecord
100
AcDbLayerTableRecord
  2
04_POINTS
 70
0
 62
7
  6
CONTINUOUS
370
-3
390
F
  0
LAYER
  5
205
100
AcDbSymbolTableRecord
100
AcDbLayerTableRecord
  2
05_CURVES
 70
0
 62
7
  6
CONTINUOUS
370
-3
390
F
  0
LAYER
  5
206
100
AcDbSymbolTableRecord
100
AcDbLayerTableRecord
  2
06_SURFS
 70
0
 62
7
  6
CONTINUOUS
370
-3
390
F
  0
LAYER
  5
207
100
AcDbSymbolTableRecord
100
AcDbLayerTableRecord
  2
07_COSMETICS
 70
0
 62
7
  6
CONTINUOUS
370
-3
390
F
  0
LAYER
  5
208
100
AcDbSymbolTableRecord
100
AcDbLayerTableRecord
  2
10_NOTES
 70
0
 62
7
  6
CONTINUOUS
370
-3
390
F
  0
LAYER
  5
209
100
AcDbSymbolTableRecord
100
AcDbLayerTableRecord
  2
11_NOTES_PUB
 70
0
 62
7
  6
CONTINUOUS
370
-3
390
F
  0
LAYER
  5
20A
100
AcDbSymbolTableRecord
100
AcDbLayerTableRecord
  2
13_REF_GTOL
 70
0
 62
7
  6
CONTINUOUS
370
-3
390
F
  0
LAYER
  5
20B
100
AcDbSymbolTableRecord
100
AcDbLayerTableRecord
  2
16_MISC
 70
0
 62
7
  6
CONTINUOUS
370
-3
390
F
  0
LAYER
  5
20C
100
AcDbSymbolTableRecord
100
AcDbLayerTableRecord
  2
17_NO_PRINT
 70
0
 62
7
  6
CONTINUOUS
370
-3
390
F
  0
LAYER
  5
20D
100
AcDbSymbolTableRecord
100
AcDbLayerTableRecord
  2
18_DATUM_CAMS_JOINTS
 70
0
 62
7
  6
CONTINUOUS
370
-3
390
F
  0
LAYER
  5
20E
100
AcDbSymbolTableRecord
100
AcDbLayerTableRecord
  2
19_DATUM_FUNCTIONAL
 70
0
 62
7
  6
CONTINUOUS
370
-3
390
F
  0
LAYER
  5
20F
100
AcDbSymbolTableRecord
100
AcDbLayerTableRecord
  2
20_DATUM_KINEMATIC_SCHEME
 70
0
 62
7
  6
CONTINUOUS
370
-3
390
F
  0
LAYER
  5
210
100
AcDbSymbolTableRecord
100
AcDbLayerTableRecord
  2
INTFCLR_18
 70
0
 62
7
  6
CONTINUOUS
370
-3
390
F
  0
LAYER
  5
211
100
AcDbSymbolTableRecord
100
AcDbLayerTableRecord
  2
INTFCLR_21
 70
0
 62
7
  6
CONTINUOUS
370
-3
390
F
  0
LAYER
  5
212
100
AcDbSymbolTableRecord
100
AcDbLayerTableRecord
  2
INTFCLR_45
 70
0
 62
7
  6
CONTINUOUS
370
-3
390
F
  0
LAYER
  5
213
100
AcDbSymbolTableRecord
100
AcDbLayerTableRecord
  2
INTF_BLANK
 70
0
 62
7
  6
CONTINUOUS
370
-3
390
F
  0
LAYER
  5
214
100
AcDbSymbolTableRecord
100
AcDbLayerTableRecord
  2
INTF_YELLOW
 70
0
 62
7
  6
CONTINUOUS
370
-3
390
F
  0
LAYER
  5
215
100
AcDbSymbolTableRecord
100
AcDbLayerTableRecord
  2
_BLACK_HOLE
 70
0
 62
7
  6
CONTINUOUS
370
-3
390
F
  0
ENDTAB
  0
TABLE
  2
STYLE
  5
3
100
AcDbSymbolTable
 70
1
  0
STYLE
  5
11
100
AcDbSymbolTableRecord
100
AcDbTextStyleTableRecord
  2
STANDARD
 70
0
 40
0.0
 41
0.8
 50
0.0
 71
0
 42
0.2
  3
txt
  4

  0
STYLE
  5
216
100
AcDbSymbolTableRecord
100
AcDbTextStyleTableRecord
  2
TEXTSTYLE_1
 70
0
 40
0.0
 41
0.8
 50
0.0
 71
0
 42
0.2
  3
gdt
  4

  0
ENDTAB
  0
TABLE
  2
VIEW
  5
6
100
AcDbSymbolTable
 70
0
  0
ENDTAB
  0
TABLE
  2
UCS
  5
7
100
AcDbSymbolTable
 70
0
  0
ENDTAB
  0
TABLE
  2
APPID
  5
9
100
AcDbSymbolTable
 70
1
  0
APPID
  5
217
100
AcDbSymbolTableRecord
100
AcDbRegAppTableRecord
  2
ACAD
 70
0
  0
ENDTAB
  0
TABLE
  2
BLOCK_RECORD
  5
1
100
AcDbSymbolTable
 70
0
  0
BLOCK_RECORD
  5
218
100
AcDbSymbolTableRecord
100
AcDbBlockTableRecord
  2
*Model_Space
  0
BLOCK_RECORD
  5
219
100
AcDbSymbolTableRecord
100
AcDbBlockTableRecord
  2
*Paper_Space
  0
BLOCK_RECORD
  5
21A
100
AcDbSymbolTableRecord
100
AcDbBlockTableRecord
  2
_FILLED
  0
ENDTAB
  0
TABLE
  2
DIMSTYLE
  5
A
100
AcDbSymbolTable
 70
1
100
AcDbDimStyleTable
 71
0
  0
DIMSTYLE
105
21B
100
AcDbSymbolTableRecord
100
AcDbDimStyleTableRecord
  2
STANDARD
 70
0
  3

  4

 40
1.0
 41
2.0642504221
 42
1.0
 43
0.38
 44
1.0
 45
0.0
 46
0.0
 47
0.01
 48
0.01
140
2.8899505909
141
0.09
142
0.0
143
25.4
144
1.0
145
0.0
146
1.0
147
0.625
 71
1
 72
0
 73
0
 74
0
 75
0
 76
0
 77
1
 78
8
 79
2
170
0
171
1
172
0
173
0
174
0
175
0
176
0
177
0
178
0
270
2
179
2
271
2
272
2
273
2
274
2
275
0
280
0
281
0
282
0
283
1
284
8
285
0
286
0
287
3
288
0
340
11
278
46
341
21A
342
21A
343
21A
344
21A
  0
ENDTAB
  0
ENDSEC
  0
SECTION
  2
BLOCKS
  0
BLOCK
  5
20
100
AcDbEntity
  8
0
100
AcDbBlockBegin
  2
*Model_Space
 70
0
 10
0.0
 20
0.0
 30
0.0
  3
*Model_Space
  1

  0
ENDBLK
  5
21
100
AcDbEntity
  8
0
100
AcDbBlockEnd
  0
BLOCK
  5
1C
100
AcDbEntity
  8
0
100
AcDbBlockBegin
  2
*Paper_Space
 70
0
 10
0.0
 20
0.0
 30
0.0
  3
*Paper_Space
  1

  0
ENDBLK
  5
1D
100
AcDbEntity
  8
0
100
AcDbBlockEnd
  0
BLOCK
  5
21C
100
AcDbEntity
  8
0
100
AcDbBlockBegin
  2
_FILLED
 70
64
 10
0.0
 20
0.0
  3
_FILLED
  1

  0
SOLID
  5
21D
100
AcDbEntity
  8
0
  6
BYBLOCK
 62
0
100
AcDbTrace
 10
0.0
 20
0.0
 11
-1.0
 21
0.25
 12
-1.0
 22
-0.25
 13
-1.0
 23
-0.25
  0
ENDBLK
  5
21E
100
AcDbEntity
  8
0
  6
BYBLOCK
 62
0
100
AcDbBlockEnd
  0
ENDSEC
  0
SECTION
  2
ENTITIES
  0
LINE
  5
21F
100
AcDbEntity
  8
INTFCLR_18
100
AcDbLine
 62
7
420
3368703
  6
CONTINUOUS
 10
20.2124731047
 20
187.3738528212
 11
20.2124731047
 21
60.2659220207
  0
LINE
  5
220
100
AcDbEntity
  8
00_COMPONENTS_1
100
AcDbLine
 62
7
  6
CONTINUOUS
 10
40.2978896487
 20
58.4869461488
 11
51.0978896487
 21
58.4869461488
  0
LINE
  5
221
100
AcDbEntity
  8
INTFCLR_18
100
AcDbLine
 62
7
420
3368703
  6
CONTINUOUS
 10
20.2124731047
 20
60.2659220206
 11
74.2978896487
 21
60.2659220206
  0
LINE
  5
222
100
AcDbEntity
  8
0
100
AcDbLine
 62
7
420
3368703
  6
CONTINUOUS
 10
51.0978896487
 20
61.6264851619
 11
71.093934556
 21
58.4594227805
  0
LINE
  5
223
100
AcDbEntity
  8
00_COMPONENTS_1
100
AcDbLine
 62
7
  6
CONTINUOUS
 10
51.0978328465
 20
62.9040203132
 11
50.3076815762
 21
62.9040203132
  0
LINE
  5
224
100
AcDbEntity
  8
00_COMPONENTS_1
100
AcDbLine
 62
7
  6
CONTINUOUS
 10
68.6016630379
 20
62.9040203132
 11
136.6978847854
 21
62.9040203132
  0
LINE
  5
225
100
AcDbEntity
  8
INTFCLR_18
100
AcDbLine
 62
7
420
3368703
  6
CONTINUOUS
 10
40.2978896487
 20
62.9040203132
 11
136.6978896487
 21
62.9040203132
  0
LINE
  5
226
100
AcDbEntity
  8
00_COMPONENTS_1
100
AcDbLine
 62
7
  6
CONTINUOUS
 10
71.0978896487
 20
63.7970524637
 11
51.0978896487
 21
63.7970524637
  0
LINE
  5
227
100
AcDbEntity
  8
00_COMPONENTS_1
100
AcDbLine
 62
7
  6
CONTINUOUS
 10
71.0978896487
 20
64.9040203132
 11
74.2978896487
 21
64.9040203132
  0
LINE
  5
228
100
AcDbEntity
  8
00_COMPONENTS_1
100
AcDbLine
 62
7
  6
CONTINUOUS
 10
51.0978896487
 20
65.7604759204
 11
71.0978896487
 21
65.7588100374
  0
LINE
  5
229
100
AcDbEntity
  8
00_COMPONENTS_1
100
AcDbLine
 62
7
  6
CONTINUOUS
 10
68.5290851005
 20
62.9050641299
 11
68.6016567586
 21
62.9040203132
  0
LINE
  5
22A
100
AcDbEntity
  8
00_COMPONENTS_1
100
AcDbLine
 62
7
  6
CONTINUOUS
 10
50.5935265084
 20
69.4869461488
 11
50.3076940903
 21
69.4869461488
  0
LINE
  5
22B
100
AcDbEntity
  8
00_COMPONENTS_1
100
AcDbLine
 62
7
  6
CONTINUOUS
 10
57.8520190756
 20
69.4869461488
 11
74.2978896487
 21
69.4869461488
  0
LINE
  5
22C
100
AcDbEntity
  8
00_COMPONENTS_1
100
AcDbLine
 62
7
  6
CONTINUOUS
 10
74.2978896487
 20
71.4869461488
 11
40.2978896487
 21
71.4869461488
  0
LINE
  5
22D
100
AcDbEntity
  8
INTFCLR_18
100
AcDbLine
 62
7
420
3368703
  6
CONTINUOUS
 10
74.2978896487
 20
71.4869461488
 11
40.2978896487
 21
71.4869461488
  0
LINE
  5
22E
100
AcDbEntity
  8
00_COMPONENTS_1
100
AcDbLine
 62
7
  6
CONTINUOUS
 10
40.2978896487
 20
169.2664122353
 11
40.2978896487
 21
139.341090574
  0
LINE
  5
22F
100
AcDbEntity
  8
INTFCLR_18
100
AcDbLine
 62
7
420
3368703
  6
CONTINUOUS
 10
40.2978896487
 20
107.8334355549
 11
40.2978896487
 21
103.5040201488
  0
LINE
  5
230
100
AcDbEntity
  8
INTFCLR_18
100
AcDbLine
 62
7
420
3368703
  6
CONTINUOUS
 10
40.2978896487
 20
98.8040203132
 11
40.2978896487
 21
95.7708572187
  0
LINE
  5
231
100
AcDbEntity
  8
00_COMPONENTS_1
100
AcDbLine
 62
7
  6
CONTINUOUS
 10
40.2978896487
 20
58.4869461488
 11
40.2978896487
 21
95.7708572187
  0
LINE
  5
232
100
AcDbEntity
  8
INTFCLR_18
100
AcDbLine
 62
7
420
3368703
  6
CONTINUOUS
 10
40.2978896487
 20
71.4869461488
 11
40.2978896487
 21
95.7446776122
  0
LINE
  5
233
100
AcDbEntity
  8
INTFCLR_18
100
AcDbLine
 62
7
420
3368703
  6
CONTINUOUS
 10
40.2978896487
 20
139.341090574
 11
40.2978896487
 21
171.0340203132
  0
LINE
  5
234
100
AcDbEntity
  8
00_COMPONENTS_1
100
AcDbLine
 62
7
  6
CONTINUOUS
 10
40.3978896487
 20
170.1011766974
 11
40.3978896487
 21
169.2664122353
  0
LINE
  5
235
100
AcDbEntity
  8
INTFCLR_18
100
AcDbLine
 62
7
420
3368703
  6
CONTINUOUS
 10
40.3978896487
 20
170.1040203132
 11
40.3978896487
 21
169.2664122353
  0
LINE
  5
236
100
AcDbEntity
  8
00_COMPONENTS_1
100
AcDbLine
 62
7
  6
CONTINUOUS
 10
40.3978896487
 20
96.2665147796
 11
40.3978896487
 21
102.3040201488
  0
LINE
  5
237
100
AcDbEntity
  8
INTFCLR_18
100
AcDbLine
 62
7
420
3368703
  6
CONTINUOUS
 10
40.5978896487
 20
103.0266897908
 11
40.5978896487
 21
102.5040201487
  0
LINE
  5
238
100
AcDbEntity
  8
00_COMPONENTS_1
100
AcDbLine
 62
7
  6
CONTINUOUS
 10
40.5978896487
 20
102.5040201487
 11
40.5978896487
 21
103.0266897908
  0
LINE
  5
239
100
AcDbEntity
  8
00_COMPONENTS_1
100
AcDbLine
 62
7
  6
CONTINUOUS
 10
41.4978896487
 20
100.6040201488
 11
41.4978896487
 21
101.5540201488
  0
LINE
  5
23A
100
AcDbEntity
  8
00_COMPONENTS_1
100
AcDbLine
 62
7
  6
CONTINUOUS
 10
41.7978896487
 20
169.2664122353
 11
41.7978896487
 21
170.1040203132
  0
LINE
  5
23B
100
AcDbEntity
  8
00_COMPONENTS_1
100
AcDbLine
 62
7
  6
CONTINUOUS
 10
41.8978896487
 20
170.1040203132
 11
41.8978896487
 21
169.2664122353
  0
LINE
  5
23C
100
AcDbEntity
  8
INTFCLR_18
100
AcDbLine
 62
7
420
3368703
  6
CONTINUOUS
 10
41.8978896487
 20
169.2664122353
 11
41.8978896487
 21
170.1040203132
  0
LINE
  5
23D
100
AcDbEntity
  8
INTFCLR_18
100
AcDbLine
 62
7
420
3368703
  6
CONTINUOUS
 10
42.0978896487
 20
102.1040201488
 11
42.0978896487
 21
100.6040201488
  0
LINE
  5
23E
100
AcDbEntity
  8
00_COMPONENTS_1
100
AcDbLine
 62
7
  6
CONTINUOUS
 10
42.0978896487
 20
98.0901727555
 11
42.0978896487
 21
102.1040201488
  0
LINE
  5
23F
100
AcDbEntity
  8
00_COMPONENTS_1
100
AcDbLine
 62
7
  6
CONTINUOUS
 10
42.2478896487
 20
170.1040203132
 11
42.2478896487
 21
169.2664122353
  0
LINE
  5
240
100
AcDbEntity
  8
INTFCLR_18
100
AcDbLine
 62
7
420
3368703
  6
CONTINUOUS
 10
42.2478896487
 20
169.2672848409
 11
42.2478896487
 21
170.1040203132
  0
LINE
  5
241
100
AcDbEntity
  8
INTFCLR_18
100
AcDbLine
 62
7
420
3368703
  6
CONTINUOUS
 10
44.8978896487
 20
99.1040203132
 11
44.8978896487
 21
98.8040203132
  0
LINE
  5
242
100
AcDbEntity
  8
00_COMPONENTS_1
100
AcDbLine
 62
7
  6
CONTINUOUS
 10
44.8978896487
 20
98.8040203132
 11
44.8978896487
 21
99.1040203132
  0
LINE
  5
243
100
AcDbEntity
  8
00_COMPONENTS_1
100
AcDbLine
 62
7
  6
CONTINUOUS
 10
45.0978896489
 20
98.8040203132
 11
45.0978896491
 21
101.988550095
  0
LINE
  5
244
100
AcDbEntity
  8
INTFCLR_18
100
AcDbLine
 62
7
420
3368703
  6
CONTINUOUS
 10
45.0978896491
 20
100.6040201488
 11
45.0978896491
 21
101.988550095
  0
LINE
  5
245
100
AcDbEntity
  8
00_COMPONENTS_1
100
AcDbLine
 62
7
  6
CONTINUOUS
 10
45.7978896487
 20
100.6040201488
 11
45.7978896487
 21
98.8040203132
  0
LINE
  5
246
100
AcDbEntity
  8
00_COMPONENTS_1
100
AcDbLine
 62
7
  6
CONTINUOUS
 10
45.9978896487
 20
138.8040203132
 11
45.0978896487
 21
136.8040203132
  0
LINE
  5
247
100
AcDbEntity
  8
INTFCLR_18
100
AcDbLine
 62
7
420
3368703
  6
CONTINUOUS
 10
45.9978896487
 20
138.8040203132
 11
45.0978896487
 21
136.8040203132
  0
LINE
  5
248
100
AcDbEntity
  8
00_COMPONENTS_1
100
AcDbLine
 62
7
  6
CONTINUOUS
 10
45.5596556405
 20
107.4493758636
 11
46.5978896487
 21
104.2540201488
  0
LINE
  5
249
100
AcDbEntity
  8
INTFCLR_18
100
AcDbLine
 62
7
420
3368703
  6
CONTINUOUS
 10
46.5978896487
 20
104.2540201488
 11
45.2935330482
 21
108.268417149
  0
LINE
  5
24A
100
AcDbEntity
  8
00_COMPONENTS_1
100
AcDbLine
 62
7
  6
CONTINUOUS
 10
45.9978896487
 20
102.3040201488
 11
45.9978896487
 21
102.6236353909
  0
LINE
  5
24B
100
AcDbEntity
  8
00_COMPONENTS_1
100
AcDbLine
 62
7
  6
CONTINUOUS
 10
46.0978896487
 20
103.3040203132
 11
46.0978896487
 21
98.8040203132
  0
LINE
  5
24C
100
AcDbEntity
  8
INTFCLR_18
100
AcDbLine
 62
7
420
3368703
  6
CONTINUOUS
 10
46.0978896487
 20
98.8040203132
 11
46.0978896487
 21
103.3040203132
  0
LINE
  5
24D
100
AcDbEntity
  8
00_COMPONENTS_1
100
AcDbLine
 62
7
  6
CONTINUOUS
 10
46.0978896487
 20
169.2664122353
 11
46.0978896487
 21
170.1040203132
  0
LINE
  5
24E
100
AcDbEntity
  8
00_COMPONENTS_1
100
AcDbLine
 62
7
  6
CONTINUOUS
 10
46.5978896487
 20
104.2540201488
 11
46.5978896487
 21
103.3040203132
  0
LINE
  5
24F
100
AcDbEntity
  8
INTFCLR_18
100
AcDbLine
 62
7
420
3368703
  6
CONTINUOUS
 10
46.5978896487
 20
103.3040203132
 11
46.5978896487
 21
104.2540201487
  0
LINE
  5
250
100
AcDbEntity
  8
INTFCLR_18
100
AcDbLine
 62
7
420
3368703
  6
CONTINUOUS
 10
46.8978896487
 20
103.5040201488
 11
46.8978896487
 21
103.3040203132
  0
LINE
  5
251
100
AcDbEntity
  8
00_COMPONENTS_1
100
AcDbLine
 62
7
  6
CONTINUOUS
 10
47.0978896487
 20
171.2040203132
 11
47.0978896487
 21
169.2664122353
  0
LINE
  5
252
100
AcDbEntity
  8
00_COMPONENTS_1
100
AcDbLine
 62
7
  6
CONTINUOUS
 10
47.0978896487
 20
138.8040203132
 11
47.0978896487
 21
103.3040203132
  0
LINE
  5
253
100
AcDbEntity
  8
INTFCLR_18
100
AcDbLine
 62
7
420
3368703
  6
CONTINUOUS
 10
47.0978896487
 20
103.3040203132
 11
47.0978896487
 21
138.8040203132
  0
LINE
  5
254
100
AcDbEntity
  8
00_COMPONENTS_1
100
AcDbLine
 62
7
  6
CONTINUOUS
 10
50.0978896487
 20
169.645728209
 11
50.0978896487
 21
170.8378224398
  0
LINE
  5
255
100
AcDbEntity
  8
00_COMPONENTS_1
100
AcDbLine
 62
7
  6
CONTINUOUS
 10
50.3076815762
 20
62.9040203132
 11
50.3076815762
 21
69.4869461488
  0
LINE
  5
256
100
AcDbEntity
  8
00_COMPONENTS_1
100
AcDbLine
 62
7
  6
CONTINUOUS
 10
50.5935031114
 20
69.4869461488
 11
50.5935045534
 21
71.4869461488
  0
LINE
  5
257
100
AcDbEntity
  8
INTFCLR_18
100
AcDbLine
 62
7
420
3368703
  6
CONTINUOUS
 10
51.0978896487
 20
65.7604987914
 11
51.0978896487
 21
59.9716440015
  0
LINE
  5
258
100
AcDbEntity
  8
00_COMPONENTS_1
100
AcDbLine
 62
7
  6
CONTINUOUS
 10
51.097872759
 20
65.7649904121
 11
51.0978896487
 21
58.4869461488
  0
LINE
  5
259
100
AcDbEntity
  8
00_COMPONENTS_1
100
AcDbLine
 62
7
  6
CONTINUOUS
 10
51.9978896487
 20
169.645728209
 11
51.9978896487
 21
170.928129038
  0
LINE
  5
25A
100
AcDbEntity
  8
00_COMPONENTS_1
100
AcDbLine
 62
7
  6
CONTINUOUS
 10
51.9978896487
 20
171.0257602659
 11
51.9978896487
 21
171.2040203132
  0
LINE
  5
25B
100
AcDbEntity
  8
00_COMPONENTS_1
100
AcDbLine
 62
7
  6
CONTINUOUS
 10
57.8520190756
 20
69.4869461488
 11
57.8462321233
 21
71.4869461488
  0
LINE
  5
25C
100
AcDbEntity
  8
00_COMPONENTS_1
100
AcDbLine
 62
7
  6
CONTINUOUS
 10
143.1528916503
 20
92.5040203132
 11
136.3711188098
 21
92.5040203132
  0
LINE
  5
25D
100
AcDbEntity
  8
INTFCLR_18
100
AcDbLine
 62
7
420
3368703
  6
CONTINUOUS
 10
152.1978896487
 20
95.5040203132
 11
134.6978896487
 21
95.5040203132
  0
LINE
  5
25E
100
AcDbEntity
  8
00_COMPONENTS_1
100
AcDbLine
 62
7
  6
CONTINUOUS
 10
134.6978896487
 20
95.5040203132
 11
152.1978847854
 21
95.5040203132
  0
LINE
  5
25F
100
AcDbEntity
  8
00_COMPONENTS_1
100
AcDbLine
 62
7
  6
CONTINUOUS
 10
65.9478896487
 20
171.2040203132
 11
65.9478896487
 21
171.0257599063
  0
LINE
  5
260
100
AcDbEntity
  8
00_COMPONENTS_1
100
AcDbLine
 62
7
  6
CONTINUOUS
 10
65.9478896487
 20
170.928129038
 11
65.9478896487
 21
169.645728209
  0
LINE
  5
261
100
AcDbEntity
  8
00_COMPONENTS_1
100
AcDbLine
 62
7
  6
CONTINUOUS
 10
67.8978896487
 20
169.6424934941
 11
67.8978896487
 21
171.2040203132
  0
LINE
  5
262
100
AcDbEntity
  8
INTFCLR_18
100
AcDbLine
 62
7
420
3368703
  6
CONTINUOUS
 10
45.2935330482
 20
108.2684169845
 11
40.6499121481
 21
103.1612359142
  0
LINE
  5
263
100
AcDbEntity
  8
00_COMPONENTS_1
100
AcDbLine
 62
7
  6
CONTINUOUS
 10
40.6499121481
 20
103.1612359142
 11
44.7141836308
 21
107.6312326749
  0
LINE
  5
264
100
AcDbEntity
  8
00_COMPONENTS_1
100
AcDbLine
 62
7
  6
CONTINUOUS
 10
46.0978896487
 20
98.8040203132
 11
44.8978896487
 21
98.8040203132
  0
LINE
  5
265
100
AcDbEntity
  8
INTFCLR_18
100
AcDbLine
 62
7
420
3368703
  6
CONTINUOUS
 10
44.8978896487
 20
98.8040203132
 11
46.0978896487
 21
98.8040203132
  0
LINE
  5
266
100
AcDbEntity
  8
00_COMPONENTS_1
100
AcDbLine
 62
7
  6
CONTINUOUS
 10
44.6978896487
 20
99.3040203132
 11
43.7921749337
 21
99.3040203132
  0
LINE
  5
267
100
AcDbEntity
  8
INTFCLR_18
100
AcDbLine
 62
7
420
3368703
  6
CONTINUOUS
 10
43.7921749337
 20
99.3040203132
 11
44.6978896487
 21
99.3040203132
  0
LINE
  5
268
100
AcDbEntity
  8
00_COMPONENTS_1
100
AcDbLine
 62
7
  6
CONTINUOUS
 10
46.0978896487
 20
100.6040201488
 11
45.097889649
 21
100.6040201488
  0
LINE
  5
269
100
AcDbEntity
  8
00_COMPONENTS_1
100
AcDbLine
 62
7
  6
CONTINUOUS
 10
42.0978896487
 20
100.6040201488
 11
40.3978896487
 21
100.6040201488
  0
LINE
  5
26A
100
AcDbEntity
  8
INTFCLR_18
100
AcDbLine
 62
7
420
3368703
  6
CONTINUOUS
 10
42.0978896487
 20
100.6040201488
 11
45.0978896491
 21
100.6040201488
  0
LINE
  5
26B
100
AcDbEntity
  8
00_COMPONENTS_1
100
AcDbLine
 62
7
  6
CONTINUOUS
 10
41.8978896487
 20
102.3040201488
 11
40.7978896486
 21
102.3040201488
  0
LINE
  5
26C
100
AcDbEntity
  8
00_COMPONENTS_1
100
AcDbLine
 62
7
  6
CONTINUOUS
 10
40.3978896487
 20
102.3040201488
 11
40.2978896487
 21
102.3040201488
  0
LINE
  5
26D
100
AcDbEntity
  8
INTFCLR_18
100
AcDbLine
 62
7
420
3368703
  6
CONTINUOUS
 10
40.7978896486
 20
102.3040201488
 11
41.8978896487
 21
102.3040201488
  0
LINE
  5
26E
100
AcDbEntity
  8
00_COMPONENTS_1
100
AcDbLine
 62
7
  6
CONTINUOUS
 10
45.4442998106
 20
102.3040201488
 11
46.0978896487
 21
102.3040201488
  0
LINE
  5
26F
100
AcDbEntity
  8
00_COMPONENTS_1
100
AcDbLine
 62
7
  6
CONTINUOUS
 10
47.0978896487
 20
103.3040203132
 11
46.0978896487
 21
103.3040203132
  0
LINE
  5
270
100
AcDbEntity
  8
INTFCLR_18
100
AcDbLine
 62
7
420
3368703
  6
CONTINUOUS
 10
46.0978896487
 20
103.3040203132
 11
47.0978896487
 21
103.3040203132
  0
LINE
  5
271
100
AcDbEntity
  8
INTFCLR_18
100
AcDbLine
 62
7
420
3368703
  6
CONTINUOUS
 10
46.0978896487
 20
103.5040201488
 11
40.2978896487
 21
103.5040201488
  0
LINE
  5
272
100
AcDbEntity
  8
INTFCLR_18
100
AcDbLine
 62
7
420
3368703
  6
CONTINUOUS
 10
46.5978896487
 20
103.5040201488
 11
46.8978896487
 21
103.5040201488
  0
LINE
  5
273
100
AcDbEntity
  8
00_COMPONENTS_1
100
AcDbLine
 62
7
  6
CONTINUOUS
 10
71.0978896487
 20
65.7588100374
 11
71.0978896487
 21
62.9040203132
  0
LINE
  5
274
100
AcDbEntity
  8
00_COMPONENTS_1
100
AcDbLine
 62
7
  6
CONTINUOUS
 10
74.2978896487
 20
62.9040203132
 11
74.2978896487
 21
71.4869461488
  0
LINE
  5
275
100
AcDbEntity
  8
INTFCLR_18
100
AcDbLine
 62
7
420
3368703
  6
CONTINUOUS
 10
74.2978896487
 20
60.2659220206
 11
74.2978896487
 21
71.4869461488
  0
LINE
  5
276
100
AcDbEntity
  8
00_COMPONENTS_1
100
AcDbLine
 62
7
  6
CONTINUOUS
 10
74.2978896487
 20
169.2664122353
 11
74.2978896487
 21
179.7040203132
  0
LINE
  5
277
100
AcDbEntity
  8
INTFCLR_18
100
AcDbLine
 62
7
420
3368703
  6
CONTINUOUS
 10
74.2978896487
 20
169.2664122353
 11
74.2978896487
 21
187.3738528211
  0
LINE
  5
278
100
AcDbEntity
  8
00_COMPONENTS_1
100
AcDbLine
 62
7
  6
CONTINUOUS
 10
40.7741234062
 20
96.8541339706
 11
43.1097021823
 21
99.0349313499
  0
LINE
  5
279
100
AcDbEntity
  8
INTFCLR_18
100
AcDbLine
 62
7
420
3368703
  6
CONTINUOUS
 10
40.7741234062
 20
96.8541339706
 11
43.1097021823
 21
99.0349313499
  0
LINE
  5
27A
100
AcDbEntity
  8
INTFCLR_18
100
AcDbLine
 62
7
420
3368703
  6
CONTINUOUS
 10
152.6502001847
 20
106.0614655856
 11
157.9871660243
 21
106.0614655856
  0
LINE
  5
27B
100
AcDbEntity
  8
00_COMPONENTS_1
100
AcDbLine
 62
7
  6
CONTINUOUS
 10
152.6502001847
 20
106.6040203132
 11
150.1978896487
 21
106.6040203132
  0
LINE
  5
27C
100
AcDbEntity
  8
INTFCLR_18
100
AcDbLine
 62
7
420
3368703
  6
CONTINUOUS
 10
152.6502001847
 20
106.6040203132
 11
157.2802806814
 21
106.6040203132
  0
LINE
  5
27D
100
AcDbEntity
  8
INTFCLR_18
100
AcDbLine
 62
7
420
3368703
  6
CONTINUOUS
 10
157.2802806814
 20
106.7040203132
 11
152.6502001847
 21
106.7040203132
  0
LINE
  5
27E
100
AcDbEntity
  8
00_COMPONENTS_1
100
AcDbLine
 62
7
  6
CONTINUOUS
 10
152.6502001847
 20
106.7040203132
 11
157.2802806814
 21
106.7040203132
  0
LINE
  5
27F
100
AcDbEntity
  8
00_COMPONENTS_1
100
AcDbLine
 62
7
  6
CONTINUOUS
 10
152.7258944132
 20
110.6040203132
 11
157.2802806814
 21
110.6040203132
  0
LINE
  5
280
100
AcDbEntity
  8
00_COMPONENTS_1
100
AcDbLine
 62
7
  6
CONTINUOUS
 10
44.3724527976
 20
136.8040203132
 11
40.8752713869
 21
138.434782787
  0
LINE
  5
281
100
AcDbEntity
  8
INTFCLR_18
100
AcDbLine
 62
7
420
3368703
  6
CONTINUOUS
 10
44.3724527976
 20
136.8040203132
 11
40.8752713869
 21
138.434782787
  0
LINE
  5
282
100
AcDbEntity
  8
00_COMPONENTS_1
100
AcDbLine
 62
7
  6
CONTINUOUS
 10
46.0978896487
 20
102.6813704178
 11
45.1978896491
 21
102.1617551757
  0
LINE
  5
283
100
AcDbEntity
  8
INTFCLR_18
100
AcDbLine
 62
7
420
3368703
  6
CONTINUOUS
 10
45.1978896491
 20
102.1617551757
 11
46.0978896487
 21
102.6813704178
  0
LINE
  5
284
100
AcDbEntity
  8
00_COMPONENTS_1
100
AcDbLine
 62
7
  6
CONTINUOUS
 10
157.2802806814
 20
132.0040203132
 11
152.7258944132
 21
132.0040203132
  0
LINE
  5
285
100
AcDbEntity
  8
00_COMPONENTS_1
100
AcDbLine
 62
7
  6
CONTINUOUS
 10
152.7115174236
 20
135.9040203132
 11
157.2802806814
 21
135.9040203132
  0
LINE
  5
286
100
AcDbEntity
  8
INTFCLR_18
100
AcDbLine
 62
7
420
3368703
  6
CONTINUOUS
 10
152.7074101249
 20
135.9040203132
 11
157.2802806814
 21
135.9040203132
  0
LINE
  5
287
100
AcDbEntity
  8
00_COMPONENTS_1
100
AcDbLine
 62
7
  6
CONTINUOUS
 10
152.7074101249
 20
136.0040203132
 11
150.1978896487
 21
136.0040203132
  0
LINE
  5
288
100
AcDbEntity
  8
INTFCLR_18
100
AcDbLine
 62
7
420
3368703
  6
CONTINUOUS
 10
134.6978896487
 20
136.0040203132
 11
157.2802806814
 21
136.0040203132
  0
LINE
  5
289
100
AcDbEntity
  8
INTFCLR_18
100
AcDbLine
 62
7
420
3368703
  6
CONTINUOUS
 10
157.9871660243
 20
136.5531742178
 11
152.7074101249
 21
136.5531742178
  0
LINE
  5
28A
100
AcDbEntity
  8
INTFCLR_18
100
AcDbLine
 62
7
420
3368703
  6
CONTINUOUS
 10
45.0978896487
 20
136.8040203132
 11
44.3724527976
 21
136.8040203132
  0
LINE
  5
28B
100
AcDbEntity
  8
00_COMPONENTS_1
100
AcDbLine
 62
7
  6
CONTINUOUS
 10
44.3724527976
 20
136.8040203132
 11
45.0978896487
 21
136.8040203132
  0
LINE
  5
28C
100
AcDbEntity
  8
INTFCLR_18
100
AcDbLine
 62
7
420
3368703
  6
CONTINUOUS
 10
47.0978896487
 20
138.8040203132
 11
45.9978896487
 21
138.8040203132
  0
LINE
  5
28D
100
AcDbEntity
  8
00_COMPONENTS_1
100
AcDbLine
 62
7
  6
CONTINUOUS
 10
45.9978896487
 20
138.8040203132
 11
47.0978896487
 21
138.8040203132
  0
LINE
  5
28E
100
AcDbEntity
  8
00_COMPONENTS_1
100
AcDbLine
 62
7
  6
CONTINUOUS
 10
152.1978896487
 20
147.1040203132
 11
134.6978896487
 21
147.1040203132
  0
LINE
  5
28F
100
AcDbEntity
  8
INTFCLR_18
100
AcDbLine
 62
7
420
3368703
  6
CONTINUOUS
 10
134.6978896487
 20
147.1040203132
 11
152.1978896487
 21
147.1040203132
  0
LINE
  5
290
100
AcDbEntity
  8
00_COMPONENTS_1
100
AcDbLine
 62
7
  6
CONTINUOUS
 10
143.1528916503
 20
150.1040203132
 11
136.3711188098
 21
150.1040203132
  0
LINE
  5
291
100
AcDbEntity
  8
00_COMPONENTS_1
100
AcDbLine
 62
7
  6
CONTINUOUS
 10
134.6978896487
 20
62.9040203132
 11
134.6978896487
 21
95.5040203132
  0
LINE
  5
292
100
AcDbEntity
  8
00_COMPONENTS_1
100
AcDbLine
 62
7
  6
CONTINUOUS
 10
134.6978896487
 20
147.1040203132
 11
134.6978896487
 21
179.7040203132
  0
LINE
  5
293
100
AcDbEntity
  8
00_COMPONENTS_1
100
AcDbLine
 62
7
  6
CONTINUOUS
 10
136.3711188098
 20
150.1040203132
 11
136.3711188098
 21
147.1040203132
  0
LINE
  5
294
100
AcDbEntity
  8
00_COMPONENTS_1
100
AcDbLine
 62
7
  6
CONTINUOUS
 10
136.3711188098
 20
95.5040203132
 11
136.3711188098
 21
92.5040203132
  0
LINE
  5
295
100
AcDbEntity
  8
00_COMPONENTS_1
100
AcDbLine
 62
7
  6
CONTINUOUS
 10
136.6978896487
 20
62.9040203132
 11
136.6978896487
 21
68.5040203132
  0
LINE
  5
296
100
AcDbEntity
  8
00_COMPONENTS_1
100
AcDbLine
 62
7
  6
CONTINUOUS
 10
136.6978896487
 20
76.3040203132
 11
136.6978896487
 21
92.5040203132
  0
LINE
  5
297
100
AcDbEntity
  8
INTF_YELLOW
100
AcDbLine
 62
2
  6
CONTINUOUS
 10
136.6978896487
 20
62.9040203132
 11
136.6978896487
 21
92.5040203132
  0
LINE
  5
298
100
AcDbEntity
  8
00_COMPONENTS_1
100
AcDbLine
 62
7
  6
CONTINUOUS
 10
136.6978896487
 20
150.1040203132
 11
136.6978896487
 21
166.3040203132
  0
LINE
  5
299
100
AcDbEntity
  8
00_COMPONENTS_1
100
AcDbLine
 62
7
  6
CONTINUOUS
 10
136.6978896487
 20
174.1040203132
 11
136.6978896487
 21
179.7040203132
  0
LINE
  5
29A
100
AcDbEntity
  8
INTF_YELLOW
100
AcDbLine
 62
2
  6
CONTINUOUS
 10
136.6978896487
 20
150.1040203132
 11
136.6978896487
 21
179.7040203132
  0
LINE
  5
29B
100
AcDbEntity
  8
00_COMPONENTS_1
100
AcDbLine
 62
7
  6
CONTINUOUS
 10
74.2978896487
 20
169.2664122353
 11
40.2978896487
 21
169.2664122353
  0
LINE
  5
29C
100
AcDbEntity
  8
INTFCLR_18
100
AcDbLine
 62
7
420
3368703
  6
CONTINUOUS
 10
40.2978896487
 20
169.2664122353
 11
74.2978896487
 21
169.2664122353
  0
LINE
  5
29D
100
AcDbEntity
  8
00_COMPONENTS_1
100
AcDbLine
 62
7
  6
CONTINUOUS
 10
67.8978896487
 20
169.6424934941
 11
74.2978896487
 21
169.6424934941
  0
LINE
  5
29E
100
AcDbEntity
  8
00_COMPONENTS_1
100
AcDbLine
 62
7
  6
CONTINUOUS
 10
50.0978896487
 20
169.645728209
 11
65.9478896487
 21
169.645728209
  0
LINE
  5
29F
100
AcDbEntity
  8
00_COMPONENTS_1
100
AcDbLine
 62
7
  6
CONTINUOUS
 10
41.7978896487
 20
170.1011917526
 11
40.3978896487
 21
170.1011917526
  0
LINE
  5
2A0
100
AcDbEntity
  8
00_COMPONENTS_1
100
AcDbLine
 62
7
  6
CONTINUOUS
 10
46.0978896487
 20
170.1040203132
 11
42.2478896487
 21
170.1040203132
  0
LINE
  5
2A1
100
AcDbEntity
  8
INTFCLR_18
100
AcDbLine
 62
7
420
3368703
  6
CONTINUOUS
 10
41.8978896487
 20
170.1040203132
 11
40.3978896487
 21
170.1040203132
  0
LINE
  5
2A2
100
AcDbEntity
  8
00_COMPONENTS_1
100
AcDbLine
 62
7
  6
CONTINUOUS
 10
41.7978896487
 20
170.1040203132
 11
41.8978896487
 21
170.1040203132
  0
LINE
  5
2A3
100
AcDbEntity
  8
00_COMPONENTS_1
100
AcDbLine
 62
7
  6
CONTINUOUS
 10
50.0978896487
 20
170.8378224399
 11
51.9978896487
 21
170.8378179896
  0
LINE
  5
2A4
100
AcDbEntity
  8
00_COMPONENTS_1
100
AcDbLine
 62
7
  6
CONTINUOUS
 10
65.9478896487
 20
170.928129038
 11
51.9978896487
 21
170.928129038
  0
LINE
  5
2A5
100
AcDbEntity
  8
00_COMPONENTS_1
100
AcDbLine
 62
7
  6
CONTINUOUS
 10
51.9978896487
 20
171.0257602659
 11
65.9478896487
 21
171.0257599063
  0
LINE
  5
2A6
100
AcDbEntity
  8
00_COMPONENTS_1
100
AcDbLine
 62
7
  6
CONTINUOUS
 10
67.8978896487
 20
171.2040203132
 11
65.9478896487
 21
171.2040203132
  0
LINE
  5
2A7
100
AcDbEntity
  8
00_COMPONENTS_1
100
AcDbLine
 62
7
  6
CONTINUOUS
 10
51.9978896487
 20
171.2040203132
 11
47.0978896487
 21
171.2040203132
  0
LINE
  5
2A8
100
AcDbEntity
  8
00_COMPONENTS_1
100
AcDbLine
 62
7
  6
CONTINUOUS
 10
136.6978847854
 20
179.7040203132
 11
74.2978896487
 21
179.7040203132
  0
LINE
  5
2A9
100
AcDbEntity
  8
00_COMPONENTS_1
100
AcDbLine
 62
7
  6
CONTINUOUS
 10
150.1978896487
 20
95.5040203132
 11
150.1978896487
 21
106.6040203132
  0
LINE
  5
2AA
100
AcDbEntity
  8
00_COMPONENTS_1
100
AcDbLine
 62
7
  6
CONTINUOUS
 10
150.1978896487
 20
136.0040203132
 11
150.1978896487
 21
147.1040203132
  0
LINE
  5
2AB
100
AcDbEntity
  8
00_COMPONENTS_1
100
AcDbLine
 62
7
  6
CONTINUOUS
 10
152.1978896487
 20
106.6040203132
 11
152.1978896487
 21
95.5040203132
  0
LINE
  5
2AC
100
AcDbEntity
  8
00_COMPONENTS_1
100
AcDbLine
 62
7
  6
CONTINUOUS
 10
152.1978896487
 20
136.0040203132
 11
152.1978896487
 21
147.1040203132
  0
LINE
  5
2AD
100
AcDbEntity
  8
INTFCLR_18
100
AcDbLine
 62
7
420
3368703
  6
CONTINUOUS
 10
152.6502001847
 20
106.6040203132
 11
152.6502001847
 21
106.0614655856
  0
LINE
  5
2AE
100
AcDbEntity
  8
00_COMPONENTS_1
100
AcDbLine
 62
7
  6
CONTINUOUS
 10
152.6502001847
 20
106.6040203132
 11
152.6502001847
 21
136.0040203132
  0
LINE
  5
2AF
100
AcDbEntity
  8
INTFCLR_18
100
AcDbLine
 62
7
420
3368703
  6
CONTINUOUS
 10
152.7074101249
 20
136.5531742178
 11
152.7074101249
 21
135.9040203132
  0
LINE
  5
2B0
100
AcDbEntity
  8
00_COMPONENTS_1
100
AcDbLine
 62
7
  6
CONTINUOUS
 10
152.7074101249
 20
135.9040203132
 11
152.7074101249
 21
136.0040203132
  0
LINE
  5
2B1
100
AcDbEntity
  8
00_COMPONENTS_1
100
AcDbLine
 62
7
  6
CONTINUOUS
 10
152.7258944132
 20
110.6040203132
 11
152.7258944132
 21
132.0040203132
  0
LINE
  5
2B2
100
AcDbEntity
  8
00_COMPONENTS_1
100
AcDbLine
 62
7
  6
CONTINUOUS
 10
157.2802806814
 20
106.7040203132
 11
157.2802806814
 21
135.9040203132
  0
LINE
  5
2B3
100
AcDbEntity
  8
INTFCLR_18
100
AcDbLine
 62
7
420
3368703
  6
CONTINUOUS
 10
157.2802806814
 20
106.6040203132
 11
157.2802806814
 21
136.0040203132
  0
LINE
  5
2B4
100
AcDbEntity
  8
INTFCLR_18
100
AcDbLine
 62
7
420
3368703
  6
CONTINUOUS
 10
157.9871660243
 20
106.0614655856
 11
157.9871660243
 21
136.5531742178
  0
LINE
  5
2B5
100
AcDbEntity
  8
INTFCLR_18
100
AcDbLine
 62
7
420
3368703
  6
CONTINUOUS
 10
74.2978896487
 20
187.3738528212
 11
20.2124731047
 21
187.3738528212
  0
ARC
  5
2B6
100
AcDbEntity
  8
00_COMPONENTS_1
100
AcDbCircle
 62
7
  6
CONTINUOUS
 10
143.1528916503
 20
100.5040203132
 40
8.0
100
AcDbArc
 50
270.0
 51
321.3178125465
  0
ARC
  5
2B7
100
AcDbEntity
  8
00_COMPONENTS_1
100
AcDbCircle
 62
7
  6
CONTINUOUS
 10
41.7978325333
 20
95.7577674155
 40
1.5
100
AcDbArc
 50
133.037176059
 51
179.5000000005
  0
ARC
  5
2B8
100
AcDbEntity
  8
00_COMPONENTS_1
100
AcDbCircle
 62
7
  6
CONTINUOUS
 10
41.7675834943
 20
102.0040201488
 40
1.5
100
AcDbArc
 50
145.7914516229
 51
168.4630409672
  0
ARC
  5
2B9
100
AcDbEntity
  8
INTFCLR_18
100
AcDbCircle
 62
7
420
3368703
  6
CONTINUOUS
 10
41.7978325333
 20
95.7577674155
 40
1.5
100
AcDbArc
 50
133.0371760596
 51
180.5
  0
ARC
  5
2BA
100
AcDbEntity
  8
00_COMPONENTS_1
100
AcDbCircle
 62
7
  6
CONTINUOUS
 10
43.7921749337
 20
98.3040203132
 40
1.0
100
AcDbArc
 50
90.0
 51
133.0371760602
  0
ARC
  5
2BB
100
AcDbEntity
  8
INTFCLR_18
100
AcDbCircle
 62
7
420
3368703
  6
CONTINUOUS
 10
43.7921749337
 20
98.3040203132
 40
1.0
100
AcDbArc
 50
90.0
 51
133.0371760596
  0
ARC
  5
2BC
100
AcDbEntity
  8
00_COMPONENTS_1
100
AcDbCircle
 62
7
  6
CONTINUOUS
 10
42.2478896487
 20
101.5540201488
 40
0.75
100
AcDbArc
 50
107.1703046346
 51
180.0
  0
ARC
  5
2BD
100
AcDbEntity
  8
00_COMPONENTS_1
100
AcDbCircle
 62
7
  6
CONTINUOUS
 10
45.0841273823
 20
107.2948673664
 40
0.5
100
AcDbArc
 50
18.0000000005
 51
137.7218334297
  0
ARC
  5
2BE
100
AcDbEntity
  8
INTFCLR_18
100
AcDbCircle
 62
7
420
3368703
  6
CONTINUOUS
 10
45.1678896487
 20
107.6842873781
 40
0.3
100
AcDbArc
 50
17.9999999995
 51
137.7218334296
  0
ARC
  5
2BF
100
AcDbEntity
  8
00_COMPONENTS_1
100
AcDbCircle
 62
7
  6
CONTINUOUS
 10
45.2978896491
 20
101.988550095
 40
0.1999999999
100
AcDbArc
 50
120.0000000013
 51
180.000000007
  0
ARC
  5
2C0
100
AcDbEntity
  8
00_COMPONENTS_1
100
AcDbCircle
 62
7
  6
CONTINUOUS
 10
41.8978896487
 20
102.1040201488
 40
0.1999999999
100
AcDbArc
 50
0.0
 51
90.000000001
  0
ARC
  5
2C1
100
AcDbEntity
  8
00_COMPONENTS_1
100
AcDbCircle
 62
7
  6
CONTINUOUS
 10
40.7978896486
 20
102.5040201487
 40
0.1999999999
100
AcDbArc
 50
179.9999999991
 51
270.000000001
  0
ARC
  5
2C2
100
AcDbEntity
  8
00_COMPONENTS_1
100
AcDbCircle
 62
7
  6
CONTINUOUS
 10
40.7978896486
 20
103.0266897908
 40
0.1999999999
100
AcDbArc
 50
137.7218334384
 51
180.0000000021
  0
ARC
  5
2C3
100
AcDbEntity
  8
00_COMPONENTS_1
100
AcDbCircle
 62
7
  6
CONTINUOUS
 10
44.6978896487
 20
99.1040203132
 40
0.2
100
AcDbArc
 50
0.0000000001
 51
90.0
  0
ARC
  5
2C4
100
AcDbEntity
  8
INTFCLR_18
100
AcDbCircle
 62
7
420
3368703
  6
CONTINUOUS
 10
44.6978896487
 20
99.1040203132
 40
0.2
100
AcDbArc
 50
0.0
 51
90.0
  0
ARC
  5
2C5
100
AcDbEntity
  8
INTFCLR_18
100
AcDbCircle
 62
7
420
3368703
  6
CONTINUOUS
 10
45.2978896491
 20
101.988550095
 40
0.1999999999
100
AcDbArc
 50
120.0000000031
 51
180.0
  0
ARC
  5
2C6
100
AcDbEntity
  8
INTFCLR_18
100
AcDbCircle
 62
7
420
3368703
  6
CONTINUOUS
 10
40.7978896486
 20
103.0266897908
 40
0.1999999999
100
AcDbArc
 50
137.7218334292
 51
180.0
  0
ARC
  5
2C7
100
AcDbEntity
  8
INTFCLR_18
100
AcDbCircle
 62
7
420
3368703
  6
CONTINUOUS
 10
40.7978896486
 20
102.5040201487
 40
0.1999999999
100
AcDbArc
 50
180.0
 51
270.0
  0
ARC
  5
2C8
100
AcDbEntity
  8
INTFCLR_18
100
AcDbCircle
 62
7
420
3368703
  6
CONTINUOUS
 10
41.8978896487
 20
102.1040201488
 40
0.1999999999
100
AcDbArc
 50
0.0
 51
90.0
  0
ARC
  5
2C9
100
AcDbEntity
  8
00_COMPONENTS_1
100
AcDbCircle
 62
7
  6
CONTINUOUS
 10
143.1528916503
 20
142.1040203132
 40
8.0
100
AcDbArc
 50
38.6821874535
 51
90.0
  0
ARC
  5
2CA
100
AcDbEntity
  8
00_COMPONENTS_1
100
AcDbCircle
 62
7
  6
CONTINUOUS
 10
41.2978896487
 20
139.341090574
 40
1.0
100
AcDbArc
 50
180.0
 51
245.0000000001
  0
ARC
  5
2CB
100
AcDbEntity
  8
INTFCLR_18
100
AcDbCircle
 62
7
420
3368703
  6
CONTINUOUS
 10
41.2978896487
 20
139.341090574
 40
1.0
100
AcDbArc
 50
180.0
 51
245.0
  0
ARC
  5
2CC
100
AcDbEntity
  8
00_COMPONENTS_1
100
AcDbCircle
 62
7
  6
CONTINUOUS
 10
328.7719136926
 20
72.4387913452
 40
192.1143356986
100
AcDbArc
 50
180.0103700402
 51
181.173763629
  0
ARC
  5
2CD
100
AcDbEntity
  8
00_COMPONENTS_1
100
AcDbCircle
 62
7
  6
CONTINUOUS
 10
328.7719136743
 20
170.238791345
 40
192.1143356803
100
AcDbArc
 50
180.0103700402
 51
181.1737636291
  0
SPLINE
  5
2CE
100
AcDbEntity
  8
00_COMPONENTS_1
100
AcDbSpline
 62
7
  6
CONTINUOUS
 70
0
 71
3
 72
21
 73
17
 74
0
 42
0.0000001
 43
0.0000001
 44
0.0000000001
 40
0.0
 40
0.0
 40
0.0
 40
0.0
 40
0.0018502746
 40
0.0057336807
 40
0.0119118234
 40
0.0204283519
 40
0.0444206667
 40
0.0775191489
 40
0.1194733773
 40
0.169887968
 40
0.2282699781
 40
0.2941066877
 40
0.4454309072
 40
0.6179748985
 40
0.8053604912
 40
1.0
 40
1.0
 40
1.0
 40
1.0
 10
152.1234361321
 20
143.8539539871
 30
0.0
 10
152.1214276765
 20
143.8539312428
 30
0.0
 10
152.1170715881
 20
143.8477389149
 30
0.0
 10
152.1134594458
 20
143.8361837343
 30
0.0
 10
152.1086184986
 20
143.8161435241
 30
0.0
 10
152.1016726815
 20
143.7749631508
 30
0.0
 10
152.093044909
 20
143.7040592554
 30
0.0
 10
152.0832321207
 20
143.5970700783
 30
0.0
 10
152.0732326364
 20
143.4611961459
 30
0.0
 10
152.0632911091
 20
143.2978582103
 30
0.0
 10
152.0535838702
 20
143.1085255939
 30
0.0
 10
152.0406191989
 20
142.8096874968
 30
0.0
 10
152.0265773831
 20
142.3868604744
 30
0.0
 10
152.0139369804
 20
141.8319997585
 30
0.0
 10
152.0059176899
 20
141.2300267112
 30
0.0
 10
152.0040795306
 20
140.8153132034
 30
0.0
 10
152.0040795306
 20
140.6040203132
 30
0.0
  0
SPLINE
  5
2CF
100
AcDbEntity
  8
00_COMPONENTS_1
100
AcDbSpline
 62
7
  6
CONTINUOUS
 70
0
 71
3
 72
19
 73
15
 74
0
 42
0.0000001
 43
0.0000001
 44
0.0000000001
 40
0.0
 40
0.0
 40
0.0
 40
0.0
 40
0.0102816672
 40
0.0178143761
 40
0.0273056727
 40
0.0524814714
 40
0.0860800028
 40
0.1280840101
 40
0.178360667
 40
0.301771833
 40
0.4514602713
 40
0.622111039
 40
0.8074526747
 40
1.0
 40
1.0
 40
1.0
 40
1.0
 10
135.8846207874
 20
174.1046291336
 30
0.0
 10
135.8710499147
 20
174.1046008044
 30
0.0
 10
135.8492865796
 20
174.0889370063
 30
0.0
 10
135.8286660964
 20
174.0601086936
 30
0.0
 10
135.8019526023
 20
174.0107684063
 30
0.0
 10
135.7709972418
 20
173.9260049139
 30
0.0
 10
135.7358245577
 20
173.7976078687
 30
0.0
 10
135.7013377496
 20
173.6350138709
 30
0.0
 10
135.6534137238
 20
173.3543295038
 30
0.0
 10
135.6007976908
 20
172.9305699809
 30
0.0
 10
135.5494260506
 20
172.3470428953
 30
0.0
 10
135.510446297
 20
171.6806372054
 30
0.0
 10
135.4860229525
 20
170.9569654138
 30
0.0
 10
135.480437239
 20
170.4581659577
 30
0.0
 10
135.480437239
 20
170.2040203132
 30
0.0
  0
SPLINE
  5
2D0
100
AcDbEntity
  8
00_COMPONENTS_1
100
AcDbSpline
 62
7
  6
CONTINUOUS
 70
0
 71
3
 72
21
 73
17
 74
0
 42
0.0000001
 43
0.0000001
 44
0.0000000001
 40
0.0
 40
0.0
 40
0.0
 40
0.0
 40
0.0018234896
 40
0.0056651175
 40
0.0118024223
 40
0.0202846819
 40
0.0442353219
 40
0.0773391971
 40
0.119352171
 40
0.1698414695
 40
0.2282645544
 40
0.2940648945
 40
0.445244997
 40
0.6178938105
 40
0.8053771639
 40
1.0
 40
1.0
 40
1.0
 40
1.0
 10
152.123437116
 20
105.2536656924
 30
0.0
 10
152.1214579826
 20
105.2536963336
 30
0.0
 10
152.1170323458
 20
105.2476226062
 30
0.0
 10
152.1134727048
 20
105.2361723537
 30
0.0
 10
152.1086057366
 20
105.2162716565
 30
0.0
 10
152.1016726019
 20
105.1752192899
 30
0.0
 10
152.0930315871
 20
105.1043996422
 30
0.0
 10
152.0832278769
 20
104.9973921684
 30
0.0
 10
152.0732394988
 20
104.8613758203
 30
0.0
 10
152.0633117851
 20
104.697858597
 30
0.0
 10
152.0536101288
 20
104.5084526094
 30
0.0
 10
152.0406248035
 20
104.2097876844
 30
0.0
 10
152.026534752
 20
103.7870735254
 30
0.0
 10
152.0139521023
 20
103.23218623
 30
0.0
 10
152.0059383443
 20
102.6300532595
 30
0.0
 10
152.0040795306
 20
102.2152804789
 30
0.0
 10
152.0040795306
 20
102.0040203132
 30
0.0
  0
SPLINE
  5
2D1
100
AcDbEntity
  8
00_COMPONENTS_1
100
AcDbSpline
 62
7
  6
CONTINUOUS
 70
0
 71
3
 72
19
 73
15
 74
0
 42
0.0000001
 43
0.0000001
 44
0.0000000001
 40
0.0
 40
0.0
 40
0.0
 40
0.0
 40
0.0102816672
 40
0.0178143761
 40
0.0273056727
 40
0.0524814714
 40
0.0860800028
 40
0.1280840101
 40
0.178360667
 40
0.301771833
 40
0.4514602713
 40
0.622111039
 40
0.8074526747
 40
1.0
 40
1.0
 40
1.0
 40
1.0
 10
135.8846207874
 20
76.3046291336
 30
0.0
 10
135.8710499147
 20
76.3046008044
 30
0.0
 10
135.8492865796
 20
76.2889370063
 30
0.0
 10
135.8286660964
 20
76.2601086935
 30
0.0
 10
135.8019526023
 20
76.2107684062
 30
0.0
 10
135.7709972418
 20
76.1260049138
 30
0.0
 10
135.7358245576
 20
75.9976078686
 30
0.0
 10
135.7013377496
 20
75.8350138707
 30
0.0
 10
135.6534137238
 20
75.5543295034
 30
0.0
 10
135.6007976907
 20
75.1305699803
 30
0.0
 10
135.5494260506
 20
74.5470428945
 30
0.0
 10
135.5104462969
 20
73.8806372044
 30
0.0
 10
135.4860229524
 20
73.1569654126
 30
0.0
 10
135.480437239
 20
72.6581659563
 30
0.0
 10
135.480437239
 20
72.4040203117
 30
0.0
  0
SPLINE
  5
2D2
100
AcDbEntity
  8
00_COMPONENTS_1
100
AcDbSpline
 62
7
  6
CONTINUOUS
 70
0
 71
3
 72
9
 73
5
 74
0
 42
0.0000001
 43
0.0000001
 44
0.0000000001
 40
0.0
 40
0.0
 40
0.0
 40
0.0
 40
0.4751012066
 40
1.0
 40
1.0
 40
1.0
 40
1.0
 10
68.6016627698
 20
62.9040203171
 30
0.0
 10
65.8297902817
 20
62.9445842331
 30
0.0
 10
59.9953112526
 20
63.0163948616
 30
0.0
 10
54.1605765224
 20
63.0638492351
 30
0.0
 10
51.0978896487
 20
63.0807220469
 30
0.0
  0
SPLINE
  5
2D3
100
AcDbEntity
  8
00_COMPONENTS_1
100
AcDbSpline
 62
7
  6
CONTINUOUS
 70
0
 71
3
 72
13
 73
9
 74
0
 42
0.0000001
 43
0.0000001
 44
0.0000000001
 40
0.0
 40
0.0
 40
0.0
 40
0.0
 40
0.019483596
 40
0.0763221318
 40
0.1685767187
 40
0.2930732931
 40
0.6173285103
 40
1.0
 40
1.0
 40
1.0
 40
1.0
 10
136.6978896481
 20
76.3046390705
 30
0.0
 10
136.6977526347
 20
76.2793049871
 30
0.0
 10
136.6948455586
 20
76.1800954213
 30
0.0
 10
136.691345036
 20
75.9609279111
 30
0.0
 10
136.6844337696
 20
75.6052442546
 30
0.0
 10
136.6735388077
 20
74.9018599997
 30
0.0
 10
136.661156612
 20
73.8208262713
 30
0.0
 10
136.6575811406
 20
72.901606754
 30
0.0
 10
136.6575811406
 20
72.4040203132
 30
0.0
  0
SPLINE
  5
2D4
100
AcDbEntity
  8
00_COMPONENTS_1
100
AcDbSpline
 62
7
  6
CONTINUOUS
 70
0
 71
3
 72
13
 73
9
 74
0
 42
0.0000001
 43
0.0000001
 44
0.0000000001
 40
0.0
 40
0.0
 40
0.0
 40
0.0
 40
0.019483596
 40
0.0763221318
 40
0.1685767187
 40
0.2930732931
 40
0.6173285103
 40
1.0
 40
1.0
 40
1.0
 40
1.0
 10
136.6978896481
 20
174.1046390705
 30
0.0
 10
136.6977526347
 20
174.0793049872
 30
0.0
 10
136.6948455586
 20
173.9800954213
 30
0.0
 10
136.691345036
 20
173.7609279111
 30
0.0
 10
136.6844337696
 20
173.4052442546
 30
0.0
 10
136.6735388077
 20
172.7018599997
 30
0.0
 10
136.661156612
 20
171.6208262713
 30
0.0
 10
136.6575811406
 20
170.701606754
 30
0.0
 10
136.6575811406
 20
170.2040203132
 30
0.0
  0
SPLINE
  5
2D5
100
AcDbEntity
  8
00_COMPONENTS_1
100
AcDbSpline
 62
7
  6
CONTINUOUS
 70
0
 71
3
 72
21
 73
17
 74
0
 42
0.0000001
 43
0.0000001
 44
0.0000000001
 40
0.0
 40
0.0
 40
0.0
 40
0.0
 40
0.1946236317
 40
0.3821168001
 40
0.554748859
 40
0.7058745528
 40
0.77168316
 40
0.8301512087
 40
0.8806797912
 40
0.9226792021
 40
0.9557329886
 40
0.9796441793
 40
0.9881239777
 40
0.9942773143
 40
0.9981496277
 40
1.0
 40
1.0
 40
1.0
 40
1.0
 10
152.0040795306
 20
140.6040203132
 30
0.0
 10
152.0040795306
 20
140.3927627767
 30
0.0
 10
152.0059449309
 20
139.9779853593
 30
0.0
 10
152.013952679
 20
139.3758690159
 30
0.0
 10
152.0265210846
 20
138.8210570972
 30
0.0
 10
152.0406251039
 20
138.3984186956
 30
0.0
 10
152.0536105469
 20
138.0997600379
 30
0.0
 10
152.0633064809
 20
137.9102563759
 30
0.0
 10
152.0732261875
 20
137.746664481
 30
0.0
 10
152.0832098539
 20
137.6106766152
 30
0.0
 10
152.0930279863
 20
137.5037838936
 30
0.0
 10
152.1016638491
 20
137.433067104
 30
0.0
 10
152.1086208464
 20
137.3920451695
 30
0.0
 10
152.1134589558
 20
137.372094365
 30
0.0
 10
152.1170824578
 20
137.3605712874
 30
0.0
 10
152.12142883
 20
137.3544064735
 30
0.0
 10
152.1234371099
 20
137.3543755341
 30
0.0
  0
SPLINE
  5
2D6
100
AcDbEntity
  8
00_COMPONENTS_1
100
AcDbSpline
 62
7
  6
CONTINUOUS
 70
0
 71
3
 72
19
 73
15
 74
0
 42
0.0000001
 43
0.0000001
 44
0.0000000001
 40
0.0
 40
0.0
 40
0.0
 40
0.0
 40
0.1925591996
 40
0.3779101909
 40
0.5485541188
 40
0.6982248818
 40
0.8216084064
 40
0.8718676734
 40
0.9138806133
 40
0.9475051745
 40
0.9727020804
 40
0.9821969684
 40
0.9897285203
 40
1.0
 40
1.0
 40
1.0
 40
1.0
 10
135.480437239
 20
170.2040203132
 30
0.0
 10
135.480437239
 20
169.9498564411
 30
0.0
 10
135.4860291026
 20
169.4510239885
 30
0.0
 10
135.5104517677
 20
168.727326028
 30
0.0
 10
135.5494254441
 20
168.0609331263
 30
0.0
 10
135.600793668
 20
167.4774693286
 30
0.0
 10
135.6533940106
 20
167.0537861922
 30
0.0
 10
135.7013394072
 20
166.7731509287
 30
0.0
 10
135.7358299383
 20
166.6105326477
 30
0.0
 10
135.7709990981
 20
166.4820572522
 30
0.0
 10
135.8019409944
 20
166.3972170244
 30
0.0
 10
135.8286623894
 20
166.3478425695
 30
0.0
 10
135.8492693439
 20
166.3190214875
 30
0.0
 10
135.8710631354
 20
166.3033853194
 30
0.0
 10
135.8846207069
 20
166.3034088575
 30
0.0
  0
SPLINE
  5
2D7
100
AcDbEntity
  8
00_COMPONENTS_1
100
AcDbSpline
 62
7
  6
CONTINUOUS
 70
0
 71
3
 72
19
 73
15
 74
0
 42
0.0000001
 43
0.0000001
 44
0.0000000001
 40
0.0
 40
0.0
 40
0.0
 40
0.0
 40
0.1925591997
 40
0.3779101909
 40
0.5485541189
 40
0.6982248818
 40
0.8216084064
 40
0.8718676734
 40
0.9138806133
 40
0.9475051745
 40
0.9727020804
 40
0.9821969684
 40
0.9897285203
 40
1.0
 40
1.0
 40
1.0
 40
1.0
 10
135.480437239
 20
72.4040203117
 30
0.0
 10
135.480437239
 20
72.1498564396
 30
0.0
 10
135.4860291026
 20
71.6510239872
 30
0.0
 10
135.5104517678
 20
70.927326027
 30
0.0
 10
135.5494254441
 20
70.2609331256
 30
0.0
 10
135.600793668
 20
69.677469328
 30
0.0
 10
135.6533940106
 20
69.2537861919
 30
0.0
 10
135.7013394072
 20
68.9731509285
 30
0.0
 10
135.7358299384
 20
68.8105326476
 30
0.0
 10
135.7709990981
 20
68.6820572521
 30
0.0
 10
135.8019409945
 20
68.5972170243
 30
0.0
 10
135.8286623894
 20
68.5478425695
 30
0.0
 10
135.8492693439
 20
68.5190214875
 30
0.0
 10
135.8710631354
 20
68.5033853195
 30
0.0
 10
135.8846207069
 20
68.5034088575
 30
0.0
  0
SPLINE
  5
2D8
100
AcDbEntity
  8
00_COMPONENTS_1
100
AcDbSpline
 62
7
  6
CONTINUOUS
 70
0
 71
3
 72
21
 73
17
 74
0
 42
0.0000001
 43
0.0000001
 44
0.0000000001
 40
0.0
 40
0.0
 40
0.0
 40
0.0
 40
0.1946493433
 40
0.3820099323
 40
0.5545378644
 40
0.7059019766
 40
0.771734815
 40
0.8300944673
 40
0.8804927009
 40
0.9224593603
 40
0.9556019845
 40
0.9796291893
 40
0.9881455156
 40
0.9943086511
 40
0.9981689647
 40
1.0
 40
1.0
 40
1.0
 40
1.0
 10
152.0040795306
 20
102.0040203132
 30
0.0
 10
152.0040795306
 20
101.7927142758
 30
0.0
 10
152.0059145461
 20
101.3780123799
 30
0.0
 10
152.0139351891
 20
100.7760661596
 30
0.0
 10
152.0265851636
 20
100.2212004987
 30
0.0
 10
152.0406152072
 20
99.7983464681
 30
0.0
 10
152.0535798452
 20
99.4994899936
 30
0.0
 10
152.0632919476
 20
99.3102016786
 30
0.0
 10
152.0732387452
 20
99.1468907567
 30
0.0
 10
152.0832439301
 20
99.010971816
 30
0.0
 10
152.0930477681
 20
98.9038814391
 30
0.0
 10
152.1016780764
 20
98.8328895307
 30
0.0
 10
152.1086070608
 20
98.7916860929
 30
0.0
 10
152.1134695209
 20
98.7716895244
 30
0.0
 10
152.117036196
 20
98.7601915453
 30
0.0
 10
152.1214489307
 20
98.7540660263
 30
0.0
 10
152.1234365385
 20
98.7540873482
 30
0.0
  0
SPLINE
  5
2D9
100
AcDbEntity
  8
00_COMPONENTS_1
100
AcDbSpline
 62
7
  6
CONTINUOUS
 70
0
 71
3
 72
21
 73
17
 74
0
 42
0.0000001
 43
0.0000001
 44
0.0000000001
 40
0.0
 40
0.0
 40
0.0
 40
0.0
 40
0.1947269578
 40
0.3823214387
 40
0.5550421739
 40
0.7062239131
 40
0.7720413239
 40
0.8305027528
 40
0.8810079531
 40
0.9229662306
 40
0.9559613535
 40
0.9797991595
 40
0.988238089
 40
0.9943490551
 40
0.9981794322
 40
1.0
 40
1.0
 40
1.0
 40
1.0
 10
152.1867533298
 20
102.0040203132
 30
0.0
 10
152.1867533298
 20
102.2152348249
 30
0.0
 10
152.1863174132
 20
102.6299275536
 30
0.0
 10
152.1842950483
 20
103.2319627134
 30
0.0
 10
152.1806555654
 20
103.7867568582
 30
0.0
 10
152.1758018366
 20
104.2094510851
 30
0.0
 10
152.1704484293
 20
104.5081864922
 30
0.0
 10
152.1659834928
 20
104.6977222171
 30
0.0
 10
152.1608856326
 20
104.8613367348
 30
0.0
 10
152.1551259117
 20
104.9973340959
 30
0.0
 10
152.1487829814
 20
105.1042209192
 30
0.0
 10
152.1425122898
 20
105.1749454064
 30
0.0
 10
152.1369796991
 20
105.2159803009
 30
0.0
 10
152.1327931651
 20
105.2359273215
 30
0.0
 10
152.129630784
 20
105.2474418904
 30
0.0
 10
152.1254115949
 20
105.2536351233
 30
0.0
 10
152.123437116
 20
105.2536656924
 30
0.0
  0
SPLINE
  5
2DA
100
AcDbEntity
  8
00_COMPONENTS_1
100
AcDbSpline
 62
7
  6
CONTINUOUS
 70
0
 71
3
 72
19
 73
15
 74
0
 42
0.0000001
 43
0.0000001
 44
0.0000000001
 40
0.0
 40
0.0
 40
0.0
 40
0.0
 40
0.1929219826
 40
0.3786269015
 40
0.5495776992
 40
0.6994349366
 40
0.8228013932
 40
0.8729558911
 40
0.9148008823
 40
0.9482009841
 40
0.9731308879
 40
0.9824862735
 40
0.9898853084
 40
1.0
 40
1.0
 40
1.0
 40
1.0
 10
136.2071353964
 20
72.4040203132
 30
0.0
 10
136.2071353964
 20
72.657976733
 30
0.0
 10
136.2036202239
 20
73.1563974309
 30
0.0
 10
136.1879762851
 20
73.8796998012
 30
0.0
 10
136.1621271401
 20
74.5460072701
 30
0.0
 10
136.1262804818
 20
75.1296435613
 30
0.0
 10
136.0873050265
 20
75.5536942806
 30
0.0
 10
136.0493879365
 20
75.8346931393
 30
0.0
 10
136.0210671308
 20
75.9973798084
 30
0.0
 10
135.9909889467
 20
76.1258706011
 30
0.0
 10
135.9634997823
 20
76.2107881945
 30
0.0
 10
135.9387354739
 20
76.2602065041
 30
0.0
 10
135.9193407515
 20
76.2890962941
 30
0.0
 10
135.8979354198
 20
76.3046569279
 30
0.0
 10
135.8846207874
 20
76.3046291336
 30
0.0
  0
SPLINE
  5
2DB
100
AcDbEntity
  8
00_COMPONENTS_1
100
AcDbSpline
 62
7
  6
CONTINUOUS
 70
0
 71
3
 72
19
 73
15
 74
0
 42
0.0000001
 43
0.0000001
 44
0.0000000001
 40
0.0
 40
0.0
 40
0.0
 40
0.0
 40
0.0101251303
 40
0.0175260307
 40
0.0268779796
 40
0.0517831947
 40
0.0851503445
 40
0.1269822659
 40
0.1771553501
 40
0.3005390494
 40
0.4503919866
 40
0.6213623869
 40
0.8070825749
 40
1.0
 40
1.0
 40
1.0
 40
1.0
 10
135.8846207069
 20
166.3034088575
 30
0.0
 10
135.897948951
 20
166.3034319974
 30
0.0
 10
135.9193210208
 20
166.3190289385
 30
0.0
 10
135.9387278888
 20
166.3479268836
 30
0.0
 10
135.9634824641
 20
166.3973090368
 30
0.0
 10
135.9909830128
 20
166.4821370804
 30
0.0
 10
136.0210696862
 20
166.6105297913
 30
0.0
 10
136.0493888227
 20
166.7731787437
 30
0.0
 10
136.0872751092
 20
167.0542090859
 30
0.0
 10
136.1262654051
 20
167.4782946547
 30
0.0
 10
136.1621300202
 20
168.0619672081
 30
0.0
 10
136.1879748825
 20
168.7283081566
 30
0.0
 10
136.2036190053
 20
169.4516429084
 30
0.0
 10
136.2071353964
 20
169.9500725293
 30
0.0
 10
136.2071353964
 20
170.2040203147
 30
0.0
  0
SPLINE
  5
2DC
100
AcDbEntity
  8
00_COMPONENTS_1
100
AcDbSpline
 62
7
  6
CONTINUOUS
 70
0
 71
3
 72
21
 73
17
 74
0
 42
0.0000001
 43
0.0000001
 44
0.0000000001
 40
0.0
 40
0.0
 40
0.0
 40
0.0
 40
0.0018198546
 40
0.0056607632
 40
0.0117966865
 40
0.020271162
 40
0.0441829596
 40
0.0772153168
 40
0.1191226581
 40
0.1695031175
 40
0.227873117
 40
0.2937212368
 40
0.445104739
 40
0.6177558274
 40
0.8052587237
 40
1.0
 40
1.0
 40
1.0
 40
1.0
 10
152.1234365385
 20
98.7540873482
 30
0.0
 10
152.1254105379
 20
98.7541085242
 30
0.0
 10
152.1296414192
 20
98.760326949
 30
0.0
 10
152.1327908693
 20
98.771872122
 30
0.0
 10
152.1369798325
 20
98.791906303
 30
0.0
 10
152.1425025322
 20
98.8330892183
 30
0.0
 10
152.1487719907
 20
98.9039820647
 30
0.0
 10
152.1551116417
 20
99.0109428809
 30
0.0
 10
152.1608770208
 20
99.146801667
 30
0.0
 10
152.1659873709
 20
99.3101400458
 30
0.0
 10
152.1704581909
 20
99.499490899
 30
0.0
 10
152.1758030676
 20
99.7984053958
 30
0.0
 10
152.1806369696
 20
100.2213130931
 30
0.0
 10
152.1842980035
 20
100.7761991097
 30
0.0
 10
152.1863254064
 20
101.3781271042
 30
0.0
 10
152.1867533298
 20
101.7927719628
 30
0.0
 10
152.1867533298
 20
102.0040203132
 30
0.0
  0
SPLINE
  5
2DD
100
AcDbEntity
  8
00_COMPONENTS_1
100
AcDbSpline
 62
7
  6
CONTINUOUS
 70
0
 71
3
 72
19
 73
15
 74
0
 42
0.0000001
 43
0.0000001
 44
0.0000000001
 40
0.0
 40
0.0
 40
0.0
 40
0.0
 40
0.0101251303
 40
0.0175260307
 40
0.0268779796
 40
0.0517831947
 40
0.0851503445
 40
0.1269822659
 40
0.1771553501
 40
0.3005390494
 40
0.4503919866
 40
0.6213623868
 40
0.8070825749
 40
1.0
 40
1.0
 40
1.0
 40
1.0
 10
135.8846207069
 20
68.5034088575
 30
0.0
 10
135.897948951
 20
68.5034319974
 30
0.0
 10
135.9193210208
 20
68.5190289385
 30
0.0
 10
135.9387278888
 20
68.5479268836
 30
0.0
 10
135.9634824641
 20
68.5973090367
 30
0.0
 10
135.9909830128
 20
68.6821370803
 30
0.0
 10
136.0210696862
 20
68.8105297912
 30
0.0
 10
136.0493888227
 20
68.9731787435
 30
0.0
 10
136.0872751092
 20
69.2542090855
 30
0.0
 10
136.126265405
 20
69.6782946541
 30
0.0
 10
136.1621300202
 20
70.2619672073
 30
0.0
 10
136.1879748825
 20
70.9283081556
 30
0.0
 10
136.2036190053
 20
71.6516429071
 30
0.0
 10
136.2071353964
 20
72.1500725278
 30
0.0
 10
136.2071353964
 20
72.4040203132
 30
0.0
  0
SPLINE
  5
2DE
100
AcDbEntity
  8
00_COMPONENTS_1
100
AcDbSpline
 62
7
  6
CONTINUOUS
 70
0
 71
3
 72
21
 73
17
 74
0
 42
0.0000001
 43
0.0000001
 44
0.0000000001
 40
0.0
 40
0.0
 40
0.0
 40
0.0
 40
0.1947500537
 40
0.3822111521
 40
0.5548254633
 40
0.7062465867
 40
0.7720899045
 40
0.8304421219
 40
0.8808150745
 40
0.9227403194
 40
0.9558253273
 40
0.9797817386
 40
0.988259208
 40
0.9943812867
 40
0.9981995273
 40
1.0
 40
1.0
 40
1.0
 40
1.0
 10
152.1867533298
 20
140.6040203132
 30
0.0
 10
152.1867533298
 20
140.8152806594
 30
0.0
 10
152.1863261077
 20
141.2298945535
 30
0.0
 10
152.1842987365
 20
141.8317538912
 30
0.0
 10
152.1806347022
 20
142.3866019452
 30
0.0
 10
152.1758079714
 20
142.8095103875
 30
0.0
 10
152.1704615029
 20
143.1084446852
 30
0.0
 10
152.1659886434
 20
143.2977650491
 30
0.0
 10
152.1608781121
 20
143.4610973353
 30
0.0
 10
152.1551059389
 20
143.5970259005
 30
0.0
 10
152.1487739368
 20
143.7041131723
 30
0.0
 10
152.1425005868
 20
143.7751166327
 30
0.0
 10
152.1369942448
 20
143.8163376586
 30
0.0
 10
152.1327802446
 20
143.836333156
 30
0.0
 10
152.1296776816
 20
143.8478234879
 30
0.0
 10
152.125389118
 20
143.8539761032
 30
0.0
 10
152.1234361321
 20
143.8539539871
 30
0.0
  0
SPLINE
  5
2DF
100
AcDbEntity
  8
00_COMPONENTS_1
100
AcDbSpline
 62
7
  6
CONTINUOUS
 70
0
 71
3
 72
21
 73
17
 74
0
 42
0.0000001
 43
0.0000001
 44
0.0000000001
 40
0.0
 40
0.0
 40
0.0
 40
0.0
 40
0.0017933261
 40
0.0055926687
 40
0.0116874415
 40
0.0201288483
 40
0.0440063707
 40
0.0770517872
 40
0.1190236468
 40
0.1694897035
 40
0.2279064796
 40
0.2937160214
 40
0.4449524086
 40
0.6176891608
 40
0.8052736128
 40
1.0
 40
1.0
 40
1.0
 40
1.0
 10
152.1234371099
 20
137.3543755341
 30
0.0
 10
152.1253820768
 20
137.3543455702
 30
0.0
 10
152.1296822171
 20
137.3604467201
 30
0.0
 10
152.1327779123
 20
137.3718895703
 30
0.0
 10
152.1369942661
 20
137.3917856123
 30
0.0
 10
152.1425021032
 20
137.4328509792
 30
0.0
 10
152.1487834066
 20
137.5036773463
 30
0.0
 10
152.1551154417
 20
137.6106787374
 30
0.0
 10
152.160877636
 20
137.7467049403
 30
0.0
 10
152.16598058
 20
137.910245685
 30
0.0
 10
152.1704490231
 20
138.0996848533
 30
0.0
 10
152.1758015693
 20
138.398427283
 30
0.0
 10
152.1806515481
 20
138.8211962976
 30
0.0
 10
152.1842953802
 20
139.3760648828
 30
0.0
 10
152.1863190993
 20
139.9781153676
 30
0.0
 10
152.1867533298
 20
140.3928031065
 30
0.0
 10
152.1867533298
 20
140.6040203132
 30
0.0
  0
SPLINE
  5
2E0
100
AcDbEntity
  8
00_COMPONENTS_1
100
AcDbSpline
 62
7
  6
CONTINUOUS
 70
0
 71
3
 72
19
 73
15
 74
0
 42
0.0000001
 43
0.0000001
 44
0.0000000001
 40
0.0
 40
0.0
 40
0.0
 40
0.0
 40
0.1929219826
 40
0.3786269015
 40
0.5495776993
 40
0.6994349367
 40
0.8228013932
 40
0.8729558911
 40
0.9148008823
 40
0.9482009841
 40
0.9731308879
 40
0.9824862735
 40
0.9898853084
 40
1.0
 40
1.0
 40
1.0
 40
1.0
 10
136.2071353964
 20
170.2040203147
 30
0.0
 10
136.2071353964
 20
170.4579767344
 30
0.0
 10
136.2036202239
 20
170.9563974321
 30
0.0
 10
136.1879762851
 20
171.6796998022
 30
0.0
 10
136.1621271401
 20
172.3460072709
 30
0.0
 10
136.1262804818
 20
172.9296435619
 30
0.0
 10
136.0873050265
 20
173.353694281
 30
0.0
 10
136.0493879365
 20
173.6346931395
 30
0.0
 10
136.0210671308
 20
173.7973798085
 30
0.0
 10
135.9909889466
 20
173.9258706012
 30
0.0
 10
135.9634997823
 20
174.0107881945
 30
0.0
 10
135.9387354738
 20
174.0602065041
 30
0.0
 10
135.9193407515
 20
174.0890962941
 30
0.0
 10
135.8979354198
 20
174.1046569279
 30
0.0
 10
135.8846207874
 20
174.1046291336
 30
0.0
  0
ELLIPSE
  5
2E1
100
AcDbEntity
  8
00_COMPONENTS_1
100
AcDbEllipse
 62
7
  6
CONTINUOUS
 10
152.7074101249
 20
132.0040203132
 30
0.0
 11
0.0
 21
4.0
 31
0.0
 40
0.0046210721
 41
-1.5707963268
 42
-0.2240752853
  0
ELLIPSE
  5
2E2
100
AcDbEntity
  8
00_COMPONENTS_1
100
AcDbEllipse
 62
7
  6
CONTINUOUS
 10
152.7074101249
 20
110.6040203132
 30
0.0
 11
0.0
 21
4.0
 31
0.0
 40
0.0046210721
 41
-2.9175173683
 42
-1.5707963268
  0
ENDSEC
  0
SECTION
  2
OBJECTS
  0
DICTIONARY
  5
C
100
AcDbDictionary
280
0
281
1
  3
ACAD_GROUP
350
D
  3
ACAD_MLINESTYLE
350
17
  3
ACAD_LAYOUT
350
1A
  3
ACAD_PLOTSETTINGS
350
19
  3
ACAD_PLOTSTYLENAME
350
E
  0
DICTIONARY
  5
D
102
{ACAD_REACTORS
330
C
102
}
100
AcDbDictionary
280
0
281
1
  0
ACDBDICTIONARYWDFLT
  5
E
102
{ACAD_REACTORS
330
C
102
}
100
AcDbDictionary
281
1
  3
Normal
350
F
100
AcDbDictionaryWithDefault
340
F
  0
DICTIONARY
  5
17
102
{ACAD_REACTORS
330
C
102
}
100
AcDbDictionary
280
0
281
1
  3
Standard
350
18
  0
DICTIONARY
  5
19
102
{ACAD_REACTORS
330
C
102
}
100
AcDbDictionary
281
1
  0
DICTIONARY
  5
1A
102
{ACAD_REACTORS
330
C
102
}
100
AcDbDictionary
281
1
  3
Model
350
2E3
  3
Layout1
350
2E4
  0
ACDBPLACEHOLDER
  5
F
102
{ACAD_REACTORS
330
E
102
}
  0
MLINESTYLE
  5
18
102
{ACAD_REACTORS
330
17
102
}
100
AcDbMlineStyle
  2
STANDARD
 70
0
  3

 62
256
 51
90.0
 52
90.0
 71
2
 49
0.5
 62
256
  6
BYLAYER
 49
-0.5
 62
256
  6
BYLAYER
  0
LAYOUT
  5
2E3
102
{ACAD_REACTORS
330
1A
102
}
100
AcDbPlotSettings
  1

  2
none_device
  4

  6

 40
0.0
 41
0.0
 42
0.0
 43
0.0
 44
210.0
 45
297.0
 46
0.0
 47
0.0
 48
0.0
 49
0.0
140
0.0
141
0.0
142
1.0
143
1.0
 70
1024
 72
1
 73
0
 74
0
  7

 75
0
147
1.0
148
0.0
149
0.0
100
AcDbLayout
  1
Model
 70
0
 71
0
 10
0.0
 20
0.0
 11
210.0
 21
297.0
 12
0.0
 22
0.0
 32
0.0
 14
0.0
 24
0.0
 34
0.0
 15
0.0
 25
0.0
 35
0.0
146
0.0
 13
0.0
 23
0.0
 33
0.0
 16
1.0
 26
0.0
 36
0.0
 17
0.0
 27
1.0
 37
0.0
 76
0
330
218
345
0
346
0
  0
LAYOUT
  5
2E4
102
{ACAD_REACTORS
330
1A
102
}
100
AcDbPlotSettings
  1

  2
none_device
  4

  6

 40
0.0
 41
0.0
 42
0.0
 43
0.0
 44
210.0
 45
297.0
 46
0.0
 47
0.0
 48
0.0
 49
0.0
140
0.0
141
0.0
142
1.0
143
1.0
 70
0
 72
1
 73
0
 74
0
  7

 75
0
147
1.0
148
0.0
149
0.0
100
AcDbLayout
  1
Layout1
 70
0
 71
1
 10
0.0
 20
0.0
 11
210.0
 21
297.0
 12
0.0
 22
0.0
 32
0.0
 14
0.0
 24
0.0
 34
0.0
 15
0.0
 25
0.0
 35
0.0
146
0.0
 13
0.0
 23
0.0
 33
0.0
 16
1.0
 26
0.0
 36
0.0
 17
0.0
 27
1.0
 37
0.0
 76
0
330
219
345
0
346
0
  0
ENDSEC
  0
EOF
