999
DXF file: C:\Users\sesa63760\Dev\_Creo\CAD\MCADID0001891_3D-CAD\drw0001_1.dxf
999
Pro/ENGINEER 2019471 by Parametric Technology Corporation
  0
SECTION
  2
HEADER
  9
$ACADVER
  1
AC1024
  9
$DWGCODEPAGE
  3
ANSI_1252
  9
$EXTMAX
 10
43.9436207567
 20
62.1488350702
 30
0.0
  9
$EXTMIN
 10
0.0
 20
0.0
 30
0.0
  9
$LIMMIN
 10
0.0
 20
0.0
  9
$LIMMAX
 10
43.9436207567
 20
62.1488350702
  9
$VIEWCTR
 10
21.9718103783
 20
31.0744175351
  9
$VIEWSIZE
 40
62.1488350702
  9
$CLAYER
  8
0
  9
$LTSCALE
 40
4.0511833231
  9
$CELTYPE
  6
BYLAYER
  9
$DIMSCALE
 40
1.0
  9
$DIMASZ
 40
0.5231383423
  9
$DIMEXO
 40
1.0
  9
$DIMDLI
 40
2.7989993869
  9
$DIMEXE
 40
1.0
  9
$DIMCEN
 40
0.6629209074
  9
$DIMLFAC
 40
1.0
  9
$DIMBLK
  1
_FILLED
  9
$DIMALT
 70
0
  9
$DIMALTF
 40
0.0393700787
  9
$DIMTXT
 40
0.7323936793
  9
$DIMTOL
 70
1
  9
$DIMLIM
 70
0
  9
$DIMTFAC
 40
1.0
  9
$DIMTP
 40
0.01
  9
$DIMTM
 40
0.01
  9
$DIMGAP
 40
0.625
  9
$DIMDSEP
 70
46
  9
$AUNITS
 70
0
  9
$PDMODE
 70
3
  9
$PDSIZE
 40
0.3125
  9
$HANDSEED
  5
242
  9
$TILEMODE
 70
1
  9
$MEASUREMENT
 70
1
  9
$INSUNITS
 70
4
  0
ENDSEC
  0
SECTION
  2
CLASSES
  0
CLASS
  1
ACDBDICTIONARYWDFLT
  2
AcDbDictionaryWithDefault
  3
AutoCAD 2000
 90
0
 91
1
280
0
281
0
  0
CLASS
  1
ACDBPLACEHOLDER
  2
AcDbPlaceHolder
  3
AutoCAD 2000
 90
0
 91
1
280
0
281
0
  0
CLASS
  1
LAYOUT
  2
AcDbLayout
  3
AutoCAD 2000
 90
0
 91
0
280
0
281
0
  0
ENDSEC
  0
SECTION
  2
TABLES
  0
TABLE
  2
VPORT
  5
8
100
AcDbSymbolTable
 70
2
  0
VPORT
  5
1F4
100
AcDbSymbolTableRecord
100
AcDbViewportTableRecord
  2
*ACTIVE
 70
0
 10
0.0
 20
0.0
 11
1.0
 21
1.0
 12
21.9718103783
 22
31.0744175351
 13
0.0
 23
0.0
 14
1.0
 24
1.0
 15
0.0
 25
0.0
 16
0.0
 26
0.0
 36
1.0
 17
0.0
 27
0.0
 37
0.0
 40
62.1488350702
 41
0.7070707071
 42
50.0
 43
0.0
 44
0.0
 50
0.0
 51
0.0
 71
0
 72
100
 73
1
 74
1
 75
0
 76
0
 77
0
 78
0
  0
ENDTAB
  0
TABLE
  2
LTYPE
  5
5
100
AcDbSymbolTable
 70
6
  0
LTYPE
  5
14
100
AcDbSymbolTableRecord
100
AcDbLinetypeTableRecord
  2
BYBLOCK
 70
0
  3

 72
65
 73
0
 40
0.0
  0
LTYPE
  5
15
100
AcDbSymbolTableRecord
100
AcDbLinetypeTableRecord
  2
BYLAYER
 70
0
  3

 72
65
 73
0
 40
0.0
  0
LTYPE
  5
16
100
AcDbSymbolTableRecord
100
AcDbLinetypeTableRecord
  2
CONTINUOUS
 70
64
  3
Solid line
 72
65
 73
0
 40
0.0
  0
LTYPE
  5
1F5
100
AcDbSymbolTableRecord
100
AcDbLinetypeTableRecord
  2
CENTER
 70
64
  3
____ _ ____ _ ____ _ ____ _ ____ _ ____ _ ____
 72
65
 73
4
 40
0.6
 49
0.375
 74
0
 49
-0.075
 74
0
 49
0.075
 74
0
 49
-0.075
 74
0
  0
LTYPE
  5
1F6
100
AcDbSymbolTableRecord
100
AcDbLinetypeTableRecord
  2
HIDDEN
 70
64
  3
- - - - - - - - - - - - - - - - - - - -
 72
65
 73
2
 40
0.2
 49
0.1
 74
0
 49
-0.1
 74
0
  0
LTYPE
  5
1F7
100
AcDbSymbolTableRecord
100
AcDbLinetypeTableRecord
  2
PHANTOM
 70
64
  3
_____ _ _ _____ _ _ _____ _ _ _____
 72
65
 73
6
 40
0.8
 49
0.45
 74
0
 49
-0.05
 74
0
 49
0.1
 74
0
 49
-0.05
 74
0
 49
0.1
 74
0
 49
-0.05
 74
0
  0
LTYPE
  5
1F8
100
AcDbSymbolTableRecord
100
AcDbLinetypeTableRecord
  2
DOT
 70
64
  3
. . . . . . . . . . . . . . . . . . . .
 72
65
 73
2
 40
0.2
 49
0.1
 74
0
 49
-0.1
 74
0
  0
LTYPE
  5
1F9
100
AcDbSymbolTableRecord
100
AcDbLinetypeTableRecord
  2
DASHED
 70
64
  3
- - - - - - - - - - - - - - - - - - - -
 72
65
 73
2
 40
0.2
 49
0.1
 74
0
 49
-0.1
 74
0
  0
ENDTAB
  0
TABLE
  2
LAYER
  5
2
100
AcDbSymbolTable
 70
36
  0
LAYER
  5
10
100
AcDbSymbolTableRecord
100
AcDbLayerTableRecord
  2
0
 70
0
 62
7
  6
CONTINUOUS
370
-3
390
F
  0
LAYER
  5
1FA
100
AcDbSymbolTableRecord
100
AcDbLayerTableRecord
  2
DEFAULT_1
 70
0
 62
7
  6
CENTER
370
-3
390
F
  0
LAYER
  5
1FB
100
AcDbSymbolTableRecord
100
AcDbLayerTableRecord
  2
DEFAULT_2
 70
0
 62
8
  6
HIDDEN
370
-3
390
F
  0
LAYER
  5
1FC
100
AcDbSymbolTableRecord
100
AcDbLayerTableRecord
  2
DEFAULT_3
 70
0
 62
7
  6
PHANTOM
370
-3
390
F
  0
LAYER
  5
1FD
100
AcDbSymbolTableRecord
100
AcDbLayerTableRecord
  2
00_COMPONENTS
 70
0
 62
7
  6
CONTINUOUS
370
-3
390
F
  0
LAYER
  5
1FE
100
AcDbSymbolTableRecord
100
AcDbLayerTableRecord
  2
01_1_DEFAULT_DATUMS
 70
0
 62
7
  6
CONTINUOUS
370
-3
390
F
  0
LAYER
  5
1FF
100
AcDbSymbolTableRecord
100
AcDbLayerTableRecord
  2
01_PLANES
 70
0
 62
7
  6
CONTINUOUS
370
-3
390
F
  0
LAYER
  5
200
100
AcDbSymbolTableRecord
100
AcDbLayerTableRecord
  2
02_COORD_SYS
 70
0
 62
7
  6
CONTINUOUS
370
-3
390
F
  0
LAYER
  5
201
100
AcDbSymbolTableRecord
100
AcDbLayerTableRecord
  2
03_AXES
 70
0
 62
7
  6
CONTINUOUS
370
-3
390
F
  0
LAYER
  5
202
100
AcDbSymbolTableRecord
100
AcDbLayerTableRecord
  2
04_POINTS
 70
0
 62
7
  6
CONTINUOUS
370
-3
390
F
  0
LAYER
  5
203
100
AcDbSymbolTableRecord
100
AcDbLayerTableRecord
  2
05_CURVES
 70
0
 62
7
  6
CONTINUOUS
370
-3
390
F
  0
LAYER
  5
204
100
AcDbSymbolTableRecord
100
AcDbLayerTableRecord
  2
06_SURFS
 70
0
 62
7
  6
CONTINUOUS
370
-3
390
F
  0
LAYER
  5
205
100
AcDbSymbolTableRecord
100
AcDbLayerTableRecord
  2
07_COSMETICS
 70
0
 62
7
  6
CONTINUOUS
370
-3
390
F
  0
LAYER
  5
206
100
AcDbSymbolTableRecord
100
AcDbLayerTableRecord
  2
10_NOTES
 70
0
 62
7
  6
CONTINUOUS
370
-3
390
F
  0
LAYER
  5
207
100
AcDbSymbolTableRecord
100
AcDbLayerTableRecord
  2
11_NOTES_PUB
 70
0
 62
7
  6
CONTINUOUS
370
-3
390
F
  0
LAYER
  5
208
100
AcDbSymbolTableRecord
100
AcDbLayerTableRecord
  2
13_REF_GTOL
 70
0
 62
7
  6
CONTINUOUS
370
-3
390
F
  0
LAYER
  5
209
100
AcDbSymbolTableRecord
100
AcDbLayerTableRecord
  2
16_MISC
 70
0
 62
7
  6
CONTINUOUS
370
-3
390
F
  0
LAYER
  5
20A
100
AcDbSymbolTableRecord
100
AcDbLayerTableRecord
  2
17_NO_PRINT
 70
0
 62
7
  6
CONTINUOUS
370
-3
390
F
  0
LAYER
  5
20B
100
AcDbSymbolTableRecord
100
AcDbLayerTableRecord
  2
18_DATUM_CAMS_JOINTS
 70
0
 62
7
  6
CONTINUOUS
370
-3
390
F
  0
LAYER
  5
20C
100
AcDbSymbolTableRecord
100
AcDbLayerTableRecord
  2
19_DATUM_FUNCTIONAL
 70
0
 62
7
  6
CONTINUOUS
370
-3
390
F
  0
LAYER
  5
20D
100
AcDbSymbolTableRecord
100
AcDbLayerTableRecord
  2
20_DATUM_KINEMATIC_SCHEME
 70
0
 62
7
  6
CONTINUOUS
370
-3
390
F
  0
ENDTAB
  0
TABLE
  2
STYLE
  5
3
100
AcDbSymbolTable
 70
1
  0
STYLE
  5
11
100
AcDbSymbolTableRecord
100
AcDbTextStyleTableRecord
  2
STANDARD
 70
0
 40
0.0
 41
0.8
 50
0.0
 71
0
 42
0.2
  3
txt
  4

  0
STYLE
  5
20E
100
AcDbSymbolTableRecord
100
AcDbTextStyleTableRecord
  2
TEXTSTYLE_1
 70
0
 40
0.0
 41
0.8
 50
0.0
 71
0
 42
0.2
  3
gdt
  4

  0
ENDTAB
  0
TABLE
  2
VIEW
  5
6
100
AcDbSymbolTable
 70
0
  0
ENDTAB
  0
TABLE
  2
UCS
  5
7
100
AcDbSymbolTable
 70
0
  0
ENDTAB
  0
TABLE
  2
APPID
  5
9
100
AcDbSymbolTable
 70
1
  0
APPID
  5
20F
100
AcDbSymbolTableRecord
100
AcDbRegAppTableRecord
  2
ACAD
 70
0
  0
ENDTAB
  0
TABLE
  2
BLOCK_RECORD
  5
1
100
AcDbSymbolTable
 70
0
  0
BLOCK_RECORD
  5
210
100
AcDbSymbolTableRecord
100
AcDbBlockTableRecord
  2
*Model_Space
  0
BLOCK_RECORD
  5
211
100
AcDbSymbolTableRecord
100
AcDbBlockTableRecord
  2
*Paper_Space
  0
BLOCK_RECORD
  5
212
100
AcDbSymbolTableRecord
100
AcDbBlockTableRecord
  2
_FILLED
  0
ENDTAB
  0
TABLE
  2
DIMSTYLE
  5
A
100
AcDbSymbolTable
 70
1
100
AcDbDimStyleTable
 71
0
  0
DIMSTYLE
105
213
100
AcDbSymbolTableRecord
100
AcDbDimStyleTableRecord
  2
STANDARD
 70
0
  3

  4

 40
1.0
 41
0.5231383423
 42
1.0
 43
0.38
 44
1.0
 45
0.0
 46
0.0
 47
0.01
 48
0.01
140
0.7323936793
141
0.09
142
0.0
143
25.4
144
1.0
145
0.0
146
1.0
147
0.625
 71
1
 72
0
 73
0
 74
0
 75
0
 76
0
 77
1
 78
8
 79
2
170
0
171
1
172
0
173
0
174
0
175
0
176
0
177
0
178
0
270
2
179
2
271
2
272
2
273
2
274
2
275
0
280
0
281
0
282
0
283
1
284
8
285
0
286
0
287
3
288
0
340
11
278
46
341
212
342
212
343
212
344
212
  0
ENDTAB
  0
ENDSEC
  0
SECTION
  2
BLOCKS
  0
BLOCK
  5
20
100
AcDbEntity
  8
0
100
AcDbBlockBegin
  2
*Model_Space
 70
0
 10
0.0
 20
0.0
 30
0.0
  3
*Model_Space
  1

  0
ENDBLK
  5
21
100
AcDbEntity
  8
0
100
AcDbBlockEnd
  0
BLOCK
  5
1C
100
AcDbEntity
  8
0
100
AcDbBlockBegin
  2
*Paper_Space
 70
0
 10
0.0
 20
0.0
 30
0.0
  3
*Paper_Space
  1

  0
ENDBLK
  5
1D
100
AcDbEntity
  8
0
100
AcDbBlockEnd
  0
BLOCK
  5
214
100
AcDbEntity
  8
0
100
AcDbBlockBegin
  2
_FILLED
 70
64
 10
0.0
 20
0.0
  3
_FILLED
  1

  0
SOLID
  5
215
100
AcDbEntity
  8
0
  6
BYBLOCK
 62
0
100
AcDbTrace
 10
0.0
 20
0.0
 11
-1.0
 21
0.25
 12
-1.0
 22
-0.25
 13
-1.0
 23
-0.25
  0
ENDBLK
  5
216
100
AcDbEntity
  8
0
  6
BYBLOCK
 62
0
100
AcDbBlockEnd
  0
ENDSEC
  0
SECTION
  2
ENTITIES
  0
LINE
  5
217
100
AcDbEntity
  8
0
100
AcDbLine
 62
7
  6
CONTINUOUS
 10
5.0979655911
 20
23.6929076294
 11
5.0979655911
 21
30.7442225037
  0
LINE
  5
218
100
AcDbEntity
  8
0
100
AcDbLine
 62
7
  6
CONTINUOUS
 10
13.8986532303
 20
18.6119431986
 11
7.5193514205
 21
22.294951495
  0
LINE
  5
219
100
AcDbEntity
  8
0
100
AcDbLine
 62
7
  6
CONTINUOUS
 10
6.7635670348
 20
22.7312939421
 11
5.0979655911
 21
23.6929076294
  0
LINE
  5
21A
100
AcDbEntity
  8
0
100
AcDbLine
 62
7
  6
CONTINUOUS
 10
13.8986532303
 20
25.663258073
 11
13.8986532303
 21
18.6119431986
  0
LINE
  5
21B
100
AcDbEntity
  8
0
100
AcDbLine
 62
7
  6
CONTINUOUS
 10
5.0979655911
 20
30.7442225037
 11
13.8986532303
 21
25.663258073
  0
LINE
  5
21C
100
AcDbEntity
  8
0
100
AcDbLine
 62
7
  6
CONTINUOUS
 10
21.2623593098
 20
40.0766838612
 11
5.0979655911
 21
30.7442225037
  0
LINE
  5
21D
100
AcDbEntity
  8
0
100
AcDbLine
 62
7
  6
CONTINUOUS
 10
25.8692409069
 20
41.9795433451
 11
24.791614659
 21
41.3573792546
  0
LINE
  5
21E
100
AcDbEntity
  8
0
100
AcDbLine
 62
7
  6
CONTINUOUS
 10
29.6044030483
 20
42.7892929216
 11
27.0355637993
 21
41.3061817427
  0
LINE
  5
21F
100
AcDbEntity
  8
0
100
AcDbLine
 62
7
  6
CONTINUOUS
 10
24.791614659
 20
40.0106448359
 11
23.0841939694
 21
39.0248709253
  0
LINE
  5
220
100
AcDbEntity
  8
0
100
AcDbLine
 62
7
  6
CONTINUOUS
 10
32.207048202
 20
43.6320114594
 11
30.5366690866
 21
42.6676233841
  0
LINE
  5
221
100
AcDbEntity
  8
0
100
AcDbLine
 62
7
  6
CONTINUOUS
 10
27.6652996088
 20
40.9426118286
 11
26.5876733609
 21
40.3204477381
  0
LINE
  5
222
100
AcDbEntity
  8
0
100
AcDbLine
 62
7
  6
CONTINUOUS
 10
33.5405422321
 20
41.3223182608
 11
31.9014160105
 21
40.3759739444
  0
LINE
  5
223
100
AcDbEntity
  8
0
100
AcDbLine
 62
7
  6
CONTINUOUS
 10
31.5093945198
 20
39.4897312093
 11
27.6652996088
 21
37.2703552256
  0
LINE
  5
224
100
AcDbEntity
  8
0
100
AcDbLine
 62
7
  6
CONTINUOUS
 10
7.1198734502
 20
25.0646614004
 11
8.7363128221
 21
25.9979075361
  0
LINE
  5
225
100
AcDbEntity
  8
0
100
AcDbLine
 62
7
  6
CONTINUOUS
 10
35.3158697202
 20
39.4918506992
 11
28.7956606413
 21
35.7274287029
  0
LINE
  5
226
100
AcDbEntity
  8
0
100
AcDbLine
 62
7
  6
CONTINUOUS
 10
37.918514874
 20
40.334569237
 11
36.2481357586
 21
39.3701811617
  0
LINE
  5
227
100
AcDbEntity
  8
0
100
AcDbLine
 62
7
  6
CONTINUOUS
 10
30.063046949
 20
34.9957194305
 11
13.8986532303
 21
25.663258073
  0
LINE
  5
228
100
AcDbEntity
  8
0
100
AcDbLine
 62
7
  6
CONTINUOUS
 10
8.6438666275
 20
22.4250120305
 11
10.2603059993
 21
23.3582581663
  0
LINE
  5
229
100
AcDbEntity
  8
0
100
AcDbLine
 62
7
  6
CONTINUOUS
 10
24.791614659
 20
38.0391134314
 11
24.791614659
 21
41.3573792546
  0
LINE
  5
22A
100
AcDbEntity
  8
0
100
AcDbLine
 62
7
  6
CONTINUOUS
 10
39.252008904
 20
38.0248760383
 11
37.6128826825
 21
37.078531722
  0
LINE
  5
22B
100
AcDbEntity
  8
0
100
AcDbLine
 62
7
  6
CONTINUOUS
 10
26.5876733609
 20
40.3204477381
 11
26.5876733609
 21
37.0021819149
  0
LINE
  5
22C
100
AcDbEntity
  8
0
100
AcDbLine
 62
7
  6
CONTINUOUS
 10
37.2208611918
 20
36.1922889869
 11
30.063046949
 21
32.059747675
  0
LINE
  5
22D
100
AcDbEntity
  8
0
100
AcDbLine
 62
7
  6
CONTINUOUS
 10
27.6652996088
 20
36.3800281855
 11
27.6652996088
 21
40.9426118286
  0
LINE
  5
22E
100
AcDbEntity
  8
0
100
AcDbLine
 62
7
  6
CONTINUOUS
 10
30.063046949
 20
27.9444045561
 11
13.8986532303
 21
18.6119431986
  0
LINE
  5
22F
100
AcDbEntity
  8
0
100
AcDbLine
 62
7
  6
CONTINUOUS
 10
30.063046949
 20
34.9957194305
 11
21.2623593098
 21
40.0766838612
  0
LINE
  5
230
100
AcDbEntity
  8
0
100
AcDbLine
 62
7
  6
CONTINUOUS
 10
30.063046949
 20
27.9444045561
 11
30.063046949
 21
34.9957194305
  0
LINE
  5
231
100
AcDbEntity
  8
0
100
AcDbLine
 62
7
  6
CONTINUOUS
 10
24.791614659
 20
41.3573792546
 11
26.5876733609
 21
40.3204477381
  0
LINE
  5
232
100
AcDbEntity
  8
0
100
AcDbLine
 62
7
  6
CONTINUOUS
 10
27.6652996088
 20
40.9426118286
 11
25.8692409069
 21
41.9795433451
  0
ARC
  5
233
100
AcDbEntity
  8
0
100
AcDbCircle
 62
7
  6
CONTINUOUS
 10
7.8818700389
 20
23.7448367154
 40
1.524
100
AcDbArc
 50
119.9998519061
 51
299.9998519061
  0
SPLINE
  5
234
100
AcDbEntity
  8
0
100
AcDbSpline
 62
7
  6
CONTINUOUS
 70
0
 71
3
 72
13
 73
9
 74
0
 42
0.0000001
 43
0.0000001
 44
0.0000000001
 40
0.0
 40
0.0
 40
0.0
 40
0.0
 40
0.2893484549
 40
0.5483249298
 40
0.6677503544
 40
0.7817643315
 40
0.8919054882
 40
1.0
 40
1.0
 40
1.0
 40
1.0
 10
39.5281927075
 20
38.6353335915
 30
0.0
 10
39.5281927075
 20
38.5677571254
 30
0.0
 10
39.517997126
 20
38.4393142234
 30
0.0
 10
39.4733823748
 20
38.2882149812
 30
0.0
 10
39.4192206804
 20
38.1863653693
 30
0.0
 10
39.3714296501
 20
38.1215121394
 30
0.0
 10
39.3159068573
 20
38.0668366233
 30
0.0
 10
39.2738701863
 20
38.0375014843
 30
0.0
 10
39.2520050905
 20
38.0248826421
 30
0.0
  0
SPLINE
  5
235
100
AcDbEntity
  8
0
100
AcDbSpline
 62
7
  6
CONTINUOUS
 70
0
 71
3
 72
22
 73
18
 74
0
 42
0.0000001
 43
0.0000001
 44
0.0000000001
 40
0.0
 40
0.0
 40
0.0
 40
0.0
 40
0.0428180356
 40
0.0874050617
 40
0.1351919542
 40
0.187108733
 40
0.2435609796
 40
0.3045239933
 40
0.3696301077
 40
0.4382446098
 40
0.5095517189
 40
0.582594531
 40
0.7296175818
 40
0.8016127933
 40
0.8712253768
 40
0.9376262184
 40
1.0
 40
1.0
 40
1.0
 40
1.0
 10
32.2070520155
 20
43.6320048557
 30
0.0
 10
32.2399294938
 20
43.6509791935
 30
0.0
 10
32.3123896857
 20
43.6811152899
 30
0.0
 10
32.4320165635
 20
43.6986204951
 30
0.0
 10
32.5604744978
 20
43.6891934257
 30
0.0
 10
32.6949116657
 20
43.653459688
 30
0.0
 10
32.8326917658
 20
43.5925716601
 30
0.0
 10
32.9710782017
 20
43.5079242849
 30
0.0
 10
33.1072365731
 20
43.4013108117
 30
0.0
 10
33.2383737016
 20
43.2750383457
 30
0.0
 10
33.3617118096
 20
43.1317292624
 30
0.0
 10
33.5125007202
 20
42.9217067524
 30
0.0
 10
33.636449957
 20
42.6926549136
 30
0.0
 10
33.7282383957
 20
42.4535299248
 30
0.0
 10
33.7784041186
 20
42.2757644823
 30
0.0
 10
33.8092003682
 20
42.102310649
 30
0.0
 10
33.8167260355
 20
41.9880726657
 30
0.0
 10
33.8167260355
 20
41.9327758139
 30
0.0
  0
SPLINE
  5
236
100
AcDbEntity
  8
0
100
AcDbSpline
 62
7
  6
CONTINUOUS
 70
0
 71
3
 72
15
 73
11
 74
0
 42
0.0000001
 43
0.0000001
 44
0.0000000001
 40
0.0
 40
0.0
 40
0.0
 40
0.0
 40
0.148480089
 40
0.2894728169
 40
0.4227522243
 40
0.5486599087
 40
0.6679978282
 40
0.7819353274
 40
0.8919898189
 40
1.0
 40
1.0
 40
1.0
 40
1.0
 10
37.6154094824
 20
37.0643712057
 30
0.0
 10
37.6154094824
 20
37.014794168
 30
0.0
 10
37.6113842783
 20
36.9180750404
 30
0.0
 10
37.5923717746
 20
36.7779825337
 30
0.0
 10
37.5605623118
 20
36.6479204852
 30
0.0
 10
37.5162307332
 20
36.5292153483
 30
0.0
 10
37.4597244976
 20
36.4229969095
 30
0.0
 10
37.3914735818
 20
36.3303334611
 30
0.0
 10
37.3121516013
 20
36.2522186187
 30
0.0
 10
37.2520874111
 20
36.2103321127
 30
0.0
 10
37.2208546604
 20
36.1923002999
 30
0.0
  0
SPLINE
  5
237
100
AcDbEntity
  8
0
100
AcDbSpline
 62
7
  6
CONTINUOUS
 70
0
 71
3
 72
24
 73
20
 74
0
 42
0.0000001
 43
0.0000001
 44
0.0000000001
 40
0.0
 40
0.0
 40
0.0
 40
0.0
 40
0.0213327853
 40
0.0428941258
 40
0.0874723202
 40
0.1352517691
 40
0.1871554308
 40
0.2435976935
 40
0.3045499031
 40
0.3696406069
 40
0.4382429861
 40
0.5095341466
 40
0.5825622935
 40
0.6562976375
 40
0.7296820035
 40
0.8016643176
 40
0.8712563613
 40
0.9376320673
 40
1.0
 40
1.0
 40
1.0
 40
1.0
 10
29.6044095797
 20
42.7892816087
 30
0.0
 10
29.6278128682
 20
42.8027931858
 30
0.0
 10
29.6766688838
 20
42.8269802851
 30
0.0
 10
29.7816227443
 20
42.8632743506
 30
0.0
 10
29.9258418045
 20
42.8845131345
 30
0.0
 10
30.1092885081
 20
42.8709459763
 30
0.0
 10
30.3013723552
 20
42.8199492508
 30
0.0
 10
30.4981984735
 20
42.7329486005
 30
0.0
 10
30.6958834085
 20
42.6119998266
 30
0.0
 10
30.8904202883
 20
42.4597197989
 30
0.0
 10
31.0777457851
 20
42.2793027297
 30
0.0
 10
31.2539284075
 20
42.0745894027
 30
0.0
 10
31.4152476279
 20
41.8499451032
 30
0.0
 10
31.5582392822
 20
41.610130499
 30
0.0
 10
31.6798572505
 20
41.3602681042
 30
0.0
 10
31.7775411408
 20
41.1057115453
 30
0.0
 10
31.8491904653
 20
40.851796596
 30
0.0
 10
31.8932061698
 20
40.6040130345
 30
0.0
 10
31.9039428104
 20
40.4408189576
 30
0.0
 10
31.9039428104
 20
40.3618134281
 30
0.0
  0
SPLINE
  5
238
100
AcDbEntity
  8
0
100
AcDbSpline
 62
7
  6
CONTINUOUS
 70
0
 71
3
 72
24
 73
20
 74
0
 42
0.0000001
 43
0.0000001
 44
0.0000000001
 40
0.0
 40
0.0
 40
0.0
 40
0.0
 40
0.0213327853
 40
0.0428941258
 40
0.0874723202
 40
0.1352517691
 40
0.1871554308
 40
0.2435976935
 40
0.3045499031
 40
0.3696406069
 40
0.4382429861
 40
0.5095341466
 40
0.5825622935
 40
0.6562976375
 40
0.7296820035
 40
0.8016643176
 40
0.8712563613
 40
0.9376320673
 40
1.0
 40
1.0
 40
1.0
 40
1.0
 10
35.3158762516
 20
39.4918393863
 30
0.0
 10
35.3392795402
 20
39.5053509634
 30
0.0
 10
35.3881355557
 20
39.5295380627
 30
0.0
 10
35.4930894163
 20
39.5658321282
 30
0.0
 10
35.6373084765
 20
39.5870709121
 30
0.0
 10
35.8207551801
 20
39.5735037539
 30
0.0
 10
36.0128390271
 20
39.5225070284
 30
0.0
 10
36.2096651455
 20
39.4355063781
 30
0.0
 10
36.4073500805
 20
39.3145576042
 30
0.0
 10
36.6018869603
 20
39.1622775765
 30
0.0
 10
36.789212457
 20
38.9818605073
 30
0.0
 10
36.9653950795
 20
38.7771471803
 30
0.0
 10
37.1267142998
 20
38.5525028808
 30
0.0
 10
37.2697059541
 20
38.3126882766
 30
0.0
 10
37.3913239225
 20
38.0628258818
 30
0.0
 10
37.4890078127
 20
37.8082693229
 30
0.0
 10
37.5606571372
 20
37.5543543735
 30
0.0
 10
37.6046728417
 20
37.3065708121
 30
0.0
 10
37.6154094824
 20
37.1433767352
 30
0.0
 10
37.6154094824
 20
37.0643712057
 30
0.0
  0
SPLINE
  5
239
100
AcDbEntity
  8
0
100
AcDbSpline
 62
7
  6
CONTINUOUS
 70
0
 71
3
 72
22
 73
18
 74
0
 42
0.0000001
 43
0.0000001
 44
0.0000000001
 40
0.0
 40
0.0
 40
0.0
 40
0.0
 40
0.0428180356
 40
0.0874050617
 40
0.1351919542
 40
0.187108733
 40
0.2435609796
 40
0.3045239933
 40
0.3696301077
 40
0.4382446098
 40
0.5095517189
 40
0.582594531
 40
0.7296175818
 40
0.8016127933
 40
0.8712253768
 40
0.9376262184
 40
1.0
 40
1.0
 40
1.0
 40
1.0
 10
37.9185186875
 20
40.3345626332
 30
0.0
 10
37.9513961658
 20
40.3535369711
 30
0.0
 10
38.0238563577
 20
40.3836730675
 30
0.0
 10
38.1434832355
 20
40.4011782726
 30
0.0
 10
38.2719411698
 20
40.3917512033
 30
0.0
 10
38.4063783376
 20
40.3560174656
 30
0.0
 10
38.5441584377
 20
40.2951294377
 30
0.0
 10
38.6825448737
 20
40.2104820625
 30
0.0
 10
38.8187032451
 20
40.1038685893
 30
0.0
 10
38.9498403735
 20
39.9775961233
 30
0.0
 10
39.0731784815
 20
39.83428704
 30
0.0
 10
39.2239673921
 20
39.62426453
 30
0.0
 10
39.347916629
 20
39.3952126912
 30
0.0
 10
39.4397050676
 20
39.1560877023
 30
0.0
 10
39.4898707906
 20
38.9783222599
 30
0.0
 10
39.5206670402
 20
38.8048684266
 30
0.0
 10
39.5281927075
 20
38.6906304433
 30
0.0
 10
39.5281927075
 20
38.6353335915
 30
0.0
  0
SPLINE
  5
23A
100
AcDbEntity
  8
0
100
AcDbSpline
 62
7
  6
CONTINUOUS
 70
0
 71
3
 72
15
 73
11
 74
0
 42
0.0000001
 43
0.0000001
 44
0.0000000001
 40
0.0
 40
0.0
 40
0.0
 40
0.0
 40
0.148480089
 40
0.2894728169
 40
0.4227522243
 40
0.5486599087
 40
0.6679978282
 40
0.7819353274
 40
0.8919898189
 40
1.0
 40
1.0
 40
1.0
 40
1.0
 10
31.9039428104
 20
40.3618134281
 30
0.0
 10
31.9039428104
 20
40.3122363904
 30
0.0
 10
31.8999176064
 20
40.2155172628
 30
0.0
 10
31.8809051026
 20
40.0754247561
 30
0.0
 10
31.8490956399
 20
39.9453627077
 30
0.0
 10
31.8047640612
 20
39.8266575707
 30
0.0
 10
31.7482578256
 20
39.7204391319
 30
0.0
 10
31.6800069099
 20
39.6277756835
 30
0.0
 10
31.6006849294
 20
39.5496608411
 30
0.0
 10
31.5406207391
 20
39.5077743351
 30
0.0
 10
31.5093879884
 20
39.4897425223
 30
0.0
  0
SPLINE
  5
23B
100
AcDbEntity
  8
0
100
AcDbSpline
 62
7
  6
CONTINUOUS
 70
0
 71
3
 72
13
 73
9
 74
0
 42
0.0000001
 43
0.0000001
 44
0.0000000001
 40
0.0
 40
0.0
 40
0.0
 40
0.0
 40
0.2893484549
 40
0.5483249298
 40
0.6677503544
 40
0.7817643315
 40
0.8919054882
 40
1.0
 40
1.0
 40
1.0
 40
1.0
 10
33.8167260355
 20
41.9327758139
 30
0.0
 10
33.8167260355
 20
41.8651993478
 30
0.0
 10
33.8065304541
 20
41.7367564458
 30
0.0
 10
33.7619157028
 20
41.5856572036
 30
0.0
 10
33.7077540084
 20
41.4838075917
 30
0.0
 10
33.6599629781
 20
41.4189543618
 30
0.0
 10
33.6044401853
 20
41.3642788458
 30
0.0
 10
33.5624035143
 20
41.3349437068
 30
0.0
 10
33.5405384186
 20
41.3223248645
 30
0.0
  0
SPLINE
  5
23C
100
AcDbEntity
  8
0
100
AcDbSpline
 62
7
  6
CONTINUOUS
 70
0
 71
3
 72
14
 73
10
 74
0
 42
0.0000001
 43
0.0000001
 44
0.0000000001
 40
0.0
 40
0.0
 40
0.0
 40
0.0
 40
0.1080496286
 40
0.2181424962
 40
0.3321057946
 40
0.4514779604
 40
0.5774334716
 40
0.7107851355
 40
1.0
 40
1.0
 40
1.0
 40
1.0
 10
8.643863695
 20
22.4250171105
 30
0.0
 10
8.6688534447
 20
22.4394389876
 30
0.0
 10
8.716897279
 20
22.4729647234
 30
0.0
 10
8.7803521342
 20
22.5354543817
 30
0.0
 10
8.8349686224
 20
22.6095718224
 30
0.0
 10
8.8801556831
 20
22.6945514184
 30
0.0
 10
8.9156400065
 20
22.7895278958
 30
0.0
 10
8.950458962
 20
22.932060275
 30
0.0
 10
8.95950526
 20
23.0454482122
 30
0.0
 10
8.95950526
 20
23.1226778055
 30
0.0
  0
SPLINE
  5
23D
100
AcDbEntity
  8
0
100
AcDbSpline
 62
7
  6
CONTINUOUS
 70
0
 71
3
 72
14
 73
10
 74
0
 42
0.0000001
 43
0.0000001
 44
0.0000000001
 40
0.0
 40
0.0
 40
0.0
 40
0.0
 40
0.2892164434
 40
0.4225695738
 40
0.5485257269
 40
0.6678980914
 40
0.7818612519
 40
0.8919532251
 40
1.0
 40
1.0
 40
1.0
 40
1.0
 10
10.5759446319
 20
24.0559239413
 30
0.0
 10
10.5759446319
 20
23.9786941002
 30
0.0
 10
10.5668976343
 20
23.865305665
 30
0.0
 10
10.5320785064
 20
23.7227726414
 30
0.0
 10
10.4965932254
 20
23.6277960859
 30
0.0
 10
10.4514054691
 20
23.5428168781
 30
0.0
 10
10.3967879746
 20
23.4687006585
 30
0.0
 10
10.3333330713
 20
23.4062129391
 30
0.0
 10
10.2852905153
 20
23.3726874548
 30
0.0
 10
10.2603015594
 20
23.3582658567
 30
0.0
  0
SPLINE
  5
23E
100
AcDbEntity
  8
0
100
AcDbSpline
 62
7
  6
CONTINUOUS
 70
0
 71
3
 72
22
 73
18
 74
0
 42
0.0000001
 43
0.0000001
 44
0.0000000001
 40
0.0
 40
0.0
 40
0.0
 40
0.0
 40
0.0623723762
 40
0.1287691697
 40
0.1983773216
 40
0.2703689161
 40
0.4173897834
 40
0.4904342226
 40
0.5617427099
 40
0.6303587685
 40
0.6954667374
 40
0.7564318543
 40
0.8128854303
 40
0.8648032571
 40
0.9125911014
 40
0.9571796485
 40
1.0
 40
1.0
 40
1.0
 40
1.0
 10
8.95950526
 20
23.1226778055
 30
0.0
 10
8.95950526
 20
23.1858729313
 30
0.0
 10
8.9509064925
 20
23.3164255146
 30
0.0
 10
8.9157121634
 20
23.5146490154
 30
0.0
 10
8.858386346
 20
23.7177989738
 30
0.0
 10
8.7534941039
 20
23.9910776898
 30
0.0
 10
8.6118439234
 20
24.2528506167
 30
0.0
 10
8.4395160899
 20
24.4928797935
 30
0.0
 10
8.2985595264
 20
24.6566694984
 30
0.0
 10
8.1486859246
 20
24.8009860158
 30
0.0
 10
7.9930737158
 20
24.9228362381
 30
0.0
 10
7.834915004
 20
25.0195828689
 30
0.0
 10
7.6774479967
 20
25.0891722387
 30
0.0
 10
7.5238028962
 20
25.1300153951
 30
0.0
 10
7.3769899841
 20
25.1407915032
 30
0.0
 10
7.2402680447
 20
25.1207858467
 30
0.0
 10
7.1574529419
 20
25.0863421927
 30
0.0
 10
7.1198763827
 20
25.0646563204
 30
0.0
  0
SPLINE
  5
23F
100
AcDbEntity
  8
0
100
AcDbSpline
 62
7
  6
CONTINUOUS
 70
0
 71
3
 72
22
 73
18
 74
0
 42
0.0000001
 43
0.0000001
 44
0.0000000001
 40
0.0
 40
0.0
 40
0.0
 40
0.0
 40
0.0428185396
 40
0.0874061281
 40
0.1351934541
 40
0.1871104752
 40
0.2435627884
 40
0.3045258568
 40
0.3696319727
 40
0.4382465822
 40
0.509553989
 40
0.5825971931
 40
0.7296199729
 40
0.8016148
 40
0.8712269229
 40
0.9376268021
 40
1.0
 40
1.0
 40
1.0
 40
1.0
 10
8.7363172621
 20
25.9978998456
 30
0.0
 10
8.7738920269
 20
26.0195849514
 30
0.0
 10
8.8567045891
 20
26.0540269075
 30
0.0
 10
8.9934227407
 20
26.0740320644
 30
0.0
 10
9.1402330163
 20
26.0632577786
 30
0.0
 10
9.293875925
 20
26.0224178421
 30
0.0
 10
9.4513390403
 20
25.9528310079
 30
0.0
 10
9.6094945859
 20
25.8560902583
 30
0.0
 10
9.7651039543
 20
25.7342458073
 30
0.0
 10
9.914974951
 20
25.5899337991
 30
0.0
 10
10.0559326988
 20
25.4261508456
 30
0.0
 10
10.2282625433
 20
25.1861243698
 30
0.0
 10
10.3699181456
 20
24.9243507696
 30
0.0
 10
10.4748178237
 20
24.6510657251
 30
0.0
 10
10.5321488018
 20
24.4479068062
 30
0.0
 10
10.5673446334
 20
24.2496759285
 30
0.0
 10
10.5759446319
 20
24.1191197517
 30
0.0
 10
10.5759446319
 20
24.0559239413
 30
0.0
  0
ENDSEC
  0
SECTION
  2
OBJECTS
  0
DICTIONARY
  5
C
100
AcDbDictionary
280
0
281
1
  3
ACAD_GROUP
350
D
  3
ACAD_MLINESTYLE
350
17
  3
ACAD_LAYOUT
350
1A
  3
ACAD_PLOTSETTINGS
350
19
  3
ACAD_PLOTSTYLENAME
350
E
  0
DICTIONARY
  5
D
102
{ACAD_REACTORS
330
C
102
}
100
AcDbDictionary
280
0
281
1
  0
ACDBDICTIONARYWDFLT
  5
E
102
{ACAD_REACTORS
330
C
102
}
100
AcDbDictionary
281
1
  3
Normal
350
F
100
AcDbDictionaryWithDefault
340
F
  0
DICTIONARY
  5
17
102
{ACAD_REACTORS
330
C
102
}
100
AcDbDictionary
280
0
281
1
  3
Standard
350
18
  0
DICTIONARY
  5
19
102
{ACAD_REACTORS
330
C
102
}
100
AcDbDictionary
281
1
  0
DICTIONARY
  5
1A
102
{ACAD_REACTORS
330
C
102
}
100
AcDbDictionary
281
1
  3
Model
350
240
  3
Layout1
350
241
  0
ACDBPLACEHOLDER
  5
F
102
{ACAD_REACTORS
330
E
102
}
  0
MLINESTYLE
  5
18
102
{ACAD_REACTORS
330
17
102
}
100
AcDbMlineStyle
  2
STANDARD
 70
0
  3

 62
256
 51
90.0
 52
90.0
 71
2
 49
0.5
 62
256
  6
BYLAYER
 49
-0.5
 62
256
  6
BYLAYER
  0
LAYOUT
  5
240
102
{ACAD_REACTORS
330
1A
102
}
100
AcDbPlotSettings
  1

  2
none_device
  4

  6

 40
0.0
 41
0.0
 42
0.0
 43
0.0
 44
210.0
 45
297.0
 46
0.0
 47
0.0
 48
0.0
 49
0.0
140
0.0
141
0.0
142
1.0
143
1.0
 70
1024
 72
1
 73
0
 74
0
  7

 75
0
147
1.0
148
0.0
149
0.0
100
AcDbLayout
  1
Model
 70
0
 71
0
 10
0.0
 20
0.0
 11
210.0
 21
297.0
 12
0.0
 22
0.0
 32
0.0
 14
0.0
 24
0.0
 34
0.0
 15
0.0
 25
0.0
 35
0.0
146
0.0
 13
0.0
 23
0.0
 33
0.0
 16
1.0
 26
0.0
 36
0.0
 17
0.0
 27
1.0
 37
0.0
 76
0
330
210
345
0
346
0
  0
LAYOUT
  5
241
102
{ACAD_REACTORS
330
1A
102
}
100
AcDbPlotSettings
  1

  2
none_device
  4

  6

 40
0.0
 41
0.0
 42
0.0
 43
0.0
 44
210.0
 45
297.0
 46
0.0
 47
0.0
 48
0.0
 49
0.0
140
0.0
141
0.0
142
1.0
143
1.0
 70
0
 72
1
 73
0
 74
0
  7

 75
0
147
1.0
148
0.0
149
0.0
100
AcDbLayout
  1
Layout1
 70
0
 71
1
 10
0.0
 20
0.0
 11
210.0
 21
297.0
 12
0.0
 22
0.0
 32
0.0
 14
0.0
 24
0.0
 34
0.0
 15
0.0
 25
0.0
 35
0.0
146
0.0
 13
0.0
 23
0.0
 33
0.0
 16
1.0
 26
0.0
 36
0.0
 17
0.0
 27
1.0
 37
0.0
 76
0
330
211
345
0
346
0
  0
ENDSEC
  0
EOF
