999
DXF file: C:\Users\sesa63760\Dev\_Creo\CAD\MCADPD0004368_3D-CAD\drw0001_5.dxf
999
Pro/ENGINEER 2019471 by Parametric Technology Corporation
  0
SECTION
  2
HEADER
  9
$ACADVER
  1
AC1024
  9
$DWGCODEPAGE
  3
ANSI_1252
  9
$EXTMAX
 10
50.9714795009
 20
72.0882352941
 30
0.0
  9
$EXTMIN
 10
0.0
 20
0.0
 30
0.0
  9
$LIMMIN
 10
0.0
 20
0.0
  9
$LIMMAX
 10
50.9714795009
 20
72.0882352941
  9
$VIEWCTR
 10
25.4857397504
 20
36.0441176471
  9
$VIEWSIZE
 40
72.0882352941
  9
$CLAYER
  8
0
  9
$LTSCALE
 40
4.6990849673
  9
$CELTYPE
  6
BYLAYER
  9
$DIMSCALE
 40
1.0
  9
$DIMASZ
 40
0.6068033274
  9
$DIMEXO
 40
1.0
  9
$DIMDLI
 40
3.2466405229
  9
$DIMEXE
 40
1.0
  9
$DIMCEN
 40
0.7689411765
  9
$DIMLFAC
 40
1.0
  9
$DIMBLK
  1
_FILLED
  9
$DIMALT
 70
0
  9
$DIMALTF
 40
0.0393700787
  9
$DIMTXT
 40
0.8495246583
  9
$DIMTOL
 70
1
  9
$DIMLIM
 70
0
  9
$DIMTFAC
 40
1.0
  9
$DIMTP
 40
0.01
  9
$DIMTM
 40
0.01
  9
$DIMGAP
 40
0.625
  9
$DIMDSEP
 70
46
  9
$AUNITS
 70
0
  9
$PDMODE
 70
3
  9
$PDSIZE
 40
0.3125
  9
$HANDSEED
  5
251
  9
$TILEMODE
 70
1
  9
$MEASUREMENT
 70
1
  9
$INSUNITS
 70
4
  0
ENDSEC
  0
SECTION
  2
CLASSES
  0
CLASS
  1
ACDBDICTIONARYWDFLT
  2
AcDbDictionaryWithDefault
  3
AutoCAD 2000
 90
0
 91
1
280
0
281
0
  0
CLASS
  1
ACDBPLACEHOLDER
  2
AcDbPlaceHolder
  3
AutoCAD 2000
 90
0
 91
1
280
0
281
0
  0
CLASS
  1
LAYOUT
  2
AcDbLayout
  3
AutoCAD 2000
 90
0
 91
0
280
0
281
0
  0
ENDSEC
  0
SECTION
  2
TABLES
  0
TABLE
  2
VPORT
  5
8
100
AcDbSymbolTable
 70
2
  0
VPORT
  5
1F4
100
AcDbSymbolTableRecord
100
AcDbViewportTableRecord
  2
*ACTIVE
 70
0
 10
0.0
 20
0.0
 11
1.0
 21
1.0
 12
25.4857397504
 22
36.0441176471
 13
0.0
 23
0.0
 14
1.0
 24
1.0
 15
0.0
 25
0.0
 16
0.0
 26
0.0
 36
1.0
 17
0.0
 27
0.0
 37
0.0
 40
72.0882352941
 41
0.7070707071
 42
50.0
 43
0.0
 44
0.0
 50
0.0
 51
0.0
 71
0
 72
100
 73
1
 74
1
 75
0
 76
0
 77
0
 78
0
  0
ENDTAB
  0
TABLE
  2
LTYPE
  5
5
100
AcDbSymbolTable
 70
6
  0
LTYPE
  5
14
100
AcDbSymbolTableRecord
100
AcDbLinetypeTableRecord
  2
BYBLOCK
 70
0
  3

 72
65
 73
0
 40
0.0
  0
LTYPE
  5
15
100
AcDbSymbolTableRecord
100
AcDbLinetypeTableRecord
  2
BYLAYER
 70
0
  3

 72
65
 73
0
 40
0.0
  0
LTYPE
  5
16
100
AcDbSymbolTableRecord
100
AcDbLinetypeTableRecord
  2
CONTINUOUS
 70
64
  3
Solid line
 72
65
 73
0
 40
0.0
  0
LTYPE
  5
1F5
100
AcDbSymbolTableRecord
100
AcDbLinetypeTableRecord
  2
CENTER
 70
64
  3
____ _ ____ _ ____ _ ____ _ ____ _ ____ _ ____
 72
65
 73
4
 40
0.6
 49
0.375
 74
0
 49
-0.075
 74
0
 49
0.075
 74
0
 49
-0.075
 74
0
  0
LTYPE
  5
1F6
100
AcDbSymbolTableRecord
100
AcDbLinetypeTableRecord
  2
HIDDEN
 70
64
  3
- - - - - - - - - - - - - - - - - - - -
 72
65
 73
2
 40
0.2
 49
0.1
 74
0
 49
-0.1
 74
0
  0
LTYPE
  5
1F7
100
AcDbSymbolTableRecord
100
AcDbLinetypeTableRecord
  2
PHANTOM
 70
64
  3
_____ _ _ _____ _ _ _____ _ _ _____
 72
65
 73
6
 40
0.8
 49
0.45
 74
0
 49
-0.05
 74
0
 49
0.1
 74
0
 49
-0.05
 74
0
 49
0.1
 74
0
 49
-0.05
 74
0
  0
LTYPE
  5
1F8
100
AcDbSymbolTableRecord
100
AcDbLinetypeTableRecord
  2
DOT
 70
64
  3
. . . . . . . . . . . . . . . . . . . .
 72
65
 73
2
 40
0.2
 49
0.1
 74
0
 49
-0.1
 74
0
  0
LTYPE
  5
1F9
100
AcDbSymbolTableRecord
100
AcDbLinetypeTableRecord
  2
DASHED
 70
64
  3
- - - - - - - - - - - - - - - - - - - -
 72
65
 73
2
 40
0.2
 49
0.1
 74
0
 49
-0.1
 74
0
  0
ENDTAB
  0
TABLE
  2
LAYER
  5
2
100
AcDbSymbolTable
 70
36
  0
LAYER
  5
10
100
AcDbSymbolTableRecord
100
AcDbLayerTableRecord
  2
0
 70
0
 62
7
  6
CONTINUOUS
370
-3
390
F
  0
LAYER
  5
1FA
100
AcDbSymbolTableRecord
100
AcDbLayerTableRecord
  2
DEFAULT_1
 70
0
 62
7
  6
CENTER
370
-3
390
F
  0
LAYER
  5
1FB
100
AcDbSymbolTableRecord
100
AcDbLayerTableRecord
  2
DEFAULT_2
 70
0
 62
7
  6
HIDDEN
370
-3
390
F
  0
LAYER
  5
1FC
100
AcDbSymbolTableRecord
100
AcDbLayerTableRecord
  2
DEFAULT_3
 70
0
 62
7
  6
PHANTOM
370
-3
390
F
  0
LAYER
  5
1FD
100
AcDbSymbolTableRecord
100
AcDbLayerTableRecord
  2
00_COMPONENTS
 70
0
 62
7
  6
CONTINUOUS
370
-3
390
F
  0
LAYER
  5
1FE
100
AcDbSymbolTableRecord
100
AcDbLayerTableRecord
  2
00_COMPONENTS_1
 70
0
 62
7
  6
CONTINUOUS
370
-3
390
F
  0
LAYER
  5
1FF
100
AcDbSymbolTableRecord
100
AcDbLayerTableRecord
  2
01_1_DEFAULT_DATUMS
 70
0
 62
7
  6
CONTINUOUS
370
-3
390
F
  0
LAYER
  5
200
100
AcDbSymbolTableRecord
100
AcDbLayerTableRecord
  2
01_PLANES
 70
0
 62
7
  6
CONTINUOUS
370
-3
390
F
  0
LAYER
  5
201
100
AcDbSymbolTableRecord
100
AcDbLayerTableRecord
  2
02_COORD_SYS
 70
0
 62
7
  6
CONTINUOUS
370
-3
390
F
  0
LAYER
  5
202
100
AcDbSymbolTableRecord
100
AcDbLayerTableRecord
  2
03_AXES
 70
0
 62
7
  6
CONTINUOUS
370
-3
390
F
  0
LAYER
  5
203
100
AcDbSymbolTableRecord
100
AcDbLayerTableRecord
  2
03_AXES_1
 70
0
 62
7
  6
CONTINUOUS
370
-3
390
F
  0
LAYER
  5
204
100
AcDbSymbolTableRecord
100
AcDbLayerTableRecord
  2
04_POINTS
 70
0
 62
7
  6
CONTINUOUS
370
-3
390
F
  0
LAYER
  5
205
100
AcDbSymbolTableRecord
100
AcDbLayerTableRecord
  2
05_CURVES
 70
0
 62
7
  6
CONTINUOUS
370
-3
390
F
  0
LAYER
  5
206
100
AcDbSymbolTableRecord
100
AcDbLayerTableRecord
  2
06_SURFS
 70
0
 62
7
  6
CONTINUOUS
370
-3
390
F
  0
LAYER
  5
207
100
AcDbSymbolTableRecord
100
AcDbLayerTableRecord
  2
07_COSMETICS
 70
0
 62
7
  6
CONTINUOUS
370
-3
390
F
  0
LAYER
  5
208
100
AcDbSymbolTableRecord
100
AcDbLayerTableRecord
  2
10_NOTES
 70
0
 62
7
  6
CONTINUOUS
370
-3
390
F
  0
LAYER
  5
209
100
AcDbSymbolTableRecord
100
AcDbLayerTableRecord
  2
11_NOTES_PUB
 70
0
 62
7
  6
CONTINUOUS
370
-3
390
F
  0
LAYER
  5
20A
100
AcDbSymbolTableRecord
100
AcDbLayerTableRecord
  2
13_REF_GTOL
 70
0
 62
7
  6
CONTINUOUS
370
-3
390
F
  0
LAYER
  5
20B
100
AcDbSymbolTableRecord
100
AcDbLayerTableRecord
  2
16_MISC
 70
0
 62
7
  6
CONTINUOUS
370
-3
390
F
  0
LAYER
  5
20C
100
AcDbSymbolTableRecord
100
AcDbLayerTableRecord
  2
17_NO_PRINT
 70
0
 62
7
  6
CONTINUOUS
370
-3
390
F
  0
LAYER
  5
20D
100
AcDbSymbolTableRecord
100
AcDbLayerTableRecord
  2
18_DATUM_CAMS_JOINTS
 70
0
 62
7
  6
CONTINUOUS
370
-3
390
F
  0
LAYER
  5
20E
100
AcDbSymbolTableRecord
100
AcDbLayerTableRecord
  2
19_DATUM_FUNCTIONAL
 70
0
 62
7
  6
CONTINUOUS
370
-3
390
F
  0
LAYER
  5
20F
100
AcDbSymbolTableRecord
100
AcDbLayerTableRecord
  2
20_DATUM_KINEMATIC_SCHEME
 70
0
 62
7
  6
CONTINUOUS
370
-3
390
F
  0
LAYER
  5
210
100
AcDbSymbolTableRecord
100
AcDbLayerTableRecord
  2
INTFCLR_31
 70
0
 62
7
  6
CONTINUOUS
370
-3
390
F
  0
LAYER
  5
211
100
AcDbSymbolTableRecord
100
AcDbLayerTableRecord
  2
INTFCLR_71
 70
0
 62
7
  6
CONTINUOUS
370
-3
390
F
  0
LAYER
  5
212
100
AcDbSymbolTableRecord
100
AcDbLayerTableRecord
  2
INTF_BLANK
 70
0
 62
7
  6
CONTINUOUS
370
-3
390
F
  0
LAYER
  5
213
100
AcDbSymbolTableRecord
100
AcDbLayerTableRecord
  2
_BLACK_HOLE
 70
0
 62
7
  6
CONTINUOUS
370
-3
390
F
  0
ENDTAB
  0
TABLE
  2
STYLE
  5
3
100
AcDbSymbolTable
 70
1
  0
STYLE
  5
11
100
AcDbSymbolTableRecord
100
AcDbTextStyleTableRecord
  2
STANDARD
 70
0
 40
0.0
 41
1.0
 50
0.0
 71
0
 42
0.2
  3
ARIAL.TTF
  4

  0
STYLE
  5
214
100
AcDbSymbolTableRecord
100
AcDbTextStyleTableRecord
  2
TEXTSTYLE_1
 70
0
 40
0.0
 41
0.8
 50
0.0
 71
0
 42
0.2
  3
gdt
  4

  0
ENDTAB
  0
TABLE
  2
VIEW
  5
6
100
AcDbSymbolTable
 70
0
  0
ENDTAB
  0
TABLE
  2
UCS
  5
7
100
AcDbSymbolTable
 70
0
  0
ENDTAB
  0
TABLE
  2
APPID
  5
9
100
AcDbSymbolTable
 70
1
  0
APPID
  5
215
100
AcDbSymbolTableRecord
100
AcDbRegAppTableRecord
  2
ACAD
 70
0
  0
ENDTAB
  0
TABLE
  2
BLOCK_RECORD
  5
1
100
AcDbSymbolTable
 70
0
  0
BLOCK_RECORD
  5
216
100
AcDbSymbolTableRecord
100
AcDbBlockTableRecord
  2
*Model_Space
  0
BLOCK_RECORD
  5
217
100
AcDbSymbolTableRecord
100
AcDbBlockTableRecord
  2
*Paper_Space
  0
BLOCK_RECORD
  5
218
100
AcDbSymbolTableRecord
100
AcDbBlockTableRecord
  2
_FILLED
  0
ENDTAB
  0
TABLE
  2
DIMSTYLE
  5
A
100
AcDbSymbolTable
 70
1
100
AcDbDimStyleTable
 71
0
  0
DIMSTYLE
105
219
100
AcDbSymbolTableRecord
100
AcDbDimStyleTableRecord
  2
STANDARD
 70
0
  3

  4

 40
1.0
 41
0.6068033274
 42
1.0
 43
0.38
 44
1.0
 45
0.0
 46
0.0
 47
0.01
 48
0.01
140
0.8495246583
141
0.09
142
0.0
143
25.4
144
1.0
145
0.0
146
1.0
147
0.625
 71
1
 72
0
 73
0
 74
0
 75
0
 76
0
 77
1
 78
8
 79
2
170
0
171
1
172
0
173
0
174
0
175
0
176
0
177
0
178
0
270
2
179
2
271
2
272
2
273
2
274
2
275
0
280
0
281
0
282
0
283
1
284
8
285
0
286
0
287
3
288
0
340
11
278
46
341
218
342
218
343
218
344
218
  0
ENDTAB
  0
ENDSEC
  0
SECTION
  2
BLOCKS
  0
BLOCK
  5
20
100
AcDbEntity
  8
0
100
AcDbBlockBegin
  2
*Model_Space
 70
0
 10
0.0
 20
0.0
 30
0.0
  3
*Model_Space
  1

  0
ENDBLK
  5
21
100
AcDbEntity
  8
0
100
AcDbBlockEnd
  0
BLOCK
  5
1C
100
AcDbEntity
  8
0
100
AcDbBlockBegin
  2
*Paper_Space
 70
0
 10
0.0
 20
0.0
 30
0.0
  3
*Paper_Space
  1

  0
ENDBLK
  5
1D
100
AcDbEntity
  8
0
100
AcDbBlockEnd
  0
BLOCK
  5
21A
100
AcDbEntity
  8
0
100
AcDbBlockBegin
  2
_FILLED
 70
64
 10
0.0
 20
0.0
  3
_FILLED
  1

  0
SOLID
  5
21B
100
AcDbEntity
  8
0
  6
BYBLOCK
 62
0
100
AcDbTrace
 10
0.0
 20
0.0
 11
-1.0
 21
0.25
 12
-1.0
 22
-0.25
 13
-1.0
 23
-0.25
  0
ENDBLK
  5
21C
100
AcDbEntity
  8
0
  6
BYBLOCK
 62
0
100
AcDbBlockEnd
  0
ENDSEC
  0
SECTION
  2
ENTITIES
  0
LINE
  5
21D
100
AcDbEntity
  8
00_COMPONENTS_1
100
AcDbLine
 62
7
  6
BYLAYER
 10
42.7416221034
 20
12.6323529412
 11
14.4416221034
 21
12.6323529412
  0
LINE
  5
21E
100
AcDbEntity
  8
00_COMPONENTS_1
100
AcDbLine
 62
7
  6
BYLAYER
 10
7.3416221034
 20
39.1323529412
 11
7.3416221034
 21
32.6323529412
  0
LINE
  5
21F
100
AcDbEntity
  8
00_COMPONENTS_1
100
AcDbLine
 62
7
  6
BYLAYER
 10
7.7416221034
 20
52.1323529412
 11
7.7416221034
 21
20.1323529412
  0
LINE
  5
220
100
AcDbEntity
  8
00_COMPONENTS_1
100
AcDbLine
 62
7
  6
BYLAYER
 10
42.7416221034
 20
15.9823529412
 11
45.9416308288
 21
15.9823529412
  0
LINE
  5
221
100
AcDbEntity
  8
00_COMPONENTS_1
100
AcDbLine
 62
7
  6
BYLAYER
 10
7.9416221034
 20
58.5323529412
 11
7.9416221034
 21
52.1323529412
  0
LINE
  5
222
100
AcDbEntity
  8
00_COMPONENTS_1
100
AcDbLine
 62
7
  6
BYLAYER
 10
11.7416221034
 20
52.1323529412
 11
11.7416221034
 21
58.5323529412
  0
LINE
  5
223
100
AcDbEntity
  8
00_COMPONENTS_1
100
AcDbLine
 62
7
  6
BYLAYER
 10
14.4416221034
 20
20.1323529412
 11
7.7416221034
 21
20.1323529412
  0
LINE
  5
224
100
AcDbEntity
  8
00_COMPONENTS_1
100
AcDbLine
 62
7
420
15788975
  6
BYLAYER
 10
45.9243299769
 20
22.6323529412
 11
45.640301566
 21
22.6323529412
  0
LINE
  5
225
100
AcDbEntity
  8
00_COMPONENTS_1
100
AcDbLine
 62
7
420
15788975
  6
BYLAYER
 10
45.2810360767
 20
22.6323529412
 11
44.4223625749
 21
22.6323529412
  0
LINE
  5
226
100
AcDbEntity
  8
00_COMPONENTS_1
100
AcDbLine
 62
7
  6
BYLAYER
 10
14.4416221034
 20
20.1323529412
 11
14.4416221034
 21
12.6323529412
  0
LINE
  5
227
100
AcDbEntity
  8
00_COMPONENTS_1
100
AcDbLine
 62
7
  6
BYLAYER
 10
14.4416221034
 20
52.1323529412
 11
14.4416221034
 21
59.6323529412
  0
LINE
  5
228
100
AcDbEntity
  8
00_COMPONENTS_1
100
AcDbLine
 62
7
  6
BYLAYER
 10
45.9416125663
 20
32.0323529412
 11
45.5888662276
 21
32.0323529412
  0
LINE
  5
229
100
AcDbEntity
  8
00_COMPONENTS_1
100
AcDbLine
 62
7
  6
BYLAYER
 10
45.5888662276
 20
32.1323529412
 11
46.4416221034
 21
32.1323529412
  0
LINE
  5
22A
100
AcDbEntity
  8
00_COMPONENTS_1
100
AcDbLine
 62
7
  6
BYLAYER
 10
7.7416221034
 20
46.4048950052
 11
5.9416221034
 21
47.9152743413
  0
LINE
  5
22B
100
AcDbEntity
  8
00_COMPONENTS_1
100
AcDbLine
 62
7
  6
BYLAYER
 10
7.3416221034
 20
32.6323529412
 11
7.7416221034
 21
32.6323529412
  0
LINE
  5
22C
100
AcDbEntity
  8
00_COMPONENTS_1
100
AcDbLine
 62
7
  6
BYLAYER
 10
7.3416221034
 20
39.1323529412
 11
7.7416221034
 21
39.1323529412
  0
LINE
  5
22D
100
AcDbEntity
  8
00_COMPONENTS_1
100
AcDbLine
 62
7
  6
BYLAYER
 10
46.4416221034
 20
40.1323529412
 11
45.5888662276
 21
40.1323529412
  0
LINE
  5
22E
100
AcDbEntity
  8
00_COMPONENTS_1
100
AcDbLine
 62
7
  6
BYLAYER
 10
45.5888662276
 20
40.2323529412
 11
45.9416125663
 21
40.2323529412
  0
LINE
  5
22F
100
AcDbEntity
  8
00_COMPONENTS_1
100
AcDbLine
 62
7
420
15788975
  6
BYLAYER
 10
44.4223625749
 20
49.6323529412
 11
45.2810360767
 21
49.6323529412
  0
LINE
  5
230
100
AcDbEntity
  8
00_COMPONENTS_1
100
AcDbLine
 62
7
420
15788975
  6
BYLAYER
 10
45.640301566
 20
49.6323529412
 11
45.9243299769
 21
49.6323529412
  0
LINE
  5
231
100
AcDbEntity
  8
00_COMPONENTS_1
100
AcDbLine
 62
7
  6
BYLAYER
 10
42.7416221034
 20
12.6323529412
 11
42.7416221034
 21
15.9823529412
  0
LINE
  5
232
100
AcDbEntity
  8
00_COMPONENTS_1
100
AcDbLine
 62
7
  6
BYLAYER
 10
42.7416221034
 20
56.2823529412
 11
42.7416221034
 21
59.6323529412
  0
LINE
  5
233
100
AcDbEntity
  8
00_COMPONENTS_1
100
AcDbLine
 62
7
  6
BYLAYER
 10
14.4416221034
 20
52.1323529412
 11
7.7416221034
 21
52.1323529412
  0
LINE
  5
234
100
AcDbEntity
  8
00_COMPONENTS_1
100
AcDbLine
 62
7
  6
BYLAYER
 10
43.9416221034
 20
15.9823529412
 11
43.9416221034
 21
56.2823529412
  0
LINE
  5
235
100
AcDbEntity
  8
00_COMPONENTS_1
100
AcDbLine
 62
7
  6
BYLAYER
 10
11.7416221034
 20
53.0323529412
 11
7.9416221034
 21
53.0323529412
  0
LINE
  5
236
100
AcDbEntity
  8
00_COMPONENTS_1
100
AcDbLine
 62
7
  6
BYLAYER
 10
7.9416221034
 20
54.0323529412
 11
11.7416221034
 21
54.0323529412
  0
LINE
  5
237
100
AcDbEntity
  8
00_COMPONENTS_1
100
AcDbLine
 62
7
  6
BYLAYER
 10
45.5888662276
 20
40.2323529412
 11
45.5888662276
 21
32.0323529412
  0
LINE
  5
238
100
AcDbEntity
  8
00_COMPONENTS_1
100
AcDbLine
 62
7
  6
BYLAYER
 10
45.941632568
 20
15.9823529412
 11
45.941632568
 21
32.0323529412
  0
LINE
  5
239
100
AcDbEntity
  8
00_COMPONENTS_1
100
AcDbLine
 62
7
  6
BYLAYER
 10
45.941632568
 20
40.2323529412
 11
45.941632568
 21
56.2823529412
  0
LINE
  5
23A
100
AcDbEntity
  8
00_COMPONENTS_1
100
AcDbLine
 62
7
  6
BYLAYER
 10
46.4416221034
 20
32.1323529412
 11
46.4416221034
 21
40.1323529412
  0
LINE
  5
23B
100
AcDbEntity
  8
00_COMPONENTS_1
100
AcDbLine
 62
7
  6
BYLAYER
 10
42.7416221034
 20
56.2823529412
 11
45.9416308288
 21
56.2823529412
  0
LINE
  5
23C
100
AcDbEntity
  8
00_COMPONENTS_1
100
AcDbLine
 62
7
  6
BYLAYER
 10
11.7416221034
 20
58.5323529412
 11
7.9416221034
 21
58.5323529412
  0
LINE
  5
23D
100
AcDbEntity
  8
00_COMPONENTS_1
100
AcDbLine
 62
7
  6
BYLAYER
 10
42.7416221034
 20
59.6323529412
 11
14.4416221034
 21
59.6323529412
  0
ARC
  5
23E
100
AcDbEntity
  8
00_COMPONENTS_1
100
AcDbCircle
 62
7
  6
BYLAYER
 10
10.7416221034
 20
43.5323529412
 40
6.5
100
AcDbArc
 50
117.5442137697
 51
137.6005266356
  0
SPLINE
  5
23F
100
AcDbEntity
  8
00_COMPONENTS_1
100
AcDbSpline
 62
7
  6
BYLAYER
 70
0
 71
3
 72
25
 73
21
 74
0
 42
0.0000001
 43
0.0000001
 44
0.0000000001
 40
0.0
 40
0.0
 40
0.0
 40
0.0
 40
0.0024763002
 40
0.0043386912
 40
0.0067144847
 40
0.0131084262
 40
0.0217675175
 40
0.0327202026
 40
0.0459609181
 40
0.0791921736
 40
0.1211993297
 40
0.1716051227
 40
0.2299273387
 40
0.2956327799
 40
0.3680872645
 40
0.4466221777
 40
0.5304678029
 40
0.6188195738
 40
0.8057029145
 40
1.0
 40
1.0
 40
1.0
 40
1.0
 10
45.8259331244
 20
19.3823529587
 30
0.0
 10
45.8232377735
 20
19.3823533672
 30
0.0
 10
45.8189208679
 20
19.3856369733
 30
0.0
 10
45.8148648122
 20
19.3915475501
 30
0.0
 10
45.8094673255
 20
19.4018870312
 30
0.0
 10
45.8031286126
 20
19.4197845138
 30
0.0
 10
45.7957195073
 20
19.4471271512
 30
0.0
 10
45.7881698373
 20
19.4820883126
 30
0.0
 10
45.7770265852
 20
19.5435999143
 30
0.0
 10
45.7634575531
 20
19.6389725683
 30
0.0
 10
45.7478979383
 20
19.7748504538
 30
0.0
 10
45.7324418933
 20
19.9381991434
 30
0.0
 10
45.7173492123
 20
20.1274668844
 30
0.0
 10
45.7029229153
 20
20.340847013
 30
0.0
 10
45.6894217647
 20
20.5763272863
 30
0.0
 10
45.6771285889
 20
20.8316429773
 30
0.0
 10
45.6662602444
 20
21.1043412676
 30
0.0
 10
45.6537495176
 20
21.494988973
 30
0.0
 10
45.6431467196
 20
22.0059640405
 30
0.0
 10
45.640301566
 20
22.4208685609
 30
0.0
 10
45.640301566
 20
22.6323529412
 30
0.0
  0
SPLINE
  5
240
100
AcDbEntity
  8
00_COMPONENTS_1
100
AcDbSpline
 62
7
  6
BYLAYER
 70
0
 71
3
 72
23
 73
19
 74
0
 42
0.0000001
 43
0.0000001
 44
0.0000000001
 40
0.0
 40
0.0
 40
0.0
 40
0.0
 40
0.0064201935
 40
0.0136755312
 40
0.0223072365
 40
0.0326339342
 40
0.0448346452
 40
0.0590010811
 40
0.0933466565
 40
0.1357378559
 40
0.1859747021
 40
0.2436961658
 40
0.3084616857
 40
0.3797133964
 40
0.4568484044
 40
0.6258506195
 40
0.8092646972
 40
1.0
 40
1.0
 40
1.0
 40
1.0
 10
44.8963371598
 20
19.3823530268
 30
0.0
 10
44.8891878154
 20
19.3823537816
 30
0.0
 10
44.8738738095
 20
19.385403741
 30
0.0
 10
44.8521283094
 20
19.3980166145
 30
0.0
 10
44.8307296384
 20
19.4181230721
 30
0.0
 10
44.8094570181
 20
19.4456598892
 30
0.0
 10
44.7882253127
 20
19.4806439217
 30
0.0
 10
44.758029289
 20
19.5411963421
 30
0.0
 10
44.7217423007
 20
19.6359067188
 30
0.0
 10
44.681205843
 20
19.7714343125
 30
0.0
 10
44.6419306847
 20
19.9342571657
 30
0.0
 10
44.6044120226
 20
20.1229412906
 30
0.0
 10
44.5692147774
 20
20.3358248114
 30
0.0
 10
44.5367921961
 20
20.5709850852
 30
0.0
 10
44.4967319304
 20
20.9221687941
 30
0.0
 10
44.4575253387
 20
21.39902535
 30
0.0
 10
44.4288380253
 20
22.0032805285
 30
0.0
 10
44.4223625749
 20
22.4199555464
 30
0.0
 10
44.4223625749
 20
22.6323529412
 30
0.0
  0
SPLINE
  5
241
100
AcDbEntity
  8
00_COMPONENTS_1
100
AcDbSpline
 62
7
  6
BYLAYER
 70
0
 71
3
 72
25
 73
21
 74
0
 42
0.0000001
 43
0.0000001
 44
0.0000000001
 40
0.0
 40
0.0
 40
0.0
 40
0.0
 40
0.002476304
 40
0.0043386994
 40
0.0067144973
 40
0.0131084432
 40
0.0217675264
 40
0.0327201855
 40
0.0459608716
 40
0.079192076
 40
0.1211992005
 40
0.1716049714
 40
0.229927201
 40
0.295632683
 40
0.3680871952
 40
0.4466220997
 40
0.530467705
 40
0.6188194801
 40
0.8057028811
 40
1.0
 40
1.0
 40
1.0
 40
1.0
 10
45.8259331346
 20
46.3823529591
 30
0.0
 10
45.8232377797
 20
46.3823533711
 30
0.0
 10
45.8189208753
 20
46.3856369975
 30
0.0
 10
45.8148648174
 20
46.3915475869
 30
0.0
 10
45.8094673273
 20
46.4018870833
 30
0.0
 10
45.8031286093
 20
46.4197845638
 30
0.0
 10
45.7957195013
 20
46.4471271672
 30
0.0
 10
45.7881698326
 20
46.482088258
 30
0.0
 10
45.7770265972
 20
46.543599745
 30
0.0
 10
45.7634575959
 20
46.63897228
 30
0.0
 10
45.7478980216
 20
46.7748500548
 30
0.0
 10
45.7324420003
 20
46.9381987023
 30
0.0
 10
45.717349319
 20
47.1274664778
 30
0.0
 10
45.7029229825
 20
47.3408466925
 30
0.0
 10
45.6894217847
 20
47.5763270275
 30
0.0
 10
45.6771285845
 20
47.8316427157
 30
0.0
 10
45.6662602356
 20
48.1043409785
 30
0.0
 10
45.653749513
 20
48.4949887313
 30
0.0
 10
45.643146716
 20
49.0059639039
 30
0.0
 10
45.640301566
 20
49.4208685251
 30
0.0
 10
45.640301566
 20
49.6323529412
 30
0.0
  0
SPLINE
  5
242
100
AcDbEntity
  8
00_COMPONENTS_1
100
AcDbSpline
 62
7
  6
BYLAYER
 70
0
 71
3
 72
23
 73
19
 74
0
 42
0.0000001
 43
0.0000001
 44
0.0000000001
 40
0.0
 40
0.0
 40
0.0
 40
0.0
 40
0.0064201941
 40
0.0136755391
 40
0.0223072507
 40
0.032633944
 40
0.0448346337
 40
0.059001044
 40
0.093346571
 40
0.1357377337
 40
0.1859745555
 40
0.2436960352
 40
0.3084616061
 40
0.3797133518
 40
0.4568483492
 40
0.6258505392
 40
0.8092646677
 40
1.0
 40
1.0
 40
1.0
 40
1.0
 10
44.8963371928
 20
46.3823530277
 30
0.0
 10
44.8891878478
 20
46.3823537859
 30
0.0
 10
44.8738738363
 20
46.3854037697
 30
0.0
 10
44.8521283371
 20
46.3980166711
 30
0.0
 10
44.8307296575
 20
46.418123132
 30
0.0
 10
44.8094570281
 20
46.4456599133
 30
0.0
 10
44.7882253104
 20
46.4806438718
 30
0.0
 10
44.7580293053
 20
46.5411961837
 30
0.0
 10
44.721742371
 20
46.6359064505
 30
0.0
 10
44.6812060234
 20
46.7714339495
 30
0.0
 10
44.6419309578
 20
46.934256772
 30
0.0
 10
44.6044123107
 20
47.1229409461
 30
0.0
 10
44.569214945
 20
47.3358245602
 30
0.0
 10
44.5367922148
 20
47.5709848977
 30
0.0
 10
44.4967318682
 20
47.922168596
 30
0.0
 10
44.4575253334
 20
48.3990251723
 30
0.0
 10
44.4288380077
 20
49.0032804083
 30
0.0
 10
44.4223625749
 20
49.4199555145
 30
0.0
 10
44.4223625749
 20
49.6323529412
 30
0.0
  0
SPLINE
  5
243
100
AcDbEntity
  8
00_COMPONENTS_1
100
AcDbSpline
 62
7
  6
BYLAYER
 70
0
 71
3
 72
25
 73
21
 74
0
 42
0.0000001
 43
0.0000001
 44
0.0000000001
 40
0.0
 40
0.0
 40
0.0
 40
0.0
 40
0.1943067596
 40
0.3811935624
 40
0.4695420817
 40
0.5533839774
 40
0.6319152297
 40
0.704366924
 40
0.7700702204
 40
0.828391571
 40
0.8787980365
 40
0.920805219
 40
0.9540379345
 40
0.9672790278
 40
0.9782315302
 40
0.9868908787
 40
0.9932853039
 40
0.9956612979
 40
0.9975238003
 40
1.0
 40
1.0
 40
1.0
 40
1.0
 10
45.640301566
 20
22.6323529412
 30
0.0
 10
45.640301566
 20
22.8438478768
 30
0.0
 10
45.6431479256
 20
23.2587667373
 30
0.0
 10
45.653750495
 20
23.7697526291
 30
0.0
 10
45.6662614288
 20
24.1603965439
 30
0.0
 10
45.6771295282
 20
24.4330832843
 30
0.0
 10
45.6894224356
 20
24.6883879238
 30
0.0
 10
45.7029225898
 20
24.9238589083
 30
0.0
 10
45.7173479186
 20
25.1372328027
 30
0.0
 10
45.7324405144
 20
25.3264980195
 30
0.0
 10
45.7478961728
 20
25.4898465848
 30
0.0
 10
45.7634562486
 20
25.6257268005
 30
0.0
 10
45.7770251605
 20
25.7211015222
 30
0.0
 10
45.788168359
 20
25.7826149807
 30
0.0
 10
45.7957183455
 20
25.8175765776
 30
0.0
 10
45.8031276523
 20
25.8449198067
 30
0.0
 10
45.8094664414
 20
25.8628182984
 30
0.0
 10
45.8148641509
 20
25.8731587156
 30
0.0
 10
45.8189200029
 20
25.8790695227
 30
0.0
 10
45.8232374277
 20
25.8823533574
 30
0.0
 10
45.8259326695
 20
25.8823529212
 30
0.0
  0
SPLINE
  5
244
100
AcDbEntity
  8
00_COMPONENTS_1
100
AcDbSpline
 62
7
  6
BYLAYER
 70
0
 71
3
 72
23
 73
19
 74
0
 42
0.0000001
 43
0.0000001
 44
0.0000000001
 40
0.0
 40
0.0
 40
0.0
 40
0.0
 40
0.1907466734
 40
0.3741629224
 40
0.5431571188
 40
0.6202874884
 40
0.6915359462
 40
0.756299001
 40
0.8140196044
 40
0.8642577881
 40
0.9066488876
 40
0.9409968888
 40
0.9551638298
 40
0.967364157
 40
0.9776913604
 40
0.9863239161
 40
0.9935797668
 40
1.0
 40
1.0
 40
1.0
 40
1.0
 10
44.4223625749
 20
22.6323529412
 30
0.0
 10
44.4223625749
 20
22.8447630172
 30
0.0
 10
44.4288409107
 20
23.2614531047
 30
0.0
 10
44.4575267905
 20
23.8657145499
 30
0.0
 10
44.4967347287
 20
24.342559362
 30
0.0
 10
44.5367943632
 20
24.6937253185
 30
0.0
 10
44.5692126726
 20
24.928874525
 30
0.0
 10
44.604405592
 20
25.141751397
 30
0.0
 10
44.6419241004
 20
25.3304332778
 30
0.0
 10
44.6811969718
 20
25.4932571935
 30
0.0
 10
44.7217368715
 20
25.6287880065
 30
0.0
 10
44.7580222709
 20
25.7235022393
 30
0.0
 10
44.7882181289
 20
25.7840580437
 30
0.0
 10
44.8094519149
 20
25.8190416404
 30
0.0
 10
44.8307247924
 20
25.8465795103
 30
0.0
 10
44.8521235714
 20
25.8666887472
 30
0.0
 10
44.8738693499
 20
25.8793044893
 30
0.0
 10
44.8891846737
 20
25.8823536796
 30
0.0
 10
44.8963340629
 20
25.882352835
 30
0.0
  0
SPLINE
  5
245
100
AcDbEntity
  8
00_COMPONENTS_1
100
AcDbSpline
 62
7
  6
BYLAYER
 70
0
 71
3
 72
25
 73
21
 74
0
 42
0.0000001
 43
0.0000001
 44
0.0000000001
 40
0.0
 40
0.0
 40
0.0
 40
0.0
 40
0.1943067043
 40
0.3811935429
 40
0.4695421261
 40
0.5533840912
 40
0.6319154053
 40
0.7043670962
 40
0.7700703522
 40
0.8283916661
 40
0.87879809
 40
0.920805264
 40
0.9540379666
 40
0.9672790645
 40
0.9782315797
 40
0.9868909226
 40
0.9932853302
 40
0.9956613143
 40
0.9975238081
 40
1.0
 40
1.0
 40
1.0
 40
1.0
 10
45.640301566
 20
49.6323529412
 30
0.0
 10
45.640301566
 20
49.8438478174
 30
0.0
 10
45.6431479169
 20
50.2587666586
 30
0.0
 10
45.6537505184
 20
50.7697526002
 30
0.0
 10
45.6662614556
 20
51.1603967008
 30
0.0
 10
45.6771295607
 20
51.4330836546
 30
0.0
 10
45.6894224479
 20
51.6883884354
 30
0.0
 10
45.7029225827
 20
51.9238594416
 30
0.0
 10
45.7173479076
 20
52.1372332494
 30
0.0
 10
45.732440502
 20
52.3264983375
 30
0.0
 10
45.7478961847
 20
52.4898468063
 30
0.0
 10
45.763456274
 20
52.6257269519
 30
0.0
 10
45.7770252015
 20
52.7211016535
 30
0.0
 10
45.7881684065
 20
52.7826151158
 30
0.0
 10
45.7957183852
 20
52.8175767279
 30
0.0
 10
45.8031276847
 20
52.8449199469
 30
0.0
 10
45.8094664655
 20
52.862818405
 30
0.0
 10
45.8148641677
 20
52.8731587805
 30
0.0
 10
45.8189200154
 20
52.8790695597
 30
0.0
 10
45.823237436
 20
52.8823533606
 30
0.0
 10
45.8259326693
 20
52.882352921
 30
0.0
  0
SPLINE
  5
246
100
AcDbEntity
  8
00_COMPONENTS_1
100
AcDbSpline
 62
7
  6
BYLAYER
 70
0
 71
3
 72
23
 73
19
 74
0
 42
0.0000001
 43
0.0000001
 44
0.0000000001
 40
0.0
 40
0.0
 40
0.0
 40
0.0
 40
0.1907466168
 40
0.3741629016
 40
0.5431572342
 40
0.6202876656
 40
0.6915361125
 40
0.7562991219
 40
0.8140196882
 40
0.8642578382
 40
0.9066489359
 40
0.9409969298
 40
0.9551638758
 40
0.9673642113
 40
0.977691405
 40
0.9863239421
 40
0.9935797757
 40
1.0
 40
1.0
 40
1.0
 40
1.0
 10
44.4223625749
 20
49.6323529412
 30
0.0
 10
44.4223625749
 20
49.8447629551
 30
0.0
 10
44.4288409065
 20
50.2614530215
 30
0.0
 10
44.4575268302
 20
50.8657145973
 30
0.0
 10
44.4967348451
 20
51.3425596654
 30
0.0
 10
44.5367944278
 20
51.6937258385
 30
0.0
 10
44.5692126589
 20
51.9288750633
 30
0.0
 10
44.6044055269
 20
52.1417518398
 30
0.0
 10
44.6419240392
 20
52.3304335903
 30
0.0
 10
44.6811970044
 20
52.4932574009
 30
0.0
 10
44.7217369472
 20
52.6287881517
 30
0.0
 10
44.7580223917
 20
52.7235023623
 30
0.0
 10
44.788218251
 20
52.7840581721
 30
0.0
 10
44.8094520038
 20
52.8190417939
 30
0.0
 10
44.8307248619
 20
52.8465796522
 30
0.0
 10
44.8521236182
 20
52.8666888426
 30
0.0
 10
44.8738693773
 20
52.8793045208
 30
0.0
 10
44.8891846741
 20
52.8823536828
 30
0.0
 10
44.8963340535
 20
52.8823528346
 30
0.0
  0
SPLINE
  5
247
100
AcDbEntity
  8
00_COMPONENTS_1
100
AcDbSpline
 62
7
  6
BYLAYER
 70
0
 71
3
 72
26
 73
22
 74
0
 42
0.0000001
 43
0.0000001
 44
0.0000000001
 40
0.0
 40
0.0
 40
0.0
 40
0.0
 40
0.0024225371
 40
0.0042401945
 40
0.0065677821
 40
0.0128630322
 40
0.0214260326
 40
0.0322880885
 40
0.0454454228
 40
0.0608722631
 40
0.0785375366
 40
0.1204437799
 40
0.1707907367
 40
0.2290950831
 40
0.2948204678
 40
0.3673269106
 40
0.4459390282
 40
0.5298805051
 40
0.6183403318
 40
0.8054598984
 40
1.0
 40
1.0
 40
1.0
 40
1.0
 10
45.8259326695
 20
25.8823529212
 30
0.0
 10
45.8285649226
 20
25.8823524951
 30
0.0
 10
45.8327767361
 20
25.8790816373
 30
0.0
 10
45.836502364
 20
25.8731520928
 30
0.0
 10
45.8413592512
 20
25.8628012378
 30
0.0
 10
45.8467355699
 20
25.8448952734
 30
0.0
 10
45.8526998357
 20
25.8175714114
 30
0.0
 10
45.8584123502
 20
25.7826227144
 30
0.0
 10
45.8639211781
 20
25.7401118241
 30
0.0
 10
45.8691807031
 20
25.6901310243
 30
0.0
 10
45.8762627239
 20
25.6089452966
 30
0.0
 10
45.8840988048
 20
25.4897570337
 30
0.0
 10
45.8920564459
 20
25.3263556268
 30
0.0
 10
45.898996968
 20
25.137006812
 30
0.0
 10
45.9049435387
 20
24.9235377093
 30
0.0
 10
45.9099581442
 20
24.6879738991
 30
0.0
 10
45.9140979986
 20
24.4325977321
 30
0.0
 10
45.9174390273
 20
24.1598742927
 30
0.0
 10
45.9209926344
 20
23.769245816
 30
0.0
 10
45.9236608547
 20
23.2584338563
 30
0.0
 10
45.9243299769
 20
22.8437341364
 30
0.0
 10
45.9243299769
 20
22.6323529412
 30
0.0
  0
SPLINE
  5
248
100
AcDbEntity
  8
00_COMPONENTS_1
100
AcDbSpline
 62
7
  6
BYLAYER
 70
0
 71
3
 72
24
 73
20
 74
0
 42
0.0000001
 43
0.0000001
 44
0.0000000001
 40
0.0
 40
0.0
 40
0.0
 40
0.0
 40
0.1913653365
 40
0.3753851034
 40
0.4623633216
 40
0.5449004372
 40
0.6222171015
 40
0.6935794169
 40
0.7583650969
 40
0.8160018996
 40
0.866043332
 40
0.9081266326
 40
0.9420714491
 40
0.9560119252
 40
0.9679789599
 40
0.9780785886
 40
0.9865094218
 40
0.9936219797
 40
1.0
 40
1.0
 40
1.0
 40
1.0
 10
45.2810360767
 20
22.6323529412
 30
0.0
 10
45.2810360767
 20
22.4202606482
 30
0.0
 10
45.2768110432
 20
22.0042059166
 30
0.0
 10
45.2607178845
 20
21.4919668539
 30
0.0
 10
45.2409152431
 20
21.1006299345
 30
0.0
 10
45.2232056603
 20
20.8276266129
 30
0.0
 10
45.2024528783
 20
20.5721954924
 30
0.0
 10
45.1787257522
 20
20.3367858579
 30
0.0
 10
45.1521962851
 20
20.1236311861
 30
0.0
 10
45.1229841311
 20
19.9347011156
 30
0.0
 10
45.0913670055
 20
19.7716931165
 30
0.0
 10
45.0575383528
 20
19.6360627849
 30
0.0
 10
45.0261194816
 20
19.5412166885
 30
0.0
 10
44.9990884616
 20
19.480574658
 30
0.0
 10
44.9797288294
 20
19.445603061
 30
0.0
 10
44.959937532
 20
19.4180717084
 30
0.0
 10
44.939604518
 20
19.3979488591
 30
0.0
 10
44.9184614913
 20
19.3853286285
 30
0.0
 10
44.9034059893
 20
19.3823522804
 30
0.0
 10
44.8963371598
 20
19.3823530268
 30
0.0
  0
SPLINE
  5
249
100
AcDbEntity
  8
00_COMPONENTS_1
100
AcDbSpline
 62
7
  6
BYLAYER
 70
0
 71
3
 72
24
 73
20
 74
0
 42
0.0000001
 43
0.0000001
 44
0.0000000001
 40
0.0
 40
0.0
 40
0.0
 40
0.0
 40
0.0063780477
 40
0.0134903839
 40
0.0219206732
 40
0.0320200159
 40
0.0439875662
 40
0.0579277615
 40
0.0918707227
 40
0.1339546183
 40
0.183995367
 40
0.241633345
 40
0.3064215573
 40
0.3777869057
 40
0.4551076215
 40
0.5376483654
 40
0.6246297544
 40
0.8086459812
 40
1.0
 40
1.0
 40
1.0
 40
1.0
 10
44.8963340629
 20
25.882352835
 30
0.0
 10
44.9034029239
 20
25.8823519998
 30
0.0
 10
44.9184574537
 20
25.8793745974
 30
0.0
 10
44.9396010182
 20
25.8667572084
 30
0.0
 10
44.9599350805
 20
25.8466368794
 30
0.0
 10
44.9797267953
 20
25.8191060752
 30
0.0
 10
44.999083875
 20
25.7841331125
 30
0.0
 10
45.0261151654
 20
25.723493321
 30
0.0
 10
45.05753634
 20
25.6286496169
 30
0.0
 10
45.0913610415
 20
25.493020472
 30
0.0
 10
45.1229814
 20
25.3300119361
 30
0.0
 10
45.1521938258
 20
25.1410784257
 30
0.0
 10
45.1787256299
 20
24.9279165174
 30
0.0
 10
45.2024553967
 20
24.6924963792
 30
0.0
 10
45.223208293
 20
24.4370533083
 30
0.0
 10
45.2409177637
 20
24.1640378877
 30
0.0
 10
45.2607195002
 20
23.7726972498
 30
0.0
 10
45.2768127058
 20
23.2604710682
 30
0.0
 10
45.2810360767
 20
22.8444327232
 30
0.0
 10
45.2810360767
 20
22.6323529412
 30
0.0
  0
SPLINE
  5
24A
100
AcDbEntity
  8
00_COMPONENTS_1
100
AcDbSpline
 62
7
  6
BYLAYER
 70
0
 71
3
 72
26
 73
22
 74
0
 42
0.0000001
 43
0.0000001
 44
0.0000000001
 40
0.0
 40
0.0
 40
0.0
 40
0.0
 40
0.1945497056
 40
0.3816732089
 40
0.4701300771
 40
0.5540680575
 40
0.6326767564
 40
0.7051804723
 40
0.7709036425
 40
0.8292069882
 40
0.8795543539
 40
0.9214604632
 40
0.9391263171
 40
0.9545538155
 40
0.967711451
 40
0.9785732953
 40
0.9871364896
 40
0.9934321291
 40
0.9957598659
 40
0.997577588
 40
1.0
 40
1.0
 40
1.0
 40
1.0
 10
45.9243299769
 20
49.6323529412
 30
0.0
 10
45.9243299769
 20
49.4209612976
 30
0.0
 10
45.9236607216
 20
49.0062468393
 30
0.0
 10
45.9209922045
 20
48.4954233513
 30
0.0
 10
45.9174384842
 20
48.104797588
 30
0.0
 10
45.9140975158
 20
47.8320848603
 30
0.0
 10
45.9099578483
 20
47.5767191529
 30
0.0
 10
45.9049435693
 20
47.3411644077
 30
0.0
 10
45.8989971796
 20
47.1277017439
 30
0.0
 10
45.8920567382
 20
46.9383559709
 30
0.0
 10
45.8840998889
 20
46.7749552982
 30
0.0
 10
45.8762630847
 20
46.6557661467
 30
0.0
 10
45.86918123
 20
46.5745791959
 30
0.0
 10
45.8639217669
 20
46.524596707
 30
0.0
 10
45.8584130136
 20
46.4820849752
 30
0.0
 10
45.8526998755
 20
46.4471360705
 30
0.0
 10
45.8467355953
 20
46.4198117972
 30
0.0
 10
45.841359595
 20
46.4019049538
 30
0.0
 10
45.836502802
 20
46.3915532744
 30
0.0
 10
45.83277758
 20
46.3856235096
 30
0.0
 10
45.828565252
 20
46.3823525568
 30
0.0
 10
45.8259331346
 20
46.3823529591
 30
0.0
  0
SPLINE
  5
24B
100
AcDbEntity
  8
00_COMPONENTS_1
100
AcDbSpline
 62
7
  6
BYLAYER
 70
0
 71
3
 72
24
 73
20
 74
0
 42
0.0000001
 43
0.0000001
 44
0.0000000001
 40
0.0
 40
0.0
 40
0.0
 40
0.0
 40
0.0063780458
 40
0.013490385
 40
0.0219206769
 40
0.0320200133
 40
0.0439875422
 40
0.0579277123
 40
0.0918706258
 40
0.1339544866
 40
0.1839952097
 40
0.2416332011
 40
0.3064214589
 40
0.3777868389
 40
0.4551075469
 40
0.5376482711
 40
0.6246296638
 40
0.8086459486
 40
1.0
 40
1.0
 40
1.0
 40
1.0
 10
44.8963340535
 20
52.8823528346
 30
0.0
 10
44.9034029123
 20
52.882351996
 30
0.0
 10
44.9184574406
 20
52.87937457
 30
0.0
 10
44.9396009883
 20
52.8667571494
 30
0.0
 10
44.9599350417
 20
52.8466368161
 30
0.0
 10
44.9797267578
 20
52.8191060495
 30
0.0
 10
44.9990838612
 20
52.7841331677
 30
0.0
 10
45.0261151598
 20
52.7234934936
 30
0.0
 10
45.0575363173
 20
52.6286499082
 30
0.0
 10
45.0913609129
 20
52.4930208607
 30
0.0
 10
45.122981164
 20
52.3300123595
 30
0.0
 10
45.1521935667
 20
52.1410788116
 30
0.0
 10
45.1787255148
 20
51.9279168234
 30
0.0
 10
45.2024554412
 20
51.692496626
 30
0.0
 10
45.2232083647
 20
51.4370535547
 30
0.0
 10
45.2409177841
 20
51.1640381601
 30
0.0
 10
45.2607194809
 20
50.7726974781
 30
0.0
 10
45.2768127236
 20
50.2604711986
 30
0.0
 10
45.2810360767
 20
49.8444327571
 30
0.0
 10
45.2810360767
 20
49.6323529412
 30
0.0
  0
SPLINE
  5
24C
100
AcDbEntity
  8
00_COMPONENTS_1
100
AcDbSpline
 62
7
  6
BYLAYER
 70
0
 71
3
 72
24
 73
20
 74
0
 42
0.0000001
 43
0.0000001
 44
0.0000000001
 40
0.0
 40
0.0
 40
0.0
 40
0.0
 40
0.1913652819
 40
0.3753850849
 40
0.4623633662
 40
0.5449005502
 40
0.6222172756
 40
0.693579584
 40
0.7583652235
 40
0.8160019909
 40
0.8660433874
 40
0.9081266864
 40
0.9420714956
 40
0.9560119765
 40
0.9679790184
 40
0.9780786358
 40
0.9865094487
 40
0.9936219888
 40
1.0
 40
1.0
 40
1.0
 40
1.0
 10
45.2810360767
 20
49.6323529412
 30
0.0
 10
45.2810360767
 20
49.4202607089
 30
0.0
 10
45.2768110463
 20
49.0042059983
 30
0.0
 10
45.2607178724
 20
48.4919668873
 30
0.0
 10
45.2409151898
 20
48.1006297846
 30
0.0
 10
45.223205557
 20
47.827626253
 30
0.0
 10
45.2024528011
 20
47.5721949949
 30
0.0
 10
45.1787257584
 20
47.3367853372
 30
0.0
 10
45.1521963665
 20
47.1236307489
 30
0.0
 10
45.1229842154
 20
46.9347008017
 30
0.0
 10
45.0913669803
 20
46.7716929063
 30
0.0
 10
45.0575382781
 20
46.6360626379
 30
0.0
 10
45.0261193402
 20
46.5412165695
 30
0.0
 10
44.9990883245
 20
46.4805745342
 30
0.0
 10
44.979728747
 20
46.4456029063
 30
0.0
 10
44.9599374794
 20
46.4180715636
 30
0.0
 10
44.9396044925
 20
46.3979487614
 30
0.0
 10
44.9184614859
 20
46.3853285977
 30
0.0
 10
44.9034060123
 20
46.3823522781
 30
0.0
 10
44.8963371928
 20
46.3823530277
 30
0.0
  0
SPLINE
  5
24D
100
AcDbEntity
  8
00_COMPONENTS_1
100
AcDbSpline
 62
7
  6
BYLAYER
 70
0
 71
3
 72
26
 73
22
 74
0
 42
0.0000001
 43
0.0000001
 44
0.0000000001
 40
0.0
 40
0.0
 40
0.0
 40
0.0
 40
0.1945497608
 40
0.3816732287
 40
0.470130034
 40
0.5540679461
 40
0.6326765836
 40
0.7051803018
 40
0.7709035111
 40
0.8292068928
 40
0.879554301
 40
0.9214604189
 40
0.9391262811
 40
0.954553785
 40
0.9677114161
 40
0.9785732478
 40
0.9871364479
 40
0.9934321049
 40
0.9957598513
 40
0.9975775815
 40
1.0
 40
1.0
 40
1.0
 40
1.0
 10
45.9243299769
 20
22.6323529412
 30
0.0
 10
45.9243299769
 20
22.4209612387
 30
0.0
 10
45.923660722
 20
22.0062467608
 30
0.0
 10
45.9209922023
 20
21.4954233221
 30
0.0
 10
45.9174384998
 20
21.1047977416
 30
0.0
 10
45.9140975489
 20
20.8320852245
 30
0.0
 10
45.9099578769
 20
20.5767196568
 30
0.0
 10
45.9049435659
 20
20.341164935
 30
0.0
 10
45.8989971444
 20
20.1277021889
 30
0.0
 10
45.8920567052
 20
19.9383562893
 30
0.0
 10
45.8840999043
 20
19.7749555202
 30
0.0
 10
45.8762631134
 20
19.6557663037
 30
0.0
 10
45.8691812721
 20
19.5745793277
 30
0.0
 10
45.8639218125
 20
19.5245968285
 30
0.0
 10
45.8584130569
 20
19.4820851095
 30
0.0
 10
45.8526998919
 20
19.4471362217
 30
0.0
 10
45.8467355994
 20
19.419811939
 30
0.0
 10
45.8413595937
 20
19.401905062
 30
0.0
 10
45.8365027985
 20
19.3915533401
 30
0.0
 10
45.8327775778
 20
19.3856235479
 30
0.0
 10
45.8285652487
 20
19.3823525597
 30
0.0
 10
45.8259331244
 20
19.3823529587
 30
0.0
  0
SPLINE
  5
24E
100
AcDbEntity
  8
00_COMPONENTS_1
100
AcDbSpline
 62
7
  6
BYLAYER
 70
0
 71
3
 72
26
 73
22
 74
0
 42
0.0000001
 43
0.0000001
 44
0.0000000001
 40
0.0
 40
0.0
 40
0.0
 40
0.0
 40
0.0024225389
 40
0.0042401997
 40
0.0065677909
 40
0.0128630445
 40
0.0214260362
 40
0.0322880664
 40
0.0454453715
 40
0.0608721842
 40
0.0785374342
 40
0.1204436466
 40
0.170790581
 40
0.22909494
 40
0.2948203636
 40
0.367326833
 40
0.4459389429
 40
0.5298804015
 40
0.6183402339
 40
0.8054598635
 40
1.0
 40
1.0
 40
1.0
 40
1.0
 10
45.8259326693
 20
52.882352921
 30
0.0
 10
45.8285649243
 20
52.8823524916
 30
0.0
 10
45.8327767325
 20
52.8790816123
 30
0.0
 10
45.8365023543
 20
52.8731520555
 30
0.0
 10
45.8413592356
 20
52.8628011845
 30
0.0
 10
45.8467355505
 20
52.8448952223
 30
0.0
 10
45.8526998185
 20
52.8175713952
 30
0.0
 10
45.8584123472
 20
52.782622771
 30
0.0
 10
45.8639211812
 20
52.7401119719
 30
0.0
 10
45.8691807093
 20
52.6901312603
 30
0.0
 10
45.8762627278
 20
52.6089456221
 30
0.0
 10
45.884098777
 20
52.4897574414
 30
0.0
 10
45.8920563799
 20
52.3263560781
 30
0.0
 10
45.8989968937
 20
52.1370072327
 30
0.0
 10
45.9049435174
 20
51.9235380478
 30
0.0
 10
45.9099581764
 20
51.6879741773
 30
0.0
 10
45.9140980299
 20
51.4325980111
 30
0.0
 10
45.9174390314
 20
51.1598745951
 30
0.0
 10
45.9209926222
 20
50.7692460658
 30
0.0
 10
45.9236608613
 20
50.2584339968
 30
0.0
 10
45.9243299769
 20
49.8437341729
 30
0.0
 10
45.9243299769
 20
49.6323529412
 30
0.0
  0
ENDSEC
  0
SECTION
  2
OBJECTS
  0
DICTIONARY
  5
C
100
AcDbDictionary
280
0
281
1
  3
ACAD_GROUP
350
D
  3
ACAD_MLINESTYLE
350
17
  3
ACAD_LAYOUT
350
1A
  3
ACAD_PLOTSETTINGS
350
19
  3
ACAD_PLOTSTYLENAME
350
E
  0
DICTIONARY
  5
D
102
{ACAD_REACTORS
330
C
102
}
100
AcDbDictionary
280
0
281
1
  0
ACDBDICTIONARYWDFLT
  5
E
102
{ACAD_REACTORS
330
C
102
}
100
AcDbDictionary
281
1
  3
Normal
350
F
100
AcDbDictionaryWithDefault
340
F
  0
DICTIONARY
  5
17
102
{ACAD_REACTORS
330
C
102
}
100
AcDbDictionary
280
0
281
1
  3
Standard
350
18
  0
DICTIONARY
  5
19
102
{ACAD_REACTORS
330
C
102
}
100
AcDbDictionary
281
1
  0
DICTIONARY
  5
1A
102
{ACAD_REACTORS
330
C
102
}
100
AcDbDictionary
281
1
  3
Model
350
24F
  3
Layout1
350
250
  0
ACDBPLACEHOLDER
  5
F
102
{ACAD_REACTORS
330
E
102
}
  0
MLINESTYLE
  5
18
102
{ACAD_REACTORS
330
17
102
}
100
AcDbMlineStyle
  2
STANDARD
 70
0
  3

 62
256
 51
90.0
 52
90.0
 71
2
 49
0.5
 62
256
  6
BYLAYER
 49
-0.5
 62
256
  6
BYLAYER
  0
LAYOUT
  5
24F
102
{ACAD_REACTORS
330
1A
102
}
100
AcDbPlotSettings
  1

  2
none_device
  4

  6

 40
0.0
 41
0.0
 42
0.0
 43
0.0
 44
210.0
 45
297.0
 46
0.0
 47
0.0
 48
0.0
 49
0.0
140
0.0
141
0.0
142
1.0
143
1.0
 70
1024
 72
1
 73
0
 74
0
  7

 75
0
147
1.0
148
0.0
149
0.0
100
AcDbLayout
  1
Model
 70
0
 71
0
 10
0.0
 20
0.0
 11
210.0
 21
297.0
 12
0.0
 22
0.0
 32
0.0
 14
0.0
 24
0.0
 34
0.0
 15
0.0
 25
0.0
 35
0.0
146
0.0
 13
0.0
 23
0.0
 33
0.0
 16
1.0
 26
0.0
 36
0.0
 17
0.0
 27
1.0
 37
0.0
 76
0
330
216
345
0
346
0
  0
LAYOUT
  5
250
102
{ACAD_REACTORS
330
1A
102
}
100
AcDbPlotSettings
  1

  2
none_device
  4

  6

 40
0.0
 41
0.0
 42
0.0
 43
0.0
 44
210.0
 45
297.0
 46
0.0
 47
0.0
 48
0.0
 49
0.0
140
0.0
141
0.0
142
1.0
143
1.0
 70
0
 72
1
 73
0
 74
0
  7

 75
0
147
1.0
148
0.0
149
0.0
100
AcDbLayout
  1
Layout1
 70
0
 71
1
 10
0.0
 20
0.0
 11
210.0
 21
297.0
 12
0.0
 22
0.0
 32
0.0
 14
0.0
 24
0.0
 34
0.0
 15
0.0
 25
0.0
 35
0.0
146
0.0
 13
0.0
 23
0.0
 33
0.0
 16
1.0
 26
0.0
 36
0.0
 17
0.0
 27
1.0
 37
0.0
 76
0
330
217
345
0
346
0
  0
ENDSEC
  0
EOF
