999
DXF file: C:\Users\sesa63760\Dev\_Creo\CAD\MCADID0000513_3D-CAD\drw0001_6.dxf
999
Pro/ENGINEER 2019471 by Parametric Technology Corporation
  0
SECTION
  2
HEADER
  9
$ACADVER
  1
AC1024
  9
$DWGCODEPAGE
  3
ANSI_1252
  9
$EXTMAX
 10
138.0664415415
 20
195.2653958944
 30
0.0
  9
$EXTMIN
 10
0.0
 20
0.0
 30
0.0
  9
$LIMMIN
 10
0.0
 20
0.0
  9
$LIMMAX
 10
138.0664415415
 20
195.2653958944
  9
$VIEWCTR
 10
69.0332207708
 20
97.6326979472
  9
$VIEWSIZE
 40
195.2653958944
  9
$CLAYER
  8
0
  9
$LTSCALE
 40
12.7284109916
  9
$CELTYPE
  6
BYLAYER
  9
$DIMSCALE
 40
1.0
  9
$DIMASZ
 40
1.6436481136
  9
$DIMEXO
 40
1.0
  9
$DIMDLI
 40
8.7941748669
  9
$DIMEXE
 40
1.0
  9
$DIMCEN
 40
2.0828308895
  9
$DIMLFAC
 40
1.0
  9
$DIMBLK
  1
_FILLED
  9
$DIMALT
 70
0
  9
$DIMALTF
 40
0.0393700787
  9
$DIMTXT
 40
2.301107359
  9
$DIMTOL
 70
1
  9
$DIMLIM
 70
0
  9
$DIMTFAC
 40
1.0
  9
$DIMTP
 40
0.01
  9
$DIMTM
 40
0.01
  9
$DIMGAP
 40
0.625
  9
$DIMDSEP
 70
46
  9
$AUNITS
 70
0
  9
$PDMODE
 70
3
  9
$PDSIZE
 40
0.3125
  9
$HANDSEED
  5
819
  9
$TILEMODE
 70
1
  9
$MEASUREMENT
 70
1
  9
$INSUNITS
 70
4
  0
ENDSEC
  0
SECTION
  2
CLASSES
  0
CLASS
  1
ACDBDICTIONARYWDFLT
  2
AcDbDictionaryWithDefault
  3
AutoCAD 2000
 90
0
 91
1
280
0
281
0
  0
CLASS
  1
ACDBPLACEHOLDER
  2
AcDbPlaceHolder
  3
AutoCAD 2000
 90
0
 91
1
280
0
281
0
  0
CLASS
  1
LAYOUT
  2
AcDbLayout
  3
AutoCAD 2000
 90
0
 91
0
280
0
281
0
  0
ENDSEC
  0
SECTION
  2
TABLES
  0
TABLE
  2
VPORT
  5
8
100
AcDbSymbolTable
 70
2
  0
VPORT
  5
1F4
100
AcDbSymbolTableRecord
100
AcDbViewportTableRecord
  2
*ACTIVE
 70
0
 10
0.0
 20
0.0
 11
1.0
 21
1.0
 12
69.0332207708
 22
97.6326979472
 13
0.0
 23
0.0
 14
1.0
 24
1.0
 15
0.0
 25
0.0
 16
0.0
 26
0.0
 36
1.0
 17
0.0
 27
0.0
 37
0.0
 40
195.2653958944
 41
0.7070707071
 42
50.0
 43
0.0
 44
0.0
 50
0.0
 51
0.0
 71
0
 72
100
 73
1
 74
1
 75
0
 76
0
 77
0
 78
0
  0
ENDTAB
  0
TABLE
  2
LTYPE
  5
5
100
AcDbSymbolTable
 70
6
  0
LTYPE
  5
14
100
AcDbSymbolTableRecord
100
AcDbLinetypeTableRecord
  2
BYBLOCK
 70
0
  3

 72
65
 73
0
 40
0.0
  0
LTYPE
  5
15
100
AcDbSymbolTableRecord
100
AcDbLinetypeTableRecord
  2
BYLAYER
 70
0
  3

 72
65
 73
0
 40
0.0
  0
LTYPE
  5
16
100
AcDbSymbolTableRecord
100
AcDbLinetypeTableRecord
  2
CONTINUOUS
 70
64
  3
Solid line
 72
65
 73
0
 40
0.0
  0
LTYPE
  5
1F5
100
AcDbSymbolTableRecord
100
AcDbLinetypeTableRecord
  2
CENTER
 70
64
  3
____ _ ____ _ ____ _ ____ _ ____ _ ____ _ ____
 72
65
 73
4
 40
0.6
 49
0.375
 74
0
 49
-0.075
 74
0
 49
0.075
 74
0
 49
-0.075
 74
0
  0
LTYPE
  5
1F6
100
AcDbSymbolTableRecord
100
AcDbLinetypeTableRecord
  2
HIDDEN
 70
64
  3
- - - - - - - - - - - - - - - - - - - -
 72
65
 73
2
 40
0.2
 49
0.1
 74
0
 49
-0.1
 74
0
  0
LTYPE
  5
1F7
100
AcDbSymbolTableRecord
100
AcDbLinetypeTableRecord
  2
PHANTOM
 70
64
  3
_____ _ _ _____ _ _ _____ _ _ _____
 72
65
 73
6
 40
0.8
 49
0.45
 74
0
 49
-0.05
 74
0
 49
0.1
 74
0
 49
-0.05
 74
0
 49
0.1
 74
0
 49
-0.05
 74
0
  0
LTYPE
  5
1F8
100
AcDbSymbolTableRecord
100
AcDbLinetypeTableRecord
  2
DOT
 70
64
  3
. . . . . . . . . . . . . . . . . . . .
 72
65
 73
2
 40
0.2
 49
0.1
 74
0
 49
-0.1
 74
0
  0
LTYPE
  5
1F9
100
AcDbSymbolTableRecord
100
AcDbLinetypeTableRecord
  2
DASHED
 70
64
  3
- - - - - - - - - - - - - - - - - - - -
 72
65
 73
2
 40
0.2
 49
0.1
 74
0
 49
-0.1
 74
0
  0
ENDTAB
  0
TABLE
  2
LAYER
  5
2
100
AcDbSymbolTable
 70
36
  0
LAYER
  5
10
100
AcDbSymbolTableRecord
100
AcDbLayerTableRecord
  2
0
 70
0
 62
7
  6
CONTINUOUS
370
-3
390
F
  0
LAYER
  5
1FA
100
AcDbSymbolTableRecord
100
AcDbLayerTableRecord
  2
DEFAULT_1
 70
0
 62
7
  6
CENTER
370
-3
390
F
  0
LAYER
  5
1FB
100
AcDbSymbolTableRecord
100
AcDbLayerTableRecord
  2
DEFAULT_2
 70
0
 62
8
  6
HIDDEN
370
-3
390
F
  0
LAYER
  5
1FC
100
AcDbSymbolTableRecord
100
AcDbLayerTableRecord
  2
DEFAULT_3
 70
0
 62
7
  6
PHANTOM
370
-3
390
F
  0
LAYER
  5
1FD
100
AcDbSymbolTableRecord
100
AcDbLayerTableRecord
  2
00_COMPONENTS
 70
0
 62
7
  6
CONTINUOUS
370
-3
390
F
  0
LAYER
  5
1FE
100
AcDbSymbolTableRecord
100
AcDbLayerTableRecord
  2
01_1_DEFAULT_DATUMS
 70
0
 62
7
  6
CONTINUOUS
370
-3
390
F
  0
LAYER
  5
1FF
100
AcDbSymbolTableRecord
100
AcDbLayerTableRecord
  2
01_PLANES
 70
0
 62
7
  6
CONTINUOUS
370
-3
390
F
  0
LAYER
  5
200
100
AcDbSymbolTableRecord
100
AcDbLayerTableRecord
  2
02_COORD_SYS
 70
0
 62
7
  6
CONTINUOUS
370
-3
390
F
  0
LAYER
  5
201
100
AcDbSymbolTableRecord
100
AcDbLayerTableRecord
  2
03_AXES
 70
0
 62
7
  6
CONTINUOUS
370
-3
390
F
  0
LAYER
  5
202
100
AcDbSymbolTableRecord
100
AcDbLayerTableRecord
  2
04_POINTS
 70
0
 62
7
  6
CONTINUOUS
370
-3
390
F
  0
LAYER
  5
203
100
AcDbSymbolTableRecord
100
AcDbLayerTableRecord
  2
05_CURVES
 70
0
 62
7
  6
CONTINUOUS
370
-3
390
F
  0
LAYER
  5
204
100
AcDbSymbolTableRecord
100
AcDbLayerTableRecord
  2
06_SURFS
 70
0
 62
7
  6
CONTINUOUS
370
-3
390
F
  0
LAYER
  5
205
100
AcDbSymbolTableRecord
100
AcDbLayerTableRecord
  2
07_COSMETICS
 70
0
 62
7
  6
CONTINUOUS
370
-3
390
F
  0
LAYER
  5
206
100
AcDbSymbolTableRecord
100
AcDbLayerTableRecord
  2
10_NOTES
 70
0
 62
7
  6
CONTINUOUS
370
-3
390
F
  0
LAYER
  5
207
100
AcDbSymbolTableRecord
100
AcDbLayerTableRecord
  2
11_NOTES_PUB
 70
0
 62
7
  6
CONTINUOUS
370
-3
390
F
  0
LAYER
  5
208
100
AcDbSymbolTableRecord
100
AcDbLayerTableRecord
  2
13_REF_GTOL
 70
0
 62
7
  6
CONTINUOUS
370
-3
390
F
  0
LAYER
  5
209
100
AcDbSymbolTableRecord
100
AcDbLayerTableRecord
  2
16_MISC
 70
0
 62
7
  6
CONTINUOUS
370
-3
390
F
  0
LAYER
  5
20A
100
AcDbSymbolTableRecord
100
AcDbLayerTableRecord
  2
17_NO_PRINT
 70
0
 62
7
  6
CONTINUOUS
370
-3
390
F
  0
LAYER
  5
20B
100
AcDbSymbolTableRecord
100
AcDbLayerTableRecord
  2
18_DATUM_CAMS_JOINTS
 70
0
 62
7
  6
CONTINUOUS
370
-3
390
F
  0
LAYER
  5
20C
100
AcDbSymbolTableRecord
100
AcDbLayerTableRecord
  2
19_DATUM_FUNCTIONAL
 70
0
 62
7
  6
CONTINUOUS
370
-3
390
F
  0
LAYER
  5
20D
100
AcDbSymbolTableRecord
100
AcDbLayerTableRecord
  2
20_DATUM_KINEMATIC_SCHEME
 70
0
 62
7
  6
CONTINUOUS
370
-3
390
F
  0
ENDTAB
  0
TABLE
  2
STYLE
  5
3
100
AcDbSymbolTable
 70
1
  0
STYLE
  5
11
100
AcDbSymbolTableRecord
100
AcDbTextStyleTableRecord
  2
STANDARD
 70
0
 40
0.0
 41
0.8
 50
0.0
 71
0
 42
0.2
  3
txt
  4

  0
STYLE
  5
20E
100
AcDbSymbolTableRecord
100
AcDbTextStyleTableRecord
  2
TEXTSTYLE_1
 70
0
 40
0.0
 41
0.8
 50
0.0
 71
0
 42
0.2
  3
gdt
  4

  0
ENDTAB
  0
TABLE
  2
VIEW
  5
6
100
AcDbSymbolTable
 70
0
  0
ENDTAB
  0
TABLE
  2
UCS
  5
7
100
AcDbSymbolTable
 70
0
  0
ENDTAB
  0
TABLE
  2
APPID
  5
9
100
AcDbSymbolTable
 70
1
  0
APPID
  5
20F
100
AcDbSymbolTableRecord
100
AcDbRegAppTableRecord
  2
ACAD
 70
0
  0
ENDTAB
  0
TABLE
  2
BLOCK_RECORD
  5
1
100
AcDbSymbolTable
 70
0
  0
BLOCK_RECORD
  5
210
100
AcDbSymbolTableRecord
100
AcDbBlockTableRecord
  2
*Model_Space
  0
BLOCK_RECORD
  5
211
100
AcDbSymbolTableRecord
100
AcDbBlockTableRecord
  2
*Paper_Space
  0
BLOCK_RECORD
  5
212
100
AcDbSymbolTableRecord
100
AcDbBlockTableRecord
  2
_FILLED
  0
ENDTAB
  0
TABLE
  2
DIMSTYLE
  5
A
100
AcDbSymbolTable
 70
1
100
AcDbDimStyleTable
 71
0
  0
DIMSTYLE
105
213
100
AcDbSymbolTableRecord
100
AcDbDimStyleTableRecord
  2
STANDARD
 70
0
  3

  4

 40
1.0
 41
1.6436481136
 42
1.0
 43
0.38
 44
1.0
 45
0.0
 46
0.0
 47
0.01
 48
0.01
140
2.301107359
141
0.09
142
0.0
143
25.4
144
1.0
145
0.0
146
1.0
147
0.625
 71
1
 72
0
 73
0
 74
0
 75
0
 76
0
 77
1
 78
8
 79
2
170
0
171
1
172
0
173
0
174
0
175
0
176
0
177
0
178
0
270
2
179
2
271
2
272
2
273
2
274
2
275
0
280
0
281
0
282
0
283
1
284
8
285
0
286
0
287
3
288
0
340
11
278
46
341
212
342
212
343
212
344
212
  0
ENDTAB
  0
ENDSEC
  0
SECTION
  2
BLOCKS
  0
BLOCK
  5
20
100
AcDbEntity
  8
0
100
AcDbBlockBegin
  2
*Model_Space
 70
0
 10
0.0
 20
0.0
 30
0.0
  3
*Model_Space
  1

  0
ENDBLK
  5
21
100
AcDbEntity
  8
0
100
AcDbBlockEnd
  0
BLOCK
  5
1C
100
AcDbEntity
  8
0
100
AcDbBlockBegin
  2
*Paper_Space
 70
0
 10
0.0
 20
0.0
 30
0.0
  3
*Paper_Space
  1

  0
ENDBLK
  5
1D
100
AcDbEntity
  8
0
100
AcDbBlockEnd
  0
BLOCK
  5
214
100
AcDbEntity
  8
0
100
AcDbBlockBegin
  2
_FILLED
 70
64
 10
0.0
 20
0.0
  3
_FILLED
  1

  0
SOLID
  5
215
100
AcDbEntity
  8
0
  6
BYBLOCK
 62
0
100
AcDbTrace
 10
0.0
 20
0.0
 11
-1.0
 21
0.25
 12
-1.0
 22
-0.25
 13
-1.0
 23
-0.25
  0
ENDBLK
  5
216
100
AcDbEntity
  8
0
  6
BYBLOCK
 62
0
100
AcDbBlockEnd
  0
ENDSEC
  0
SECTION
  2
ENTITIES
  0
LINE
  5
217
100
AcDbEntity
  8
0
100
AcDbLine
 62
7
  6
CONTINUOUS
 10
98.9182346637
 20
16.1326979473
 11
108.4882346631
 21
16.3781971301
  0
LINE
  5
218
100
AcDbEntity
  8
0
100
AcDbLine
 62
7
  6
CONTINUOUS
 10
91.0182346627
 20
20.3794389537
 11
98.9182346624
 21
20.4327253827
  0
LINE
  5
219
100
AcDbEntity
  8
0
100
AcDbLine
 62
7
  6
CONTINUOUS
 10
91.0182346633
 20
16.3917210114
 11
98.9182346637
 21
16.1326979472
  0
LINE
  5
21A
100
AcDbEntity
  8
0
100
AcDbLine
 62
7
  6
CONTINUOUS
 10
98.9182346624
 20
20.4327253813
 11
108.4882346631
 21
20.3781971294
  0
LINE
  5
21B
100
AcDbEntity
  8
0
100
AcDbLine
 62
7
  6
CONTINUOUS
 10
32.5692156206
 20
153.8923979036
 11
39.897953411
 21
157.982965411
  0
LINE
  5
21C
100
AcDbEntity
  8
0
100
AcDbLine
 62
7
  6
CONTINUOUS
 10
32.7808900706
 20
154.7657155718
 11
43.0566055583
 21
160.500666155
  0
LINE
  5
21D
100
AcDbEntity
  8
0
100
AcDbLine
 62
7
  6
CONTINUOUS
 10
91.0182346634
 20
30.9793506792
 11
89.5159252934
 21
30.9793506792
  0
LINE
  5
21E
100
AcDbEntity
  8
0
100
AcDbLine
 62
7
  6
CONTINUOUS
 10
71.3894534676
 20
37.4980314354
 11
72.7682346631
 21
37.5501583318
  0
LINE
  5
21F
100
AcDbEntity
  8
0
100
AcDbLine
 62
7
  6
CONTINUOUS
 10
73.4182346637
 20
33.6326979466
 11
81.9495924196
 21
33.9003538121
  0
LINE
  5
220
100
AcDbEntity
  8
0
100
AcDbLine
 62
7
  6
CONTINUOUS
 10
72.7682346627
 20
33.9326979472
 11
73.4182346631
 21
33.9326979472
  0
LINE
  5
221
100
AcDbEntity
  8
0
100
AcDbLine
 62
7
  6
CONTINUOUS
 10
70.4182346631
 20
34.7654448696
 11
69.4512753831
 21
34.7654448981
  0
LINE
  5
222
100
AcDbEntity
  8
0
100
AcDbLine
 62
7
  6
CONTINUOUS
 10
69.7894350147
 20
34.9326979465
 11
70.4182346631
 21
34.9326979465
  0
LINE
  5
223
100
AcDbEntity
  8
0
100
AcDbLine
 62
7
  6
CONTINUOUS
 10
44.2351939431
 20
35.6136639549
 11
43.2682346637
 21
35.6136639834
  0
LINE
  5
224
100
AcDbEntity
  8
0
100
AcDbLine
 62
7
  6
CONTINUOUS
 10
43.1682346635
 20
37.2326979465
 11
43.2682346631
 21
37.2326979465
  0
LINE
  5
225
100
AcDbEntity
  8
0
100
AcDbLine
 62
7
  6
CONTINUOUS
 10
43.2682346637
 20
37.432697975
 11
68.2982346631
 21
37.4326979465
  0
LINE
  5
226
100
AcDbEntity
  8
0
100
AcDbLine
 62
7
  6
CONTINUOUS
 10
71.3894534675
 20
37.4980314367
 11
70.4182346631
 21
37.4980314367
  0
LINE
  5
227
100
AcDbEntity
  8
0
100
AcDbLine
 62
7
  6
CONTINUOUS
 10
82.9182346631
 20
37.5309425173
 11
81.9495924128
 21
37.5309425179
  0
LINE
  5
228
100
AcDbEntity
  8
0
100
AcDbLine
 62
7
  6
CONTINUOUS
 10
43.2682346631
 20
37.7306561204
 11
43.1682346635
 21
37.7306561204
  0
LINE
  5
229
100
AcDbEntity
  8
0
100
AcDbLine
 62
7
  6
CONTINUOUS
 10
72.7682346627
 20
37.5326979459
 11
81.9495924128
 21
37.5309425181
  0
LINE
  5
22A
100
AcDbEntity
  8
0
100
AcDbLine
 62
7
  6
CONTINUOUS
 10
67.2682346636
 20
33.8422225633
 11
44.2347369561
 21
34.6142251882
  0
LINE
  5
22B
100
AcDbEntity
  8
0
100
AcDbLine
 62
7
  6
CONTINUOUS
 10
44.2351939427
 20
35.6136639535
 11
67.2693921393
 21
34.8416378517
  0
LINE
  5
22C
100
AcDbEntity
  8
0
100
AcDbLine
 62
7
  6
CONTINUOUS
 10
67.2682346636
 20
33.8422225633
 11
72.7682346631
 21
33.6501583319
  0
LINE
  5
22D
100
AcDbEntity
  8
0
100
AcDbLine
 62
7
  6
CONTINUOUS
 10
67.2693921393
 20
34.8416378517
 11
69.4512753823
 21
34.7654448102
  0
LINE
  5
22E
100
AcDbEntity
  8
0
100
AcDbLine
 62
7
  6
CONTINUOUS
 10
43.0682346635
 20
38.99872335
 11
43.1682346635
 21
38.99872335
  0
LINE
  5
22F
100
AcDbEntity
  8
0
100
AcDbLine
 62
7
  6
CONTINUOUS
 10
43.1682346635
 20
39.0657106478
 11
43.0682346638
 21
39.0657106478
  0
LINE
  5
230
100
AcDbEntity
  8
0
100
AcDbLine
 62
7
  6
CONTINUOUS
 10
70.4182346631
 20
39.4820618468
 11
71.3894534675
 21
39.4820618468
  0
LINE
  5
231
100
AcDbEntity
  8
0
100
AcDbLine
 62
7
  6
CONTINUOUS
 10
69.7894350147
 20
39.9326979465
 11
70.3109422858
 21
39.9326979465
  0
LINE
  5
232
100
AcDbEntity
  8
0
100
AcDbLine
 62
7
  6
CONTINUOUS
 10
68.2394534675
 20
41.5211719131
 11
67.2682346631
 21
41.5211719131
  0
LINE
  5
233
100
AcDbEntity
  8
0
100
AcDbLine
 62
7
  6
CONTINUOUS
 10
82.9182346631
 20
41.6176054177
 11
89.5159252934
 21
41.6176054177
  0
LINE
  5
234
100
AcDbEntity
  8
0
100
AcDbLine
 62
7
  6
CONTINUOUS
 10
44.2346139745
 20
41.9284302019
 11
43.2682346631
 21
41.9284288107
  0
LINE
  5
235
100
AcDbEntity
  8
0
100
AcDbLine
 62
7
  6
CONTINUOUS
 10
43.0682346638
 20
42.1996852449
 11
43.1682346635
 21
42.1996852449
  0
LINE
  5
236
100
AcDbEntity
  8
0
100
AcDbLine
 62
7
  6
CONTINUOUS
 10
43.1682346635
 20
43.0657106478
 11
43.0682346638
 21
43.0657106478
  0
LINE
  5
237
100
AcDbEntity
  8
0
100
AcDbLine
 62
7
  6
CONTINUOUS
 10
52.4675036555
 20
44.3128760251
 11
67.2682346631
 21
44.3083655192
  0
LINE
  5
238
100
AcDbEntity
  8
0
100
AcDbLine
 62
7
  6
CONTINUOUS
 10
69.4512753763
 20
40.4815157589
 11
68.0510618843
 21
40.5278049519
  0
LINE
  5
239
100
AcDbEntity
  8
0
100
AcDbLine
 62
7
  6
CONTINUOUS
 10
68.2394534666
 20
41.5211719133
 11
69.4555348918
 21
41.4809697662
  0
LINE
  5
23A
100
AcDbEntity
  8
0
100
AcDbLine
 62
7
  6
CONTINUOUS
 10
49.7682346636
 20
44.4269584967
 11
52.4675036555
 21
44.3326979465
  0
LINE
  5
23B
100
AcDbEntity
  8
0
100
AcDbLine
 62
7
  6
CONTINUOUS
 10
67.1760652066
 20
41.5272652883
 11
67.2682346631
 21
41.5211718211
  0
LINE
  5
23C
100
AcDbEntity
  8
0
100
AcDbLine
 62
7
  6
CONTINUOUS
 10
58.838234663
 20
146.5376983221
 11
59.5182346627
 21
146.7726983215
  0
LINE
  5
23D
100
AcDbEntity
  8
0
100
AcDbLine
 62
7
  6
CONTINUOUS
 10
67.088234663
 20
146.5376983221
 11
67.2682346631
 21
146.5999042044
  0
LINE
  5
23E
100
AcDbEntity
  8
0
100
AcDbLine
 62
7
  6
CONTINUOUS
 10
43.0682346638
 20
46.1996852449
 11
43.1682346635
 21
46.1996852449
  0
LINE
  5
23F
100
AcDbEntity
  8
0
100
AcDbLine
 62
7
  6
CONTINUOUS
 10
43.0682346635
 20
46.266672543
 11
43.1682346635
 21
46.266672543
  0
LINE
  5
240
100
AcDbEntity
  8
0
100
AcDbLine
 62
7
  6
CONTINUOUS
 10
53.2182346635
 20
47.7826983467
 11
67.2682346631
 21
47.7826983467
  0
LINE
  5
241
100
AcDbEntity
  8
0
100
AcDbLine
 62
7
  6
CONTINUOUS
 10
66.4182346631
 20
48.4326983458
 11
62.1182346642
 21
48.4326983458
  0
LINE
  5
242
100
AcDbEntity
  8
0
100
AcDbLine
 62
7
  6
CONTINUOUS
 10
61.4682346638
 20
48.4326983458
 11
60.1682346631
 21
48.4326983458
  0
LINE
  5
243
100
AcDbEntity
  8
0
100
AcDbLine
 62
7
  6
CONTINUOUS
 10
58.1682346631
 20
48.4326983458
 11
53.8682346642
 21
48.4326983458
  0
LINE
  5
244
100
AcDbEntity
  8
0
100
AcDbLine
 62
7
  6
CONTINUOUS
 10
66.8882346625
 20
49.5826983462
 11
66.4182346631
 21
49.5826983462
  0
LINE
  5
245
100
AcDbEntity
  8
0
100
AcDbLine
 62
7
  6
CONTINUOUS
 10
58.6382346625
 20
49.5826983462
 11
58.1682346631
 21
49.5826983462
  0
LINE
  5
246
100
AcDbEntity
  8
0
100
AcDbLine
 62
7
  6
CONTINUOUS
 10
55.7682346633
 20
49.5826983467
 11
56.568234664
 21
49.5826983467
  0
LINE
  5
247
100
AcDbEntity
  8
0
100
AcDbLine
 62
7
  6
CONTINUOUS
 10
64.0182346631
 20
49.5826983467
 11
64.8182346629
 21
49.5826983467
  0
LINE
  5
248
100
AcDbEntity
  8
0
100
AcDbLine
 62
7
  6
CONTINUOUS
 10
64.8182346629
 20
50.3826983467
 11
64.0182346631
 21
50.3826983467
  0
LINE
  5
249
100
AcDbEntity
  8
0
100
AcDbLine
 62
7
  6
CONTINUOUS
 10
56.568234664
 20
50.3826983467
 11
55.7682346633
 21
50.3826983467
  0
LINE
  5
24A
100
AcDbEntity
  8
0
100
AcDbLine
 62
7
  6
CONTINUOUS
 10
58.1682346631
 20
50.382698347
 11
58.6382346635
 21
50.382698347
  0
LINE
  5
24B
100
AcDbEntity
  8
0
100
AcDbLine
 62
7
  6
CONTINUOUS
 10
66.4182346631
 20
50.3826983469
 11
66.8882346621
 21
50.3826983451
  0
LINE
  5
24C
100
AcDbEntity
  8
0
100
AcDbLine
 62
7
  6
CONTINUOUS
 10
59.5182346627
 20
48.4926983464
 11
58.838234663
 21
48.7276983458
  0
LINE
  5
24D
100
AcDbEntity
  8
0
100
AcDbLine
 62
7
  6
CONTINUOUS
 10
67.2682346631
 20
48.6654924636
 11
67.088234663
 21
48.7276983458
  0
LINE
  5
24E
100
AcDbEntity
  8
0
100
AcDbLine
 62
7
  6
CONTINUOUS
 10
58.838234663
 20
143.0376983221
 11
59.5182346627
 21
143.2726983215
  0
LINE
  5
24F
100
AcDbEntity
  8
0
100
AcDbLine
 62
7
  6
CONTINUOUS
 10
67.088234663
 20
143.0376983221
 11
67.2682346631
 21
143.0999042044
  0
LINE
  5
250
100
AcDbEntity
  8
0
100
AcDbLine
 62
7
  6
CONTINUOUS
 10
58.838234663
 20
139.5376983221
 11
59.5182346627
 21
139.7726983215
  0
LINE
  5
251
100
AcDbEntity
  8
0
100
AcDbLine
 62
7
  6
CONTINUOUS
 10
60.1682346631
 20
51.4326983458
 11
61.4682346638
 21
51.4326983458
  0
LINE
  5
252
100
AcDbEntity
  8
0
100
AcDbLine
 62
7
  6
CONTINUOUS
 10
53.8682346642
 20
51.5326983473
 11
58.1682346631
 21
51.5326983473
  0
LINE
  5
253
100
AcDbEntity
  8
0
100
AcDbLine
 62
7
  6
CONTINUOUS
 10
62.1182346624
 20
51.5326983455
 11
66.4182346631
 21
51.5326983455
  0
LINE
  5
254
100
AcDbEntity
  8
0
100
AcDbLine
 62
7
  6
CONTINUOUS
 10
66.4182346631
 20
51.9326983458
 11
62.1182346642
 21
51.9326983458
  0
LINE
  5
255
100
AcDbEntity
  8
0
100
AcDbLine
 62
7
  6
CONTINUOUS
 10
61.4682346638
 20
51.9326983458
 11
60.1682346631
 21
51.9326983458
  0
LINE
  5
256
100
AcDbEntity
  8
0
100
AcDbLine
 62
7
  6
CONTINUOUS
 10
58.1682346631
 20
51.9326983458
 11
53.8682346642
 21
51.9326983458
  0
LINE
  5
257
100
AcDbEntity
  8
0
100
AcDbLine
 62
7
  6
CONTINUOUS
 10
66.8882346625
 20
53.0826983462
 11
66.4182346631
 21
53.0826983462
  0
LINE
  5
258
100
AcDbEntity
  8
0
100
AcDbLine
 62
7
  6
CONTINUOUS
 10
58.6382346625
 20
53.0826983462
 11
58.1682346631
 21
53.0826983462
  0
LINE
  5
259
100
AcDbEntity
  8
0
100
AcDbLine
 62
7
  6
CONTINUOUS
 10
55.7682346633
 20
53.0826983467
 11
56.568234664
 21
53.0826983467
  0
LINE
  5
25A
100
AcDbEntity
  8
0
100
AcDbLine
 62
7
  6
CONTINUOUS
 10
64.0182346631
 20
53.0826983467
 11
64.8182346629
 21
53.0826983467
  0
LINE
  5
25B
100
AcDbEntity
  8
0
100
AcDbLine
 62
7
  6
CONTINUOUS
 10
64.8182346629
 20
53.8826983467
 11
64.0182346631
 21
53.8826983467
  0
LINE
  5
25C
100
AcDbEntity
  8
0
100
AcDbLine
 62
7
  6
CONTINUOUS
 10
56.568234664
 20
53.8826983467
 11
55.7682346633
 21
53.8826983467
  0
LINE
  5
25D
100
AcDbEntity
  8
0
100
AcDbLine
 62
7
  6
CONTINUOUS
 10
58.1682346631
 20
53.882698347
 11
58.6382346635
 21
53.882698347
  0
LINE
  5
25E
100
AcDbEntity
  8
0
100
AcDbLine
 62
7
  6
CONTINUOUS
 10
66.4182346631
 20
53.8826983469
 11
66.8882346621
 21
53.8826983451
  0
LINE
  5
25F
100
AcDbEntity
  8
0
100
AcDbLine
 62
7
  6
CONTINUOUS
 10
60.1682346631
 20
54.9326983458
 11
61.4682346638
 21
54.9326983458
  0
LINE
  5
260
100
AcDbEntity
  8
0
100
AcDbLine
 62
7
  6
CONTINUOUS
 10
53.8682346642
 20
55.0326983473
 11
58.1682346631
 21
55.0326983473
  0
LINE
  5
261
100
AcDbEntity
  8
0
100
AcDbLine
 62
7
  6
CONTINUOUS
 10
62.1182346624
 20
55.0326983455
 11
66.4182346631
 21
55.0326983455
  0
LINE
  5
262
100
AcDbEntity
  8
0
100
AcDbLine
 62
7
  6
CONTINUOUS
 10
66.4182346631
 20
55.4326983458
 11
62.1182346642
 21
55.4326983458
  0
LINE
  5
263
100
AcDbEntity
  8
0
100
AcDbLine
 62
7
  6
CONTINUOUS
 10
61.4682346638
 20
55.4326983458
 11
60.1682346631
 21
55.4326983458
  0
LINE
  5
264
100
AcDbEntity
  8
0
100
AcDbLine
 62
7
  6
CONTINUOUS
 10
58.1682346631
 20
55.4326983458
 11
53.8682346642
 21
55.4326983458
  0
LINE
  5
265
100
AcDbEntity
  8
0
100
AcDbLine
 62
7
  6
CONTINUOUS
 10
59.5182346627
 20
51.9926983464
 11
58.838234663
 21
52.2276983458
  0
LINE
  5
266
100
AcDbEntity
  8
0
100
AcDbLine
 62
7
  6
CONTINUOUS
 10
67.2682346631
 20
52.1654924636
 11
67.088234663
 21
52.2276983458
  0
LINE
  5
267
100
AcDbEntity
  8
0
100
AcDbLine
 62
7
  6
CONTINUOUS
 10
59.5182346627
 20
55.4926983464
 11
58.838234663
 21
55.7276983458
  0
LINE
  5
268
100
AcDbEntity
  8
0
100
AcDbLine
 62
7
  6
CONTINUOUS
 10
31.9682346631
 20
135.8832075142
 11
31.9682346631
 21
150.9326979465
  0
LINE
  5
269
100
AcDbEntity
  8
0
100
AcDbLine
 62
7
  6
CONTINUOUS
 10
32.1682346631
 20
124.5326979465
 11
32.1682346631
 21
150.0326979465
  0
LINE
  5
26A
100
AcDbEntity
  8
0
100
AcDbLine
 62
7
  6
CONTINUOUS
 10
32.2682346631
 20
153.892505833
 11
32.2682346631
 21
100.5163516886
  0
LINE
  5
26B
100
AcDbEntity
  8
0
100
AcDbLine
 62
7
  6
CONTINUOUS
 10
32.5692156206
 20
153.8923979036
 11
32.5683852989
 21
100.5163128171
  0
LINE
  5
26C
100
AcDbEntity
  8
0
100
AcDbLine
 62
7
  6
CONTINUOUS
 10
67.088234663
 20
139.5376983221
 11
67.2682346631
 21
139.5999042044
  0
LINE
  5
26D
100
AcDbEntity
  8
0
100
AcDbLine
 62
7
  6
CONTINUOUS
 10
58.838234663
 20
136.0376983221
 11
59.5182346627
 21
136.2726983215
  0
LINE
  5
26E
100
AcDbEntity
  8
0
100
AcDbLine
 62
7
  6
CONTINUOUS
 10
67.088234663
 20
136.0376983221
 11
67.2682346631
 21
136.0999042044
  0
LINE
  5
26F
100
AcDbEntity
  8
0
100
AcDbLine
 62
7
  6
CONTINUOUS
 10
58.838234663
 20
132.5376983221
 11
59.5182346627
 21
132.7726983215
  0
LINE
  5
270
100
AcDbEntity
  8
0
100
AcDbLine
 62
7
  6
CONTINUOUS
 10
66.8882346625
 20
56.5826983462
 11
66.4182346631
 21
56.5826983462
  0
LINE
  5
271
100
AcDbEntity
  8
0
100
AcDbLine
 62
7
  6
CONTINUOUS
 10
58.6382346625
 20
56.5826983462
 11
58.1682346631
 21
56.5826983462
  0
LINE
  5
272
100
AcDbEntity
  8
0
100
AcDbLine
 62
7
  6
CONTINUOUS
 10
55.7682346633
 20
56.5826983467
 11
56.568234664
 21
56.5826983467
  0
LINE
  5
273
100
AcDbEntity
  8
0
100
AcDbLine
 62
7
  6
CONTINUOUS
 10
64.0182346631
 20
56.5826983467
 11
64.8182346629
 21
56.5826983467
  0
LINE
  5
274
100
AcDbEntity
  8
0
100
AcDbLine
 62
7
  6
CONTINUOUS
 10
64.8182346629
 20
57.3826983467
 11
64.0182346631
 21
57.3826983467
  0
LINE
  5
275
100
AcDbEntity
  8
0
100
AcDbLine
 62
7
  6
CONTINUOUS
 10
56.568234664
 20
57.3826983467
 11
55.7682346633
 21
57.3826983467
  0
LINE
  5
276
100
AcDbEntity
  8
0
100
AcDbLine
 62
7
  6
CONTINUOUS
 10
58.1682346631
 20
57.382698347
 11
58.6382346635
 21
57.382698347
  0
LINE
  5
277
100
AcDbEntity
  8
0
100
AcDbLine
 62
7
  6
CONTINUOUS
 10
66.4182346631
 20
57.3826983469
 11
66.8882346621
 21
57.3826983451
  0
LINE
  5
278
100
AcDbEntity
  8
0
100
AcDbLine
 62
7
  6
CONTINUOUS
 10
60.1682346631
 20
58.4326983458
 11
61.4682346638
 21
58.4326983458
  0
LINE
  5
279
100
AcDbEntity
  8
0
100
AcDbLine
 62
7
  6
CONTINUOUS
 10
53.8682346642
 20
58.5326983473
 11
58.1682346631
 21
58.5326983473
  0
LINE
  5
27A
100
AcDbEntity
  8
0
100
AcDbLine
 62
7
  6
CONTINUOUS
 10
62.1182346624
 20
58.5326983455
 11
66.4182346631
 21
58.5326983455
  0
LINE
  5
27B
100
AcDbEntity
  8
0
100
AcDbLine
 62
7
  6
CONTINUOUS
 10
66.4182346631
 20
58.9326983458
 11
62.1182346642
 21
58.9326983458
  0
LINE
  5
27C
100
AcDbEntity
  8
0
100
AcDbLine
 62
7
  6
CONTINUOUS
 10
61.4682346638
 20
58.9326983458
 11
60.1682346631
 21
58.9326983458
  0
LINE
  5
27D
100
AcDbEntity
  8
0
100
AcDbLine
 62
7
  6
CONTINUOUS
 10
58.1682346631
 20
58.9326983458
 11
53.8682346642
 21
58.9326983458
  0
LINE
  5
27E
100
AcDbEntity
  8
0
100
AcDbLine
 62
7
  6
CONTINUOUS
 10
66.8882346625
 20
60.0826983462
 11
66.4182346631
 21
60.0826983462
  0
LINE
  5
27F
100
AcDbEntity
  8
0
100
AcDbLine
 62
7
  6
CONTINUOUS
 10
58.6382346625
 20
60.0826983462
 11
58.1682346631
 21
60.0826983462
  0
LINE
  5
280
100
AcDbEntity
  8
0
100
AcDbLine
 62
7
  6
CONTINUOUS
 10
55.7682346633
 20
60.0826983467
 11
56.568234664
 21
60.0826983467
  0
LINE
  5
281
100
AcDbEntity
  8
0
100
AcDbLine
 62
7
  6
CONTINUOUS
 10
64.0182346631
 20
60.0826983467
 11
64.8182346629
 21
60.0826983467
  0
LINE
  5
282
100
AcDbEntity
  8
0
100
AcDbLine
 62
7
  6
CONTINUOUS
 10
64.8182346629
 20
60.8826983467
 11
64.0182346631
 21
60.8826983467
  0
LINE
  5
283
100
AcDbEntity
  8
0
100
AcDbLine
 62
7
  6
CONTINUOUS
 10
56.568234664
 20
60.8826983467
 11
55.7682346633
 21
60.8826983467
  0
LINE
  5
284
100
AcDbEntity
  8
0
100
AcDbLine
 62
7
  6
CONTINUOUS
 10
58.1682346631
 20
60.882698347
 11
58.6382346635
 21
60.882698347
  0
LINE
  5
285
100
AcDbEntity
  8
0
100
AcDbLine
 62
7
  6
CONTINUOUS
 10
66.4182346631
 20
60.8826983469
 11
66.8882346621
 21
60.8826983451
  0
LINE
  5
286
100
AcDbEntity
  8
0
100
AcDbLine
 62
7
  6
CONTINUOUS
 10
82.9182346631
 20
61.6477904753
 11
89.5159252934
 21
61.6477904753
  0
LINE
  5
287
100
AcDbEntity
  8
0
100
AcDbLine
 62
7
  6
CONTINUOUS
 10
42.9682346631
 20
61.8726979456
 11
43.1682346635
 21
61.8726979456
  0
LINE
  5
288
100
AcDbEntity
  8
0
100
AcDbLine
 62
7
  6
CONTINUOUS
 10
60.1682346631
 20
61.9326983458
 11
61.4682346638
 21
61.9326983458
  0
LINE
  5
289
100
AcDbEntity
  8
0
100
AcDbLine
 62
7
  6
CONTINUOUS
 10
53.8682346642
 20
62.0326983473
 11
58.1682346631
 21
62.0326983473
  0
LINE
  5
28A
100
AcDbEntity
  8
0
100
AcDbLine
 62
7
  6
CONTINUOUS
 10
62.1182346624
 20
62.0326983455
 11
66.4182346631
 21
62.0326983455
  0
LINE
  5
28B
100
AcDbEntity
  8
0
100
AcDbLine
 62
7
  6
CONTINUOUS
 10
43.1682346631
 20
62.3226979456
 11
42.9682346624
 21
62.3226979456
  0
LINE
  5
28C
100
AcDbEntity
  8
0
100
AcDbLine
 62
7
  6
CONTINUOUS
 10
67.2682346631
 20
55.6654924636
 11
67.088234663
 21
55.7276983458
  0
LINE
  5
28D
100
AcDbEntity
  8
0
100
AcDbLine
 62
7
  6
CONTINUOUS
 10
59.5182346627
 20
58.9926983464
 11
58.838234663
 21
59.2276983458
  0
LINE
  5
28E
100
AcDbEntity
  8
0
100
AcDbLine
 62
7
  6
CONTINUOUS
 10
67.2682346631
 20
59.1654924636
 11
67.088234663
 21
59.2276983458
  0
LINE
  5
28F
100
AcDbEntity
  8
0
100
AcDbLine
 62
7
  6
CONTINUOUS
 10
59.5182346627
 20
62.4926983464
 11
58.838234663
 21
62.7276983458
  0
LINE
  5
290
100
AcDbEntity
  8
0
100
AcDbLine
 62
7
  6
CONTINUOUS
 10
39.8979559879
 20
157.8327132539
 11
39.897953411
 21
157.982965411
  0
LINE
  5
291
100
AcDbEntity
  8
0
100
AcDbLine
 62
7
  6
CONTINUOUS
 10
40.5974971915
 20
157.8327232026
 11
40.5974950553
 21
157.982975358
  0
LINE
  5
292
100
AcDbEntity
  8
0
100
AcDbLine
 62
7
  6
CONTINUOUS
 10
67.088234663
 20
132.5376983221
 11
67.2682346631
 21
132.5999042044
  0
LINE
  5
293
100
AcDbEntity
  8
0
100
AcDbLine
 62
7
  6
CONTINUOUS
 10
58.838234663
 20
129.0376983221
 11
59.5182346627
 21
129.2726983215
  0
LINE
  5
294
100
AcDbEntity
  8
0
100
AcDbLine
 62
7
  6
CONTINUOUS
 10
67.088234663
 20
129.0376983221
 11
67.2682346631
 21
129.0999042044
  0
LINE
  5
295
100
AcDbEntity
  8
0
100
AcDbLine
 62
7
  6
CONTINUOUS
 10
66.4182346631
 20
62.4326983458
 11
62.1182346642
 21
62.4326983458
  0
LINE
  5
296
100
AcDbEntity
  8
0
100
AcDbLine
 62
7
  6
CONTINUOUS
 10
61.4682346638
 20
62.4326983458
 11
60.1682346631
 21
62.4326983458
  0
LINE
  5
297
100
AcDbEntity
  8
0
100
AcDbLine
 62
7
  6
CONTINUOUS
 10
58.1682346631
 20
62.4326983458
 11
53.8682346642
 21
62.4326983458
  0
LINE
  5
298
100
AcDbEntity
  8
0
100
AcDbLine
 62
7
  6
CONTINUOUS
 10
66.8882346625
 20
63.5826983462
 11
66.4182346631
 21
63.5826983462
  0
LINE
  5
299
100
AcDbEntity
  8
0
100
AcDbLine
 62
7
  6
CONTINUOUS
 10
58.6382346625
 20
63.5826983462
 11
58.1682346631
 21
63.5826983462
  0
LINE
  5
29A
100
AcDbEntity
  8
0
100
AcDbLine
 62
7
  6
CONTINUOUS
 10
55.7682346633
 20
63.5826983467
 11
56.568234664
 21
63.5826983467
  0
LINE
  5
29B
100
AcDbEntity
  8
0
100
AcDbLine
 62
7
  6
CONTINUOUS
 10
64.0182346631
 20
63.5826983467
 11
64.8182346629
 21
63.5826983467
  0
LINE
  5
29C
100
AcDbEntity
  8
0
100
AcDbLine
 62
7
  6
CONTINUOUS
 10
64.8182346629
 20
64.3826983467
 11
64.0182346631
 21
64.3826983467
  0
LINE
  5
29D
100
AcDbEntity
  8
0
100
AcDbLine
 62
7
  6
CONTINUOUS
 10
56.568234664
 20
64.3826983467
 11
55.7682346633
 21
64.3826983467
  0
LINE
  5
29E
100
AcDbEntity
  8
0
100
AcDbLine
 62
7
  6
CONTINUOUS
 10
58.1682346631
 20
64.382698347
 11
58.6382346635
 21
64.382698347
  0
LINE
  5
29F
100
AcDbEntity
  8
0
100
AcDbLine
 62
7
  6
CONTINUOUS
 10
66.4182346631
 20
64.3826983469
 11
66.8882346621
 21
64.3826983451
  0
LINE
  5
2A0
100
AcDbEntity
  8
0
100
AcDbLine
 62
7
  6
CONTINUOUS
 10
60.1682346631
 20
65.4326983458
 11
61.4682346638
 21
65.4326983458
  0
LINE
  5
2A1
100
AcDbEntity
  8
0
100
AcDbLine
 62
7
  6
CONTINUOUS
 10
53.8682346642
 20
65.5326983473
 11
58.1682346631
 21
65.5326983473
  0
LINE
  5
2A2
100
AcDbEntity
  8
0
100
AcDbLine
 62
7
  6
CONTINUOUS
 10
62.1182346624
 20
65.5326983455
 11
66.4182346631
 21
65.5326983455
  0
LINE
  5
2A3
100
AcDbEntity
  8
0
100
AcDbLine
 62
7
  6
CONTINUOUS
 10
66.4182346631
 20
65.9326983458
 11
62.1182346642
 21
65.9326983458
  0
LINE
  5
2A4
100
AcDbEntity
  8
0
100
AcDbLine
 62
7
  6
CONTINUOUS
 10
61.4682346638
 20
65.9326983458
 11
60.1682346631
 21
65.9326983458
  0
LINE
  5
2A5
100
AcDbEntity
  8
0
100
AcDbLine
 62
7
  6
CONTINUOUS
 10
58.1682346631
 20
65.9326983458
 11
53.8682346642
 21
65.9326983458
  0
LINE
  5
2A6
100
AcDbEntity
  8
0
100
AcDbLine
 62
7
  6
CONTINUOUS
 10
66.8882346625
 20
67.0826983462
 11
66.4182346631
 21
67.0826983462
  0
LINE
  5
2A7
100
AcDbEntity
  8
0
100
AcDbLine
 62
7
  6
CONTINUOUS
 10
58.6382346625
 20
67.0826983462
 11
58.1682346631
 21
67.0826983462
  0
LINE
  5
2A8
100
AcDbEntity
  8
0
100
AcDbLine
 62
7
  6
CONTINUOUS
 10
55.7682346633
 20
67.0826983467
 11
56.568234664
 21
67.0826983467
  0
LINE
  5
2A9
100
AcDbEntity
  8
0
100
AcDbLine
 62
7
  6
CONTINUOUS
 10
64.0182346631
 20
67.0826983467
 11
64.8182346629
 21
67.0826983467
  0
LINE
  5
2AA
100
AcDbEntity
  8
0
100
AcDbLine
 62
7
  6
CONTINUOUS
 10
64.8182346629
 20
67.8826983467
 11
64.0182346631
 21
67.8826983467
  0
LINE
  5
2AB
100
AcDbEntity
  8
0
100
AcDbLine
 62
7
  6
CONTINUOUS
 10
56.568234664
 20
67.8826983467
 11
55.7682346633
 21
67.8826983467
  0
LINE
  5
2AC
100
AcDbEntity
  8
0
100
AcDbLine
 62
7
  6
CONTINUOUS
 10
58.1682346631
 20
67.882698347
 11
58.6382346635
 21
67.882698347
  0
LINE
  5
2AD
100
AcDbEntity
  8
0
100
AcDbLine
 62
7
  6
CONTINUOUS
 10
66.4182346631
 20
67.8826983469
 11
66.8882346621
 21
67.8826983451
  0
LINE
  5
2AE
100
AcDbEntity
  8
0
100
AcDbLine
 62
7
  6
CONTINUOUS
 10
67.2682346631
 20
62.6654924636
 11
67.088234663
 21
62.7276983458
  0
LINE
  5
2AF
100
AcDbEntity
  8
0
100
AcDbLine
 62
7
  6
CONTINUOUS
 10
59.5182346627
 20
65.9926983464
 11
58.838234663
 21
66.2276983458
  0
LINE
  5
2B0
100
AcDbEntity
  8
0
100
AcDbLine
 62
7
  6
CONTINUOUS
 10
67.2682346631
 20
66.1654924636
 11
67.088234663
 21
66.2276983458
  0
LINE
  5
2B1
100
AcDbEntity
  8
0
100
AcDbLine
 62
7
  6
CONTINUOUS
 10
59.5182346627
 20
69.4926983464
 11
58.838234663
 21
69.7276983458
  0
LINE
  5
2B2
100
AcDbEntity
  8
0
100
AcDbLine
 62
7
  6
CONTINUOUS
 10
43.5439098849
 20
159.6275285088
 11
43.5104523719
 21
160.626895208
  0
LINE
  5
2B3
100
AcDbEntity
  8
0
100
AcDbLine
 62
7
  6
CONTINUOUS
 10
42.9682346631
 20
61.8733410558
 11
42.9682346624
 21
93.9261467167
  0
LINE
  5
2B4
100
AcDbEntity
  8
0
100
AcDbLine
 62
7
  6
CONTINUOUS
 10
42.9903409034
 20
153.273160097
 11
42.9910111761
 21
94.6294732968
  0
LINE
  5
2B5
100
AcDbEntity
  8
0
100
AcDbLine
 62
7
  6
CONTINUOUS
 10
43.0682346631
 20
38.9988722156
 11
43.0682346631
 21
46.2665242661
  0
LINE
  5
2B6
100
AcDbEntity
  8
0
100
AcDbLine
 62
7
  6
CONTINUOUS
 10
43.1682346632
 20
93.6839120523
 11
43.1682346632
 21
93.1326979465
  0
LINE
  5
2B7
100
AcDbEntity
  8
0
100
AcDbLine
 62
7
  6
CONTINUOUS
 10
43.1682346631
 20
37.2326979465
 11
43.1682346631
 21
92.2326979465
  0
LINE
  5
2B8
100
AcDbEntity
  8
0
100
AcDbLine
 62
7
  6
CONTINUOUS
 10
43.2682346631
 20
35.6136639818
 11
43.2682346631
 21
93.2228815138
  0
LINE
  5
2B9
100
AcDbEntity
  8
0
100
AcDbLine
 62
7
  6
CONTINUOUS
 10
43.6563590907
 20
153.2731645762
 11
43.6564333503
 21
94.6294733174
  0
LINE
  5
2BA
100
AcDbEntity
  8
0
100
AcDbLine
 62
7
  6
CONTINUOUS
 10
44.2346139745
 20
41.9284286139
 11
44.2346140433
 21
92.1479864803
  0
LINE
  5
2BB
100
AcDbEntity
  8
0
100
AcDbLine
 62
7
  6
CONTINUOUS
 10
44.2351939427
 20
35.6136639535
 11
44.2351896466
 21
41.0080421438
  0
LINE
  5
2BC
100
AcDbEntity
  8
0
100
AcDbLine
 62
7
  6
CONTINUOUS
 10
60.1682346631
 20
68.9326983458
 11
61.4682346638
 21
68.9326983458
  0
LINE
  5
2BD
100
AcDbEntity
  8
0
100
AcDbLine
 62
7
  6
CONTINUOUS
 10
53.8682346642
 20
69.0326983473
 11
58.1682346631
 21
69.0326983473
  0
LINE
  5
2BE
100
AcDbEntity
  8
0
100
AcDbLine
 62
7
  6
CONTINUOUS
 10
62.1182346624
 20
69.0326983455
 11
66.4182346631
 21
69.0326983455
  0
LINE
  5
2BF
100
AcDbEntity
  8
0
100
AcDbLine
 62
7
  6
CONTINUOUS
 10
66.4182346631
 20
69.4326983458
 11
62.1182346642
 21
69.4326983458
  0
LINE
  5
2C0
100
AcDbEntity
  8
0
100
AcDbLine
 62
7
  6
CONTINUOUS
 10
61.4682346638
 20
69.4326983458
 11
60.1682346631
 21
69.4326983458
  0
LINE
  5
2C1
100
AcDbEntity
  8
0
100
AcDbLine
 62
7
  6
CONTINUOUS
 10
58.1682346631
 20
69.4326983458
 11
53.8682346642
 21
69.4326983458
  0
LINE
  5
2C2
100
AcDbEntity
  8
0
100
AcDbLine
 62
7
  6
CONTINUOUS
 10
66.8882346625
 20
70.5826983462
 11
66.4182346631
 21
70.5826983462
  0
LINE
  5
2C3
100
AcDbEntity
  8
0
100
AcDbLine
 62
7
  6
CONTINUOUS
 10
58.6382346625
 20
70.5826983462
 11
58.1682346631
 21
70.5826983462
  0
LINE
  5
2C4
100
AcDbEntity
  8
0
100
AcDbLine
 62
7
  6
CONTINUOUS
 10
55.7682346633
 20
70.5826983467
 11
56.568234664
 21
70.5826983467
  0
LINE
  5
2C5
100
AcDbEntity
  8
0
100
AcDbLine
 62
7
  6
CONTINUOUS
 10
64.0182346631
 20
70.5826983467
 11
64.8182346629
 21
70.5826983467
  0
LINE
  5
2C6
100
AcDbEntity
  8
0
100
AcDbLine
 62
7
  6
CONTINUOUS
 10
64.8182346629
 20
71.3826983467
 11
64.0182346631
 21
71.3826983467
  0
LINE
  5
2C7
100
AcDbEntity
  8
0
100
AcDbLine
 62
7
  6
CONTINUOUS
 10
56.568234664
 20
71.3826983467
 11
55.7682346633
 21
71.3826983467
  0
LINE
  5
2C8
100
AcDbEntity
  8
0
100
AcDbLine
 62
7
  6
CONTINUOUS
 10
58.1682346631
 20
71.382698347
 11
58.6382346635
 21
71.382698347
  0
LINE
  5
2C9
100
AcDbEntity
  8
0
100
AcDbLine
 62
7
  6
CONTINUOUS
 10
66.4182346631
 20
71.3826983469
 11
66.8882346621
 21
71.3826983451
  0
LINE
  5
2CA
100
AcDbEntity
  8
0
100
AcDbLine
 62
7
  6
CONTINUOUS
 10
60.1682346631
 20
72.4326983458
 11
61.4682346638
 21
72.4326983458
  0
LINE
  5
2CB
100
AcDbEntity
  8
0
100
AcDbLine
 62
7
  6
CONTINUOUS
 10
53.8682346642
 20
72.5326983473
 11
58.1682346631
 21
72.5326983473
  0
LINE
  5
2CC
100
AcDbEntity
  8
0
100
AcDbLine
 62
7
  6
CONTINUOUS
 10
62.1182346624
 20
72.5326983455
 11
66.4182346631
 21
72.5326983455
  0
LINE
  5
2CD
100
AcDbEntity
  8
0
100
AcDbLine
 62
7
  6
CONTINUOUS
 10
66.4182346631
 20
72.9326983458
 11
62.1182346642
 21
72.9326983458
  0
LINE
  5
2CE
100
AcDbEntity
  8
0
100
AcDbLine
 62
7
  6
CONTINUOUS
 10
61.4682346638
 20
72.9326983458
 11
60.1682346631
 21
72.9326983458
  0
LINE
  5
2CF
100
AcDbEntity
  8
0
100
AcDbLine
 62
7
  6
CONTINUOUS
 10
58.1682346631
 20
72.9326983458
 11
53.8682346642
 21
72.9326983458
  0
LINE
  5
2D0
100
AcDbEntity
  8
0
100
AcDbLine
 62
7
  6
CONTINUOUS
 10
66.8882346625
 20
74.0826983462
 11
66.4182346631
 21
74.0826983462
  0
LINE
  5
2D1
100
AcDbEntity
  8
0
100
AcDbLine
 62
7
  6
CONTINUOUS
 10
58.6382346625
 20
74.0826983462
 11
58.1682346631
 21
74.0826983462
  0
LINE
  5
2D2
100
AcDbEntity
  8
0
100
AcDbLine
 62
7
  6
CONTINUOUS
 10
55.7682346633
 20
74.0826983467
 11
56.568234664
 21
74.0826983467
  0
LINE
  5
2D3
100
AcDbEntity
  8
0
100
AcDbLine
 62
7
  6
CONTINUOUS
 10
64.0182346631
 20
74.0826983467
 11
64.8182346629
 21
74.0826983467
  0
LINE
  5
2D4
100
AcDbEntity
  8
0
100
AcDbLine
 62
7
  6
CONTINUOUS
 10
67.2682346631
 20
69.6654924636
 11
67.088234663
 21
69.7276983458
  0
LINE
  5
2D5
100
AcDbEntity
  8
0
100
AcDbLine
 62
7
  6
CONTINUOUS
 10
59.5182346627
 20
72.9926983464
 11
58.838234663
 21
73.2276983458
  0
LINE
  5
2D6
100
AcDbEntity
  8
0
100
AcDbLine
 62
7
  6
CONTINUOUS
 10
67.2682346631
 20
73.1654924636
 11
67.088234663
 21
73.2276983458
  0
LINE
  5
2D7
100
AcDbEntity
  8
0
100
AcDbLine
 62
7
  6
CONTINUOUS
 10
59.5182346627
 20
76.4926983464
 11
58.838234663
 21
76.7276983458
  0
LINE
  5
2D8
100
AcDbEntity
  8
0
100
AcDbLine
 62
7
  6
CONTINUOUS
 10
49.7682346636
 20
44.4269584968
 11
49.7682346631
 21
104.5384373955
  0
LINE
  5
2D9
100
AcDbEntity
  8
0
100
AcDbLine
 62
7
  6
CONTINUOUS
 10
49.7682346629
 20
122.2269584969
 11
49.7682346626
 21
150.8384373962
  0
LINE
  5
2DA
100
AcDbEntity
  8
0
100
AcDbLine
 62
7
  6
CONTINUOUS
 10
52.4675036555
 20
44.3326979465
 11
52.4675036555
 21
104.6326979465
  0
LINE
  5
2DB
100
AcDbEntity
  8
0
100
AcDbLine
 62
7
  6
CONTINUOUS
 10
52.4675036555
 20
122.1326979466
 11
52.4675036555
 21
150.9326979465
  0
LINE
  5
2DC
100
AcDbEntity
  8
0
100
AcDbLine
 62
7
  6
CONTINUOUS
 10
64.8182346629
 20
74.8826983467
 11
64.0182346631
 21
74.8826983467
  0
LINE
  5
2DD
100
AcDbEntity
  8
0
100
AcDbLine
 62
7
  6
CONTINUOUS
 10
56.568234664
 20
74.8826983467
 11
55.7682346633
 21
74.8826983467
  0
LINE
  5
2DE
100
AcDbEntity
  8
0
100
AcDbLine
 62
7
  6
CONTINUOUS
 10
58.1682346631
 20
74.882698347
 11
58.6382346635
 21
74.882698347
  0
LINE
  5
2DF
100
AcDbEntity
  8
0
100
AcDbLine
 62
7
  6
CONTINUOUS
 10
66.4182346631
 20
74.8826983469
 11
66.8882346621
 21
74.8826983451
  0
LINE
  5
2E0
100
AcDbEntity
  8
0
100
AcDbLine
 62
7
  6
CONTINUOUS
 10
60.1682346631
 20
75.9326983458
 11
61.4682346638
 21
75.9326983458
  0
LINE
  5
2E1
100
AcDbEntity
  8
0
100
AcDbLine
 62
7
  6
CONTINUOUS
 10
53.8682346642
 20
76.0326983473
 11
58.1682346631
 21
76.0326983473
  0
LINE
  5
2E2
100
AcDbEntity
  8
0
100
AcDbLine
 62
7
  6
CONTINUOUS
 10
62.1182346624
 20
76.0326983455
 11
66.4182346631
 21
76.0326983455
  0
LINE
  5
2E3
100
AcDbEntity
  8
0
100
AcDbLine
 62
7
  6
CONTINUOUS
 10
66.4182346631
 20
76.4326983458
 11
62.1182346642
 21
76.4326983458
  0
LINE
  5
2E4
100
AcDbEntity
  8
0
100
AcDbLine
 62
7
  6
CONTINUOUS
 10
61.4682346638
 20
76.4326983458
 11
60.1682346631
 21
76.4326983458
  0
LINE
  5
2E5
100
AcDbEntity
  8
0
100
AcDbLine
 62
7
  6
CONTINUOUS
 10
58.1682346631
 20
76.4326983458
 11
53.8682346642
 21
76.4326983458
  0
LINE
  5
2E6
100
AcDbEntity
  8
0
100
AcDbLine
 62
7
  6
CONTINUOUS
 10
66.8882346625
 20
77.5826983462
 11
66.4182346631
 21
77.5826983462
  0
LINE
  5
2E7
100
AcDbEntity
  8
0
100
AcDbLine
 62
7
  6
CONTINUOUS
 10
58.6382346625
 20
77.5826983462
 11
58.1682346631
 21
77.5826983462
  0
LINE
  5
2E8
100
AcDbEntity
  8
0
100
AcDbLine
 62
7
  6
CONTINUOUS
 10
55.7682346633
 20
77.5826983467
 11
56.568234664
 21
77.5826983467
  0
LINE
  5
2E9
100
AcDbEntity
  8
0
100
AcDbLine
 62
7
  6
CONTINUOUS
 10
64.0182346631
 20
77.5826983467
 11
64.8182346629
 21
77.5826983467
  0
LINE
  5
2EA
100
AcDbEntity
  8
0
100
AcDbLine
 62
7
  6
CONTINUOUS
 10
64.8182346629
 20
78.3826983467
 11
64.0182346631
 21
78.3826983467
  0
LINE
  5
2EB
100
AcDbEntity
  8
0
100
AcDbLine
 62
7
  6
CONTINUOUS
 10
56.568234664
 20
78.3826983467
 11
55.7682346633
 21
78.3826983467
  0
LINE
  5
2EC
100
AcDbEntity
  8
0
100
AcDbLine
 62
7
  6
CONTINUOUS
 10
58.1682346631
 20
78.382698347
 11
58.6382346635
 21
78.382698347
  0
LINE
  5
2ED
100
AcDbEntity
  8
0
100
AcDbLine
 62
7
  6
CONTINUOUS
 10
66.4182346631
 20
78.3826983469
 11
66.8882346621
 21
78.3826983451
  0
LINE
  5
2EE
100
AcDbEntity
  8
0
100
AcDbLine
 62
7
  6
CONTINUOUS
 10
60.1682346631
 20
79.4326983458
 11
61.4682346638
 21
79.4326983458
  0
LINE
  5
2EF
100
AcDbEntity
  8
0
100
AcDbLine
 62
7
  6
CONTINUOUS
 10
53.8682346642
 20
79.5326983473
 11
58.1682346631
 21
79.5326983473
  0
LINE
  5
2F0
100
AcDbEntity
  8
0
100
AcDbLine
 62
7
  6
CONTINUOUS
 10
62.1182346624
 20
79.5326983455
 11
66.4182346631
 21
79.5326983455
  0
LINE
  5
2F1
100
AcDbEntity
  8
0
100
AcDbLine
 62
7
  6
CONTINUOUS
 10
66.4182346631
 20
79.9326983458
 11
62.1182346642
 21
79.9326983458
  0
LINE
  5
2F2
100
AcDbEntity
  8
0
100
AcDbLine
 62
7
  6
CONTINUOUS
 10
61.4682346638
 20
79.9326983458
 11
60.1682346631
 21
79.9326983458
  0
LINE
  5
2F3
100
AcDbEntity
  8
0
100
AcDbLine
 62
7
  6
CONTINUOUS
 10
58.1682346631
 20
79.9326983458
 11
53.8682346642
 21
79.9326983458
  0
LINE
  5
2F4
100
AcDbEntity
  8
0
100
AcDbLine
 62
7
  6
CONTINUOUS
 10
67.2682346631
 20
76.6654924636
 11
67.088234663
 21
76.7276983458
  0
LINE
  5
2F5
100
AcDbEntity
  8
0
100
AcDbLine
 62
7
  6
CONTINUOUS
 10
59.5182346627
 20
79.9926983464
 11
58.838234663
 21
80.2276983458
  0
LINE
  5
2F6
100
AcDbEntity
  8
0
100
AcDbLine
 62
7
  6
CONTINUOUS
 10
67.2682346631
 20
80.1654924636
 11
67.088234663
 21
80.2276983458
  0
LINE
  5
2F7
100
AcDbEntity
  8
0
100
AcDbLine
 62
7
  6
CONTINUOUS
 10
53.2182346635
 20
147.4826982955
 11
53.2182346635
 21
125.582698297
  0
LINE
  5
2F8
100
AcDbEntity
  8
0
100
AcDbLine
 62
7
  6
CONTINUOUS
 10
53.2182346635
 20
101.1826983452
 11
53.2182346635
 21
47.7826983467
  0
LINE
  5
2F9
100
AcDbEntity
  8
0
100
AcDbLine
 62
7
  6
CONTINUOUS
 10
53.8682346642
 20
48.4326983458
 11
53.8682346642
 21
49.0826983462
  0
LINE
  5
2FA
100
AcDbEntity
  8
0
100
AcDbLine
 62
7
  6
CONTINUOUS
 10
53.8682346642
 20
50.882698347
 11
53.8682346642
 21
51.5326983473
  0
LINE
  5
2FB
100
AcDbEntity
  8
0
100
AcDbLine
 62
7
  6
CONTINUOUS
 10
53.8682346642
 20
51.9326983458
 11
53.8682346642
 21
52.5826983462
  0
LINE
  5
2FC
100
AcDbEntity
  8
0
100
AcDbLine
 62
7
  6
CONTINUOUS
 10
53.8682346642
 20
54.382698347
 11
53.8682346642
 21
55.0326983473
  0
LINE
  5
2FD
100
AcDbEntity
  8
0
100
AcDbLine
 62
7
  6
CONTINUOUS
 10
53.8682346642
 20
55.4326983458
 11
53.8682346642
 21
56.0826983462
  0
LINE
  5
2FE
100
AcDbEntity
  8
0
100
AcDbLine
 62
7
  6
CONTINUOUS
 10
53.8682346642
 20
57.882698347
 11
53.8682346642
 21
58.5326983473
  0
LINE
  5
2FF
100
AcDbEntity
  8
0
100
AcDbLine
 62
7
  6
CONTINUOUS
 10
53.8682346642
 20
58.9326983458
 11
53.8682346642
 21
59.5826983462
  0
LINE
  5
300
100
AcDbEntity
  8
0
100
AcDbLine
 62
7
  6
CONTINUOUS
 10
53.8682346642
 20
61.382698347
 11
53.8682346642
 21
62.0326983473
  0
LINE
  5
301
100
AcDbEntity
  8
0
100
AcDbLine
 62
7
  6
CONTINUOUS
 10
53.8682346642
 20
62.4326983458
 11
53.8682346642
 21
63.0826983462
  0
LINE
  5
302
100
AcDbEntity
  8
0
100
AcDbLine
 62
7
  6
CONTINUOUS
 10
53.8682346642
 20
64.882698347
 11
53.8682346642
 21
65.5326983473
  0
LINE
  5
303
100
AcDbEntity
  8
0
100
AcDbLine
 62
7
  6
CONTINUOUS
 10
53.8682346642
 20
65.9326983458
 11
53.8682346642
 21
66.5826983462
  0
LINE
  5
304
100
AcDbEntity
  8
0
100
AcDbLine
 62
7
  6
CONTINUOUS
 10
53.8682346642
 20
68.382698347
 11
53.8682346642
 21
69.0326983473
  0
LINE
  5
305
100
AcDbEntity
  8
0
100
AcDbLine
 62
7
  6
CONTINUOUS
 10
53.8682346642
 20
69.4326983458
 11
53.8682346642
 21
70.0826983462
  0
LINE
  5
306
100
AcDbEntity
  8
0
100
AcDbLine
 62
7
  6
CONTINUOUS
 10
53.8682346642
 20
71.882698347
 11
53.8682346642
 21
72.5326983473
  0
LINE
  5
307
100
AcDbEntity
  8
0
100
AcDbLine
 62
7
  6
CONTINUOUS
 10
53.8682346642
 20
72.9326983458
 11
53.8682346642
 21
73.5826983462
  0
LINE
  5
308
100
AcDbEntity
  8
0
100
AcDbLine
 62
7
  6
CONTINUOUS
 10
53.8682346642
 20
75.382698347
 11
53.8682346642
 21
76.0326983473
  0
LINE
  5
309
100
AcDbEntity
  8
0
100
AcDbLine
 62
7
  6
CONTINUOUS
 10
53.8682346642
 20
76.4326983458
 11
53.8682346642
 21
77.0826983462
  0
LINE
  5
30A
100
AcDbEntity
  8
0
100
AcDbLine
 62
7
  6
CONTINUOUS
 10
53.8682346642
 20
78.882698347
 11
53.8682346642
 21
79.5326983473
  0
LINE
  5
30B
100
AcDbEntity
  8
0
100
AcDbLine
 62
7
  6
CONTINUOUS
 10
53.8682346642
 20
79.9326983458
 11
53.8682346642
 21
80.5826983462
  0
LINE
  5
30C
100
AcDbEntity
  8
0
100
AcDbLine
 62
7
  6
CONTINUOUS
 10
53.8682346642
 20
82.382698347
 11
53.8682346642
 21
83.0326983473
  0
LINE
  5
30D
100
AcDbEntity
  8
0
100
AcDbLine
 62
7
  6
CONTINUOUS
 10
53.8682346642
 20
83.4326983458
 11
53.8682346642
 21
84.0826983462
  0
LINE
  5
30E
100
AcDbEntity
  8
0
100
AcDbLine
 62
7
  6
CONTINUOUS
 10
53.8682346642
 20
85.882698347
 11
53.8682346642
 21
86.5326983473
  0
LINE
  5
30F
100
AcDbEntity
  8
0
100
AcDbLine
 62
7
  6
CONTINUOUS
 10
53.8682346642
 20
86.9326983458
 11
53.8682346642
 21
87.5826983462
  0
LINE
  5
310
100
AcDbEntity
  8
0
100
AcDbLine
 62
7
  6
CONTINUOUS
 10
53.8682346642
 20
89.382698347
 11
53.8682346642
 21
90.0326983473
  0
LINE
  5
311
100
AcDbEntity
  8
0
100
AcDbLine
 62
7
  6
CONTINUOUS
 10
53.8682346642
 20
90.4326983458
 11
53.8682346642
 21
91.0826983462
  0
LINE
  5
312
100
AcDbEntity
  8
0
100
AcDbLine
 62
7
  6
CONTINUOUS
 10
53.8682346642
 20
92.882698347
 11
53.8682346642
 21
93.5326983473
  0
LINE
  5
313
100
AcDbEntity
  8
0
100
AcDbLine
 62
7
  6
CONTINUOUS
 10
53.8682346642
 20
93.9326983458
 11
53.8682346642
 21
94.5826983462
  0
LINE
  5
314
100
AcDbEntity
  8
0
100
AcDbLine
 62
7
  6
CONTINUOUS
 10
53.8682346642
 20
96.382698347
 11
53.8682346642
 21
97.0326983473
  0
LINE
  5
315
100
AcDbEntity
  8
0
100
AcDbLine
 62
7
  6
CONTINUOUS
 10
53.8682346642
 20
97.4326983458
 11
53.8682346642
 21
98.0826983462
  0
LINE
  5
316
100
AcDbEntity
  8
0
100
AcDbLine
 62
7
  6
CONTINUOUS
 10
53.8682346642
 20
99.882698347
 11
53.8682346642
 21
100.5326983473
  0
LINE
  5
317
100
AcDbEntity
  8
0
100
AcDbLine
 62
7
  6
CONTINUOUS
 10
53.8682346642
 20
126.2326983205
 11
53.8682346642
 21
126.8826983208
  0
LINE
  5
318
100
AcDbEntity
  8
0
100
AcDbLine
 62
7
  6
CONTINUOUS
 10
53.8682346642
 20
128.6826983216
 11
53.8682346642
 21
129.332698322
  0
LINE
  5
319
100
AcDbEntity
  8
0
100
AcDbLine
 62
7
  6
CONTINUOUS
 10
53.8682346642
 20
129.7326983205
 11
53.8682346642
 21
130.3826983208
  0
LINE
  5
31A
100
AcDbEntity
  8
0
100
AcDbLine
 62
7
  6
CONTINUOUS
 10
53.8682346642
 20
132.1826983216
 11
53.8682346642
 21
132.832698322
  0
LINE
  5
31B
100
AcDbEntity
  8
0
100
AcDbLine
 62
7
  6
CONTINUOUS
 10
53.8682346642
 20
133.2326983205
 11
53.8682346642
 21
133.8826983208
  0
LINE
  5
31C
100
AcDbEntity
  8
0
100
AcDbLine
 62
7
  6
CONTINUOUS
 10
53.8682346642
 20
135.6826983216
 11
53.8682346642
 21
136.332698322
  0
LINE
  5
31D
100
AcDbEntity
  8
0
100
AcDbLine
 62
7
  6
CONTINUOUS
 10
53.8682346642
 20
136.7326983205
 11
53.8682346642
 21
137.3826983208
  0
LINE
  5
31E
100
AcDbEntity
  8
0
100
AcDbLine
 62
7
  6
CONTINUOUS
 10
53.8682346642
 20
139.1826983216
 11
53.8682346642
 21
139.832698322
  0
LINE
  5
31F
100
AcDbEntity
  8
0
100
AcDbLine
 62
7
  6
CONTINUOUS
 10
53.8682346642
 20
140.2326983205
 11
53.8682346642
 21
140.8826983208
  0
LINE
  5
320
100
AcDbEntity
  8
0
100
AcDbLine
 62
7
  6
CONTINUOUS
 10
53.8682346642
 20
142.6826983216
 11
53.8682346642
 21
143.332698322
  0
LINE
  5
321
100
AcDbEntity
  8
0
100
AcDbLine
 62
7
  6
CONTINUOUS
 10
53.8682346642
 20
143.7326983205
 11
53.8682346642
 21
144.3826983208
  0
LINE
  5
322
100
AcDbEntity
  8
0
100
AcDbLine
 62
7
  6
CONTINUOUS
 10
53.8682346642
 20
146.1826983216
 11
53.8682346642
 21
146.832698322
  0
LINE
  5
323
100
AcDbEntity
  8
0
100
AcDbLine
 62
7
  6
CONTINUOUS
 10
55.7682346633
 20
49.5826983467
 11
55.7682346633
 21
50.3826983467
  0
LINE
  5
324
100
AcDbEntity
  8
0
100
AcDbLine
 62
7
  6
CONTINUOUS
 10
55.7682346633
 20
53.0826983467
 11
55.7682346633
 21
53.8826983467
  0
LINE
  5
325
100
AcDbEntity
  8
0
100
AcDbLine
 62
7
  6
CONTINUOUS
 10
55.7682346633
 20
56.5826983467
 11
55.7682346633
 21
57.3826983467
  0
LINE
  5
326
100
AcDbEntity
  8
0
100
AcDbLine
 62
7
  6
CONTINUOUS
 10
55.7682346633
 20
60.0826983467
 11
55.7682346633
 21
60.8826983467
  0
LINE
  5
327
100
AcDbEntity
  8
0
100
AcDbLine
 62
7
  6
CONTINUOUS
 10
55.7682346633
 20
63.5826983467
 11
55.7682346633
 21
64.3826983467
  0
LINE
  5
328
100
AcDbEntity
  8
0
100
AcDbLine
 62
7
  6
CONTINUOUS
 10
55.7682346633
 20
67.0826983467
 11
55.7682346633
 21
67.8826983467
  0
LINE
  5
329
100
AcDbEntity
  8
0
100
AcDbLine
 62
7
  6
CONTINUOUS
 10
55.7682346633
 20
70.5826983467
 11
55.7682346633
 21
71.3826983467
  0
LINE
  5
32A
100
AcDbEntity
  8
0
100
AcDbLine
 62
7
  6
CONTINUOUS
 10
55.7682346633
 20
74.0826983467
 11
55.7682346633
 21
74.8826983467
  0
LINE
  5
32B
100
AcDbEntity
  8
0
100
AcDbLine
 62
7
  6
CONTINUOUS
 10
55.7682346633
 20
77.5826983467
 11
55.7682346633
 21
78.3826983467
  0
LINE
  5
32C
100
AcDbEntity
  8
0
100
AcDbLine
 62
7
  6
CONTINUOUS
 10
55.7682346633
 20
81.0826983467
 11
55.7682346633
 21
81.8826979465
  0
LINE
  5
32D
100
AcDbEntity
  8
0
100
AcDbLine
 62
7
  6
CONTINUOUS
 10
55.7682346633
 20
84.5826983467
 11
55.7682346633
 21
85.3826979465
  0
LINE
  5
32E
100
AcDbEntity
  8
0
100
AcDbLine
 62
7
  6
CONTINUOUS
 10
55.7682346633
 20
88.0826983467
 11
55.7682346633
 21
88.8826979465
  0
LINE
  5
32F
100
AcDbEntity
  8
0
100
AcDbLine
 62
7
  6
CONTINUOUS
 10
55.7682346633
 20
91.5826983467
 11
55.7682346633
 21
92.3826979465
  0
LINE
  5
330
100
AcDbEntity
  8
0
100
AcDbLine
 62
7
  6
CONTINUOUS
 10
55.7682346633
 20
95.0826983467
 11
55.7682346633
 21
95.8826983467
  0
LINE
  5
331
100
AcDbEntity
  8
0
100
AcDbLine
 62
7
  6
CONTINUOUS
 10
55.7682346633
 20
98.5826983467
 11
55.7682346633
 21
99.3826983467
  0
LINE
  5
332
100
AcDbEntity
  8
0
100
AcDbLine
 62
7
  6
CONTINUOUS
 10
55.7682346633
 20
127.3826983222
 11
55.7682346633
 21
128.182698323
  0
LINE
  5
333
100
AcDbEntity
  8
0
100
AcDbLine
 62
7
  6
CONTINUOUS
 10
55.7682346633
 20
130.8826983222
 11
55.7682346633
 21
131.682698323
  0
LINE
  5
334
100
AcDbEntity
  8
0
100
AcDbLine
 62
7
  6
CONTINUOUS
 10
55.7682346633
 20
134.3826979465
 11
55.7682346633
 21
135.182698323
  0
LINE
  5
335
100
AcDbEntity
  8
0
100
AcDbLine
 62
7
  6
CONTINUOUS
 10
55.7682346633
 20
137.8826983222
 11
55.7682346633
 21
138.682698323
  0
LINE
  5
336
100
AcDbEntity
  8
0
100
AcDbLine
 62
7
  6
CONTINUOUS
 10
55.7682346633
 20
141.3826983222
 11
55.7682346633
 21
142.182698323
  0
LINE
  5
337
100
AcDbEntity
  8
0
100
AcDbLine
 62
7
  6
CONTINUOUS
 10
55.7682346633
 20
144.8826983222
 11
55.7682346633
 21
145.682698323
  0
LINE
  5
338
100
AcDbEntity
  8
0
100
AcDbLine
 62
7
  6
CONTINUOUS
 10
56.568234664
 20
49.5826983467
 11
56.568234664
 21
50.3826983467
  0
LINE
  5
339
100
AcDbEntity
  8
0
100
AcDbLine
 62
7
  6
CONTINUOUS
 10
56.568234664
 20
53.0826983467
 11
56.568234664
 21
53.8826983467
  0
LINE
  5
33A
100
AcDbEntity
  8
0
100
AcDbLine
 62
7
  6
CONTINUOUS
 10
56.568234664
 20
56.5826983467
 11
56.568234664
 21
57.3826983467
  0
LINE
  5
33B
100
AcDbEntity
  8
0
100
AcDbLine
 62
7
  6
CONTINUOUS
 10
56.568234664
 20
60.0826983467
 11
56.568234664
 21
60.8826983467
  0
LINE
  5
33C
100
AcDbEntity
  8
0
100
AcDbLine
 62
7
  6
CONTINUOUS
 10
56.568234664
 20
63.5826983467
 11
56.568234664
 21
64.3826983467
  0
LINE
  5
33D
100
AcDbEntity
  8
0
100
AcDbLine
 62
7
  6
CONTINUOUS
 10
56.568234664
 20
67.0826983467
 11
56.568234664
 21
67.8826983467
  0
LINE
  5
33E
100
AcDbEntity
  8
0
100
AcDbLine
 62
7
  6
CONTINUOUS
 10
56.568234664
 20
70.5826983467
 11
56.568234664
 21
71.3826983467
  0
LINE
  5
33F
100
AcDbEntity
  8
0
100
AcDbLine
 62
7
  6
CONTINUOUS
 10
56.568234664
 20
74.0826983467
 11
56.568234664
 21
74.8826983467
  0
LINE
  5
340
100
AcDbEntity
  8
0
100
AcDbLine
 62
7
  6
CONTINUOUS
 10
56.568234664
 20
77.5826983467
 11
56.568234664
 21
78.3826983467
  0
LINE
  5
341
100
AcDbEntity
  8
0
100
AcDbLine
 62
7
  6
CONTINUOUS
 10
56.568234664
 20
81.0826983467
 11
56.568234664
 21
81.8826979465
  0
LINE
  5
342
100
AcDbEntity
  8
0
100
AcDbLine
 62
7
  6
CONTINUOUS
 10
56.568234664
 20
84.5826983467
 11
56.568234664
 21
85.3826979465
  0
LINE
  5
343
100
AcDbEntity
  8
0
100
AcDbLine
 62
7
  6
CONTINUOUS
 10
56.568234664
 20
88.0826983467
 11
56.568234664
 21
88.8826979465
  0
LINE
  5
344
100
AcDbEntity
  8
0
100
AcDbLine
 62
7
  6
CONTINUOUS
 10
56.568234664
 20
91.5826983467
 11
56.568234664
 21
92.3826979465
  0
LINE
  5
345
100
AcDbEntity
  8
0
100
AcDbLine
 62
7
  6
CONTINUOUS
 10
56.568234664
 20
95.0826983467
 11
56.568234664
 21
95.8826983467
  0
LINE
  5
346
100
AcDbEntity
  8
0
100
AcDbLine
 62
7
  6
CONTINUOUS
 10
56.568234664
 20
98.5826983467
 11
56.568234664
 21
99.3826983467
  0
LINE
  5
347
100
AcDbEntity
  8
0
100
AcDbLine
 62
7
  6
CONTINUOUS
 10
56.568234664
 20
127.3826983222
 11
56.568234664
 21
128.182698323
  0
LINE
  5
348
100
AcDbEntity
  8
0
100
AcDbLine
 62
7
  6
CONTINUOUS
 10
56.568234664
 20
130.8826983222
 11
56.568234664
 21
131.682698323
  0
LINE
  5
349
100
AcDbEntity
  8
0
100
AcDbLine
 62
7
  6
CONTINUOUS
 10
56.568234664
 20
134.3826979465
 11
56.568234664
 21
135.182698323
  0
LINE
  5
34A
100
AcDbEntity
  8
0
100
AcDbLine
 62
7
  6
CONTINUOUS
 10
56.568234664
 20
137.8826983222
 11
56.568234664
 21
138.682698323
  0
LINE
  5
34B
100
AcDbEntity
  8
0
100
AcDbLine
 62
7
  6
CONTINUOUS
 10
56.568234664
 20
141.3826983222
 11
56.568234664
 21
142.182698323
  0
LINE
  5
34C
100
AcDbEntity
  8
0
100
AcDbLine
 62
7
  6
CONTINUOUS
 10
56.568234664
 20
144.8826983222
 11
56.568234664
 21
145.682698323
  0
LINE
  5
34D
100
AcDbEntity
  8
0
100
AcDbLine
 62
7
  6
CONTINUOUS
 10
58.1682346631
 20
146.832698322
 11
58.1682346631
 21
145.6826983216
  0
LINE
  5
34E
100
AcDbEntity
  8
0
100
AcDbLine
 62
7
  6
CONTINUOUS
 10
58.1682346631
 20
144.8826983209
 11
58.1682346631
 21
143.7326983205
  0
LINE
  5
34F
100
AcDbEntity
  8
0
100
AcDbLine
 62
7
  6
CONTINUOUS
 10
58.1682346631
 20
143.332698322
 11
58.1682346631
 21
142.1826983216
  0
LINE
  5
350
100
AcDbEntity
  8
0
100
AcDbLine
 62
7
  6
CONTINUOUS
 10
58.1682346631
 20
141.3826983209
 11
58.1682346631
 21
140.2326983205
  0
LINE
  5
351
100
AcDbEntity
  8
0
100
AcDbLine
 62
7
  6
CONTINUOUS
 10
58.1682346631
 20
139.832698322
 11
58.1682346631
 21
138.6826983216
  0
LINE
  5
352
100
AcDbEntity
  8
0
100
AcDbLine
 62
7
  6
CONTINUOUS
 10
58.1682346631
 20
137.8826983209
 11
58.1682346631
 21
136.7326983205
  0
LINE
  5
353
100
AcDbEntity
  8
0
100
AcDbLine
 62
7
  6
CONTINUOUS
 10
58.1682346631
 20
136.332698322
 11
58.1682346631
 21
135.1826983216
  0
LINE
  5
354
100
AcDbEntity
  8
0
100
AcDbLine
 62
7
  6
CONTINUOUS
 10
58.1682346631
 20
134.3826983209
 11
58.1682346631
 21
133.2326983205
  0
LINE
  5
355
100
AcDbEntity
  8
0
100
AcDbLine
 62
7
  6
CONTINUOUS
 10
58.1682346631
 20
132.832698322
 11
58.1682346631
 21
131.6826983216
  0
LINE
  5
356
100
AcDbEntity
  8
0
100
AcDbLine
 62
7
  6
CONTINUOUS
 10
58.1682346631
 20
130.8826983209
 11
58.1682346631
 21
129.7326983205
  0
LINE
  5
357
100
AcDbEntity
  8
0
100
AcDbLine
 62
7
  6
CONTINUOUS
 10
58.1682346631
 20
129.332698322
 11
58.1682346631
 21
128.1826983216
  0
LINE
  5
358
100
AcDbEntity
  8
0
100
AcDbLine
 62
7
  6
CONTINUOUS
 10
58.1682346631
 20
127.3826983209
 11
58.1682346631
 21
126.2326983205
  0
LINE
  5
359
100
AcDbEntity
  8
0
100
AcDbLine
 62
7
  6
CONTINUOUS
 10
58.1682346631
 20
100.5326983473
 11
58.1682346631
 21
99.382698347
  0
LINE
  5
35A
100
AcDbEntity
  8
0
100
AcDbLine
 62
7
  6
CONTINUOUS
 10
58.1682346631
 20
98.5826983462
 11
58.1682346631
 21
97.4326983458
  0
LINE
  5
35B
100
AcDbEntity
  8
0
100
AcDbLine
 62
7
  6
CONTINUOUS
 10
58.1682346631
 20
97.0326983473
 11
58.1682346631
 21
95.882698347
  0
LINE
  5
35C
100
AcDbEntity
  8
0
100
AcDbLine
 62
7
  6
CONTINUOUS
 10
58.1682346631
 20
95.0826983462
 11
58.1682346631
 21
93.9326983458
  0
LINE
  5
35D
100
AcDbEntity
  8
0
100
AcDbLine
 62
7
  6
CONTINUOUS
 10
58.1682346631
 20
93.5326983473
 11
58.1682346631
 21
92.382698347
  0
LINE
  5
35E
100
AcDbEntity
  8
0
100
AcDbLine
 62
7
  6
CONTINUOUS
 10
58.1682346631
 20
91.5826983462
 11
58.1682346631
 21
90.4326983458
  0
LINE
  5
35F
100
AcDbEntity
  8
0
100
AcDbLine
 62
7
  6
CONTINUOUS
 10
58.1682346631
 20
90.0326983473
 11
58.1682346631
 21
88.882698347
  0
LINE
  5
360
100
AcDbEntity
  8
0
100
AcDbLine
 62
7
  6
CONTINUOUS
 10
58.1682346631
 20
88.0826983462
 11
58.1682346631
 21
86.9326983458
  0
LINE
  5
361
100
AcDbEntity
  8
0
100
AcDbLine
 62
7
  6
CONTINUOUS
 10
58.1682346631
 20
86.5326983473
 11
58.1682346631
 21
85.382698347
  0
LINE
  5
362
100
AcDbEntity
  8
0
100
AcDbLine
 62
7
  6
CONTINUOUS
 10
58.1682346631
 20
84.5826983462
 11
58.1682346631
 21
83.4326983458
  0
LINE
  5
363
100
AcDbEntity
  8
0
100
AcDbLine
 62
7
  6
CONTINUOUS
 10
58.1682346631
 20
83.0326983473
 11
58.1682346631
 21
81.882698347
  0
LINE
  5
364
100
AcDbEntity
  8
0
100
AcDbLine
 62
7
  6
CONTINUOUS
 10
58.1682346631
 20
81.0826983462
 11
58.1682346631
 21
79.9326983458
  0
LINE
  5
365
100
AcDbEntity
  8
0
100
AcDbLine
 62
7
  6
CONTINUOUS
 10
58.1682346631
 20
79.5326983473
 11
58.1682346631
 21
78.382698347
  0
LINE
  5
366
100
AcDbEntity
  8
0
100
AcDbLine
 62
7
  6
CONTINUOUS
 10
58.1682346631
 20
77.5826983462
 11
58.1682346631
 21
76.4326983458
  0
LINE
  5
367
100
AcDbEntity
  8
0
100
AcDbLine
 62
7
  6
CONTINUOUS
 10
58.1682346631
 20
76.0326983473
 11
58.1682346631
 21
74.882698347
  0
LINE
  5
368
100
AcDbEntity
  8
0
100
AcDbLine
 62
7
  6
CONTINUOUS
 10
58.1682346631
 20
74.0826983462
 11
58.1682346631
 21
72.9326983458
  0
LINE
  5
369
100
AcDbEntity
  8
0
100
AcDbLine
 62
7
  6
CONTINUOUS
 10
58.1682346631
 20
72.5326983473
 11
58.1682346631
 21
71.382698347
  0
LINE
  5
36A
100
AcDbEntity
  8
0
100
AcDbLine
 62
7
  6
CONTINUOUS
 10
58.1682346631
 20
70.5826983462
 11
58.1682346631
 21
69.4326983458
  0
LINE
  5
36B
100
AcDbEntity
  8
0
100
AcDbLine
 62
7
  6
CONTINUOUS
 10
58.1682346631
 20
69.0326983473
 11
58.1682346631
 21
67.882698347
  0
LINE
  5
36C
100
AcDbEntity
  8
0
100
AcDbLine
 62
7
  6
CONTINUOUS
 10
58.1682346631
 20
67.0826983462
 11
58.1682346631
 21
65.9326983458
  0
LINE
  5
36D
100
AcDbEntity
  8
0
100
AcDbLine
 62
7
  6
CONTINUOUS
 10
58.1682346631
 20
65.5326983473
 11
58.1682346631
 21
64.382698347
  0
LINE
  5
36E
100
AcDbEntity
  8
0
100
AcDbLine
 62
7
  6
CONTINUOUS
 10
58.1682346631
 20
63.5826983462
 11
58.1682346631
 21
62.4326983458
  0
LINE
  5
36F
100
AcDbEntity
  8
0
100
AcDbLine
 62
7
  6
CONTINUOUS
 10
58.1682346631
 20
62.0326983473
 11
58.1682346631
 21
60.882698347
  0
LINE
  5
370
100
AcDbEntity
  8
0
100
AcDbLine
 62
7
  6
CONTINUOUS
 10
58.1682346631
 20
60.0826983462
 11
58.1682346631
 21
58.9326983458
  0
LINE
  5
371
100
AcDbEntity
  8
0
100
AcDbLine
 62
7
  6
CONTINUOUS
 10
58.1682346631
 20
58.5326983473
 11
58.1682346631
 21
57.382698347
  0
LINE
  5
372
100
AcDbEntity
  8
0
100
AcDbLine
 62
7
  6
CONTINUOUS
 10
58.1682346631
 20
56.5826983462
 11
58.1682346631
 21
55.4326983458
  0
LINE
  5
373
100
AcDbEntity
  8
0
100
AcDbLine
 62
7
  6
CONTINUOUS
 10
58.1682346631
 20
55.0326983473
 11
58.1682346631
 21
53.882698347
  0
LINE
  5
374
100
AcDbEntity
  8
0
100
AcDbLine
 62
7
  6
CONTINUOUS
 10
58.1682346631
 20
53.0826983462
 11
58.1682346631
 21
51.9326983458
  0
LINE
  5
375
100
AcDbEntity
  8
0
100
AcDbLine
 62
7
  6
CONTINUOUS
 10
58.1682346631
 20
51.5326983473
 11
58.1682346631
 21
50.382698347
  0
LINE
  5
376
100
AcDbEntity
  8
0
100
AcDbLine
 62
7
  6
CONTINUOUS
 10
58.1682346631
 20
49.5826983462
 11
58.1682346631
 21
48.4326983458
  0
LINE
  5
377
100
AcDbEntity
  8
0
100
AcDbLine
 62
7
  6
CONTINUOUS
 10
58.838234663
 20
48.7276983458
 11
58.838234663
 21
49.3826983471
  0
LINE
  5
378
100
AcDbEntity
  8
0
100
AcDbLine
 62
7
  6
CONTINUOUS
 10
58.838234663
 20
50.5826983461
 11
58.838234663
 21
51.2376983474
  0
LINE
  5
379
100
AcDbEntity
  8
0
100
AcDbLine
 62
7
  6
CONTINUOUS
 10
58.838234663
 20
52.2276983458
 11
58.838234663
 21
52.8826983471
  0
LINE
  5
37A
100
AcDbEntity
  8
0
100
AcDbLine
 62
7
  6
CONTINUOUS
 10
58.838234663
 20
54.0826983461
 11
58.838234663
 21
54.7376983474
  0
LINE
  5
37B
100
AcDbEntity
  8
0
100
AcDbLine
 62
7
  6
CONTINUOUS
 10
58.838234663
 20
55.7276983458
 11
58.838234663
 21
56.3826983471
  0
LINE
  5
37C
100
AcDbEntity
  8
0
100
AcDbLine
 62
7
  6
CONTINUOUS
 10
58.838234663
 20
57.5826983461
 11
58.838234663
 21
58.2376983474
  0
LINE
  5
37D
100
AcDbEntity
  8
0
100
AcDbLine
 62
7
  6
CONTINUOUS
 10
58.838234663
 20
59.2276983458
 11
58.838234663
 21
59.8826983471
  0
LINE
  5
37E
100
AcDbEntity
  8
0
100
AcDbLine
 62
7
  6
CONTINUOUS
 10
58.838234663
 20
61.0826983461
 11
58.838234663
 21
61.7376983474
  0
LINE
  5
37F
100
AcDbEntity
  8
0
100
AcDbLine
 62
7
  6
CONTINUOUS
 10
58.838234663
 20
62.7276983458
 11
58.838234663
 21
63.3826983471
  0
LINE
  5
380
100
AcDbEntity
  8
0
100
AcDbLine
 62
7
  6
CONTINUOUS
 10
58.838234663
 20
64.5826983461
 11
58.838234663
 21
65.2376983474
  0
LINE
  5
381
100
AcDbEntity
  8
0
100
AcDbLine
 62
7
  6
CONTINUOUS
 10
58.838234663
 20
66.2276983458
 11
58.838234663
 21
66.8826983471
  0
LINE
  5
382
100
AcDbEntity
  8
0
100
AcDbLine
 62
7
  6
CONTINUOUS
 10
58.838234663
 20
68.0826983461
 11
58.838234663
 21
68.7376983474
  0
LINE
  5
383
100
AcDbEntity
  8
0
100
AcDbLine
 62
7
  6
CONTINUOUS
 10
58.838234663
 20
69.7276983458
 11
58.838234663
 21
70.3826983471
  0
LINE
  5
384
100
AcDbEntity
  8
0
100
AcDbLine
 62
7
  6
CONTINUOUS
 10
58.838234663
 20
71.5826983461
 11
58.838234663
 21
72.2376983474
  0
LINE
  5
385
100
AcDbEntity
  8
0
100
AcDbLine
 62
7
  6
CONTINUOUS
 10
58.838234663
 20
73.2276983458
 11
58.838234663
 21
73.8826983471
  0
LINE
  5
386
100
AcDbEntity
  8
0
100
AcDbLine
 62
7
  6
CONTINUOUS
 10
58.838234663
 20
75.0826983461
 11
58.838234663
 21
75.7376983474
  0
LINE
  5
387
100
AcDbEntity
  8
0
100
AcDbLine
 62
7
  6
CONTINUOUS
 10
58.838234663
 20
76.7276983458
 11
58.838234663
 21
77.3826983471
  0
LINE
  5
388
100
AcDbEntity
  8
0
100
AcDbLine
 62
7
  6
CONTINUOUS
 10
58.838234663
 20
78.5826983461
 11
58.838234663
 21
79.2376983474
  0
LINE
  5
389
100
AcDbEntity
  8
0
100
AcDbLine
 62
7
  6
CONTINUOUS
 10
58.838234663
 20
80.2276983458
 11
58.838234663
 21
80.8826983471
  0
LINE
  5
38A
100
AcDbEntity
  8
0
100
AcDbLine
 62
7
  6
CONTINUOUS
 10
58.838234663
 20
82.0826983461
 11
58.838234663
 21
82.7376983474
  0
LINE
  5
38B
100
AcDbEntity
  8
0
100
AcDbLine
 62
7
  6
CONTINUOUS
 10
58.838234663
 20
83.7276983458
 11
58.838234663
 21
84.3826983471
  0
LINE
  5
38C
100
AcDbEntity
  8
0
100
AcDbLine
 62
7
  6
CONTINUOUS
 10
58.838234663
 20
85.5826983461
 11
58.838234663
 21
86.2376983474
  0
LINE
  5
38D
100
AcDbEntity
  8
0
100
AcDbLine
 62
7
  6
CONTINUOUS
 10
58.838234663
 20
87.2276983458
 11
58.838234663
 21
87.8826983471
  0
LINE
  5
38E
100
AcDbEntity
  8
0
100
AcDbLine
 62
7
  6
CONTINUOUS
 10
58.838234663
 20
89.0826983461
 11
58.838234663
 21
89.7376983474
  0
LINE
  5
38F
100
AcDbEntity
  8
0
100
AcDbLine
 62
7
  6
CONTINUOUS
 10
58.838234663
 20
90.7276983458
 11
58.838234663
 21
91.3826983471
  0
LINE
  5
390
100
AcDbEntity
  8
0
100
AcDbLine
 62
7
  6
CONTINUOUS
 10
58.838234663
 20
92.5826983461
 11
58.838234663
 21
93.2376983474
  0
LINE
  5
391
100
AcDbEntity
  8
0
100
AcDbLine
 62
7
  6
CONTINUOUS
 10
58.838234663
 20
94.2276983458
 11
58.838234663
 21
94.8826983471
  0
LINE
  5
392
100
AcDbEntity
  8
0
100
AcDbLine
 62
7
  6
CONTINUOUS
 10
58.838234663
 20
96.0826983461
 11
58.838234663
 21
96.7376983474
  0
LINE
  5
393
100
AcDbEntity
  8
0
100
AcDbLine
 62
7
  6
CONTINUOUS
 10
58.838234663
 20
97.7276983458
 11
58.838234663
 21
98.3826983471
  0
LINE
  5
394
100
AcDbEntity
  8
0
100
AcDbLine
 62
7
  6
CONTINUOUS
 10
58.838234663
 20
99.5826983461
 11
58.838234663
 21
100.2376983474
  0
LINE
  5
395
100
AcDbEntity
  8
0
100
AcDbLine
 62
7
  6
CONTINUOUS
 10
58.838234663
 20
126.5276983204
 11
58.838234663
 21
127.1826983222
  0
LINE
  5
396
100
AcDbEntity
  8
0
100
AcDbLine
 62
7
  6
CONTINUOUS
 10
58.838234663
 20
128.3826983208
 11
58.838234663
 21
129.0376983221
  0
LINE
  5
397
100
AcDbEntity
  8
0
100
AcDbLine
 62
7
  6
CONTINUOUS
 10
58.838234663
 20
130.0276983204
 11
58.838234663
 21
130.6826983222
  0
LINE
  5
398
100
AcDbEntity
  8
0
100
AcDbLine
 62
7
  6
CONTINUOUS
 10
58.838234663
 20
131.8826983208
 11
58.838234663
 21
132.5376983221
  0
LINE
  5
399
100
AcDbEntity
  8
0
100
AcDbLine
 62
7
  6
CONTINUOUS
 10
58.838234663
 20
133.5276983204
 11
58.838234663
 21
134.1826983222
  0
LINE
  5
39A
100
AcDbEntity
  8
0
100
AcDbLine
 62
7
  6
CONTINUOUS
 10
58.838234663
 20
135.3826983208
 11
58.838234663
 21
136.0376983221
  0
LINE
  5
39B
100
AcDbEntity
  8
0
100
AcDbLine
 62
7
  6
CONTINUOUS
 10
58.838234663
 20
137.0276983204
 11
58.838234663
 21
137.6826983222
  0
LINE
  5
39C
100
AcDbEntity
  8
0
100
AcDbLine
 62
7
  6
CONTINUOUS
 10
58.838234663
 20
138.8826983208
 11
58.838234663
 21
139.5376983221
  0
LINE
  5
39D
100
AcDbEntity
  8
0
100
AcDbLine
 62
7
  6
CONTINUOUS
 10
58.838234663
 20
140.5276983204
 11
58.838234663
 21
141.1826983222
  0
LINE
  5
39E
100
AcDbEntity
  8
0
100
AcDbLine
 62
7
  6
CONTINUOUS
 10
58.838234663
 20
142.3826983208
 11
58.838234663
 21
143.0376983221
  0
LINE
  5
39F
100
AcDbEntity
  8
0
100
AcDbLine
 62
7
  6
CONTINUOUS
 10
58.838234663
 20
144.0276983204
 11
58.838234663
 21
144.6826983222
  0
LINE
  5
3A0
100
AcDbEntity
  8
0
100
AcDbLine
 62
7
  6
CONTINUOUS
 10
58.838234663
 20
145.8826983208
 11
58.838234663
 21
146.5376983221
  0
LINE
  5
3A1
100
AcDbEntity
  8
0
100
AcDbLine
 62
7
  6
CONTINUOUS
 10
66.8882346625
 20
81.0826983462
 11
66.4182346631
 21
81.0826983462
  0
LINE
  5
3A2
100
AcDbEntity
  8
0
100
AcDbLine
 62
7
  6
CONTINUOUS
 10
58.6382346625
 20
81.0826983462
 11
58.1682346631
 21
81.0826983462
  0
LINE
  5
3A3
100
AcDbEntity
  8
0
100
AcDbLine
 62
7
  6
CONTINUOUS
 10
55.7682346633
 20
81.0826983467
 11
56.568234664
 21
81.0826983467
  0
LINE
  5
3A4
100
AcDbEntity
  8
0
100
AcDbLine
 62
7
  6
CONTINUOUS
 10
64.0182346631
 20
81.0826983467
 11
64.8182346629
 21
81.0826983467
  0
LINE
  5
3A5
100
AcDbEntity
  8
0
100
AcDbLine
 62
7
  6
CONTINUOUS
 10
64.8182346629
 20
81.8826979465
 11
64.0182346631
 21
81.8826979465
  0
LINE
  5
3A6
100
AcDbEntity
  8
0
100
AcDbLine
 62
7
  6
CONTINUOUS
 10
56.568234664
 20
81.8826979465
 11
55.7682346633
 21
81.8826979465
  0
LINE
  5
3A7
100
AcDbEntity
  8
0
100
AcDbLine
 62
7
  6
CONTINUOUS
 10
58.1682346631
 20
81.882698347
 11
58.6382346639
 21
81.882698347
  0
LINE
  5
3A8
100
AcDbEntity
  8
0
100
AcDbLine
 62
7
  6
CONTINUOUS
 10
66.4182346631
 20
81.8826983469
 11
66.8882346619
 21
81.8826983451
  0
LINE
  5
3A9
100
AcDbEntity
  8
0
100
AcDbLine
 62
7
  6
CONTINUOUS
 10
60.1682346631
 20
82.9326983458
 11
61.4682346638
 21
82.9326983458
  0
LINE
  5
3AA
100
AcDbEntity
  8
0
100
AcDbLine
 62
7
  6
CONTINUOUS
 10
53.8682346642
 20
83.0326983473
 11
58.1682346631
 21
83.0326983473
  0
LINE
  5
3AB
100
AcDbEntity
  8
0
100
AcDbLine
 62
7
  6
CONTINUOUS
 10
62.1182346624
 20
83.0326983455
 11
66.4182346631
 21
83.0326983455
  0
LINE
  5
3AC
100
AcDbEntity
  8
0
100
AcDbLine
 62
7
  6
CONTINUOUS
 10
66.4182346631
 20
83.4326983458
 11
62.1182346642
 21
83.4326983458
  0
LINE
  5
3AD
100
AcDbEntity
  8
0
100
AcDbLine
 62
7
  6
CONTINUOUS
 10
61.4682346638
 20
83.4326983458
 11
60.1682346631
 21
83.4326983458
  0
LINE
  5
3AE
100
AcDbEntity
  8
0
100
AcDbLine
 62
7
  6
CONTINUOUS
 10
58.1682346631
 20
83.4326983458
 11
53.8682346642
 21
83.4326983458
  0
LINE
  5
3AF
100
AcDbEntity
  8
0
100
AcDbLine
 62
7
  6
CONTINUOUS
 10
66.8882346625
 20
84.5826983462
 11
66.4182346631
 21
84.5826983462
  0
LINE
  5
3B0
100
AcDbEntity
  8
0
100
AcDbLine
 62
7
  6
CONTINUOUS
 10
58.6382346625
 20
84.5826983462
 11
58.1682346631
 21
84.5826983462
  0
LINE
  5
3B1
100
AcDbEntity
  8
0
100
AcDbLine
 62
7
  6
CONTINUOUS
 10
55.7682346633
 20
84.5826983467
 11
56.568234664
 21
84.5826983467
  0
LINE
  5
3B2
100
AcDbEntity
  8
0
100
AcDbLine
 62
7
  6
CONTINUOUS
 10
64.0182346631
 20
84.5826983467
 11
64.8182346629
 21
84.5826983467
  0
LINE
  5
3B3
100
AcDbEntity
  8
0
100
AcDbLine
 62
7
  6
CONTINUOUS
 10
64.8182346629
 20
85.3826979465
 11
64.0182346631
 21
85.3826979465
  0
LINE
  5
3B4
100
AcDbEntity
  8
0
100
AcDbLine
 62
7
  6
CONTINUOUS
 10
56.568234664
 20
85.3826979465
 11
55.7682346633
 21
85.3826979465
  0
LINE
  5
3B5
100
AcDbEntity
  8
0
100
AcDbLine
 62
7
  6
CONTINUOUS
 10
58.1682346631
 20
85.382698347
 11
58.6382346639
 21
85.382698347
  0
LINE
  5
3B6
100
AcDbEntity
  8
0
100
AcDbLine
 62
7
  6
CONTINUOUS
 10
66.4182346631
 20
85.3826983469
 11
66.8882346619
 21
85.3826983451
  0
LINE
  5
3B7
100
AcDbEntity
  8
0
100
AcDbLine
 62
7
  6
CONTINUOUS
 10
60.1682346631
 20
86.4326983458
 11
61.4682346638
 21
86.4326983458
  0
LINE
  5
3B8
100
AcDbEntity
  8
0
100
AcDbLine
 62
7
  6
CONTINUOUS
 10
59.5182346627
 20
83.4926983464
 11
58.838234663
 21
83.7276983458
  0
LINE
  5
3B9
100
AcDbEntity
  8
0
100
AcDbLine
 62
7
  6
CONTINUOUS
 10
67.2682346631
 20
83.6654924636
 11
67.088234663
 21
83.7276983458
  0
LINE
  5
3BA
100
AcDbEntity
  8
0
100
AcDbLine
 62
7
  6
CONTINUOUS
 10
59.5182346627
 20
86.9926983464
 11
58.838234663
 21
87.2276983458
  0
LINE
  5
3BB
100
AcDbEntity
  8
0
100
AcDbLine
 62
7
  6
CONTINUOUS
 10
32.7783274043
 20
99.6350629597
 11
42.7568508322
 21
94.1039169271
  0
LINE
  5
3BC
100
AcDbEntity
  8
0
100
AcDbLine
 62
7
  6
CONTINUOUS
 10
42.5396229942
 20
94.9721915139
 11
32.5683852989
 21
100.5163128171
  0
LINE
  5
3BD
100
AcDbEntity
  8
0
100
AcDbLine
 62
7
  6
CONTINUOUS
 10
59.5182346627
 20
146.7726983215
 11
59.5182346627
 21
143.792698321
  0
LINE
  5
3BE
100
AcDbEntity
  8
0
100
AcDbLine
 62
7
  6
CONTINUOUS
 10
59.5182346627
 20
143.2726983215
 11
59.5182346627
 21
140.292698321
  0
LINE
  5
3BF
100
AcDbEntity
  8
0
100
AcDbLine
 62
7
  6
CONTINUOUS
 10
59.5182346627
 20
139.7726983215
 11
59.5182346627
 21
136.792698321
  0
LINE
  5
3C0
100
AcDbEntity
  8
0
100
AcDbLine
 62
7
  6
CONTINUOUS
 10
59.5182346627
 20
136.2726983215
 11
59.5182346627
 21
133.292698321
  0
LINE
  5
3C1
100
AcDbEntity
  8
0
100
AcDbLine
 62
7
  6
CONTINUOUS
 10
59.5182346627
 20
132.7726983215
 11
59.5182346627
 21
129.792698321
  0
LINE
  5
3C2
100
AcDbEntity
  8
0
100
AcDbLine
 62
7
  6
CONTINUOUS
 10
59.5182346627
 20
129.2726983215
 11
59.5182346627
 21
126.292698321
  0
LINE
  5
3C3
100
AcDbEntity
  8
0
100
AcDbLine
 62
7
  6
CONTINUOUS
 10
59.5182346627
 20
100.4726983468
 11
59.5182346627
 21
97.4926983464
  0
LINE
  5
3C4
100
AcDbEntity
  8
0
100
AcDbLine
 62
7
  6
CONTINUOUS
 10
59.5182346627
 20
96.9726983468
 11
59.5182346627
 21
93.9926983464
  0
LINE
  5
3C5
100
AcDbEntity
  8
0
100
AcDbLine
 62
7
  6
CONTINUOUS
 10
59.5182346627
 20
93.4726983468
 11
59.5182346627
 21
90.4926983464
  0
LINE
  5
3C6
100
AcDbEntity
  8
0
100
AcDbLine
 62
7
  6
CONTINUOUS
 10
59.5182346627
 20
89.9726983468
 11
59.5182346627
 21
86.9926983464
  0
LINE
  5
3C7
100
AcDbEntity
  8
0
100
AcDbLine
 62
7
  6
CONTINUOUS
 10
59.5182346627
 20
86.4726983468
 11
59.5182346627
 21
83.4926983464
  0
LINE
  5
3C8
100
AcDbEntity
  8
0
100
AcDbLine
 62
7
  6
CONTINUOUS
 10
59.5182346627
 20
82.9726983468
 11
59.5182346627
 21
79.9926983464
  0
LINE
  5
3C9
100
AcDbEntity
  8
0
100
AcDbLine
 62
7
  6
CONTINUOUS
 10
59.5182346627
 20
79.4726983468
 11
59.5182346627
 21
76.4926983464
  0
LINE
  5
3CA
100
AcDbEntity
  8
0
100
AcDbLine
 62
7
  6
CONTINUOUS
 10
59.5182346627
 20
75.9726983468
 11
59.5182346627
 21
72.9926983464
  0
LINE
  5
3CB
100
AcDbEntity
  8
0
100
AcDbLine
 62
7
  6
CONTINUOUS
 10
59.5182346627
 20
72.4726983468
 11
59.5182346627
 21
69.4926983464
  0
LINE
  5
3CC
100
AcDbEntity
  8
0
100
AcDbLine
 62
7
  6
CONTINUOUS
 10
59.5182346627
 20
68.9726983468
 11
59.5182346627
 21
65.9926983464
  0
LINE
  5
3CD
100
AcDbEntity
  8
0
100
AcDbLine
 62
7
  6
CONTINUOUS
 10
59.5182346627
 20
65.4726983468
 11
59.5182346627
 21
62.4926983464
  0
LINE
  5
3CE
100
AcDbEntity
  8
0
100
AcDbLine
 62
7
  6
CONTINUOUS
 10
59.5182346627
 20
61.9726983468
 11
59.5182346627
 21
58.9926983464
  0
LINE
  5
3CF
100
AcDbEntity
  8
0
100
AcDbLine
 62
7
  6
CONTINUOUS
 10
59.5182346627
 20
58.4726983468
 11
59.5182346627
 21
55.4926983464
  0
LINE
  5
3D0
100
AcDbEntity
  8
0
100
AcDbLine
 62
7
  6
CONTINUOUS
 10
59.5182346627
 20
54.9726983468
 11
59.5182346627
 21
51.9926983464
  0
LINE
  5
3D1
100
AcDbEntity
  8
0
100
AcDbLine
 62
7
  6
CONTINUOUS
 10
59.5182346627
 20
51.4726983468
 11
59.5182346627
 21
48.4926983464
  0
LINE
  5
3D2
100
AcDbEntity
  8
0
100
AcDbLine
 62
7
  6
CONTINUOUS
 10
60.1682346631
 20
48.4326983458
 11
60.1682346631
 21
51.4326983458
  0
LINE
  5
3D3
100
AcDbEntity
  8
0
100
AcDbLine
 62
7
  6
CONTINUOUS
 10
60.1682346631
 20
51.9326983458
 11
60.1682346631
 21
54.9326983458
  0
LINE
  5
3D4
100
AcDbEntity
  8
0
100
AcDbLine
 62
7
  6
CONTINUOUS
 10
60.1682346631
 20
55.4326983458
 11
60.1682346631
 21
58.4326983458
  0
LINE
  5
3D5
100
AcDbEntity
  8
0
100
AcDbLine
 62
7
  6
CONTINUOUS
 10
60.1682346631
 20
58.9326983458
 11
60.1682346631
 21
61.9326983458
  0
LINE
  5
3D6
100
AcDbEntity
  8
0
100
AcDbLine
 62
7
  6
CONTINUOUS
 10
60.1682346631
 20
62.4326983458
 11
60.1682346631
 21
65.4326983458
  0
LINE
  5
3D7
100
AcDbEntity
  8
0
100
AcDbLine
 62
7
  6
CONTINUOUS
 10
60.1682346631
 20
65.9326983458
 11
60.1682346631
 21
68.9326983458
  0
LINE
  5
3D8
100
AcDbEntity
  8
0
100
AcDbLine
 62
7
  6
CONTINUOUS
 10
60.1682346631
 20
69.4326983458
 11
60.1682346631
 21
72.4326983458
  0
LINE
  5
3D9
100
AcDbEntity
  8
0
100
AcDbLine
 62
7
  6
CONTINUOUS
 10
60.1682346631
 20
72.9326983458
 11
60.1682346631
 21
75.9326983458
  0
LINE
  5
3DA
100
AcDbEntity
  8
0
100
AcDbLine
 62
7
  6
CONTINUOUS
 10
60.1682346631
 20
76.4326983458
 11
60.1682346631
 21
79.4326983458
  0
LINE
  5
3DB
100
AcDbEntity
  8
0
100
AcDbLine
 62
7
  6
CONTINUOUS
 10
60.1682346631
 20
79.9326983458
 11
60.1682346631
 21
82.9326983458
  0
LINE
  5
3DC
100
AcDbEntity
  8
0
100
AcDbLine
 62
7
  6
CONTINUOUS
 10
60.1682346631
 20
83.4326983458
 11
60.1682346631
 21
86.4326983458
  0
LINE
  5
3DD
100
AcDbEntity
  8
0
100
AcDbLine
 62
7
  6
CONTINUOUS
 10
60.1682346631
 20
86.9326983458
 11
60.1682346631
 21
89.9326983458
  0
LINE
  5
3DE
100
AcDbEntity
  8
0
100
AcDbLine
 62
7
  6
CONTINUOUS
 10
60.1682346631
 20
90.4326983458
 11
60.1682346631
 21
93.4326983458
  0
LINE
  5
3DF
100
AcDbEntity
  8
0
100
AcDbLine
 62
7
  6
CONTINUOUS
 10
60.1682346631
 20
93.9326983458
 11
60.1682346631
 21
96.9326983458
  0
LINE
  5
3E0
100
AcDbEntity
  8
0
100
AcDbLine
 62
7
  6
CONTINUOUS
 10
60.1682346631
 20
97.4326983458
 11
60.1682346631
 21
100.4326983458
  0
LINE
  5
3E1
100
AcDbEntity
  8
0
100
AcDbLine
 62
7
  6
CONTINUOUS
 10
61.4682346638
 20
100.4326983458
 11
61.4682346638
 21
97.4326983458
  0
LINE
  5
3E2
100
AcDbEntity
  8
0
100
AcDbLine
 62
7
  6
CONTINUOUS
 10
61.4682346638
 20
96.9326983458
 11
61.4682346638
 21
93.9326983458
  0
LINE
  5
3E3
100
AcDbEntity
  8
0
100
AcDbLine
 62
7
  6
CONTINUOUS
 10
61.4682346638
 20
93.4326983458
 11
61.4682346638
 21
90.4326983458
  0
LINE
  5
3E4
100
AcDbEntity
  8
0
100
AcDbLine
 62
7
  6
CONTINUOUS
 10
61.4682346638
 20
89.9326983458
 11
61.4682346638
 21
86.9326983458
  0
LINE
  5
3E5
100
AcDbEntity
  8
0
100
AcDbLine
 62
7
  6
CONTINUOUS
 10
61.4682346638
 20
86.4326983458
 11
61.4682346638
 21
83.4326983458
  0
LINE
  5
3E6
100
AcDbEntity
  8
0
100
AcDbLine
 62
7
  6
CONTINUOUS
 10
61.4682346638
 20
82.9326983458
 11
61.4682346638
 21
79.9326983458
  0
LINE
  5
3E7
100
AcDbEntity
  8
0
100
AcDbLine
 62
7
  6
CONTINUOUS
 10
61.4682346638
 20
79.4326983458
 11
61.4682346638
 21
76.4326983458
  0
LINE
  5
3E8
100
AcDbEntity
  8
0
100
AcDbLine
 62
7
  6
CONTINUOUS
 10
61.4682346638
 20
75.9326983458
 11
61.4682346638
 21
72.9326983458
  0
LINE
  5
3E9
100
AcDbEntity
  8
0
100
AcDbLine
 62
7
  6
CONTINUOUS
 10
61.4682346638
 20
72.4326983458
 11
61.4682346638
 21
69.4326983458
  0
LINE
  5
3EA
100
AcDbEntity
  8
0
100
AcDbLine
 62
7
  6
CONTINUOUS
 10
61.4682346638
 20
68.9326983458
 11
61.4682346638
 21
65.9326983458
  0
LINE
  5
3EB
100
AcDbEntity
  8
0
100
AcDbLine
 62
7
  6
CONTINUOUS
 10
61.4682346638
 20
65.4326983458
 11
61.4682346638
 21
62.4326983458
  0
LINE
  5
3EC
100
AcDbEntity
  8
0
100
AcDbLine
 62
7
  6
CONTINUOUS
 10
61.4682346638
 20
61.9326983458
 11
61.4682346638
 21
58.9326983458
  0
LINE
  5
3ED
100
AcDbEntity
  8
0
100
AcDbLine
 62
7
  6
CONTINUOUS
 10
61.4682346638
 20
58.4326983458
 11
61.4682346638
 21
55.4326983458
  0
LINE
  5
3EE
100
AcDbEntity
  8
0
100
AcDbLine
 62
7
  6
CONTINUOUS
 10
61.4682346638
 20
54.9326983458
 11
61.4682346638
 21
51.9326983458
  0
LINE
  5
3EF
100
AcDbEntity
  8
0
100
AcDbLine
 62
7
  6
CONTINUOUS
 10
61.4682346638
 20
51.4326983458
 11
61.4682346638
 21
48.4326983458
  0
LINE
  5
3F0
100
AcDbEntity
  8
0
100
AcDbLine
 62
7
  6
CONTINUOUS
 10
62.1182346642
 20
48.4326983458
 11
62.1182346642
 21
49.0826983495
  0
LINE
  5
3F1
100
AcDbEntity
  8
0
100
AcDbLine
 62
7
  6
CONTINUOUS
 10
62.1182346624
 20
50.8826983449
 11
62.1182346624
 21
51.5326983455
  0
LINE
  5
3F2
100
AcDbEntity
  8
0
100
AcDbLine
 62
7
  6
CONTINUOUS
 10
62.1182346642
 20
51.9326983458
 11
62.1182346642
 21
52.5826983495
  0
LINE
  5
3F3
100
AcDbEntity
  8
0
100
AcDbLine
 62
7
  6
CONTINUOUS
 10
62.1182346624
 20
54.3826983449
 11
62.1182346624
 21
55.0326983455
  0
LINE
  5
3F4
100
AcDbEntity
  8
0
100
AcDbLine
 62
7
  6
CONTINUOUS
 10
62.1182346642
 20
55.4326983458
 11
62.1182346642
 21
56.0826983495
  0
LINE
  5
3F5
100
AcDbEntity
  8
0
100
AcDbLine
 62
7
  6
CONTINUOUS
 10
62.1182346624
 20
57.8826983449
 11
62.1182346624
 21
58.5326983455
  0
LINE
  5
3F6
100
AcDbEntity
  8
0
100
AcDbLine
 62
7
  6
CONTINUOUS
 10
62.1182346642
 20
58.9326983458
 11
62.1182346642
 21
59.5826983495
  0
LINE
  5
3F7
100
AcDbEntity
  8
0
100
AcDbLine
 62
7
  6
CONTINUOUS
 10
62.1182346624
 20
61.3826983449
 11
62.1182346624
 21
62.0326983455
  0
LINE
  5
3F8
100
AcDbEntity
  8
0
100
AcDbLine
 62
7
  6
CONTINUOUS
 10
62.1182346642
 20
62.4326983458
 11
62.1182346642
 21
63.0826983495
  0
LINE
  5
3F9
100
AcDbEntity
  8
0
100
AcDbLine
 62
7
  6
CONTINUOUS
 10
62.1182346624
 20
64.8826983449
 11
62.1182346624
 21
65.5326983455
  0
LINE
  5
3FA
100
AcDbEntity
  8
0
100
AcDbLine
 62
7
  6
CONTINUOUS
 10
62.1182346642
 20
65.9326983458
 11
62.1182346642
 21
66.5826983495
  0
LINE
  5
3FB
100
AcDbEntity
  8
0
100
AcDbLine
 62
7
  6
CONTINUOUS
 10
62.1182346624
 20
68.3826983449
 11
62.1182346624
 21
69.0326983455
  0
LINE
  5
3FC
100
AcDbEntity
  8
0
100
AcDbLine
 62
7
  6
CONTINUOUS
 10
62.1182346642
 20
69.4326983458
 11
62.1182346642
 21
70.0826983495
  0
LINE
  5
3FD
100
AcDbEntity
  8
0
100
AcDbLine
 62
7
  6
CONTINUOUS
 10
62.1182346624
 20
71.8826983449
 11
62.1182346624
 21
72.5326983455
  0
LINE
  5
3FE
100
AcDbEntity
  8
0
100
AcDbLine
 62
7
  6
CONTINUOUS
 10
62.1182346642
 20
72.9326983458
 11
62.1182346642
 21
73.5826983495
  0
LINE
  5
3FF
100
AcDbEntity
  8
0
100
AcDbLine
 62
7
  6
CONTINUOUS
 10
62.1182346624
 20
75.3826983449
 11
62.1182346624
 21
76.0326983455
  0
LINE
  5
400
100
AcDbEntity
  8
0
100
AcDbLine
 62
7
  6
CONTINUOUS
 10
62.1182346642
 20
76.4326983458
 11
62.1182346642
 21
77.0826983495
  0
LINE
  5
401
100
AcDbEntity
  8
0
100
AcDbLine
 62
7
  6
CONTINUOUS
 10
62.1182346624
 20
78.8826983449
 11
62.1182346624
 21
79.5326983455
  0
LINE
  5
402
100
AcDbEntity
  8
0
100
AcDbLine
 62
7
  6
CONTINUOUS
 10
62.1182346642
 20
79.9326983458
 11
62.1182346642
 21
80.5826983495
  0
LINE
  5
403
100
AcDbEntity
  8
0
100
AcDbLine
 62
7
  6
CONTINUOUS
 10
62.1182346624
 20
82.3826983449
 11
62.1182346624
 21
83.0326983455
  0
LINE
  5
404
100
AcDbEntity
  8
0
100
AcDbLine
 62
7
  6
CONTINUOUS
 10
62.1182346642
 20
83.4326983458
 11
62.1182346642
 21
84.0826983495
  0
LINE
  5
405
100
AcDbEntity
  8
0
100
AcDbLine
 62
7
  6
CONTINUOUS
 10
62.1182346624
 20
85.8826983449
 11
62.1182346624
 21
86.5326983455
  0
LINE
  5
406
100
AcDbEntity
  8
0
100
AcDbLine
 62
7
  6
CONTINUOUS
 10
62.1182346642
 20
86.9326983458
 11
62.1182346642
 21
87.5826983495
  0
LINE
  5
407
100
AcDbEntity
  8
0
100
AcDbLine
 62
7
  6
CONTINUOUS
 10
62.1182346624
 20
89.382698345
 11
62.1182346624
 21
90.0326983455
  0
LINE
  5
408
100
AcDbEntity
  8
0
100
AcDbLine
 62
7
  6
CONTINUOUS
 10
62.1182346642
 20
90.4326983458
 11
62.1182346642
 21
91.0826983495
  0
LINE
  5
409
100
AcDbEntity
  8
0
100
AcDbLine
 62
7
  6
CONTINUOUS
 10
62.1182346624
 20
92.882698345
 11
62.1182346624
 21
93.5326983455
  0
LINE
  5
40A
100
AcDbEntity
  8
0
100
AcDbLine
 62
7
  6
CONTINUOUS
 10
62.1182346642
 20
93.9326983458
 11
62.1182346642
 21
94.5826983495
  0
LINE
  5
40B
100
AcDbEntity
  8
0
100
AcDbLine
 62
7
  6
CONTINUOUS
 10
62.1182346624
 20
96.382698345
 11
62.1182346624
 21
97.0326983455
  0
LINE
  5
40C
100
AcDbEntity
  8
0
100
AcDbLine
 62
7
  6
CONTINUOUS
 10
62.1182346642
 20
97.4326983458
 11
62.1182346642
 21
98.0826983495
  0
LINE
  5
40D
100
AcDbEntity
  8
0
100
AcDbLine
 62
7
  6
CONTINUOUS
 10
62.1182346624
 20
99.882698345
 11
62.1182346624
 21
100.5326983455
  0
LINE
  5
40E
100
AcDbEntity
  8
0
100
AcDbLine
 62
7
  6
CONTINUOUS
 10
62.1182346642
 20
126.2326983205
 11
62.1182346642
 21
126.8826983209
  0
LINE
  5
40F
100
AcDbEntity
  8
0
100
AcDbLine
 62
7
  6
CONTINUOUS
 10
62.1182346642
 20
128.6826983214
 11
62.1182346642
 21
129.332698322
  0
LINE
  5
410
100
AcDbEntity
  8
0
100
AcDbLine
 62
7
  6
CONTINUOUS
 10
62.1182346642
 20
129.7326983205
 11
62.1182346642
 21
130.3826983209
  0
LINE
  5
411
100
AcDbEntity
  8
0
100
AcDbLine
 62
7
  6
CONTINUOUS
 10
62.1182346642
 20
132.1826983214
 11
62.1182346642
 21
132.832698322
  0
LINE
  5
412
100
AcDbEntity
  8
0
100
AcDbLine
 62
7
  6
CONTINUOUS
 10
62.1182346642
 20
133.2326983205
 11
62.1182346642
 21
133.8826983209
  0
LINE
  5
413
100
AcDbEntity
  8
0
100
AcDbLine
 62
7
  6
CONTINUOUS
 10
62.1182346642
 20
135.6826983214
 11
62.1182346642
 21
136.332698322
  0
LINE
  5
414
100
AcDbEntity
  8
0
100
AcDbLine
 62
7
  6
CONTINUOUS
 10
62.1182346642
 20
136.7326983205
 11
62.1182346642
 21
137.3826983209
  0
LINE
  5
415
100
AcDbEntity
  8
0
100
AcDbLine
 62
7
  6
CONTINUOUS
 10
62.1182346642
 20
139.1826983214
 11
62.1182346642
 21
139.832698322
  0
LINE
  5
416
100
AcDbEntity
  8
0
100
AcDbLine
 62
7
  6
CONTINUOUS
 10
62.1182346642
 20
140.2326983205
 11
62.1182346642
 21
140.8826983209
  0
LINE
  5
417
100
AcDbEntity
  8
0
100
AcDbLine
 62
7
  6
CONTINUOUS
 10
62.1182346642
 20
142.6826983214
 11
62.1182346642
 21
143.332698322
  0
LINE
  5
418
100
AcDbEntity
  8
0
100
AcDbLine
 62
7
  6
CONTINUOUS
 10
62.1182346642
 20
143.7326983205
 11
62.1182346642
 21
144.3826983209
  0
LINE
  5
419
100
AcDbEntity
  8
0
100
AcDbLine
 62
7
  6
CONTINUOUS
 10
62.1182346642
 20
146.1826983214
 11
62.1182346642
 21
146.832698322
  0
LINE
  5
41A
100
AcDbEntity
  8
0
100
AcDbLine
 62
7
  6
CONTINUOUS
 10
64.0182346631
 20
49.5826983467
 11
64.0182346631
 21
50.382698347
  0
LINE
  5
41B
100
AcDbEntity
  8
0
100
AcDbLine
 62
7
  6
CONTINUOUS
 10
64.0182346631
 20
53.0826983467
 11
64.0182346631
 21
53.882698347
  0
LINE
  5
41C
100
AcDbEntity
  8
0
100
AcDbLine
 62
7
  6
CONTINUOUS
 10
64.0182346631
 20
56.5826983467
 11
64.0182346631
 21
57.382698347
  0
LINE
  5
41D
100
AcDbEntity
  8
0
100
AcDbLine
 62
7
  6
CONTINUOUS
 10
64.0182346631
 20
60.0826983467
 11
64.0182346631
 21
60.882698347
  0
LINE
  5
41E
100
AcDbEntity
  8
0
100
AcDbLine
 62
7
  6
CONTINUOUS
 10
64.0182346631
 20
63.5826983467
 11
64.0182346631
 21
64.382698347
  0
LINE
  5
41F
100
AcDbEntity
  8
0
100
AcDbLine
 62
7
  6
CONTINUOUS
 10
64.0182346631
 20
67.0826983467
 11
64.0182346631
 21
67.882698347
  0
LINE
  5
420
100
AcDbEntity
  8
0
100
AcDbLine
 62
7
  6
CONTINUOUS
 10
64.0182346631
 20
70.5826983467
 11
64.0182346631
 21
71.382698347
  0
LINE
  5
421
100
AcDbEntity
  8
0
100
AcDbLine
 62
7
  6
CONTINUOUS
 10
64.0182346631
 20
74.0826983467
 11
64.0182346631
 21
74.882698347
  0
LINE
  5
422
100
AcDbEntity
  8
0
100
AcDbLine
 62
7
  6
CONTINUOUS
 10
64.0182346631
 20
77.5826983467
 11
64.0182346631
 21
78.382698347
  0
LINE
  5
423
100
AcDbEntity
  8
0
100
AcDbLine
 62
7
  6
CONTINUOUS
 10
64.0182346631
 20
81.0826983467
 11
64.0182346631
 21
81.882698347
  0
LINE
  5
424
100
AcDbEntity
  8
0
100
AcDbLine
 62
7
  6
CONTINUOUS
 10
64.0182346631
 20
84.5826983467
 11
64.0182346631
 21
85.382698347
  0
LINE
  5
425
100
AcDbEntity
  8
0
100
AcDbLine
 62
7
  6
CONTINUOUS
 10
64.0182346631
 20
88.0826983467
 11
64.0182346631
 21
88.882698347
  0
LINE
  5
426
100
AcDbEntity
  8
0
100
AcDbLine
 62
7
  6
CONTINUOUS
 10
64.0182346631
 20
91.5826983467
 11
64.0182346631
 21
92.382698347
  0
LINE
  5
427
100
AcDbEntity
  8
0
100
AcDbLine
 62
7
  6
CONTINUOUS
 10
64.0182346631
 20
95.0826983467
 11
64.0182346631
 21
95.882698347
  0
LINE
  5
428
100
AcDbEntity
  8
0
100
AcDbLine
 62
7
  6
CONTINUOUS
 10
64.0182346631
 20
98.5826983467
 11
64.0182346631
 21
99.382698347
  0
LINE
  5
429
100
AcDbEntity
  8
0
100
AcDbLine
 62
7
  6
CONTINUOUS
 10
64.0182346631
 20
127.3826983222
 11
64.0182346631
 21
128.1826983198
  0
LINE
  5
42A
100
AcDbEntity
  8
0
100
AcDbLine
 62
7
  6
CONTINUOUS
 10
64.0182346631
 20
130.8826983222
 11
64.0182346631
 21
131.6826983198
  0
LINE
  5
42B
100
AcDbEntity
  8
0
100
AcDbLine
 62
7
  6
CONTINUOUS
 10
64.0182346631
 20
134.3826979465
 11
64.0182346631
 21
135.1826983198
  0
LINE
  5
42C
100
AcDbEntity
  8
0
100
AcDbLine
 62
7
  6
CONTINUOUS
 10
64.0182346631
 20
137.8826983222
 11
64.0182346631
 21
138.6826983198
  0
LINE
  5
42D
100
AcDbEntity
  8
0
100
AcDbLine
 62
7
  6
CONTINUOUS
 10
64.0182346631
 20
141.3826983222
 11
64.0182346631
 21
142.1826983198
  0
LINE
  5
42E
100
AcDbEntity
  8
0
100
AcDbLine
 62
7
  6
CONTINUOUS
 10
64.0182346631
 20
144.8826983222
 11
64.0182346631
 21
145.6826983198
  0
LINE
  5
42F
100
AcDbEntity
  8
0
100
AcDbLine
 62
7
  6
CONTINUOUS
 10
64.8182346629
 20
145.682698319
 11
64.8182346629
 21
144.882698322
  0
LINE
  5
430
100
AcDbEntity
  8
0
100
AcDbLine
 62
7
  6
CONTINUOUS
 10
64.8182346629
 20
142.182698319
 11
64.8182346629
 21
141.382698322
  0
LINE
  5
431
100
AcDbEntity
  8
0
100
AcDbLine
 62
7
  6
CONTINUOUS
 10
64.8182346629
 20
138.682698319
 11
64.8182346629
 21
137.882698322
  0
LINE
  5
432
100
AcDbEntity
  8
0
100
AcDbLine
 62
7
  6
CONTINUOUS
 10
64.8182346629
 20
135.182698319
 11
64.8182346629
 21
134.3826979458
  0
LINE
  5
433
100
AcDbEntity
  8
0
100
AcDbLine
 62
7
  6
CONTINUOUS
 10
64.8182346629
 20
131.682698319
 11
64.8182346629
 21
130.882698322
  0
LINE
  5
434
100
AcDbEntity
  8
0
100
AcDbLine
 62
7
  6
CONTINUOUS
 10
64.8182346629
 20
128.182698319
 11
64.8182346629
 21
127.382698322
  0
LINE
  5
435
100
AcDbEntity
  8
0
100
AcDbLine
 62
7
  6
CONTINUOUS
 10
64.8182346629
 20
99.3826983462
 11
64.8182346629
 21
98.5826983473
  0
LINE
  5
436
100
AcDbEntity
  8
0
100
AcDbLine
 62
7
  6
CONTINUOUS
 10
64.8182346629
 20
95.8826983462
 11
64.8182346629
 21
95.0826983473
  0
LINE
  5
437
100
AcDbEntity
  8
0
100
AcDbLine
 62
7
  6
CONTINUOUS
 10
64.8182346629
 20
92.3826983462
 11
64.8182346629
 21
91.5826983473
  0
LINE
  5
438
100
AcDbEntity
  8
0
100
AcDbLine
 62
7
  6
CONTINUOUS
 10
64.8182346629
 20
88.8826983462
 11
64.8182346629
 21
88.0826983473
  0
LINE
  5
439
100
AcDbEntity
  8
0
100
AcDbLine
 62
7
  6
CONTINUOUS
 10
64.8182346629
 20
85.3826983462
 11
64.8182346629
 21
84.5826983473
  0
LINE
  5
43A
100
AcDbEntity
  8
0
100
AcDbLine
 62
7
  6
CONTINUOUS
 10
64.8182346629
 20
81.8826983462
 11
64.8182346629
 21
81.0826983473
  0
LINE
  5
43B
100
AcDbEntity
  8
0
100
AcDbLine
 62
7
  6
CONTINUOUS
 10
64.8182346629
 20
78.3826983462
 11
64.8182346629
 21
77.5826983473
  0
LINE
  5
43C
100
AcDbEntity
  8
0
100
AcDbLine
 62
7
  6
CONTINUOUS
 10
64.8182346629
 20
74.8826983462
 11
64.8182346629
 21
74.0826983473
  0
LINE
  5
43D
100
AcDbEntity
  8
0
100
AcDbLine
 62
7
  6
CONTINUOUS
 10
64.8182346629
 20
71.3826983462
 11
64.8182346629
 21
70.5826983473
  0
LINE
  5
43E
100
AcDbEntity
  8
0
100
AcDbLine
 62
7
  6
CONTINUOUS
 10
64.8182346629
 20
67.8826983462
 11
64.8182346629
 21
67.0826983473
  0
LINE
  5
43F
100
AcDbEntity
  8
0
100
AcDbLine
 62
7
  6
CONTINUOUS
 10
64.8182346629
 20
64.3826983462
 11
64.8182346629
 21
63.5826983473
  0
LINE
  5
440
100
AcDbEntity
  8
0
100
AcDbLine
 62
7
  6
CONTINUOUS
 10
64.8182346629
 20
60.8826983462
 11
64.8182346629
 21
60.0826983473
  0
LINE
  5
441
100
AcDbEntity
  8
0
100
AcDbLine
 62
7
  6
CONTINUOUS
 10
64.8182346629
 20
57.3826983462
 11
64.8182346629
 21
56.5826983473
  0
LINE
  5
442
100
AcDbEntity
  8
0
100
AcDbLine
 62
7
  6
CONTINUOUS
 10
64.8182346629
 20
53.8826983462
 11
64.8182346629
 21
53.0826983473
  0
LINE
  5
443
100
AcDbEntity
  8
0
100
AcDbLine
 62
7
  6
CONTINUOUS
 10
64.8182346629
 20
50.3826983462
 11
64.8182346629
 21
49.5826983473
  0
LINE
  5
444
100
AcDbEntity
  8
0
100
AcDbLine
 62
7
  6
CONTINUOUS
 10
68.5347928672
 20
159.4060274158
 11
68.2982346631
 21
157.8326979465
  0
LINE
  5
445
100
AcDbEntity
  8
0
100
AcDbLine
 62
7
  6
CONTINUOUS
 10
58.838234663
 20
100.2376983474
 11
59.5182346627
 21
100.4726983468
  0
LINE
  5
446
100
AcDbEntity
  8
0
100
AcDbLine
 62
7
  6
CONTINUOUS
 10
78.2831283499
 20
93.216030962
 11
78.4427027991
 21
93.2576979466
  0
LINE
  5
447
100
AcDbEntity
  8
0
100
AcDbLine
 62
7
  6
CONTINUOUS
 10
77.9639793027
 20
94.2160314388
 11
78.1235537518
 21
94.2576979465
  0
LINE
  5
448
100
AcDbEntity
  8
0
100
AcDbLine
 62
7
  6
CONTINUOUS
 10
53.8682346642
 20
86.5326983473
 11
58.1682346631
 21
86.5326983473
  0
LINE
  5
449
100
AcDbEntity
  8
0
100
AcDbLine
 62
7
  6
CONTINUOUS
 10
62.1182346624
 20
86.5326983455
 11
66.4182346631
 21
86.5326983455
  0
LINE
  5
44A
100
AcDbEntity
  8
0
100
AcDbLine
 62
7
  6
CONTINUOUS
 10
88.1182346631
 20
86.5879512375
 11
89.5159252934
 21
86.5879512375
  0
LINE
  5
44B
100
AcDbEntity
  8
0
100
AcDbLine
 62
7
  6
CONTINUOUS
 10
66.4182346631
 20
86.9326983458
 11
62.1182346642
 21
86.9326983458
  0
LINE
  5
44C
100
AcDbEntity
  8
0
100
AcDbLine
 62
7
  6
CONTINUOUS
 10
61.4682346638
 20
86.9326983458
 11
60.1682346631
 21
86.9326983458
  0
LINE
  5
44D
100
AcDbEntity
  8
0
100
AcDbLine
 62
7
  6
CONTINUOUS
 10
58.1682346631
 20
86.9326983458
 11
53.8682346642
 21
86.9326983458
  0
LINE
  5
44E
100
AcDbEntity
  8
0
100
AcDbLine
 62
7
  6
CONTINUOUS
 10
82.9182346631
 20
87.5326979465
 11
88.1182346635
 21
87.5326979465
  0
LINE
  5
44F
100
AcDbEntity
  8
0
100
AcDbLine
 62
7
  6
CONTINUOUS
 10
66.8882346624
 20
88.0826983462
 11
66.4182346631
 21
88.0826983462
  0
LINE
  5
450
100
AcDbEntity
  8
0
100
AcDbLine
 62
7
  6
CONTINUOUS
 10
58.6382346624
 20
88.0826983462
 11
58.1682346631
 21
88.0826983462
  0
LINE
  5
451
100
AcDbEntity
  8
0
100
AcDbLine
 62
7
  6
CONTINUOUS
 10
55.7682346633
 20
88.0826983467
 11
56.568234664
 21
88.0826983467
  0
LINE
  5
452
100
AcDbEntity
  8
0
100
AcDbLine
 62
7
  6
CONTINUOUS
 10
64.0182346631
 20
88.0826983467
 11
64.8182346629
 21
88.0826983467
  0
LINE
  5
453
100
AcDbEntity
  8
0
100
AcDbLine
 62
7
  6
CONTINUOUS
 10
89.5159252934
 20
88.5861516438
 11
91.0182346634
 21
88.5861516437
  0
LINE
  5
454
100
AcDbEntity
  8
0
100
AcDbLine
 62
7
  6
CONTINUOUS
 10
64.8182346629
 20
88.8826979465
 11
64.0182346631
 21
88.8826979465
  0
LINE
  5
455
100
AcDbEntity
  8
0
100
AcDbLine
 62
7
  6
CONTINUOUS
 10
56.568234664
 20
88.8826979465
 11
55.7682346633
 21
88.8826979465
  0
LINE
  5
456
100
AcDbEntity
  8
0
100
AcDbLine
 62
7
  6
CONTINUOUS
 10
58.1682346631
 20
88.882698347
 11
58.6382346638
 21
88.882698347
  0
LINE
  5
457
100
AcDbEntity
  8
0
100
AcDbLine
 62
7
  6
CONTINUOUS
 10
66.4182346631
 20
88.882698347
 11
66.8882346619
 21
88.8826983451
  0
LINE
  5
458
100
AcDbEntity
  8
0
100
AcDbLine
 62
7
  6
CONTINUOUS
 10
60.1682346631
 20
89.9326983458
 11
61.4682346638
 21
89.9326983458
  0
LINE
  5
459
100
AcDbEntity
  8
0
100
AcDbLine
 62
7
  6
CONTINUOUS
 10
53.8682346642
 20
90.0326983473
 11
58.1682346631
 21
90.0326983473
  0
LINE
  5
45A
100
AcDbEntity
  8
0
100
AcDbLine
 62
7
  6
CONTINUOUS
 10
62.1182346624
 20
90.0326983455
 11
66.4182346631
 21
90.0326983455
  0
LINE
  5
45B
100
AcDbEntity
  8
0
100
AcDbLine
 62
7
  6
CONTINUOUS
 10
66.4182346631
 20
90.4326983458
 11
62.1182346642
 21
90.4326983458
  0
LINE
  5
45C
100
AcDbEntity
  8
0
100
AcDbLine
 62
7
  6
CONTINUOUS
 10
61.4682346638
 20
90.4326983458
 11
60.1682346631
 21
90.4326983458
  0
LINE
  5
45D
100
AcDbEntity
  8
0
100
AcDbLine
 62
7
  6
CONTINUOUS
 10
58.1682346631
 20
90.4326983458
 11
53.8682346642
 21
90.4326983458
  0
LINE
  5
45E
100
AcDbEntity
  8
0
100
AcDbLine
 62
7
  6
CONTINUOUS
 10
42.9682346631
 20
90.8326979465
 11
43.1682346635
 21
90.8326979465
  0
LINE
  5
45F
100
AcDbEntity
  8
0
100
AcDbLine
 62
7
  6
CONTINUOUS
 10
70.409853349
 20
91.3826979466
 11
78.7627672543
 21
91.3826979465
  0
LINE
  5
460
100
AcDbEntity
  8
0
100
AcDbLine
 62
7
  6
CONTINUOUS
 10
70.5412273261
 20
91.4862566044
 11
78.682793071
 21
91.4862566044
  0
LINE
  5
461
100
AcDbEntity
  8
0
100
AcDbLine
 62
7
  6
CONTINUOUS
 10
66.8882346624
 20
91.5826983462
 11
66.4182346631
 21
91.5826983462
  0
LINE
  5
462
100
AcDbEntity
  8
0
100
AcDbLine
 62
7
  6
CONTINUOUS
 10
58.6382346624
 20
91.5826983462
 11
58.1682346631
 21
91.5826983462
  0
LINE
  5
463
100
AcDbEntity
  8
0
100
AcDbLine
 62
7
  6
CONTINUOUS
 10
55.7682346633
 20
91.5826983467
 11
56.568234664
 21
91.5826983467
  0
LINE
  5
464
100
AcDbEntity
  8
0
100
AcDbLine
 62
7
  6
CONTINUOUS
 10
64.0182346631
 20
91.5826983467
 11
64.8182346629
 21
91.5826983467
  0
LINE
  5
465
100
AcDbEntity
  8
0
100
AcDbLine
 62
7
  6
CONTINUOUS
 10
43.1682346635
 20
91.7252319022
 11
43.2682346631
 21
91.7252319022
  0
LINE
  5
466
100
AcDbEntity
  8
0
100
AcDbLine
 62
7
  6
CONTINUOUS
 10
78.682999815
 20
91.9851206552
 11
70.5412273258
 21
91.9851206552
  0
LINE
  5
467
100
AcDbEntity
  8
0
100
AcDbLine
 62
7
  6
CONTINUOUS
 10
42.9682346631
 20
92.2326979465
 11
43.2682346631
 21
92.2326979465
  0
LINE
  5
468
100
AcDbEntity
  8
0
100
AcDbLine
 62
7
  6
CONTINUOUS
 10
70.2206573862
 20
92.3056899062
 11
69.7217933352
 21
92.3056899066
  0
LINE
  5
469
100
AcDbEntity
  8
0
100
AcDbLine
 62
7
  6
CONTINUOUS
 10
79.5146759832
 20
92.3181395135
 11
79.0158119322
 21
92.3181395139
  0
LINE
  5
46A
100
AcDbEntity
  8
0
100
AcDbLine
 62
7
  6
CONTINUOUS
 10
64.8182346629
 20
92.3826979465
 11
64.0182346631
 21
92.3826979465
  0
LINE
  5
46B
100
AcDbEntity
  8
0
100
AcDbLine
 62
7
  6
CONTINUOUS
 10
56.568234664
 20
92.3826979465
 11
55.7682346633
 21
92.3826979465
  0
LINE
  5
46C
100
AcDbEntity
  8
0
100
AcDbLine
 62
7
  6
CONTINUOUS
 10
58.1682346631
 20
92.382698347
 11
58.6382346638
 21
92.382698347
  0
LINE
  5
46D
100
AcDbEntity
  8
0
100
AcDbLine
 62
7
  6
CONTINUOUS
 10
66.4182346631
 20
92.382698347
 11
66.8882346619
 21
92.3826983451
  0
LINE
  5
46E
100
AcDbEntity
  8
0
100
AcDbLine
 62
7
  6
CONTINUOUS
 10
67.2682346631
 20
87.1654924636
 11
67.088234663
 21
87.2276983458
  0
LINE
  5
46F
100
AcDbEntity
  8
0
100
AcDbLine
 62
7
  6
CONTINUOUS
 10
59.5182346627
 20
90.4926983464
 11
58.838234663
 21
90.7276983458
  0
LINE
  5
470
100
AcDbEntity
  8
0
100
AcDbLine
 62
7
  6
CONTINUOUS
 10
67.2682346631
 20
90.6654924635
 11
67.088234663
 21
90.7276983458
  0
LINE
  5
471
100
AcDbEntity
  8
0
100
AcDbLine
 62
7
  6
CONTINUOUS
 10
59.5182346627
 20
93.9926983464
 11
58.838234663
 21
94.2276983458
  0
LINE
  5
472
100
AcDbEntity
  8
0
100
AcDbLine
 62
7
  6
CONTINUOUS
 10
68.5347928672
 20
35.8593684773
 11
68.2982346631
 21
37.4326979465
  0
LINE
  5
473
100
AcDbEntity
  8
0
100
AcDbLine
 62
7
  6
CONTINUOUS
 10
66.3018553517
 20
153.713072387
 11
66.3018553517
 21
150.9567358722
  0
LINE
  5
474
100
AcDbEntity
  8
0
100
AcDbLine
 62
7
  6
CONTINUOUS
 10
66.3018553517
 20
122.108660021
 11
66.3018553517
 21
104.6567358715
  0
LINE
  5
475
100
AcDbEntity
  8
0
100
AcDbLine
 62
7
  6
CONTINUOUS
 10
66.3018553517
 20
44.3086600221
 11
66.3018553517
 21
41.41954098
  0
LINE
  5
476
100
AcDbEntity
  8
0
100
AcDbLine
 62
7
  6
CONTINUOUS
 10
66.4182346631
 20
146.832698322
 11
66.4182346631
 21
145.6826983216
  0
LINE
  5
477
100
AcDbEntity
  8
0
100
AcDbLine
 62
7
  6
CONTINUOUS
 10
66.4182346631
 20
144.8826983227
 11
66.4182346631
 21
143.7326983223
  0
LINE
  5
478
100
AcDbEntity
  8
0
100
AcDbLine
 62
7
  6
CONTINUOUS
 10
66.4182346631
 20
143.332698322
 11
66.4182346631
 21
142.1826983216
  0
LINE
  5
479
100
AcDbEntity
  8
0
100
AcDbLine
 62
7
  6
CONTINUOUS
 10
66.4182346631
 20
141.3826983227
 11
66.4182346631
 21
140.2326983223
  0
LINE
  5
47A
100
AcDbEntity
  8
0
100
AcDbLine
 62
7
  6
CONTINUOUS
 10
66.4182346631
 20
139.832698322
 11
66.4182346631
 21
138.6826983216
  0
LINE
  5
47B
100
AcDbEntity
  8
0
100
AcDbLine
 62
7
  6
CONTINUOUS
 10
66.4182346631
 20
137.8826983227
 11
66.4182346631
 21
136.7326983223
  0
LINE
  5
47C
100
AcDbEntity
  8
0
100
AcDbLine
 62
7
  6
CONTINUOUS
 10
66.4182346631
 20
136.332698322
 11
66.4182346631
 21
135.1826983216
  0
LINE
  5
47D
100
AcDbEntity
  8
0
100
AcDbLine
 62
7
  6
CONTINUOUS
 10
66.4182346631
 20
134.3826983227
 11
66.4182346631
 21
133.2326983223
  0
LINE
  5
47E
100
AcDbEntity
  8
0
100
AcDbLine
 62
7
  6
CONTINUOUS
 10
66.4182346631
 20
132.832698322
 11
66.4182346631
 21
131.6826983216
  0
LINE
  5
47F
100
AcDbEntity
  8
0
100
AcDbLine
 62
7
  6
CONTINUOUS
 10
66.4182346631
 20
130.8826983227
 11
66.4182346631
 21
129.7326983223
  0
LINE
  5
480
100
AcDbEntity
  8
0
100
AcDbLine
 62
7
  6
CONTINUOUS
 10
66.4182346631
 20
129.332698322
 11
66.4182346631
 21
128.1826983216
  0
LINE
  5
481
100
AcDbEntity
  8
0
100
AcDbLine
 62
7
  6
CONTINUOUS
 10
66.4182346631
 20
127.3826983227
 11
66.4182346631
 21
126.2326983223
  0
LINE
  5
482
100
AcDbEntity
  8
0
100
AcDbLine
 62
7
  6
CONTINUOUS
 10
66.4182346631
 20
100.5326983455
 11
66.4182346631
 21
99.382698347
  0
LINE
  5
483
100
AcDbEntity
  8
0
100
AcDbLine
 62
7
  6
CONTINUOUS
 10
66.4182346631
 20
98.5826983462
 11
66.4182346631
 21
97.4326983458
  0
LINE
  5
484
100
AcDbEntity
  8
0
100
AcDbLine
 62
7
  6
CONTINUOUS
 10
66.4182346631
 20
97.0326983455
 11
66.4182346631
 21
95.882698347
  0
LINE
  5
485
100
AcDbEntity
  8
0
100
AcDbLine
 62
7
  6
CONTINUOUS
 10
66.4182346631
 20
95.0826983462
 11
66.4182346631
 21
93.9326983458
  0
LINE
  5
486
100
AcDbEntity
  8
0
100
AcDbLine
 62
7
  6
CONTINUOUS
 10
66.4182346631
 20
93.5326983455
 11
66.4182346631
 21
92.382698347
  0
LINE
  5
487
100
AcDbEntity
  8
0
100
AcDbLine
 62
7
  6
CONTINUOUS
 10
66.4182346631
 20
91.5826983462
 11
66.4182346631
 21
90.4326983458
  0
LINE
  5
488
100
AcDbEntity
  8
0
100
AcDbLine
 62
7
  6
CONTINUOUS
 10
66.4182346631
 20
90.0326983455
 11
66.4182346631
 21
88.882698347
  0
LINE
  5
489
100
AcDbEntity
  8
0
100
AcDbLine
 62
7
  6
CONTINUOUS
 10
66.4182346631
 20
88.0826983462
 11
66.4182346631
 21
86.9326983458
  0
LINE
  5
48A
100
AcDbEntity
  8
0
100
AcDbLine
 62
7
  6
CONTINUOUS
 10
66.4182346631
 20
86.5326983455
 11
66.4182346631
 21
85.3826983469
  0
LINE
  5
48B
100
AcDbEntity
  8
0
100
AcDbLine
 62
7
  6
CONTINUOUS
 10
66.4182346631
 20
84.5826983462
 11
66.4182346631
 21
83.4326983458
  0
LINE
  5
48C
100
AcDbEntity
  8
0
100
AcDbLine
 62
7
  6
CONTINUOUS
 10
66.4182346631
 20
83.0326983455
 11
66.4182346631
 21
81.8826983469
  0
LINE
  5
48D
100
AcDbEntity
  8
0
100
AcDbLine
 62
7
  6
CONTINUOUS
 10
66.4182346631
 20
81.0826983462
 11
66.4182346631
 21
79.9326983458
  0
LINE
  5
48E
100
AcDbEntity
  8
0
100
AcDbLine
 62
7
  6
CONTINUOUS
 10
66.4182346631
 20
79.5326983455
 11
66.4182346631
 21
78.3826983469
  0
LINE
  5
48F
100
AcDbEntity
  8
0
100
AcDbLine
 62
7
  6
CONTINUOUS
 10
66.4182346631
 20
77.5826983462
 11
66.4182346631
 21
76.4326983458
  0
LINE
  5
490
100
AcDbEntity
  8
0
100
AcDbLine
 62
7
  6
CONTINUOUS
 10
66.4182346631
 20
76.0326983455
 11
66.4182346631
 21
74.8826983469
  0
LINE
  5
491
100
AcDbEntity
  8
0
100
AcDbLine
 62
7
  6
CONTINUOUS
 10
66.4182346631
 20
74.0826983462
 11
66.4182346631
 21
72.9326983458
  0
LINE
  5
492
100
AcDbEntity
  8
0
100
AcDbLine
 62
7
  6
CONTINUOUS
 10
66.4182346631
 20
72.5326983455
 11
66.4182346631
 21
71.3826983469
  0
LINE
  5
493
100
AcDbEntity
  8
0
100
AcDbLine
 62
7
  6
CONTINUOUS
 10
66.4182346631
 20
70.5826983462
 11
66.4182346631
 21
69.4326983458
  0
LINE
  5
494
100
AcDbEntity
  8
0
100
AcDbLine
 62
7
  6
CONTINUOUS
 10
66.4182346631
 20
69.0326983455
 11
66.4182346631
 21
67.8826983469
  0
LINE
  5
495
100
AcDbEntity
  8
0
100
AcDbLine
 62
7
  6
CONTINUOUS
 10
66.4182346631
 20
67.0826983462
 11
66.4182346631
 21
65.9326983458
  0
LINE
  5
496
100
AcDbEntity
  8
0
100
AcDbLine
 62
7
  6
CONTINUOUS
 10
66.4182346631
 20
65.5326983455
 11
66.4182346631
 21
64.3826983469
  0
LINE
  5
497
100
AcDbEntity
  8
0
100
AcDbLine
 62
7
  6
CONTINUOUS
 10
66.4182346631
 20
63.5826983462
 11
66.4182346631
 21
62.4326983458
  0
LINE
  5
498
100
AcDbEntity
  8
0
100
AcDbLine
 62
7
  6
CONTINUOUS
 10
66.4182346631
 20
62.0326983455
 11
66.4182346631
 21
60.8826983469
  0
LINE
  5
499
100
AcDbEntity
  8
0
100
AcDbLine
 62
7
  6
CONTINUOUS
 10
66.4182346631
 20
60.0826983462
 11
66.4182346631
 21
58.9326983458
  0
LINE
  5
49A
100
AcDbEntity
  8
0
100
AcDbLine
 62
7
  6
CONTINUOUS
 10
66.4182346631
 20
58.5326983455
 11
66.4182346631
 21
57.3826983469
  0
LINE
  5
49B
100
AcDbEntity
  8
0
100
AcDbLine
 62
7
  6
CONTINUOUS
 10
66.4182346631
 20
56.5826983462
 11
66.4182346631
 21
55.4326983458
  0
LINE
  5
49C
100
AcDbEntity
  8
0
100
AcDbLine
 62
7
  6
CONTINUOUS
 10
66.4182346631
 20
55.0326983455
 11
66.4182346631
 21
53.8826983469
  0
LINE
  5
49D
100
AcDbEntity
  8
0
100
AcDbLine
 62
7
  6
CONTINUOUS
 10
66.4182346631
 20
53.0826983462
 11
66.4182346631
 21
51.9326983458
  0
LINE
  5
49E
100
AcDbEntity
  8
0
100
AcDbLine
 62
7
  6
CONTINUOUS
 10
66.4182346631
 20
51.5326983455
 11
66.4182346631
 21
50.3826983469
  0
LINE
  5
49F
100
AcDbEntity
  8
0
100
AcDbLine
 62
7
  6
CONTINUOUS
 10
66.4182346631
 20
49.5826983462
 11
66.4182346631
 21
48.4326983458
  0
LINE
  5
4A0
100
AcDbEntity
  8
0
100
AcDbLine
 62
7
  6
CONTINUOUS
 10
67.088234663
 20
48.7276983458
 11
67.088234663
 21
49.3826983471
  0
LINE
  5
4A1
100
AcDbEntity
  8
0
100
AcDbLine
 62
7
  6
CONTINUOUS
 10
67.088234663
 20
50.5826983461
 11
67.088234663
 21
51.2376983474
  0
LINE
  5
4A2
100
AcDbEntity
  8
0
100
AcDbLine
 62
7
  6
CONTINUOUS
 10
67.088234663
 20
52.2276983458
 11
67.088234663
 21
52.8826983471
  0
LINE
  5
4A3
100
AcDbEntity
  8
0
100
AcDbLine
 62
7
  6
CONTINUOUS
 10
67.088234663
 20
54.0826983461
 11
67.088234663
 21
54.7376983474
  0
LINE
  5
4A4
100
AcDbEntity
  8
0
100
AcDbLine
 62
7
  6
CONTINUOUS
 10
67.088234663
 20
55.7276983458
 11
67.088234663
 21
56.3826983471
  0
LINE
  5
4A5
100
AcDbEntity
  8
0
100
AcDbLine
 62
7
  6
CONTINUOUS
 10
67.088234663
 20
57.5826983461
 11
67.088234663
 21
58.2376983474
  0
LINE
  5
4A6
100
AcDbEntity
  8
0
100
AcDbLine
 62
7
  6
CONTINUOUS
 10
67.088234663
 20
59.2276983458
 11
67.088234663
 21
59.8826983471
  0
LINE
  5
4A7
100
AcDbEntity
  8
0
100
AcDbLine
 62
7
  6
CONTINUOUS
 10
67.088234663
 20
61.0826983461
 11
67.088234663
 21
61.7376983474
  0
LINE
  5
4A8
100
AcDbEntity
  8
0
100
AcDbLine
 62
7
  6
CONTINUOUS
 10
67.088234663
 20
62.7276983458
 11
67.088234663
 21
63.3826983471
  0
LINE
  5
4A9
100
AcDbEntity
  8
0
100
AcDbLine
 62
7
  6
CONTINUOUS
 10
67.088234663
 20
64.5826983461
 11
67.088234663
 21
65.2376983474
  0
LINE
  5
4AA
100
AcDbEntity
  8
0
100
AcDbLine
 62
7
  6
CONTINUOUS
 10
67.088234663
 20
66.2276983458
 11
67.088234663
 21
66.8826983471
  0
LINE
  5
4AB
100
AcDbEntity
  8
0
100
AcDbLine
 62
7
  6
CONTINUOUS
 10
67.088234663
 20
68.0826983461
 11
67.088234663
 21
68.7376983474
  0
LINE
  5
4AC
100
AcDbEntity
  8
0
100
AcDbLine
 62
7
  6
CONTINUOUS
 10
67.088234663
 20
69.7276983458
 11
67.088234663
 21
70.3826983471
  0
LINE
  5
4AD
100
AcDbEntity
  8
0
100
AcDbLine
 62
7
  6
CONTINUOUS
 10
67.088234663
 20
71.5826983461
 11
67.088234663
 21
72.2376983474
  0
LINE
  5
4AE
100
AcDbEntity
  8
0
100
AcDbLine
 62
7
  6
CONTINUOUS
 10
67.088234663
 20
73.2276983458
 11
67.088234663
 21
73.8826983471
  0
LINE
  5
4AF
100
AcDbEntity
  8
0
100
AcDbLine
 62
7
  6
CONTINUOUS
 10
67.088234663
 20
75.0826983461
 11
67.088234663
 21
75.7376983474
  0
LINE
  5
4B0
100
AcDbEntity
  8
0
100
AcDbLine
 62
7
  6
CONTINUOUS
 10
67.088234663
 20
76.7276983458
 11
67.088234663
 21
77.3826983471
  0
LINE
  5
4B1
100
AcDbEntity
  8
0
100
AcDbLine
 62
7
  6
CONTINUOUS
 10
67.088234663
 20
78.5826983461
 11
67.088234663
 21
79.2376983474
  0
LINE
  5
4B2
100
AcDbEntity
  8
0
100
AcDbLine
 62
7
  6
CONTINUOUS
 10
67.088234663
 20
80.2276983458
 11
67.088234663
 21
80.8826983471
  0
LINE
  5
4B3
100
AcDbEntity
  8
0
100
AcDbLine
 62
7
  6
CONTINUOUS
 10
67.088234663
 20
82.0826983461
 11
67.088234663
 21
82.7376983474
  0
LINE
  5
4B4
100
AcDbEntity
  8
0
100
AcDbLine
 62
7
  6
CONTINUOUS
 10
67.088234663
 20
83.7276983458
 11
67.088234663
 21
84.3826983471
  0
LINE
  5
4B5
100
AcDbEntity
  8
0
100
AcDbLine
 62
7
  6
CONTINUOUS
 10
67.088234663
 20
85.5826983461
 11
67.088234663
 21
86.2376983474
  0
LINE
  5
4B6
100
AcDbEntity
  8
0
100
AcDbLine
 62
7
  6
CONTINUOUS
 10
67.088234663
 20
87.2276983458
 11
67.088234663
 21
87.8826983471
  0
LINE
  5
4B7
100
AcDbEntity
  8
0
100
AcDbLine
 62
7
  6
CONTINUOUS
 10
67.088234663
 20
89.0826983461
 11
67.088234663
 21
89.7376983474
  0
LINE
  5
4B8
100
AcDbEntity
  8
0
100
AcDbLine
 62
7
  6
CONTINUOUS
 10
67.088234663
 20
90.7276983458
 11
67.088234663
 21
91.3826983471
  0
LINE
  5
4B9
100
AcDbEntity
  8
0
100
AcDbLine
 62
7
  6
CONTINUOUS
 10
67.088234663
 20
92.5826983461
 11
67.088234663
 21
93.2376983474
  0
LINE
  5
4BA
100
AcDbEntity
  8
0
100
AcDbLine
 62
7
  6
CONTINUOUS
 10
67.088234663
 20
94.2276983458
 11
67.088234663
 21
94.8826983471
  0
LINE
  5
4BB
100
AcDbEntity
  8
0
100
AcDbLine
 62
7
  6
CONTINUOUS
 10
67.088234663
 20
96.0826983461
 11
67.088234663
 21
96.7376983474
  0
LINE
  5
4BC
100
AcDbEntity
  8
0
100
AcDbLine
 62
7
  6
CONTINUOUS
 10
67.088234663
 20
97.7276983458
 11
67.088234663
 21
98.3826983471
  0
LINE
  5
4BD
100
AcDbEntity
  8
0
100
AcDbLine
 62
7
  6
CONTINUOUS
 10
67.088234663
 20
99.5826983461
 11
67.088234663
 21
100.2376983474
  0
LINE
  5
4BE
100
AcDbEntity
  8
0
100
AcDbLine
 62
7
  6
CONTINUOUS
 10
67.088234663
 20
126.5276983204
 11
67.088234663
 21
127.1826983221
  0
LINE
  5
4BF
100
AcDbEntity
  8
0
100
AcDbLine
 62
7
  6
CONTINUOUS
 10
67.088234663
 20
128.3826983221
 11
67.088234663
 21
129.0376983221
  0
LINE
  5
4C0
100
AcDbEntity
  8
0
100
AcDbLine
 62
7
  6
CONTINUOUS
 10
67.088234663
 20
130.0276983204
 11
67.088234663
 21
130.6826983221
  0
LINE
  5
4C1
100
AcDbEntity
  8
0
100
AcDbLine
 62
7
  6
CONTINUOUS
 10
67.088234663
 20
131.8826983221
 11
67.088234663
 21
132.5376983221
  0
LINE
  5
4C2
100
AcDbEntity
  8
0
100
AcDbLine
 62
7
  6
CONTINUOUS
 10
67.088234663
 20
133.5276983204
 11
67.088234663
 21
134.1826983221
  0
LINE
  5
4C3
100
AcDbEntity
  8
0
100
AcDbLine
 62
7
  6
CONTINUOUS
 10
67.088234663
 20
135.3826983221
 11
67.088234663
 21
136.0376983221
  0
LINE
  5
4C4
100
AcDbEntity
  8
0
100
AcDbLine
 62
7
  6
CONTINUOUS
 10
67.088234663
 20
137.0276983204
 11
67.088234663
 21
137.6826983221
  0
LINE
  5
4C5
100
AcDbEntity
  8
0
100
AcDbLine
 62
7
  6
CONTINUOUS
 10
67.088234663
 20
138.8826983221
 11
67.088234663
 21
139.5376983221
  0
LINE
  5
4C6
100
AcDbEntity
  8
0
100
AcDbLine
 62
7
  6
CONTINUOUS
 10
67.088234663
 20
140.5276983204
 11
67.088234663
 21
141.1826983221
  0
LINE
  5
4C7
100
AcDbEntity
  8
0
100
AcDbLine
 62
7
  6
CONTINUOUS
 10
67.088234663
 20
142.3826983221
 11
67.088234663
 21
143.0376983221
  0
LINE
  5
4C8
100
AcDbEntity
  8
0
100
AcDbLine
 62
7
  6
CONTINUOUS
 10
67.088234663
 20
144.0276983204
 11
67.088234663
 21
144.6826983221
  0
LINE
  5
4C9
100
AcDbEntity
  8
0
100
AcDbLine
 62
7
  6
CONTINUOUS
 10
67.088234663
 20
145.8826983221
 11
67.088234663
 21
146.5376983221
  0
LINE
  5
4CA
100
AcDbEntity
  8
0
100
AcDbLine
 62
7
  6
CONTINUOUS
 10
67.2682346631
 20
153.6717784508
 11
67.2682346631
 21
41.5211719117
  0
LINE
  5
4CB
100
AcDbEntity
  8
0
100
AcDbLine
 62
7
  6
CONTINUOUS
 10
68.2394534666
 20
41.5211719133
 11
68.2394534682
 21
153.6717783661
  0
LINE
  5
4CC
100
AcDbEntity
  8
0
100
AcDbLine
 62
7
  6
CONTINUOUS
 10
68.5348056603
 20
156.45193495
 11
68.5348039938
 21
156.2593323128
  0
LINE
  5
4CD
100
AcDbEntity
  8
0
100
AcDbLine
 62
7
  6
CONTINUOUS
 10
68.5348039938
 20
39.0060635802
 11
68.5348056603
 21
36.0519349499
  0
LINE
  5
4CE
100
AcDbEntity
  8
0
100
AcDbLine
 62
7
  6
CONTINUOUS
 10
68.5348039938
 20
159.4060635802
 11
68.5348056603
 21
156.4519349499
  0
LINE
  5
4CF
100
AcDbEntity
  8
0
100
AcDbLine
 62
7
  6
CONTINUOUS
 10
68.5348056603
 20
36.05193495
 11
68.5348039938
 21
35.8593323128
  0
LINE
  5
4D0
100
AcDbEntity
  8
0
100
AcDbLine
 62
7
  6
CONTINUOUS
 10
69.4512773741
 20
40.4815311922
 11
69.4512773741
 21
39.8213568347
  0
LINE
  5
4D1
100
AcDbEntity
  8
0
100
AcDbLine
 62
7
  6
CONTINUOUS
 10
69.4512755902
 20
35.0440396457
 11
69.4512753823
 21
34.7654448102
  0
LINE
  5
4D2
100
AcDbEntity
  8
0
100
AcDbLine
 62
7
  6
CONTINUOUS
 10
69.4844406433
 20
160.2322761067
 11
69.4844406433
 21
160.5022674291
  0
LINE
  5
4D3
100
AcDbEntity
  8
0
100
AcDbLine
 62
7
  6
CONTINUOUS
 10
69.4844454447
 20
154.7528109913
 11
69.4844449264
 21
155.433118376
  0
LINE
  5
4D4
100
AcDbEntity
  8
0
100
AcDbLine
 62
7
  6
CONTINUOUS
 10
69.618234667
 20
103.0430754319
 11
69.6182346591
 21
92.1743166323
  0
LINE
  5
4D5
100
AcDbEntity
  8
0
100
AcDbLine
 62
7
  6
CONTINUOUS
 10
69.721793343
 20
102.9821618967
 11
69.7217933352
 21
92.3056905996
  0
LINE
  5
4D6
100
AcDbEntity
  8
0
100
AcDbLine
 62
7
  6
CONTINUOUS
 10
69.7894021837
 20
160.3326979465
 11
69.789402184
 21
155.3326979465
  0
LINE
  5
4D7
100
AcDbEntity
  8
0
100
AcDbLine
 62
7
  6
CONTINUOUS
 10
69.7894021837
 20
39.9326979465
 11
69.789402184
 21
34.9326979465
  0
LINE
  5
4D8
100
AcDbEntity
  8
0
100
AcDbLine
 62
7
  6
CONTINUOUS
 10
70.2206573934
 20
102.9822230506
 11
70.2206573822
 21
92.3056887449
  0
LINE
  5
4D9
100
AcDbEntity
  8
0
100
AcDbLine
 62
7
  6
CONTINUOUS
 10
70.3682346631
 20
93.9576979458
 11
70.3682346631
 21
94.3326979458
  0
LINE
  5
4DA
100
AcDbEntity
  8
0
100
AcDbLine
 62
7
  6
CONTINUOUS
 10
70.3682346631
 20
95.3743644535
 11
70.3682346631
 21
95.6243644535
  0
LINE
  5
4DB
100
AcDbEntity
  8
0
100
AcDbLine
 62
7
  6
CONTINUOUS
 10
70.3682346631
 20
95.9576979458
 11
70.3682346631
 21
97.4576979458
  0
LINE
  5
4DC
100
AcDbEntity
  8
0
100
AcDbLine
 62
7
  6
CONTINUOUS
 10
70.3682346631
 20
99.0826979458
 11
70.3682346631
 21
99.3326979458
  0
LINE
  5
4DD
100
AcDbEntity
  8
0
100
AcDbLine
 62
7
  6
CONTINUOUS
 10
70.3682346631
 20
100.3326979457
 11
70.3682346631
 21
100.6660312592
  0
LINE
  5
4DE
100
AcDbEntity
  8
0
100
AcDbLine
 62
7
  6
CONTINUOUS
 10
70.4182346631
 20
34.6979109148
 11
70.4182346631
 21
39.4820617551
  0
LINE
  5
4DF
100
AcDbEntity
  8
0
100
AcDbLine
 62
7
  6
CONTINUOUS
 10
70.4182346631
 20
155.7506590775
 11
70.4182346631
 21
160.5674849782
  0
LINE
  5
4E0
100
AcDbEntity
  8
0
100
AcDbLine
 62
7
  6
CONTINUOUS
 10
70.5187697702
 20
103.2802752407
 11
70.5187697702
 21
103.7791392887
  0
LINE
  5
4E1
100
AcDbEntity
  8
0
100
AcDbLine
 62
7
  6
CONTINUOUS
 10
70.5412273261
 20
91.4862566043
 11
70.5412273261
 21
91.9851206552
  0
LINE
  5
4E2
100
AcDbEntity
  8
0
100
AcDbLine
 62
7
  6
CONTINUOUS
 10
70.6873835985
 20
97.2076979458
 11
70.6873835985
 21
95.9576979458
  0
LINE
  5
4E3
100
AcDbEntity
  8
0
100
AcDbLine
 62
7
  6
CONTINUOUS
 10
70.6873835977
 20
100.3326979457
 11
70.6873835977
 21
100.6660312593
  0
LINE
  5
4E4
100
AcDbEntity
  8
0
100
AcDbLine
 62
7
  6
CONTINUOUS
 10
70.4214261499
 20
100.8743646028
 11
70.3682346631
 21
100.6660312591
  0
LINE
  5
4E5
100
AcDbEntity
  8
0
100
AcDbLine
 62
7
  6
CONTINUOUS
 10
70.6873835977
 20
100.6660312593
 11
70.7405750807
 21
100.8326979457
  0
LINE
  5
4E6
100
AcDbEntity
  8
0
100
AcDbLine
 62
7
  6
CONTINUOUS
 10
70.5278091306
 20
101.0410312889
 11
70.4214261499
 21
100.8743646028
  0
LINE
  5
4E7
100
AcDbEntity
  8
0
100
AcDbLine
 62
7
  6
CONTINUOUS
 10
70.7405750807
 20
100.8326979457
 11
70.846958084
 21
100.9576979458
  0
LINE
  5
4E8
100
AcDbEntity
  8
0
100
AcDbLine
 62
7
  6
CONTINUOUS
 10
72.4958942812
 20
100.1660313188
 11
72.3895113152
 21
100.0410313189
  0
LINE
  5
4E9
100
AcDbEntity
  8
0
100
AcDbLine
 62
7
  6
CONTINUOUS
 10
70.7405750816
 20
101.2076979458
 11
70.5278091306
 21
101.0410312889
  0
LINE
  5
4EA
100
AcDbEntity
  8
0
100
AcDbLine
 62
7
  6
CONTINUOUS
 10
72.4958942818
 20
99.7910313188
 11
72.7086602142
 21
99.9576979459
  0
LINE
  5
4EB
100
AcDbEntity
  8
0
100
AcDbLine
 62
7
  6
CONTINUOUS
 10
70.846958084
 20
100.9576979458
 11
71.0065325331
 21
101.041031289
  0
LINE
  5
4EC
100
AcDbEntity
  8
0
100
AcDbLine
 62
7
  6
CONTINUOUS
 10
72.3895113152
 20
100.0410313189
 11
72.229936717
 21
99.9576979457
  0
LINE
  5
4ED
100
AcDbEntity
  8
0
100
AcDbLine
 62
7
  6
CONTINUOUS
 10
70.9533410508
 20
101.2910312779
 11
70.7405750816
 21
101.2076979458
  0
LINE
  5
4EE
100
AcDbEntity
  8
0
100
AcDbLine
 62
7
  6
CONTINUOUS
 10
72.2831283499
 20
99.7076979458
 11
72.4958942818
 21
99.7910313188
  0
LINE
  5
4EF
100
AcDbEntity
  8
0
100
AcDbLine
 62
7
  6
CONTINUOUS
 10
67.088234663
 20
100.2376983474
 11
67.2682346631
 21
100.2999042297
  0
LINE
  5
4F0
100
AcDbEntity
  8
0
100
AcDbLine
 62
7
  6
CONTINUOUS
 10
58.838234663
 20
96.7376983474
 11
59.5182346627
 21
96.9726983468
  0
LINE
  5
4F1
100
AcDbEntity
  8
0
100
AcDbLine
 62
7
  6
CONTINUOUS
 10
67.088234663
 20
96.7376983474
 11
67.2682346631
 21
96.7999042297
  0
LINE
  5
4F2
100
AcDbEntity
  8
0
100
AcDbLine
 62
7
  6
CONTINUOUS
 10
58.838234663
 20
93.2376983474
 11
59.5182346627
 21
93.4726983468
  0
LINE
  5
4F3
100
AcDbEntity
  8
0
100
AcDbLine
 62
7
  6
CONTINUOUS
 10
76.3682346631
 20
98.6743646926
 11
77.5916389216
 21
99.0493646927
  0
LINE
  5
4F4
100
AcDbEntity
  8
0
100
AcDbLine
 62
7
  6
CONTINUOUS
 10
77.4852559555
 20
99.2993646926
 11
76.3682346631
 21
98.9660312004
  0
LINE
  5
4F5
100
AcDbEntity
  8
0
100
AcDbLine
 62
7
  6
CONTINUOUS
 10
76.9001495678
 20
94.3410314388
 11
77.0597240169
 21
94.3826979465
  0
LINE
  5
4F6
100
AcDbEntity
  8
0
100
AcDbLine
 62
7
  6
CONTINUOUS
 10
78.2831283499
 20
95.0910314388
 11
78.4427027991
 21
95.1326979466
  0
LINE
  5
4F7
100
AcDbEntity
  8
0
100
AcDbLine
 62
7
  6
CONTINUOUS
 10
77.9639793027
 20
96.0910314388
 11
78.1235537518
 21
96.1326979465
  0
LINE
  5
4F8
100
AcDbEntity
  8
0
100
AcDbLine
 62
7
  6
CONTINUOUS
 10
76.9001495678
 20
96.2160314388
 11
77.0597240169
 21
96.2576979465
  0
LINE
  5
4F9
100
AcDbEntity
  8
0
100
AcDbLine
 62
7
  6
CONTINUOUS
 10
78.2831283498
 20
98.7160312004
 11
78.4427027991
 21
98.7576979466
  0
LINE
  5
4FA
100
AcDbEntity
  8
0
100
AcDbLine
 62
7
  6
CONTINUOUS
 10
78.4427027982
 20
99.0076979465
 11
78.2831283492
 21
98.9660312004
  0
LINE
  5
4FB
100
AcDbEntity
  8
0
100
AcDbLine
 62
7
  6
CONTINUOUS
 10
72.2831283498
 20
97.7910311996
 11
72.4427027991
 21
97.8326979458
  0
LINE
  5
4FC
100
AcDbEntity
  8
0
100
AcDbLine
 62
7
  6
CONTINUOUS
 10
72.4427027982
 20
98.0826979457
 11
72.2831283492
 21
98.0410311996
  0
LINE
  5
4FD
100
AcDbEntity
  8
0
100
AcDbLine
 62
7
  6
CONTINUOUS
 10
78.0703622687
 20
94.5076979465
 11
77.8575963367
 21
94.4660314388
  0
LINE
  5
4FE
100
AcDbEntity
  8
0
100
AcDbLine
 62
7
  6
CONTINUOUS
 10
77.0597240169
 20
94.6326979465
 11
76.8469580849
 21
94.5910314388
  0
LINE
  5
4FF
100
AcDbEntity
  8
0
100
AcDbLine
 62
7
  6
CONTINUOUS
 10
78.0703622687
 20
96.3826979465
 11
77.8575963367
 21
96.3410314388
  0
LINE
  5
500
100
AcDbEntity
  8
0
100
AcDbLine
 62
7
  6
CONTINUOUS
 10
75.229936717
 20
96.0410311996
 11
75.0171707851
 21
95.9993646919
  0
LINE
  5
501
100
AcDbEntity
  8
0
100
AcDbLine
 62
7
  6
CONTINUOUS
 10
77.0597240169
 20
96.5076979465
 11
76.8469580849
 21
96.4660314388
  0
LINE
  5
502
100
AcDbEntity
  8
0
100
AcDbLine
 62
7
  6
CONTINUOUS
 10
74.0065325331
 20
97.1243646919
 11
74.2192984652
 21
97.1660311996
  0
LINE
  5
503
100
AcDbEntity
  8
0
100
AcDbLine
 62
7
  6
CONTINUOUS
 10
75.0171707857
 20
95.7493646919
 11
75.28312835
 21
95.7910311997
  0
LINE
  5
504
100
AcDbEntity
  8
0
100
AcDbLine
 62
7
  6
CONTINUOUS
 10
74.2192984659
 20
97.4160313188
 11
73.9533410508
 21
97.3743645727
  0
LINE
  5
505
100
AcDbEntity
  8
0
100
AcDbLine
 62
7
  6
CONTINUOUS
 10
77.2192984658
 20
93.091030962
 11
76.9533410508
 21
93.091030962
  0
LINE
  5
506
100
AcDbEntity
  8
0
100
AcDbLine
 62
7
  6
CONTINUOUS
 10
43.2682346631
 20
93.1326979465
 11
42.9682346624
 21
93.1326979465
  0
LINE
  5
507
100
AcDbEntity
  8
0
100
AcDbLine
 62
7
  6
CONTINUOUS
 10
44.2346185041
 20
93.2228830399
 11
43.2683273662
 21
93.222881497
  0
LINE
  5
508
100
AcDbEntity
  8
0
100
AcDbLine
 62
7
  6
CONTINUOUS
 10
77.0065325343
 20
93.341030962
 11
77.166106983
 21
93.341030962
  0
LINE
  5
509
100
AcDbEntity
  8
0
100
AcDbLine
 62
7
  6
CONTINUOUS
 10
60.1682346631
 20
93.4326983458
 11
61.4682346638
 21
93.4326983458
  0
LINE
  5
50A
100
AcDbEntity
  8
0
100
AcDbLine
 62
7
  6
CONTINUOUS
 10
53.8682346642
 20
93.5326983473
 11
58.1682346631
 21
93.5326983473
  0
LINE
  5
50B
100
AcDbEntity
  8
0
100
AcDbLine
 62
7
  6
CONTINUOUS
 10
62.1182346624
 20
93.5326983455
 11
66.4182346631
 21
93.5326983455
  0
LINE
  5
50C
100
AcDbEntity
  8
0
100
AcDbLine
 62
7
  6
CONTINUOUS
 10
66.4182346631
 20
93.9326983458
 11
62.1182346642
 21
93.9326983458
  0
LINE
  5
50D
100
AcDbEntity
  8
0
100
AcDbLine
 62
7
  6
CONTINUOUS
 10
61.4682346638
 20
93.9326983458
 11
60.1682346631
 21
93.9326983458
  0
LINE
  5
50E
100
AcDbEntity
  8
0
100
AcDbLine
 62
7
  6
CONTINUOUS
 10
58.1682346631
 20
93.9326983458
 11
53.8682346642
 21
93.9326983458
  0
LINE
  5
50F
100
AcDbEntity
  8
0
100
AcDbLine
 62
7
  6
CONTINUOUS
 10
72.8682346631
 20
93.9576979458
 11
70.3682346631
 21
93.9576979458
  0
LINE
  5
510
100
AcDbEntity
  8
0
100
AcDbLine
 62
7
  6
CONTINUOUS
 10
70.7405750811
 20
94.2076979458
 11
72.8682346631
 21
94.2076979458
  0
LINE
  5
511
100
AcDbEntity
  8
0
100
AcDbLine
 62
7
  6
CONTINUOUS
 10
78.2299367171
 20
94.2576979465
 11
78.1235537518
 21
94.2576979465
  0
LINE
  5
512
100
AcDbEntity
  8
0
100
AcDbLine
 62
7
  6
CONTINUOUS
 10
78.070362268
 20
94.5076979465
 11
78.2831283499
 21
94.5076979465
  0
LINE
  5
513
100
AcDbEntity
  8
0
100
AcDbLine
 62
7
  6
CONTINUOUS
 10
42.9906293795
 20
94.6294720457
 11
43.6564333638
 21
94.6294733022
  0
LINE
  5
514
100
AcDbEntity
  8
0
100
AcDbLine
 62
7
  6
CONTINUOUS
 10
77.2192984662
 20
94.9660314388
 11
76.9533410508
 21
94.9660314388
  0
LINE
  5
515
100
AcDbEntity
  8
0
100
AcDbLine
 62
7
  6
CONTINUOUS
 10
66.8882346624
 20
95.0826983462
 11
66.4182346631
 21
95.0826983462
  0
LINE
  5
516
100
AcDbEntity
  8
0
100
AcDbLine
 62
7
  6
CONTINUOUS
 10
58.6382346624
 20
95.0826983462
 11
58.1682346631
 21
95.0826983462
  0
LINE
  5
517
100
AcDbEntity
  8
0
100
AcDbLine
 62
7
  6
CONTINUOUS
 10
55.7682346633
 20
95.0826983467
 11
56.568234664
 21
95.0826983467
  0
LINE
  5
518
100
AcDbEntity
  8
0
100
AcDbLine
 62
7
  6
CONTINUOUS
 10
64.0182346631
 20
95.0826983467
 11
64.8182346629
 21
95.0826983467
  0
LINE
  5
519
100
AcDbEntity
  8
0
100
AcDbLine
 62
7
  6
CONTINUOUS
 10
77.0065325343
 20
95.2160314388
 11
77.166106983
 21
95.2160314388
  0
LINE
  5
51A
100
AcDbEntity
  8
0
100
AcDbLine
 62
7
  6
CONTINUOUS
 10
72.549085765
 20
95.3743644535
 11
70.3682346631
 21
95.3743644535
  0
LINE
  5
51B
100
AcDbEntity
  8
0
100
AcDbLine
 62
7
  6
CONTINUOUS
 10
70.3682346631
 20
95.6243644535
 11
72.8682346631
 21
95.6243644535
  0
LINE
  5
51C
100
AcDbEntity
  8
0
100
AcDbLine
 62
7
  6
CONTINUOUS
 10
75.0171707854
 20
95.7493646919
 11
74.219298466
 21
95.7493646919
  0
LINE
  5
51D
100
AcDbEntity
  8
0
100
AcDbLine
 62
7
  6
CONTINUOUS
 10
64.8182346629
 20
95.8826983467
 11
64.0182346631
 21
95.8826983467
  0
LINE
  5
51E
100
AcDbEntity
  8
0
100
AcDbLine
 62
7
  6
CONTINUOUS
 10
56.568234664
 20
95.8826983467
 11
55.7682346633
 21
95.8826983467
  0
LINE
  5
51F
100
AcDbEntity
  8
0
100
AcDbLine
 62
7
  6
CONTINUOUS
 10
58.1682346631
 20
95.882698347
 11
58.6382346634
 21
95.882698347
  0
LINE
  5
520
100
AcDbEntity
  8
0
100
AcDbLine
 62
7
  6
CONTINUOUS
 10
66.4182346631
 20
95.882698347
 11
66.8882346621
 21
95.8826983451
  0
LINE
  5
521
100
AcDbEntity
  8
0
100
AcDbLine
 62
7
  6
CONTINUOUS
 10
72.8682346631
 20
95.9576979458
 11
72.549085765
 21
95.9576979458
  0
LINE
  5
522
100
AcDbEntity
  8
0
100
AcDbLine
 62
7
  6
CONTINUOUS
 10
70.6873835985
 20
95.9576979458
 11
70.3682346631
 21
95.9576979458
  0
LINE
  5
523
100
AcDbEntity
  8
0
100
AcDbLine
 62
7
  6
CONTINUOUS
 10
75.0171707851
 20
95.9993646919
 11
74.2192984652
 21
95.9993646919
  0
LINE
  5
524
100
AcDbEntity
  8
0
100
AcDbLine
 62
7
  6
CONTINUOUS
 10
71.8575963367
 20
96.1243644535
 11
71.5384474386
 21
96.1243644535
  0
LINE
  5
525
100
AcDbEntity
  8
0
100
AcDbLine
 62
7
  6
CONTINUOUS
 10
78.2299367171
 20
96.1326979465
 11
78.1235537518
 21
96.1326979465
  0
LINE
  5
526
100
AcDbEntity
  8
0
100
AcDbLine
 62
7
  6
CONTINUOUS
 10
78.070362268
 20
96.3826979465
 11
78.2831283505
 21
96.3826979465
  0
LINE
  5
527
100
AcDbEntity
  8
0
100
AcDbLine
 62
7
  6
CONTINUOUS
 10
78.8682346631
 20
96.8410314388
 11
78.549085765
 21
96.8410314388
  0
LINE
  5
528
100
AcDbEntity
  8
0
100
AcDbLine
 62
7
  6
CONTINUOUS
 10
76.6873835985
 20
96.8410314388
 11
76.3682346631
 21
96.8410314388
  0
LINE
  5
529
100
AcDbEntity
  8
0
100
AcDbLine
 62
7
  6
CONTINUOUS
 10
60.1682346631
 20
96.9326983458
 11
61.4682346638
 21
96.9326983458
  0
LINE
  5
52A
100
AcDbEntity
  8
0
100
AcDbLine
 62
7
  6
CONTINUOUS
 10
77.8575963367
 20
97.0076979465
 11
77.5384474386
 21
97.0076979465
  0
LINE
  5
52B
100
AcDbEntity
  8
0
100
AcDbLine
 62
7
  6
CONTINUOUS
 10
53.8682346642
 20
97.0326983473
 11
58.1682346631
 21
97.0326983473
  0
LINE
  5
52C
100
AcDbEntity
  8
0
100
AcDbLine
 62
7
  6
CONTINUOUS
 10
62.1182346624
 20
97.0326983455
 11
66.4182346631
 21
97.0326983455
  0
LINE
  5
52D
100
AcDbEntity
  8
0
100
AcDbLine
 62
7
  6
CONTINUOUS
 10
74.2192984652
 20
97.1660311996
 11
75.0171707851
 21
97.1660311996
  0
LINE
  5
52E
100
AcDbEntity
  8
0
100
AcDbLine
 62
7
  6
CONTINUOUS
 10
72.549085765
 20
97.2076979458
 11
71.8575963367
 21
97.2076979458
  0
LINE
  5
52F
100
AcDbEntity
  8
0
100
AcDbLine
 62
7
  6
CONTINUOUS
 10
71.5384474386
 20
97.2076979458
 11
70.6873835985
 21
97.2076979458
  0
LINE
  5
530
100
AcDbEntity
  8
0
100
AcDbLine
 62
7
  6
CONTINUOUS
 10
74.2192984667
 20
97.4160313188
 11
75.0171707857
 21
97.4160313188
  0
LINE
  5
531
100
AcDbEntity
  8
0
100
AcDbLine
 62
7
  6
CONTINUOUS
 10
66.4182346631
 20
97.4326983458
 11
62.1182346642
 21
97.4326983458
  0
LINE
  5
532
100
AcDbEntity
  8
0
100
AcDbLine
 62
7
  6
CONTINUOUS
 10
61.4682346638
 20
97.4326983458
 11
60.1682346631
 21
97.4326983458
  0
LINE
  5
533
100
AcDbEntity
  8
0
100
AcDbLine
 62
7
  6
CONTINUOUS
 10
58.1682346631
 20
97.4326983458
 11
53.8682346642
 21
97.4326983458
  0
LINE
  5
534
100
AcDbEntity
  8
0
100
AcDbLine
 62
7
  6
CONTINUOUS
 10
70.3682346631
 20
97.4576979458
 11
72.8682346631
 21
97.4576979458
  0
LINE
  5
535
100
AcDbEntity
  8
0
100
AcDbLine
 62
7
  6
CONTINUOUS
 10
75.8682346631
 20
97.7493645727
 11
75.602277248
 21
97.7493645727
  0
LINE
  5
536
100
AcDbEntity
  8
0
100
AcDbLine
 62
7
  6
CONTINUOUS
 10
72.2831283508
 20
97.7910311996
 11
72.0703622688
 21
97.7910311996
  0
LINE
  5
537
100
AcDbEntity
  8
0
100
AcDbLine
 62
7
  6
CONTINUOUS
 10
72.2831283492
 20
98.0410311996
 11
72.123553751
 21
98.0410311996
  0
LINE
  5
538
100
AcDbEntity
  8
0
100
AcDbLine
 62
7
  6
CONTINUOUS
 10
78.549085765
 20
98.0910314388
 11
77.8575963367
 21
98.0910314388
  0
LINE
  5
539
100
AcDbEntity
  8
0
100
AcDbLine
 62
7
  6
CONTINUOUS
 10
77.5384474386
 20
98.0910314388
 11
76.6873835985
 21
98.0910314388
  0
LINE
  5
53A
100
AcDbEntity
  8
0
100
AcDbLine
 62
7
  6
CONTINUOUS
 10
76.3682346631
 20
98.3410312004
 11
78.8682346631
 21
98.3410312004
  0
LINE
  5
53B
100
AcDbEntity
  8
0
100
AcDbLine
 62
7
  6
CONTINUOUS
 10
75.602277248
 20
98.4160312592
 11
73.3682346631
 21
98.4160312592
  0
LINE
  5
53C
100
AcDbEntity
  8
0
100
AcDbLine
 62
7
  6
CONTINUOUS
 10
73.9533410509
 20
95.7910311996
 11
74.2192984659
 21
95.7493646919
  0
LINE
  5
53D
100
AcDbEntity
  8
0
100
AcDbLine
 62
7
  6
CONTINUOUS
 10
75.28312835
 20
97.3743645727
 11
75.0171707858
 21
97.4160313188
  0
LINE
  5
53E
100
AcDbEntity
  8
0
100
AcDbLine
 62
7
  6
CONTINUOUS
 10
78.495894282
 20
94.4660314388
 11
78.2831283499
 21
94.5076979465
  0
LINE
  5
53F
100
AcDbEntity
  8
0
100
AcDbLine
 62
7
  6
CONTINUOUS
 10
74.2192984652
 20
95.9993646919
 11
74.0065325331
 21
96.0410311996
  0
LINE
  5
540
100
AcDbEntity
  8
0
100
AcDbLine
 62
7
  6
CONTINUOUS
 10
78.495894282
 20
96.3410314388
 11
78.2831283499
 21
96.3826979465
  0
LINE
  5
541
100
AcDbEntity
  8
0
100
AcDbLine
 62
7
  6
CONTINUOUS
 10
75.0171707851
 20
97.1660311996
 11
75.229936717
 21
97.1243646919
  0
LINE
  5
542
100
AcDbEntity
  8
0
100
AcDbLine
 62
7
  6
CONTINUOUS
 10
78.2299367178
 20
94.2576979465
 11
78.389511316
 21
94.2160314388
  0
LINE
  5
543
100
AcDbEntity
  8
0
100
AcDbLine
 62
7
  6
CONTINUOUS
 10
78.2299367178
 20
96.1326979465
 11
78.389511316
 21
96.0910314388
  0
LINE
  5
544
100
AcDbEntity
  8
0
100
AcDbLine
 62
7
  6
CONTINUOUS
 10
71.9107878198
 20
97.8326979457
 11
72.0703622688
 21
97.7910311996
  0
LINE
  5
545
100
AcDbEntity
  8
0
100
AcDbLine
 62
7
  6
CONTINUOUS
 10
67.2682346631
 20
94.1654924635
 11
67.088234663
 21
94.2276983458
  0
LINE
  5
546
100
AcDbEntity
  8
0
100
AcDbLine
 62
7
  6
CONTINUOUS
 10
59.5182346627
 20
97.4926983464
 11
58.838234663
 21
97.7276983458
  0
LINE
  5
547
100
AcDbEntity
  8
0
100
AcDbLine
 62
7
  6
CONTINUOUS
 10
67.2682346631
 20
97.6654924635
 11
67.088234663
 21
97.7276983458
  0
LINE
  5
548
100
AcDbEntity
  8
0
100
AcDbLine
 62
7
  6
CONTINUOUS
 10
76.7405750816
 20
93.174364931
 11
76.9533410508
 21
93.091030962
  0
LINE
  5
549
100
AcDbEntity
  8
0
100
AcDbLine
 62
7
  6
CONTINUOUS
 10
73.7405750815
 20
95.8743646919
 11
73.9533410509
 21
95.7910311996
  0
LINE
  5
54A
100
AcDbEntity
  8
0
100
AcDbLine
 62
7
  6
CONTINUOUS
 10
76.7405750815
 20
95.0493644542
 11
76.9533410508
 21
94.9660314388
  0
LINE
  5
54B
100
AcDbEntity
  8
0
100
AcDbLine
 62
7
  6
CONTINUOUS
 10
77.0065325338
 20
93.341030962
 11
76.8469580848
 21
93.4243649311
  0
LINE
  5
54C
100
AcDbEntity
  8
0
100
AcDbLine
 62
7
  6
CONTINUOUS
 10
74.0065325331
 20
96.0410311996
 11
73.846958084
 21
96.1243646919
  0
LINE
  5
54D
100
AcDbEntity
  8
0
100
AcDbLine
 62
7
  6
CONTINUOUS
 10
76.5278091308
 20
93.341030962
 11
76.7405750816
 21
93.174364931
  0
LINE
  5
54E
100
AcDbEntity
  8
0
100
AcDbLine
 62
7
  6
CONTINUOUS
 10
73.5278091308
 20
96.0410311997
 11
73.7405750815
 21
95.8743646919
  0
LINE
  5
54F
100
AcDbEntity
  8
0
100
AcDbLine
 62
7
  6
CONTINUOUS
 10
70.3682346631
 20
100.3326979454
 11
70.4214261497
 21
100.124364573
  0
LINE
  5
550
100
AcDbEntity
  8
0
100
AcDbLine
 62
7
  6
CONTINUOUS
 10
71.3894534676
 20
37.4980314354
 11
71.3894534682
 21
39.4820620115
  0
LINE
  5
551
100
AcDbEntity
  8
0
100
AcDbLine
 62
7
  6
CONTINUOUS
 10
71.3894534682
 20
157.7673644571
 11
71.3894534766
 21
155.7506590824
  0
LINE
  5
552
100
AcDbEntity
  8
0
100
AcDbLine
 62
7
  6
CONTINUOUS
 10
71.4852559555
 20
98.3326979466
 11
71.4852559555
 21
99.0826979458
  0
LINE
  5
553
100
AcDbEntity
  8
0
100
AcDbLine
 62
7
  6
CONTINUOUS
 10
71.5384474386
 20
96.1243644535
 11
71.5384474386
 21
97.2076979458
  0
LINE
  5
554
100
AcDbEntity
  8
0
100
AcDbLine
 62
7
  6
CONTINUOUS
 10
71.8044048529
 20
98.2910311996
 11
71.8044048529
 21
99.0826979458
  0
LINE
  5
555
100
AcDbEntity
  8
0
100
AcDbLine
 62
7
  6
CONTINUOUS
 10
71.8575963367
 20
97.2076979458
 11
71.8575963367
 21
96.1243644535
  0
LINE
  5
556
100
AcDbEntity
  8
0
100
AcDbLine
 62
7
  6
CONTINUOUS
 10
72.5490857642
 20
100.6660312593
 11
72.5490857642
 21
100.3326979457
  0
LINE
  5
557
100
AcDbEntity
  8
0
100
AcDbLine
 62
7
  6
CONTINUOUS
 10
72.549085765
 20
95.9576979458
 11
72.549085765
 21
97.2076979458
  0
LINE
  5
558
100
AcDbEntity
  8
0
100
AcDbLine
 62
7
  6
CONTINUOUS
 10
72.6022772473
 20
99.0826979458
 11
72.6022772473
 21
98.2910311998
  0
LINE
  5
559
100
AcDbEntity
  8
0
100
AcDbLine
 62
7
  6
CONTINUOUS
 10
72.7682346631
 20
161.6152375612
 11
72.7682346631
 21
157.715561626
  0
LINE
  5
55A
100
AcDbEntity
  8
0
100
AcDbLine
 62
7
  6
CONTINUOUS
 10
72.7682346631
 20
33.6501583318
 11
72.7682346631
 21
91.3826979465
  0
LINE
  5
55B
100
AcDbEntity
  8
0
100
AcDbLine
 62
7
  6
CONTINUOUS
 10
72.7682346631
 20
103.8826979465
 11
72.7682346631
 21
157.7152375612
  0
LINE
  5
55C
100
AcDbEntity
  8
0
100
AcDbLine
 62
7
  6
CONTINUOUS
 10
72.8682346631
 20
100.6660312593
 11
72.8682346631
 21
100.3326979458
  0
LINE
  5
55D
100
AcDbEntity
  8
0
100
AcDbLine
 62
7
  6
CONTINUOUS
 10
72.8682346631
 20
99.3326979458
 11
72.8682346631
 21
98.3326979458
  0
LINE
  5
55E
100
AcDbEntity
  8
0
100
AcDbLine
 62
7
  6
CONTINUOUS
 10
72.8682346631
 20
97.4576979458
 11
72.8682346631
 21
95.9576979458
  0
LINE
  5
55F
100
AcDbEntity
  8
0
100
AcDbLine
 62
7
  6
CONTINUOUS
 10
72.8682346631
 20
95.6243644535
 11
72.8682346631
 21
95.2493644535
  0
LINE
  5
560
100
AcDbEntity
  8
0
100
AcDbLine
 62
7
  6
CONTINUOUS
 10
72.8682346631
 20
94.2076979458
 11
72.8682346631
 21
93.9576979458
  0
LINE
  5
561
100
AcDbEntity
  8
0
100
AcDbLine
 62
7
  6
CONTINUOUS
 10
73.3682346631
 20
96.4160311991
 11
73.3682346631
 21
96.7493646919
  0
LINE
  5
562
100
AcDbEntity
  8
0
100
AcDbLine
 62
7
  6
CONTINUOUS
 10
73.3682346631
 20
98.4160312592
 11
73.3682346631
 21
98.6660312592
  0
LINE
  5
563
100
AcDbEntity
  8
0
100
AcDbLine
 62
7
  6
CONTINUOUS
 10
73.4182346631
 20
161.6326979465
 11
73.4182346629
 21
103.8826979465
  0
LINE
  5
564
100
AcDbEntity
  8
0
100
AcDbLine
 62
7
  6
CONTINUOUS
 10
73.4182346633
 20
91.3826979465
 11
73.4182346631
 21
33.6326979465
  0
LINE
  5
565
100
AcDbEntity
  8
0
100
AcDbLine
 62
7
  6
CONTINUOUS
 10
73.6873835977
 20
96.4160311996
 11
73.6873835977
 21
96.7493646919
  0
LINE
  5
566
100
AcDbEntity
  8
0
100
AcDbLine
 62
7
  6
CONTINUOUS
 10
75.5490857642
 20
96.7493646919
 11
75.5490857642
 21
96.4160311996
  0
LINE
  5
567
100
AcDbEntity
  8
0
100
AcDbLine
 62
7
  6
CONTINUOUS
 10
75.602277248
 20
97.7493645727
 11
75.602277248
 21
98.4160312592
  0
LINE
  5
568
100
AcDbEntity
  8
0
100
AcDbLine
 62
7
  6
CONTINUOUS
 10
75.602277248
 20
98.6660312592
 11
75.602277248
 21
99.3326979458
  0
LINE
  5
569
100
AcDbEntity
  8
0
100
AcDbLine
 62
7
  6
CONTINUOUS
 10
75.8682346631
 20
99.3326979458
 11
75.8682346631
 21
97.7493645727
  0
LINE
  5
56A
100
AcDbEntity
  8
0
100
AcDbLine
 62
7
  6
CONTINUOUS
 10
75.8682346631
 20
96.7493646911
 11
75.8682346631
 21
96.4160311996
  0
LINE
  5
56B
100
AcDbEntity
  8
0
100
AcDbLine
 62
7
  6
CONTINUOUS
 10
76.3682346631
 20
93.7160309619
 11
76.3682346631
 21
94.0493649311
  0
LINE
  5
56C
100
AcDbEntity
  8
0
100
AcDbLine
 62
7
  6
CONTINUOUS
 10
76.3682346631
 20
95.5910314387
 11
76.3682346631
 21
95.9243644542
  0
LINE
  5
56D
100
AcDbEntity
  8
0
100
AcDbLine
 62
7
  6
CONTINUOUS
 10
76.3682346631
 20
96.8410314388
 11
76.3682346631
 21
98.3410312004
  0
LINE
  5
56E
100
AcDbEntity
  8
0
100
AcDbLine
 62
7
  6
CONTINUOUS
 10
76.3682346631
 20
98.6743646929
 11
76.3682346631
 21
98.9660312004
  0
LINE
  5
56F
100
AcDbEntity
  8
0
100
AcDbLine
 62
7
  6
CONTINUOUS
 10
76.3682346631
 20
100.0076979465
 11
76.3682346631
 21
100.2576979465
  0
LINE
  5
570
100
AcDbEntity
  8
0
100
AcDbLine
 62
7
  6
CONTINUOUS
 10
76.3682346631
 20
101.8826979465
 11
76.3682346631
 21
102.1326979465
  0
LINE
  5
571
100
AcDbEntity
  8
0
100
AcDbLine
 62
7
  6
CONTINUOUS
 10
76.6873835985
 20
98.0910314388
 11
76.6873835985
 21
96.8410314388
  0
LINE
  5
572
100
AcDbEntity
  8
0
100
AcDbLine
 62
7
  6
CONTINUOUS
 10
76.6873835985
 20
95.9243644541
 11
76.6873835985
 21
95.5910314388
  0
LINE
  5
573
100
AcDbEntity
  8
0
100
AcDbLine
 62
7
  6
CONTINUOUS
 10
76.6873835985
 20
94.0493649312
 11
76.6873835985
 21
93.716030962
  0
LINE
  5
574
100
AcDbEntity
  8
0
100
AcDbLine
 62
7
  6
CONTINUOUS
 10
72.8150431801
 20
100.1243645726
 11
72.8682346631
 21
100.3326979457
  0
LINE
  5
575
100
AcDbEntity
  8
0
100
AcDbLine
 62
7
  6
CONTINUOUS
 10
72.8150431801
 20
98.124364692
 11
72.8682346631
 21
98.3326979457
  0
LINE
  5
576
100
AcDbEntity
  8
0
100
AcDbLine
 62
7
  6
CONTINUOUS
 10
73.4214261516
 20
96.9576979457
 11
73.3682346631
 21
96.7493646921
  0
LINE
  5
577
100
AcDbEntity
  8
0
100
AcDbLine
 62
7
  6
CONTINUOUS
 10
75.8150431801
 20
96.2076979456
 11
75.8682346631
 21
96.4160311996
  0
LINE
  5
578
100
AcDbEntity
  8
0
100
AcDbLine
 62
7
  6
CONTINUOUS
 10
76.4214261499
 20
96.1326979466
 11
76.3682346631
 21
95.9243644541
  0
LINE
  5
579
100
AcDbEntity
  8
0
100
AcDbLine
 62
7
  6
CONTINUOUS
 10
72.5490857642
 20
100.3326979457
 11
72.4958942812
 21
100.1660313188
  0
LINE
  5
57A
100
AcDbEntity
  8
0
100
AcDbLine
 62
7
  6
CONTINUOUS
 10
73.6873835977
 20
96.7493646919
 11
73.7405750807
 21
96.9160311995
  0
LINE
  5
57B
100
AcDbEntity
  8
0
100
AcDbLine
 62
7
  6
CONTINUOUS
 10
75.5490857642
 20
96.4160311996
 11
75.4958942812
 21
96.2493646918
  0
LINE
  5
57C
100
AcDbEntity
  8
0
100
AcDbLine
 62
7
  6
CONTINUOUS
 10
76.6873835985
 20
95.9243644542
 11
76.7405750815
 21
96.0910314388
  0
LINE
  5
57D
100
AcDbEntity
  8
0
100
AcDbLine
 62
7
  6
CONTINUOUS
 10
72.6022772473
 20
98.2910311998
 11
72.5490857642
 21
98.1660311996
  0
LINE
  5
57E
100
AcDbEntity
  8
0
100
AcDbLine
 62
7
  6
CONTINUOUS
 10
78.6022772473
 20
101.0910313198
 11
78.5490857642
 21
100.9660313195
  0
LINE
  5
57F
100
AcDbEntity
  8
0
100
AcDbLine
 62
7
  6
CONTINUOUS
 10
72.7086602142
 20
99.9576979459
 11
72.8150431801
 21
100.1243645726
  0
LINE
  5
580
100
AcDbEntity
  8
0
100
AcDbLine
 62
7
  6
CONTINUOUS
 10
73.5278091308
 20
97.1243646919
 11
73.4214261516
 21
96.9576979457
  0
LINE
  5
581
100
AcDbEntity
  8
0
100
AcDbLine
 62
7
  6
CONTINUOUS
 10
75.7086602142
 20
96.0410311998
 11
75.8150431801
 21
96.2076979456
  0
LINE
  5
582
100
AcDbEntity
  8
0
100
AcDbLine
 62
7
  6
CONTINUOUS
 10
76.5810006138
 20
96.3410314388
 11
76.4214261499
 21
96.1326979466
  0
LINE
  5
583
100
AcDbEntity
  8
0
100
AcDbLine
 62
7
  6
CONTINUOUS
 10
69.6182346591
 20
92.1743166323
 11
69.7217933352
 21
92.3056905996
  0
LINE
  5
584
100
AcDbEntity
  8
0
100
AcDbLine
 62
7
  6
CONTINUOUS
 10
73.7405750807
 20
96.9160311995
 11
73.846958084
 21
97.0410311996
  0
LINE
  5
585
100
AcDbEntity
  8
0
100
AcDbLine
 62
7
  6
CONTINUOUS
 10
75.4958942812
 20
96.2493646918
 11
75.3895113152
 21
96.1243646919
  0
LINE
  5
586
100
AcDbEntity
  8
0
100
AcDbLine
 62
7
  6
CONTINUOUS
 10
78.6714219501
 20
103.7791392887
 11
78.7609112255
 21
103.8826979465
  0
LINE
  5
587
100
AcDbEntity
  8
0
100
AcDbLine
 62
7
  6
CONTINUOUS
 10
72.6554687309
 20
97.9576979457
 11
72.8150431801
 21
98.124364692
  0
LINE
  5
588
100
AcDbEntity
  8
0
100
AcDbLine
 62
7
  6
CONTINUOUS
 10
78.6554687309
 20
100.7576979465
 11
78.8150431801
 21
100.9243645735
  0
LINE
  5
589
100
AcDbEntity
  8
0
100
AcDbLine
 62
7
  6
CONTINUOUS
 10
78.6554687309
 20
98.8826979464
 11
78.8150431801
 21
99.0493646927
  0
LINE
  5
58A
100
AcDbEntity
  8
0
100
AcDbLine
 62
7
  6
CONTINUOUS
 10
79.6182346671
 20
103.0253745096
 11
79.514675991
 21
102.9358852433
  0
LINE
  5
58B
100
AcDbEntity
  8
0
100
AcDbLine
 62
7
  6
CONTINUOUS
 10
70.5412273261
 20
91.4862566044
 11
70.409853349
 21
91.3826979466
  0
LINE
  5
58C
100
AcDbEntity
  8
0
100
AcDbLine
 62
7
  6
CONTINUOUS
 10
72.5490857642
 20
98.1660311996
 11
72.4427027982
 21
98.0826979457
  0
LINE
  5
58D
100
AcDbEntity
  8
0
100
AcDbLine
 62
7
  6
CONTINUOUS
 10
73.7405750815
 20
97.2910311996
 11
73.5278091308
 21
97.1243646919
  0
LINE
  5
58E
100
AcDbEntity
  8
0
100
AcDbLine
 62
7
  6
CONTINUOUS
 10
78.5490857642
 20
100.9660313195
 11
78.4427027982
 21
100.8826979465
  0
LINE
  5
58F
100
AcDbEntity
  8
0
100
AcDbLine
 62
7
  6
CONTINUOUS
 10
78.5490857642
 20
99.0910312003
 11
78.4427027982
 21
99.0076979465
  0
LINE
  5
590
100
AcDbEntity
  8
0
100
AcDbLine
 62
7
  6
CONTINUOUS
 10
75.4958942819
 20
95.8743646919
 11
75.7086602142
 21
96.0410311998
  0
LINE
  5
591
100
AcDbEntity
  8
0
100
AcDbLine
 62
7
  6
CONTINUOUS
 10
76.7405750815
 20
96.0910314388
 11
76.9001495678
 21
96.2160314388
  0
LINE
  5
592
100
AcDbEntity
  8
0
100
AcDbLine
 62
7
  6
CONTINUOUS
 10
77.8575963367
 20
96.3410314388
 11
77.6448304047
 21
96.1743644543
  0
LINE
  5
593
100
AcDbEntity
  8
0
100
AcDbLine
 62
7
  6
CONTINUOUS
 10
77.4320644725
 20
95.0493644542
 11
77.6448304047
 21
95.2160314388
  0
LINE
  5
594
100
AcDbEntity
  8
0
100
AcDbLine
 62
7
  6
CONTINUOUS
 10
76.7405750815
 20
94.2160314388
 11
76.9001495678
 21
94.3410314388
  0
LINE
  5
595
100
AcDbEntity
  8
0
100
AcDbLine
 62
7
  6
CONTINUOUS
 10
78.495894282
 20
95.4660314388
 11
78.3895113159
 21
95.3826979465
  0
LINE
  5
596
100
AcDbEntity
  8
0
100
AcDbLine
 62
7
  6
CONTINUOUS
 10
89.8337910394
 20
101.9469710285
 11
91.0182346633
 21
102.6429737219
  0
LINE
  5
597
100
AcDbEntity
  8
0
100
AcDbLine
 62
7
  6
CONTINUOUS
 10
72.4427027991
 20
97.8326979458
 11
72.6554687309
 21
97.9576979457
  0
LINE
  5
598
100
AcDbEntity
  8
0
100
AcDbLine
 62
7
  6
CONTINUOUS
 10
78.442702799
 20
100.6326979465
 11
78.6554687309
 21
100.7576979465
  0
LINE
  5
599
100
AcDbEntity
  8
0
100
AcDbLine
 62
7
  6
CONTINUOUS
 10
78.4427027991
 20
98.7576979466
 11
78.6554687309
 21
98.8826979464
  0
LINE
  5
59A
100
AcDbEntity
  8
0
100
AcDbLine
 62
7
  6
CONTINUOUS
 10
78.4427027991
 20
95.1326979466
 11
78.6554687311
 21
95.2576979466
  0
LINE
  5
59B
100
AcDbEntity
  8
0
100
AcDbLine
 62
7
  6
CONTINUOUS
 10
73.846958084
 20
97.0410311996
 11
74.0065325331
 21
97.1243646919
  0
LINE
  5
59C
100
AcDbEntity
  8
0
100
AcDbLine
 62
7
  6
CONTINUOUS
 10
75.3895113152
 20
96.1243646919
 11
75.229936717
 21
96.0410311996
  0
LINE
  5
59D
100
AcDbEntity
  8
0
100
AcDbLine
 62
7
  6
CONTINUOUS
 10
77.3256815066
 20
95.2993644543
 11
77.1661069829
 21
95.2160314388
  0
LINE
  5
59E
100
AcDbEntity
  8
0
100
AcDbLine
 62
7
  6
CONTINUOUS
 10
70.7405750815
 20
94.2076979458
 11
72.8682346631
 21
95.2493644535
  0
LINE
  5
59F
100
AcDbEntity
  8
0
100
AcDbLine
 62
7
  6
CONTINUOUS
 10
72.549085765
 20
95.3743644535
 11
70.3682346631
 21
94.3326979458
  0
LINE
  5
5A0
100
AcDbEntity
  8
0
100
AcDbLine
 62
7
  6
CONTINUOUS
 10
76.8469580849
 20
96.4660314388
 11
76.5810006138
 21
96.3410314388
  0
LINE
  5
5A1
100
AcDbEntity
  8
0
100
AcDbLine
 62
7
  6
CONTINUOUS
 10
76.8469580849
 20
94.5910314388
 11
76.5810006138
 21
94.4660314388
  0
LINE
  5
5A2
100
AcDbEntity
  8
0
100
AcDbLine
 62
7
  6
CONTINUOUS
 10
73.9533410508
 20
97.3743645727
 11
73.7405750815
 21
97.2910311996
  0
LINE
  5
5A3
100
AcDbEntity
  8
0
100
AcDbLine
 62
7
  6
CONTINUOUS
 10
75.28312835
 20
95.7910311997
 11
75.4958942819
 21
95.8743646919
  0
LINE
  5
5A4
100
AcDbEntity
  8
0
100
AcDbLine
 62
7
  6
CONTINUOUS
 10
77.219298466
 20
94.9660314388
 11
77.4320644725
 21
95.0493644542
  0
LINE
  5
5A5
100
AcDbEntity
  8
0
100
AcDbLine
 62
7
  6
CONTINUOUS
 10
78.3895113159
 20
95.3826979465
 11
78.2831283499
 21
95.3410314388
  0
LINE
  5
5A6
100
AcDbEntity
  8
0
100
AcDbLine
 62
7
  6
CONTINUOUS
 10
77.2192984659
 20
93.091030962
 11
77.4320644726
 21
93.1743649311
  0
LINE
  5
5A7
100
AcDbEntity
  8
0
100
AcDbLine
 62
7
  6
CONTINUOUS
 10
67.088234663
 20
93.2376983474
 11
67.2682346631
 21
93.2999042297
  0
LINE
  5
5A8
100
AcDbEntity
  8
0
100
AcDbLine
 62
7
  6
CONTINUOUS
 10
58.838234663
 20
89.7376983474
 11
59.5182346627
 21
89.9726983468
  0
LINE
  5
5A9
100
AcDbEntity
  8
0
100
AcDbLine
 62
7
  6
CONTINUOUS
 10
67.088234663
 20
89.7376983474
 11
67.2682346631
 21
89.7999042297
  0
LINE
  5
5AA
100
AcDbEntity
  8
0
100
AcDbLine
 62
7
  6
CONTINUOUS
 10
78.2831283499
 20
100.5910313196
 11
78.442702799
 21
100.6326979465
  0
LINE
  5
5AB
100
AcDbEntity
  8
0
100
AcDbLine
 62
7
  6
CONTINUOUS
 10
78.4427027982
 20
100.8826979465
 11
78.2831283492
 21
100.8410313196
  0
LINE
  5
5AC
100
AcDbEntity
  8
0
100
AcDbLine
 62
7
  6
CONTINUOUS
 10
72.229936717
 20
99.9576979457
 11
72.017170785
 21
99.9160313188
  0
LINE
  5
5AD
100
AcDbEntity
  8
0
100
AcDbLine
 62
7
  6
CONTINUOUS
 10
71.0065325331
 20
101.041031289
 11
71.2192984652
 21
101.0826979458
  0
LINE
  5
5AE
100
AcDbEntity
  8
0
100
AcDbLine
 62
7
  6
CONTINUOUS
 10
72.0171707857
 20
99.6660313188
 11
72.2831283499
 21
99.7076979458
  0
LINE
  5
5AF
100
AcDbEntity
  8
0
100
AcDbLine
 62
7
  6
CONTINUOUS
 10
71.2192984658
 20
101.3326979458
 11
70.9533410508
 21
101.2910312779
  0
LINE
  5
5B0
100
AcDbEntity
  8
0
100
AcDbLine
 62
7
  6
CONTINUOUS
 10
66.8882346624
 20
98.5826983462
 11
66.4182346631
 21
98.5826983462
  0
LINE
  5
5B1
100
AcDbEntity
  8
0
100
AcDbLine
 62
7
  6
CONTINUOUS
 10
58.6382346624
 20
98.5826983462
 11
58.1682346631
 21
98.5826983462
  0
LINE
  5
5B2
100
AcDbEntity
  8
0
100
AcDbLine
 62
7
  6
CONTINUOUS
 10
55.7682346633
 20
98.5826983467
 11
56.568234664
 21
98.5826983467
  0
LINE
  5
5B3
100
AcDbEntity
  8
0
100
AcDbLine
 62
7
  6
CONTINUOUS
 10
64.0182346631
 20
98.5826983467
 11
64.8182346629
 21
98.5826983467
  0
LINE
  5
5B4
100
AcDbEntity
  8
0
100
AcDbLine
 62
7
  6
CONTINUOUS
 10
73.3682346631
 20
98.6660312592
 11
75.602277248
 21
98.6660312592
  0
LINE
  5
5B5
100
AcDbEntity
  8
0
100
AcDbLine
 62
7
  6
CONTINUOUS
 10
78.2831283508
 20
98.7160312004
 11
78.0703622688
 21
98.7160312004
  0
LINE
  5
5B6
100
AcDbEntity
  8
0
100
AcDbLine
 62
7
  6
CONTINUOUS
 10
78.2831283492
 20
98.9660312004
 11
78.123553751
 21
98.9660312004
  0
LINE
  5
5B7
100
AcDbEntity
  8
0
100
AcDbLine
 62
7
  6
CONTINUOUS
 10
71.4852559555
 20
99.0826979458
 11
70.3682346631
 21
99.0826979458
  0
LINE
  5
5B8
100
AcDbEntity
  8
0
100
AcDbLine
 62
7
  6
CONTINUOUS
 10
71.8044048529
 20
99.0826979458
 11
72.6022772473
 21
99.0826979458
  0
LINE
  5
5B9
100
AcDbEntity
  8
0
100
AcDbLine
 62
7
  6
CONTINUOUS
 10
70.3682346631
 20
99.3326979458
 11
72.8682346631
 21
99.3326979458
  0
LINE
  5
5BA
100
AcDbEntity
  8
0
100
AcDbLine
 62
7
  6
CONTINUOUS
 10
75.602277248
 20
99.3326979458
 11
75.8682346631
 21
99.3326979458
  0
LINE
  5
5BB
100
AcDbEntity
  8
0
100
AcDbLine
 62
7
  6
CONTINUOUS
 10
64.8182346629
 20
99.3826983467
 11
64.0182346631
 21
99.3826983467
  0
LINE
  5
5BC
100
AcDbEntity
  8
0
100
AcDbLine
 62
7
  6
CONTINUOUS
 10
56.568234664
 20
99.3826983467
 11
55.7682346633
 21
99.3826983467
  0
LINE
  5
5BD
100
AcDbEntity
  8
0
100
AcDbLine
 62
7
  6
CONTINUOUS
 10
58.1682346631
 20
99.382698347
 11
58.6382346634
 21
99.382698347
  0
LINE
  5
5BE
100
AcDbEntity
  8
0
100
AcDbLine
 62
7
  6
CONTINUOUS
 10
66.4182346631
 20
99.382698347
 11
66.8882346621
 21
99.3826983451
  0
LINE
  5
5BF
100
AcDbEntity
  8
0
100
AcDbLine
 62
7
  6
CONTINUOUS
 10
72.0171707852
 20
99.6660313188
 11
71.219298466
 21
99.6660313188
  0
LINE
  5
5C0
100
AcDbEntity
  8
0
100
AcDbLine
 62
7
  6
CONTINUOUS
 10
72.017170785
 20
99.9160313188
 11
71.2192984653
 21
99.9160313188
  0
LINE
  5
5C1
100
AcDbEntity
  8
0
100
AcDbLine
 62
7
  6
CONTINUOUS
 10
77.4852559555
 20
100.0076979465
 11
76.3682346631
 21
100.0076979465
  0
LINE
  5
5C2
100
AcDbEntity
  8
0
100
AcDbLine
 62
7
  6
CONTINUOUS
 10
77.8044048529
 20
100.0076979465
 11
78.6022772473
 21
100.0076979465
  0
LINE
  5
5C3
100
AcDbEntity
  8
0
100
AcDbLine
 62
7
  6
CONTINUOUS
 10
76.3682346631
 20
100.2576979465
 11
78.8682346631
 21
100.2576979465
  0
LINE
  5
5C4
100
AcDbEntity
  8
0
100
AcDbLine
 62
7
  6
CONTINUOUS
 10
60.1682346631
 20
100.4326983458
 11
61.4682346638
 21
100.4326983458
  0
LINE
  5
5C5
100
AcDbEntity
  8
0
100
AcDbLine
 62
7
  6
CONTINUOUS
 10
53.8682346642
 20
100.5326983473
 11
58.1682346631
 21
100.5326983473
  0
LINE
  5
5C6
100
AcDbEntity
  8
0
100
AcDbLine
 62
7
  6
CONTINUOUS
 10
62.1182346624
 20
100.5326983455
 11
66.4182346631
 21
100.5326983455
  0
LINE
  5
5C7
100
AcDbEntity
  8
0
100
AcDbLine
 62
7
  6
CONTINUOUS
 10
78.2831283499
 20
100.5910313196
 11
78.0703622688
 21
100.5910313196
  0
LINE
  5
5C8
100
AcDbEntity
  8
0
100
AcDbLine
 62
7
  6
CONTINUOUS
 10
78.2831283492
 20
100.8410313196
 11
78.123553751
 21
100.8410313196
  0
LINE
  5
5C9
100
AcDbEntity
  8
0
100
AcDbLine
 62
7
  6
CONTINUOUS
 10
71.2192984652
 20
101.0826979458
 11
72.0171707851
 21
101.0826979458
  0
LINE
  5
5CA
100
AcDbEntity
  8
0
100
AcDbLine
 62
7
  6
CONTINUOUS
 10
67.2682346631
 20
101.1826983452
 11
53.2182346635
 21
101.1826983452
  0
LINE
  5
5CB
100
AcDbEntity
  8
0
100
AcDbLine
 62
7
  6
CONTINUOUS
 10
71.2192984658
 20
101.3326979458
 11
72.0171707857
 21
101.3326979458
  0
LINE
  5
5CC
100
AcDbEntity
  8
0
100
AcDbLine
 62
7
  6
CONTINUOUS
 10
77.4852559555
 20
101.8826979465
 11
76.3682346631
 21
101.8826979465
  0
LINE
  5
5CD
100
AcDbEntity
  8
0
100
AcDbLine
 62
7
  6
CONTINUOUS
 10
77.8044048529
 20
101.8826979465
 11
78.6022772473
 21
101.8826979465
  0
LINE
  5
5CE
100
AcDbEntity
  8
0
100
AcDbLine
 62
7
  6
CONTINUOUS
 10
76.3682346631
 20
102.1326979465
 11
78.8682346631
 21
102.1326979465
  0
LINE
  5
5CF
100
AcDbEntity
  8
0
100
AcDbLine
 62
7
  6
CONTINUOUS
 10
79.01581194
 20
102.9358849839
 11
79.5146759909
 21
102.9358849836
  0
LINE
  5
5D0
100
AcDbEntity
  8
0
100
AcDbLine
 62
7
  6
CONTINUOUS
 10
69.721793343
 20
102.9821618967
 11
70.220657394
 21
102.9821618963
  0
LINE
  5
5D1
100
AcDbEntity
  8
0
100
AcDbLine
 62
7
  6
CONTINUOUS
 10
78.6707450532
 20
103.2802752379
 11
70.519063371
 21
103.2802752435
  0
LINE
  5
5D2
100
AcDbEntity
  8
0
100
AcDbLine
 62
7
  6
CONTINUOUS
 10
78.6714219501
 20
103.7791392887
 11
70.5187707368
 21
103.7791392887
  0
LINE
  5
5D3
100
AcDbEntity
  8
0
100
AcDbLine
 62
7
  6
CONTINUOUS
 10
78.7609112255
 20
103.8826979465
 11
70.4578571768
 21
103.8826979466
  0
LINE
  5
5D4
100
AcDbEntity
  8
0
100
AcDbLine
 62
7
  6
CONTINUOUS
 10
32.5687995345
 20
100.5162912945
 11
32.2682346364
 21
100.5163301832
  0
LINE
  5
5D5
100
AcDbEntity
  8
0
100
AcDbLine
 62
7
  6
CONTINUOUS
 10
70.9533410509
 20
99.7076979458
 11
71.2192984659
 21
99.6660313188
  0
LINE
  5
5D6
100
AcDbEntity
  8
0
100
AcDbLine
 62
7
  6
CONTINUOUS
 10
72.2831283499
 20
101.2910312779
 11
72.0171707858
 21
101.3326979458
  0
LINE
  5
5D7
100
AcDbEntity
  8
0
100
AcDbLine
 62
7
  6
CONTINUOUS
 10
71.2192984653
 20
99.9160313188
 11
71.0065325331
 21
99.9576979458
  0
LINE
  5
5D8
100
AcDbEntity
  8
0
100
AcDbLine
 62
7
  6
CONTINUOUS
 10
72.0171707851
 20
101.0826979458
 11
72.229936717
 21
101.0410312891
  0
LINE
  5
5D9
100
AcDbEntity
  8
0
100
AcDbLine
 62
7
  6
CONTINUOUS
 10
72.123553751
 20
98.0410311996
 11
71.963979302
 21
98.0826979457
  0
LINE
  5
5DA
100
AcDbEntity
  8
0
100
AcDbLine
 62
7
  6
CONTINUOUS
 10
77.9107878198
 20
98.7576979465
 11
78.0703622688
 21
98.7160312004
  0
LINE
  5
5DB
100
AcDbEntity
  8
0
100
AcDbLine
 62
7
  6
CONTINUOUS
 10
78.123553751
 20
98.9660312004
 11
77.963979302
 21
99.0076979465
  0
LINE
  5
5DC
100
AcDbEntity
  8
0
100
AcDbLine
 62
7
  6
CONTINUOUS
 10
77.9107878198
 20
100.6326979465
 11
78.0703622688
 21
100.5910313196
  0
LINE
  5
5DD
100
AcDbEntity
  8
0
100
AcDbLine
 62
7
  6
CONTINUOUS
 10
78.123553751
 20
100.8410313196
 11
77.963979302
 21
100.8826979465
  0
LINE
  5
5DE
100
AcDbEntity
  8
0
100
AcDbLine
 62
7
  6
CONTINUOUS
 10
75.495894282
 20
97.2910311997
 11
75.28312835
 21
97.3743645727
  0
LINE
  5
5DF
100
AcDbEntity
  8
0
100
AcDbLine
 62
7
  6
CONTINUOUS
 10
70.7405750815
 20
99.7910313189
 11
70.9533410509
 21
99.7076979458
  0
LINE
  5
5E0
100
AcDbEntity
  8
0
100
AcDbLine
 62
7
  6
CONTINUOUS
 10
72.495894282
 20
101.2076979457
 11
72.2831283499
 21
101.2910312779
  0
LINE
  5
5E1
100
AcDbEntity
  8
0
100
AcDbLine
 62
7
  6
CONTINUOUS
 10
77.0065325338
 20
95.2160314388
 11
76.8469580848
 21
95.2993644542
  0
LINE
  5
5E2
100
AcDbEntity
  8
0
100
AcDbLine
 62
7
  6
CONTINUOUS
 10
75.229936717
 20
97.1243646919
 11
75.3895113152
 21
97.0410311996
  0
LINE
  5
5E3
100
AcDbEntity
  8
0
100
AcDbLine
 62
7
  6
CONTINUOUS
 10
71.0065325331
 20
99.9576979458
 11
70.846958084
 21
100.0410313189
  0
LINE
  5
5E4
100
AcDbEntity
  8
0
100
AcDbLine
 62
7
  6
CONTINUOUS
 10
72.229936717
 20
101.0410312891
 11
72.3895113152
 21
100.9576979457
  0
LINE
  5
5E5
100
AcDbEntity
  8
0
100
AcDbLine
 62
7
  6
CONTINUOUS
 10
71.6980218874
 20
97.9576979459
 11
71.9107878198
 21
97.8326979457
  0
LINE
  5
5E6
100
AcDbEntity
  8
0
100
AcDbLine
 62
7
  6
CONTINUOUS
 10
77.6980218876
 20
98.8826979465
 11
77.9107878198
 21
98.7576979465
  0
LINE
  5
5E7
100
AcDbEntity
  8
0
100
AcDbLine
 62
7
  6
CONTINUOUS
 10
89.8337910399
 20
93.3184248658
 11
91.0182346639
 21
92.6224221722
  0
LINE
  5
5E8
100
AcDbEntity
  8
0
100
AcDbLine
 62
7
  6
CONTINUOUS
 10
77.6980218877
 20
100.7576979465
 11
77.9107878198
 21
100.6326979465
  0
LINE
  5
5E9
100
AcDbEntity
  8
0
100
AcDbLine
 62
7
  6
CONTINUOUS
 10
69.721793343
 20
102.9821618967
 11
69.618234667
 21
103.0430754319
  0
LINE
  5
5EA
100
AcDbEntity
  8
0
100
AcDbLine
 62
7
  6
CONTINUOUS
 10
79.5146759832
 20
92.3181395134
 11
79.6182346592
 21
92.2381653554
  0
LINE
  5
5EB
100
AcDbEntity
  8
0
100
AcDbLine
 62
7
  6
CONTINUOUS
 10
71.963979302
 20
98.0826979457
 11
71.8575963359
 21
98.1660311997
  0
LINE
  5
5EC
100
AcDbEntity
  8
0
100
AcDbLine
 62
7
  6
CONTINUOUS
 10
76.5278091308
 20
95.2160314388
 11
76.7405750815
 21
95.0493644542
  0
LINE
  5
5ED
100
AcDbEntity
  8
0
100
AcDbLine
 62
7
  6
CONTINUOUS
 10
70.5278091309
 20
99.9576979457
 11
70.7405750815
 21
99.7910313189
  0
LINE
  5
5EE
100
AcDbEntity
  8
0
100
AcDbLine
 62
7
  6
CONTINUOUS
 10
78.708660214
 20
94.2993644543
 11
78.495894282
 21
94.4660314388
  0
LINE
  5
5EF
100
AcDbEntity
  8
0
100
AcDbLine
 62
7
  6
CONTINUOUS
 10
75.7086602138
 20
97.1243646921
 11
75.495894282
 21
97.2910311997
  0
LINE
  5
5F0
100
AcDbEntity
  8
0
100
AcDbLine
 62
7
  6
CONTINUOUS
 10
78.708660214
 20
96.1743644543
 11
78.495894282
 21
96.3410314388
  0
LINE
  5
5F1
100
AcDbEntity
  8
0
100
AcDbLine
 62
7
  6
CONTINUOUS
 10
72.7086602138
 20
101.0410312892
 11
72.495894282
 21
101.2076979457
  0
LINE
  5
5F2
100
AcDbEntity
  8
0
100
AcDbLine
 62
7
  6
CONTINUOUS
 10
77.963979302
 20
99.0076979465
 11
77.8575963359
 21
99.0910312005
  0
LINE
  5
5F3
100
AcDbEntity
  8
0
100
AcDbLine
 62
7
  6
CONTINUOUS
 10
71.5384474387
 20
98.1243646917
 11
71.6980218874
 21
97.9576979459
  0
LINE
  5
5F4
100
AcDbEntity
  8
0
100
AcDbLine
 62
7
  6
CONTINUOUS
 10
73.846958084
 20
96.1243646919
 11
73.7405750807
 21
96.249364692
  0
LINE
  5
5F5
100
AcDbEntity
  8
0
100
AcDbLine
 62
7
  6
CONTINUOUS
 10
70.846958084
 20
100.0410313189
 11
70.7405750807
 21
100.1660313189
  0
LINE
  5
5F6
100
AcDbEntity
  8
0
100
AcDbLine
 62
7
  6
CONTINUOUS
 10
76.8469580848
 20
93.4243649311
 11
76.7405750816
 21
93.5493649309
  0
LINE
  5
5F7
100
AcDbEntity
  8
0
100
AcDbLine
 62
7
  6
CONTINUOUS
 10
76.8469580848
 20
95.2993644542
 11
76.7405750815
 21
95.4243644542
  0
LINE
  5
5F8
100
AcDbEntity
  8
0
100
AcDbLine
 62
7
  6
CONTINUOUS
 10
75.3895113152
 20
97.0410311996
 11
75.4958942812
 21
96.9160311997
  0
LINE
  5
5F9
100
AcDbEntity
  8
0
100
AcDbLine
 62
7
  6
CONTINUOUS
 10
72.3895113152
 20
100.9576979457
 11
72.4958942812
 21
100.8326979458
  0
LINE
  5
5FA
100
AcDbEntity
  8
0
100
AcDbLine
 62
7
  6
CONTINUOUS
 10
78.389511316
 20
94.2160314388
 11
78.495894282
 21
94.0910309619
  0
LINE
  5
5FB
100
AcDbEntity
  8
0
100
AcDbLine
 62
7
  6
CONTINUOUS
 10
78.389511316
 20
96.0910314388
 11
78.4958942821
 21
95.9660314387
  0
LINE
  5
5FC
100
AcDbEntity
  8
0
100
AcDbLine
 62
7
  6
CONTINUOUS
 10
78.7627672543
 20
91.3826979465
 11
78.682793071
 21
91.4862566044
  0
LINE
  5
5FD
100
AcDbEntity
  8
0
100
AcDbLine
 62
7
  6
CONTINUOUS
 10
70.4214261497
 20
100.124364573
 11
70.5278091309
 21
99.9576979457
  0
LINE
  5
5FE
100
AcDbEntity
  8
0
100
AcDbLine
 62
7
  6
CONTINUOUS
 10
73.4214261518
 20
96.2076979457
 11
73.5278091308
 21
96.0410311997
  0
LINE
  5
5FF
100
AcDbEntity
  8
0
100
AcDbLine
 62
7
  6
CONTINUOUS
 10
76.4214261497
 20
93.5076979467
 11
76.5278091308
 21
93.341030962
  0
LINE
  5
600
100
AcDbEntity
  8
0
100
AcDbLine
 62
7
  6
CONTINUOUS
 10
72.8150431802
 20
100.8743646023
 11
72.7086602138
 21
101.0410312892
  0
LINE
  5
601
100
AcDbEntity
  8
0
100
AcDbLine
 62
7
  6
CONTINUOUS
 10
76.4214261497
 20
95.3826979468
 11
76.5278091308
 21
95.2160314388
  0
LINE
  5
602
100
AcDbEntity
  8
0
100
AcDbLine
 62
7
  6
CONTINUOUS
 10
75.8150431801
 20
96.9576979455
 11
75.7086602138
 21
97.1243646921
  0
LINE
  5
603
100
AcDbEntity
  8
0
100
AcDbLine
 62
7
  6
CONTINUOUS
 10
78.8150431801
 20
94.1326979465
 11
78.708660214
 21
94.2993644543
  0
LINE
  5
604
100
AcDbEntity
  8
0
100
AcDbLine
 62
7
  6
CONTINUOUS
 10
78.8150431802
 20
96.0076979464
 11
78.708660214
 21
96.1743644543
  0
LINE
  5
605
100
AcDbEntity
  8
0
100
AcDbLine
 62
7
  6
CONTINUOUS
 10
70.5187707368
 20
103.7791392887
 11
70.4578571768
 21
103.8826979466
  0
LINE
  5
606
100
AcDbEntity
  8
0
100
AcDbLine
 62
7
  6
CONTINUOUS
 10
71.8575963359
 20
98.1660311997
 11
71.8044048529
 21
98.2910311996
  0
LINE
  5
607
100
AcDbEntity
  8
0
100
AcDbLine
 62
7
  6
CONTINUOUS
 10
78.495894282
 20
94.0910309619
 11
78.549085765
 21
93.9660309621
  0
LINE
  5
608
100
AcDbEntity
  8
0
100
AcDbLine
 62
7
  6
CONTINUOUS
 10
70.7405750807
 20
100.1660313189
 11
70.6873835977
 21
100.3326979457
  0
LINE
  5
609
100
AcDbEntity
  8
0
100
AcDbLine
 62
7
  6
CONTINUOUS
 10
73.7405750807
 20
96.249364692
 11
73.6873835977
 21
96.4160311996
  0
LINE
  5
60A
100
AcDbEntity
  8
0
100
AcDbLine
 62
7
  6
CONTINUOUS
 10
72.4958942812
 20
100.8326979458
 11
72.5490857642
 21
100.6660312593
  0
LINE
  5
60B
100
AcDbEntity
  8
0
100
AcDbLine
 62
7
  6
CONTINUOUS
 10
75.4958942812
 20
96.9160311997
 11
75.5490857642
 21
96.7493646919
  0
LINE
  5
60C
100
AcDbEntity
  8
0
100
AcDbLine
 62
7
  6
CONTINUOUS
 10
76.7405750816
 20
93.5493649309
 11
76.6873835985
 21
93.7160309621
  0
LINE
  5
60D
100
AcDbEntity
  8
0
100
AcDbLine
 62
7
  6
CONTINUOUS
 10
76.7405750815
 20
95.4243644542
 11
76.6873835985
 21
95.5910314387
  0
LINE
  5
60E
100
AcDbEntity
  8
0
100
AcDbLine
 62
7
  6
CONTINUOUS
 10
71.4852559555
 20
98.3326979461
 11
71.5384474387
 21
98.1243646917
  0
LINE
  5
60F
100
AcDbEntity
  8
0
100
AcDbLine
 62
7
  6
CONTINUOUS
 10
73.3682346631
 20
96.4160311997
 11
73.4214261518
 21
96.2076979457
  0
LINE
  5
610
100
AcDbEntity
  8
0
100
AcDbLine
 62
7
  6
CONTINUOUS
 10
72.8682346631
 20
100.6660312593
 11
72.8150431802
 21
100.8743646023
  0
LINE
  5
611
100
AcDbEntity
  8
0
100
AcDbLine
 62
7
  6
CONTINUOUS
 10
76.3682346631
 20
93.7160309616
 11
76.4214261497
 21
93.5076979467
  0
LINE
  5
612
100
AcDbEntity
  8
0
100
AcDbLine
 62
7
  6
CONTINUOUS
 10
75.8682346631
 20
96.7493646919
 11
75.8150431801
 21
96.9576979455
  0
LINE
  5
613
100
AcDbEntity
  8
0
100
AcDbLine
 62
7
  6
CONTINUOUS
 10
76.3682346631
 20
95.5910314384
 11
76.4214261497
 21
95.3826979468
  0
LINE
  5
614
100
AcDbEntity
  8
0
100
AcDbLine
 62
7
  6
CONTINUOUS
 10
77.0597240169
 20
96.5076979464
 11
77.0597240169
 21
96.2576979465
  0
LINE
  5
615
100
AcDbEntity
  8
0
100
AcDbLine
 62
7
  6
CONTINUOUS
 10
77.0597240169
 20
94.6326979464
 11
77.0597240169
 21
94.3826979465
  0
LINE
  5
616
100
AcDbEntity
  8
0
100
AcDbLine
 62
7
  6
CONTINUOUS
 10
77.4852559555
 20
93.7160309617
 11
77.4852559555
 21
93.966030962
  0
LINE
  5
617
100
AcDbEntity
  8
0
100
AcDbLine
 62
7
  6
CONTINUOUS
 10
77.4852559555
 20
95.5910314389
 11
77.4852559555
 21
95.8410314388
  0
LINE
  5
618
100
AcDbEntity
  8
0
100
AcDbLine
 62
7
  6
CONTINUOUS
 10
77.4852559555
 20
99.2993646927
 11
77.4852559555
 21
100.0076979465
  0
LINE
  5
619
100
AcDbEntity
  8
0
100
AcDbLine
 62
7
  6
CONTINUOUS
 10
77.4852559555
 20
101.1326979465
 11
77.4852559555
 21
101.8826979465
  0
LINE
  5
61A
100
AcDbEntity
  8
0
100
AcDbLine
 62
7
  6
CONTINUOUS
 10
77.5384474386
 20
97.0076979465
 11
77.5384474386
 21
98.0910314388
  0
LINE
  5
61B
100
AcDbEntity
  8
0
100
AcDbLine
 62
7
  6
CONTINUOUS
 10
77.8044048537
 20
95.8410314396
 11
77.8044048537
 21
95.5910314388
  0
LINE
  5
61C
100
AcDbEntity
  8
0
100
AcDbLine
 62
7
  6
CONTINUOUS
 10
77.8044048537
 20
93.9660309627
 11
77.8044048537
 21
93.716030962
  0
LINE
  5
61D
100
AcDbEntity
  8
0
100
AcDbLine
 62
7
  6
CONTINUOUS
 10
77.8044048529
 20
99.2160312003
 11
77.8044048529
 21
100.0076979465
  0
LINE
  5
61E
100
AcDbEntity
  8
0
100
AcDbLine
 62
7
  6
CONTINUOUS
 10
77.8044048529
 20
101.0910313196
 11
77.8044048529
 21
101.8826979465
  0
LINE
  5
61F
100
AcDbEntity
  8
0
100
AcDbLine
 62
7
  6
CONTINUOUS
 10
77.8575963367
 20
98.0910314388
 11
77.8575963367
 21
97.0076979465
  0
LINE
  5
620
100
AcDbEntity
  8
0
100
AcDbLine
 62
7
  6
CONTINUOUS
 10
78.2831283499
 20
93.216030962
 11
78.2831283499
 21
93.466030962
  0
LINE
  5
621
100
AcDbEntity
  8
0
100
AcDbLine
 62
7
  6
CONTINUOUS
 10
78.2831283499
 20
95.0910314388
 11
78.2831283499
 21
95.3410314388
  0
LINE
  5
622
100
AcDbEntity
  8
0
100
AcDbLine
 62
7
  6
CONTINUOUS
 10
78.549085765
 20
93.7160309612
 11
78.549085765
 21
93.966030962
  0
LINE
  5
623
100
AcDbEntity
  8
0
100
AcDbLine
 62
7
  6
CONTINUOUS
 10
78.549085765
 20
95.591031438
 11
78.549085765
 21
95.8410314388
  0
LINE
  5
624
100
AcDbEntity
  8
0
100
AcDbLine
 62
7
  6
CONTINUOUS
 10
78.549085765
 20
96.8410314388
 11
78.549085765
 21
98.0910314388
  0
LINE
  5
625
100
AcDbEntity
  8
0
100
AcDbLine
 62
7
  6
CONTINUOUS
 10
78.6022772473
 20
101.8826979465
 11
78.6022772473
 21
101.0910313198
  0
LINE
  5
626
100
AcDbEntity
  8
0
100
AcDbLine
 62
7
  6
CONTINUOUS
 10
78.6022772473
 20
100.0076979465
 11
78.6022772473
 21
99.2160312006
  0
LINE
  5
627
100
AcDbEntity
  8
0
100
AcDbLine
 62
7
  6
CONTINUOUS
 10
78.6714219501
 20
103.7791392887
 11
78.6714219501
 21
103.2802752407
  0
LINE
  5
628
100
AcDbEntity
  8
0
100
AcDbLine
 62
7
  6
CONTINUOUS
 10
78.682793015
 20
91.9851206552
 11
78.682793015
 21
91.4862566043
  0
LINE
  5
629
100
AcDbEntity
  8
0
100
AcDbLine
 62
7
  6
CONTINUOUS
 10
78.8682346631
 20
102.1326979465
 11
78.8682346631
 21
101.1326979465
  0
LINE
  5
62A
100
AcDbEntity
  8
0
100
AcDbLine
 62
7
  6
CONTINUOUS
 10
78.8682346631
 20
100.2576979465
 11
78.8682346631
 21
99.2576979465
  0
LINE
  5
62B
100
AcDbEntity
  8
0
100
AcDbLine
 62
7
  6
CONTINUOUS
 10
78.8682346631
 20
98.3410312004
 11
78.8682346631
 21
96.8410314388
  0
LINE
  5
62C
100
AcDbEntity
  8
0
100
AcDbLine
 62
7
  6
CONTINUOUS
 10
78.8682346631
 20
95.8410314389
 11
78.8682346631
 21
95.6326979465
  0
LINE
  5
62D
100
AcDbEntity
  8
0
100
AcDbLine
 62
7
  6
CONTINUOUS
 10
78.8682346631
 20
93.9660309618
 11
78.8682346631
 21
93.7576979465
  0
LINE
  5
62E
100
AcDbEntity
  8
0
100
AcDbLine
 62
7
  6
CONTINUOUS
 10
79.0158119313
 20
92.318858142
 11
79.0158119425
 21
102.9360788597
  0
LINE
  5
62F
100
AcDbEntity
  8
0
100
AcDbLine
 62
7
  6
CONTINUOUS
 10
79.5146759832
 20
92.3181395134
 11
79.514675991
 21
102.9358852433
  0
LINE
  5
630
100
AcDbEntity
  8
0
100
AcDbLine
 62
7
  6
CONTINUOUS
 10
79.6182346592
 20
92.2381653554
 11
79.6182346671
 21
103.0253745096
  0
LINE
  5
631
100
AcDbEntity
  8
0
100
AcDbLine
 62
7
  6
CONTINUOUS
 10
81.9495942744
 20
161.3651011665
 11
81.9495942748
 21
33.9002947175
  0
LINE
  5
632
100
AcDbEntity
  8
0
100
AcDbLine
 62
7
  6
CONTINUOUS
 10
82.9182346631
 20
160.3655338503
 11
82.9182346631
 21
34.8998620371
  0
LINE
  5
633
100
AcDbEntity
  8
0
100
AcDbLine
 62
7
  6
CONTINUOUS
 10
68.5347928672
 20
39.0060274158
 11
68.2982346631
 21
37.4326979465
  0
LINE
  5
634
100
AcDbEntity
  8
0
100
AcDbLine
 62
7
  6
CONTINUOUS
 10
76.4214261499
 20
94.2576979466
 11
76.3682346631
 21
94.0493649309
  0
LINE
  5
635
100
AcDbEntity
  8
0
100
AcDbLine
 62
7
  6
CONTINUOUS
 10
78.8150431801
 20
100.9243645735
 11
78.8682346631
 21
101.1326979465
  0
LINE
  5
636
100
AcDbEntity
  8
0
100
AcDbLine
 62
7
  6
CONTINUOUS
 10
77.7512133707
 20
95.3826979465
 11
77.8044048537
 21
95.5910314388
  0
LINE
  5
637
100
AcDbEntity
  8
0
100
AcDbLine
 62
7
  6
CONTINUOUS
 10
78.8150431801
 20
99.0493646927
 11
78.8682346631
 21
99.2576979465
  0
LINE
  5
638
100
AcDbEntity
  8
0
100
AcDbLine
 62
7
  6
CONTINUOUS
 10
77.7512133707
 20
93.5076979465
 11
77.8044048537
 21
93.7160309619
  0
LINE
  5
639
100
AcDbEntity
  8
0
100
AcDbLine
 62
7
  6
CONTINUOUS
 10
78.8150431801
 20
95.4243644541
 11
78.8682346631
 21
95.6326979465
  0
LINE
  5
63A
100
AcDbEntity
  8
0
100
AcDbLine
 62
7
  6
CONTINUOUS
 10
78.8150431801
 20
93.5493649311
 11
78.8682346631
 21
93.7576979464
  0
LINE
  5
63B
100
AcDbEntity
  8
0
100
AcDbLine
 62
7
  6
CONTINUOUS
 10
76.6873835985
 20
94.0493649311
 11
76.7405750815
 21
94.2160314388
  0
LINE
  5
63C
100
AcDbEntity
  8
0
100
AcDbLine
 62
7
  6
CONTINUOUS
 10
77.5384474384
 20
96.0076979462
 11
77.4852559555
 21
95.8410314388
  0
LINE
  5
63D
100
AcDbEntity
  8
0
100
AcDbLine
 62
7
  6
CONTINUOUS
 10
77.4852559555
 20
95.5910314388
 11
77.4320644724
 21
95.4243644541
  0
LINE
  5
63E
100
AcDbEntity
  8
0
100
AcDbLine
 62
7
  6
CONTINUOUS
 10
77.5384474384
 20
94.1326979461
 11
77.4852559555
 21
93.966030962
  0
LINE
  5
63F
100
AcDbEntity
  8
0
100
AcDbLine
 62
7
  6
CONTINUOUS
 10
77.4852559555
 20
93.7160309618
 11
77.4320644725
 21
93.549364931
  0
LINE
  5
640
100
AcDbEntity
  8
0
100
AcDbLine
 62
7
  6
CONTINUOUS
 10
78.6022772473
 20
99.2160312006
 11
78.5490857642
 21
99.0910312003
  0
LINE
  5
641
100
AcDbEntity
  8
0
100
AcDbLine
 62
7
  6
CONTINUOUS
 10
77.8044048537
 20
95.8410314387
 11
77.8575963368
 21
95.966031439
  0
LINE
  5
642
100
AcDbEntity
  8
0
100
AcDbLine
 62
7
  6
CONTINUOUS
 10
77.8044048537
 20
93.9660309619
 11
77.8575963368
 21
94.0910309621
  0
LINE
  5
643
100
AcDbEntity
  8
0
100
AcDbLine
 62
7
  6
CONTINUOUS
 10
78.549085765
 20
95.5910314388
 11
78.495894282
 21
95.4660314388
  0
LINE
  5
644
100
AcDbEntity
  8
0
100
AcDbLine
 62
7
  6
CONTINUOUS
 10
78.549085765
 20
93.716030962
 11
78.495894282
 21
93.591030962
  0
LINE
  5
645
100
AcDbEntity
  8
0
100
AcDbLine
 62
7
  6
CONTINUOUS
 10
77.6448304047
 20
96.1743644543
 11
77.5384474384
 21
96.0076979462
  0
LINE
  5
646
100
AcDbEntity
  8
0
100
AcDbLine
 62
7
  6
CONTINUOUS
 10
77.6448304047
 20
95.2160314388
 11
77.7512133707
 21
95.3826979465
  0
LINE
  5
647
100
AcDbEntity
  8
0
100
AcDbLine
 62
7
  6
CONTINUOUS
 10
77.6448304047
 20
94.2993644543
 11
77.5384474384
 21
94.1326979461
  0
LINE
  5
648
100
AcDbEntity
  8
0
100
AcDbLine
 62
7
  6
CONTINUOUS
 10
77.6448304047
 20
93.341030962
 11
77.7512133707
 21
93.5076979465
  0
LINE
  5
649
100
AcDbEntity
  8
0
100
AcDbLine
 62
7
  6
CONTINUOUS
 10
76.5810006138
 20
94.4660314388
 11
76.4214261499
 21
94.2576979466
  0
LINE
  5
64A
100
AcDbEntity
  8
0
100
AcDbLine
 62
7
  6
CONTINUOUS
 10
77.8575963368
 20
95.966031439
 11
77.9639793027
 21
96.0910314388
  0
LINE
  5
64B
100
AcDbEntity
  8
0
100
AcDbLine
 62
7
  6
CONTINUOUS
 10
77.4320644724
 20
95.4243644541
 11
77.3256815066
 21
95.2993644543
  0
LINE
  5
64C
100
AcDbEntity
  8
0
100
AcDbLine
 62
7
  6
CONTINUOUS
 10
77.8575963368
 20
94.0910309621
 11
77.9639793027
 21
94.2160314388
  0
LINE
  5
64D
100
AcDbEntity
  8
0
100
AcDbLine
 62
7
  6
CONTINUOUS
 10
77.4320644725
 20
93.549364931
 11
77.3256815065
 21
93.4243649311
  0
LINE
  5
64E
100
AcDbEntity
  8
0
100
AcDbLine
 62
7
  6
CONTINUOUS
 10
78.6554687311
 20
95.2576979466
 11
78.8150431801
 21
95.4243644541
  0
LINE
  5
64F
100
AcDbEntity
  8
0
100
AcDbLine
 62
7
  6
CONTINUOUS
 10
78.655468731
 20
93.3826979465
 11
78.8150431801
 21
93.5493649311
  0
LINE
  5
650
100
AcDbEntity
  8
0
100
AcDbLine
 62
7
  6
CONTINUOUS
 10
77.8575963367
 20
94.4660314388
 11
77.6448304047
 21
94.2993644543
  0
LINE
  5
651
100
AcDbEntity
  8
0
100
AcDbLine
 62
7
  6
CONTINUOUS
 10
77.4320644726
 20
93.1743649311
 11
77.6448304047
 21
93.341030962
  0
LINE
  5
652
100
AcDbEntity
  8
0
100
AcDbLine
 62
7
  6
CONTINUOUS
 10
78.495894282
 20
93.591030962
 11
78.3895113158
 21
93.5076979465
  0
LINE
  5
653
100
AcDbEntity
  8
0
100
AcDbLine
 62
7
  6
CONTINUOUS
 10
78.4427027991
 20
93.2576979466
 11
78.655468731
 21
93.3826979465
  0
LINE
  5
654
100
AcDbEntity
  8
0
100
AcDbLine
 62
7
  6
CONTINUOUS
 10
77.3256815065
 20
93.4243649311
 11
77.1661069829
 21
93.341030962
  0
LINE
  5
655
100
AcDbEntity
  8
0
100
AcDbLine
 62
7
  6
CONTINUOUS
 10
78.3895113158
 20
93.5076979465
 11
78.2831283499
 21
93.466030962
  0
LINE
  5
656
100
AcDbEntity
  8
0
100
AcDbLine
 62
7
  6
CONTINUOUS
 10
58.838234663
 20
86.2376983474
 11
59.5182346627
 21
86.4726983468
  0
LINE
  5
657
100
AcDbEntity
  8
0
100
AcDbLine
 62
7
  6
CONTINUOUS
 10
67.088234663
 20
86.2376983474
 11
67.2682346631
 21
86.2999042297
  0
LINE
  5
658
100
AcDbEntity
  8
0
100
AcDbLine
 62
7
  6
CONTINUOUS
 10
58.838234663
 20
82.7376983474
 11
59.5182346627
 21
82.9726983468
  0
LINE
  5
659
100
AcDbEntity
  8
0
100
AcDbLine
 62
7
  6
CONTINUOUS
 10
52.4675036555
 20
104.6326979465
 11
49.768234663
 21
104.5384373962
  0
LINE
  5
65A
100
AcDbEntity
  8
0
100
AcDbLine
 62
7
  6
CONTINUOUS
 10
67.2682346631
 20
104.6570303746
 11
52.4675036549
 21
104.6525198667
  0
LINE
  5
65B
100
AcDbEntity
  8
0
100
AcDbLine
 62
7
  6
CONTINUOUS
 10
91.0182346634
 20
106.6792442488
 11
89.5159252934
 21
106.6792442488
  0
LINE
  5
65C
100
AcDbEntity
  8
0
100
AcDbLine
 62
7
  6
CONTINUOUS
 10
88.1182346635
 20
107.7326979465
 11
82.9182346631
 21
107.7326979465
  0
LINE
  5
65D
100
AcDbEntity
  8
0
100
AcDbLine
 62
7
  6
CONTINUOUS
 10
88.1182346631
 20
108.6774446555
 11
89.5159252934
 21
108.6774446555
  0
LINE
  5
65E
100
AcDbEntity
  8
0
100
AcDbLine
 62
7
  6
CONTINUOUS
 10
77.963979302
 20
100.8826979465
 11
77.8575963359
 21
100.9660313197
  0
LINE
  5
65F
100
AcDbEntity
  8
0
100
AcDbLine
 62
7
  6
CONTINUOUS
 10
77.5384474386
 20
100.9243645734
 11
77.6980218877
 21
100.7576979465
  0
LINE
  5
660
100
AcDbEntity
  8
0
100
AcDbLine
 62
7
  6
CONTINUOUS
 10
77.5916389216
 20
99.0493646927
 11
77.6980218876
 21
98.8826979465
  0
LINE
  5
661
100
AcDbEntity
  8
0
100
AcDbLine
 62
7
  6
CONTINUOUS
 10
43.0566077188
 20
160.5006622839
 11
43.5438209419
 21
159.6273842517
  0
LINE
  5
662
100
AcDbEntity
  8
0
100
AcDbLine
 62
7
  6
CONTINUOUS
 10
78.4958942821
 20
95.9660314387
 11
78.549085765
 21
95.8410314389
  0
LINE
  5
663
100
AcDbEntity
  8
0
100
AcDbLine
 62
7
  6
CONTINUOUS
 10
77.8575963359
 20
99.0910312005
 11
77.8044048529
 21
99.2160312003
  0
LINE
  5
664
100
AcDbEntity
  8
0
100
AcDbLine
 62
7
  6
CONTINUOUS
 10
77.8575963359
 20
100.9660313197
 11
77.8044048529
 21
101.0910313196
  0
LINE
  5
665
100
AcDbEntity
  8
0
100
AcDbLine
 62
7
  6
CONTINUOUS
 10
78.8682346631
 20
93.9660309619
 11
78.8150431801
 21
94.1326979465
  0
LINE
  5
666
100
AcDbEntity
  8
0
100
AcDbLine
 62
7
  6
CONTINUOUS
 10
78.8682346631
 20
95.8410314389
 11
78.8150431802
 21
96.0076979464
  0
LINE
  5
667
100
AcDbEntity
  8
0
100
AcDbLine
 62
7
  6
CONTINUOUS
 10
77.4852559555
 20
101.1326979469
 11
77.5384474386
 21
100.9243645734
  0
LINE
  5
668
100
AcDbEntity
  8
0
100
AcDbLine
 62
7
  6
CONTINUOUS
 10
68.5347928672
 20
156.2593684773
 11
68.2982346631
 21
157.8326979465
  0
LINE
  5
669
100
AcDbEntity
  8
0
100
AcDbLine
 62
7
  6
CONTINUOUS
 10
88.1182346631
 20
86.5879512375
 11
88.1182346631
 21
87.5326979465
  0
LINE
  5
66A
100
AcDbEntity
  8
0
100
AcDbLine
 62
7
  6
CONTINUOUS
 10
88.1182346631
 20
107.7326979465
 11
88.1182346631
 21
108.6774256505
  0
LINE
  5
66B
100
AcDbEntity
  8
0
100
AcDbLine
 62
7
  6
CONTINUOUS
 10
67.088234663
 20
82.7376983474
 11
67.2682346631
 21
82.7999042297
  0
LINE
  5
66C
100
AcDbEntity
  8
0
100
AcDbLine
 62
7
  6
CONTINUOUS
 10
58.838234663
 20
79.2376983474
 11
59.5182346627
 21
79.4726983468
  0
LINE
  5
66D
100
AcDbEntity
  8
0
100
AcDbLine
 62
7
  6
CONTINUOUS
 10
67.088234663
 20
79.2376983474
 11
67.2682346631
 21
79.2999042297
  0
LINE
  5
66E
100
AcDbEntity
  8
0
100
AcDbLine
 62
7
  6
CONTINUOUS
 10
58.838234663
 20
75.7376983474
 11
59.5182346627
 21
75.9726983468
  0
LINE
  5
66F
100
AcDbEntity
  8
0
100
AcDbLine
 62
7
  6
CONTINUOUS
 10
89.5159252934
 20
18.540588408
 11
89.5159252934
 21
176.7248074857
  0
LINE
  5
670
100
AcDbEntity
  8
0
100
AcDbLine
 62
7
  6
CONTINUOUS
 10
89.8337910394
 20
18.3632218515
 11
89.8337910394
 21
176.9021740422
  0
LINE
  5
671
100
AcDbEntity
  8
0
100
AcDbLine
 62
7
  6
CONTINUOUS
 10
91.0182346631
 20
178.8736748816
 11
91.0182346631
 21
16.3917210114
  0
LINE
  5
672
100
AcDbEntity
  8
0
100
AcDbLine
 62
7
  6
CONTINUOUS
 10
67.088234663
 20
75.7376983474
 11
67.2682346631
 21
75.7999042297
  0
LINE
  5
673
100
AcDbEntity
  8
0
100
AcDbLine
 62
7
  6
CONTINUOUS
 10
58.838234663
 20
72.2376983474
 11
59.5182346627
 21
72.4726983468
  0
LINE
  5
674
100
AcDbEntity
  8
0
100
AcDbLine
 62
7
  6
CONTINUOUS
 10
67.088234663
 20
72.2376983474
 11
67.2682346631
 21
72.2999042297
  0
LINE
  5
675
100
AcDbEntity
  8
0
100
AcDbLine
 62
7
  6
CONTINUOUS
 10
58.838234663
 20
68.7376983474
 11
59.5182346627
 21
68.9726983468
  0
LINE
  5
676
100
AcDbEntity
  8
0
100
AcDbLine
 62
7
  6
CONTINUOUS
 10
52.4675036555
 20
122.1128760258
 11
67.2682346631
 21
122.108365518
  0
LINE
  5
677
100
AcDbEntity
  8
0
100
AcDbLine
 62
7
  6
CONTINUOUS
 10
49.7682346629
 20
122.2269584969
 11
52.4675036555
 21
122.1326979466
  0
LINE
  5
678
100
AcDbEntity
  8
0
100
AcDbLine
 62
7
  6
CONTINUOUS
 10
59.5182346627
 20
126.292698321
 11
58.838234663
 21
126.5276983204
  0
LINE
  5
679
100
AcDbEntity
  8
0
100
AcDbLine
 62
7
  6
CONTINUOUS
 10
98.9182346631
 20
16.1326979472
 11
98.9182346631
 21
179.1326979472
  0
LINE
  5
67A
100
AcDbEntity
  8
0
100
AcDbLine
 62
7
  6
CONTINUOUS
 10
67.088234663
 20
68.7376983474
 11
67.2682346631
 21
68.7999042297
  0
LINE
  5
67B
100
AcDbEntity
  8
0
100
AcDbLine
 62
7
  6
CONTINUOUS
 10
58.838234663
 20
65.2376983474
 11
59.5182346627
 21
65.4726983468
  0
LINE
  5
67C
100
AcDbEntity
  8
0
100
AcDbLine
 62
7
  6
CONTINUOUS
 10
67.088234663
 20
65.2376983474
 11
67.2682346631
 21
65.2999042297
  0
LINE
  5
67D
100
AcDbEntity
  8
0
100
AcDbLine
 62
7
  6
CONTINUOUS
 10
58.838234663
 20
61.7376983474
 11
59.5182346627
 21
61.9726983468
  0
LINE
  5
67E
100
AcDbEntity
  8
0
100
AcDbLine
 62
7
  6
CONTINUOUS
 10
32.1682346635
 20
124.5326979465
 11
32.2682346631
 21
124.5326979465
  0
LINE
  5
67F
100
AcDbEntity
  8
0
100
AcDbLine
 62
7
  6
CONTINUOUS
 10
32.2682346631
 20
125.0682563935
 11
32.1682346635
 21
125.0682563935
  0
LINE
  5
680
100
AcDbEntity
  8
0
100
AcDbLine
 62
7
  6
CONTINUOUS
 10
53.2182346635
 20
125.582698297
 11
67.2682346631
 21
125.582698297
  0
LINE
  5
681
100
AcDbEntity
  8
0
100
AcDbLine
 62
7
  6
CONTINUOUS
 10
66.4182346631
 20
126.2326983223
 11
62.1182346642
 21
126.2326983205
  0
LINE
  5
682
100
AcDbEntity
  8
0
100
AcDbLine
 62
7
  6
CONTINUOUS
 10
58.1682346631
 20
126.2326983205
 11
53.8682346642
 21
126.2326983205
  0
LINE
  5
683
100
AcDbEntity
  8
0
100
AcDbLine
 62
7
  6
CONTINUOUS
 10
66.8882346625
 20
127.3826983227
 11
66.4182346631
 21
127.3826983227
  0
LINE
  5
684
100
AcDbEntity
  8
0
100
AcDbLine
 62
7
  6
CONTINUOUS
 10
58.6382346621
 20
127.3826983209
 11
58.1682346631
 21
127.3826983209
  0
LINE
  5
685
100
AcDbEntity
  8
0
100
AcDbLine
 62
7
  6
CONTINUOUS
 10
55.7682346633
 20
127.3826983222
 11
56.568234664
 21
127.3826983222
  0
LINE
  5
686
100
AcDbEntity
  8
0
100
AcDbLine
 62
7
  6
CONTINUOUS
 10
64.0182346631
 20
127.3826983222
 11
64.8182346629
 21
127.3826983222
  0
LINE
  5
687
100
AcDbEntity
  8
0
100
AcDbLine
 62
7
  6
CONTINUOUS
 10
64.8182346629
 20
128.182698323
 11
64.0182346631
 21
128.182698323
  0
LINE
  5
688
100
AcDbEntity
  8
0
100
AcDbLine
 62
7
  6
CONTINUOUS
 10
56.568234664
 20
128.182698323
 11
55.7682346633
 21
128.182698323
  0
LINE
  5
689
100
AcDbEntity
  8
0
100
AcDbLine
 62
7
  6
CONTINUOUS
 10
58.1682346631
 20
128.1826983216
 11
58.6382346635
 21
128.1826983216
  0
LINE
  5
68A
100
AcDbEntity
  8
0
100
AcDbLine
 62
7
  6
CONTINUOUS
 10
66.4182346631
 20
128.1826983216
 11
66.8882346635
 21
128.1826983216
  0
LINE
  5
68B
100
AcDbEntity
  8
0
100
AcDbLine
 62
7
  6
CONTINUOUS
 10
67.2682346631
 20
126.4654924382
 11
67.088234663
 21
126.5276983204
  0
LINE
  5
68C
100
AcDbEntity
  8
0
100
AcDbLine
 62
7
  6
CONTINUOUS
 10
59.5182346627
 20
129.792698321
 11
58.838234663
 21
130.0276983204
  0
LINE
  5
68D
100
AcDbEntity
  8
0
100
AcDbLine
 62
7
  6
CONTINUOUS
 10
67.2682346631
 20
129.9654924382
 11
67.088234663
 21
130.0276983204
  0
LINE
  5
68E
100
AcDbEntity
  8
0
100
AcDbLine
 62
7
  6
CONTINUOUS
 10
59.5182346627
 20
133.292698321
 11
58.838234663
 21
133.5276983204
  0
LINE
  5
68F
100
AcDbEntity
  8
0
100
AcDbLine
 62
7
  6
CONTINUOUS
 10
67.088234663
 20
61.7376983474
 11
67.2682346631
 21
61.7999042297
  0
LINE
  5
690
100
AcDbEntity
  8
0
100
AcDbLine
 62
7
  6
CONTINUOUS
 10
58.838234663
 20
58.2376983474
 11
59.5182346627
 21
58.4726983468
  0
LINE
  5
691
100
AcDbEntity
  8
0
100
AcDbLine
 62
7
  6
CONTINUOUS
 10
67.088234663
 20
58.2376983474
 11
67.2682346631
 21
58.2999042297
  0
LINE
  5
692
100
AcDbEntity
  8
0
100
AcDbLine
 62
7
  6
CONTINUOUS
 10
53.8682346642
 20
129.332698322
 11
58.1682346631
 21
129.332698322
  0
LINE
  5
693
100
AcDbEntity
  8
0
100
AcDbLine
 62
7
  6
CONTINUOUS
 10
62.1182346642
 20
129.332698322
 11
66.4182346631
 21
129.332698322
  0
LINE
  5
694
100
AcDbEntity
  8
0
100
AcDbLine
 62
7
  6
CONTINUOUS
 10
66.4182346631
 20
129.7326983223
 11
62.1182346642
 21
129.7326983205
  0
LINE
  5
695
100
AcDbEntity
  8
0
100
AcDbLine
 62
7
  6
CONTINUOUS
 10
58.1682346631
 20
129.7326983205
 11
53.8682346642
 21
129.7326983205
  0
LINE
  5
696
100
AcDbEntity
  8
0
100
AcDbLine
 62
7
  6
CONTINUOUS
 10
66.8882346625
 20
130.8826983227
 11
66.4182346631
 21
130.8826983227
  0
LINE
  5
697
100
AcDbEntity
  8
0
100
AcDbLine
 62
7
  6
CONTINUOUS
 10
58.6382346621
 20
130.8826983209
 11
58.1682346631
 21
130.8826983209
  0
LINE
  5
698
100
AcDbEntity
  8
0
100
AcDbLine
 62
7
  6
CONTINUOUS
 10
55.7682346633
 20
130.8826983222
 11
56.568234664
 21
130.8826983222
  0
LINE
  5
699
100
AcDbEntity
  8
0
100
AcDbLine
 62
7
  6
CONTINUOUS
 10
64.0182346631
 20
130.8826983222
 11
64.8182346629
 21
130.8826983222
  0
LINE
  5
69A
100
AcDbEntity
  8
0
100
AcDbLine
 62
7
  6
CONTINUOUS
 10
64.8182346629
 20
131.682698323
 11
64.0182346631
 21
131.682698323
  0
LINE
  5
69B
100
AcDbEntity
  8
0
100
AcDbLine
 62
7
  6
CONTINUOUS
 10
56.568234664
 20
131.682698323
 11
55.7682346633
 21
131.682698323
  0
LINE
  5
69C
100
AcDbEntity
  8
0
100
AcDbLine
 62
7
  6
CONTINUOUS
 10
58.1682346631
 20
131.6826983216
 11
58.6382346635
 21
131.6826983216
  0
LINE
  5
69D
100
AcDbEntity
  8
0
100
AcDbLine
 62
7
  6
CONTINUOUS
 10
66.4182346631
 20
131.6826983216
 11
66.8882346635
 21
131.6826983216
  0
LINE
  5
69E
100
AcDbEntity
  8
0
100
AcDbLine
 62
7
  6
CONTINUOUS
 10
53.8682346642
 20
132.832698322
 11
58.1682346631
 21
132.832698322
  0
LINE
  5
69F
100
AcDbEntity
  8
0
100
AcDbLine
 62
7
  6
CONTINUOUS
 10
62.1182346642
 20
132.832698322
 11
66.4182346631
 21
132.832698322
  0
LINE
  5
6A0
100
AcDbEntity
  8
0
100
AcDbLine
 62
7
  6
CONTINUOUS
 10
66.4182346631
 20
133.2326983223
 11
62.1182346642
 21
133.2326983205
  0
LINE
  5
6A1
100
AcDbEntity
  8
0
100
AcDbLine
 62
7
  6
CONTINUOUS
 10
58.1682346631
 20
133.2326983205
 11
53.8682346642
 21
133.2326983205
  0
LINE
  5
6A2
100
AcDbEntity
  8
0
100
AcDbLine
 62
7
  6
CONTINUOUS
 10
82.9182346631
 20
133.6176054177
 11
89.5159252934
 21
133.6176054177
  0
LINE
  5
6A3
100
AcDbEntity
  8
0
100
AcDbLine
 62
7
  6
CONTINUOUS
 10
66.8882346625
 20
134.3826983227
 11
66.4182346631
 21
134.3826983227
  0
LINE
  5
6A4
100
AcDbEntity
  8
0
100
AcDbLine
 62
7
  6
CONTINUOUS
 10
64.8182346629
 20
134.3826979465
 11
64.0182346624
 21
134.3826979465
  0
LINE
  5
6A5
100
AcDbEntity
  8
0
100
AcDbLine
 62
7
  6
CONTINUOUS
 10
58.6382346621
 20
134.3826983209
 11
58.1682346631
 21
134.3826983209
  0
LINE
  5
6A6
100
AcDbEntity
  8
0
100
AcDbLine
 62
7
  6
CONTINUOUS
 10
56.568234664
 20
134.3826979465
 11
55.7682346642
 21
134.3826979465
  0
LINE
  5
6A7
100
AcDbEntity
  8
0
100
AcDbLine
 62
7
  6
CONTINUOUS
 10
67.2682346631
 20
133.4654924382
 11
67.088234663
 21
133.5276983204
  0
LINE
  5
6A8
100
AcDbEntity
  8
0
100
AcDbLine
 62
7
  6
CONTINUOUS
 10
59.5182346627
 20
136.792698321
 11
58.838234663
 21
137.0276983204
  0
LINE
  5
6A9
100
AcDbEntity
  8
0
100
AcDbLine
 62
7
  6
CONTINUOUS
 10
67.2682346631
 20
136.9654924382
 11
67.088234663
 21
137.0276983204
  0
LINE
  5
6AA
100
AcDbEntity
  8
0
100
AcDbLine
 62
7
  6
CONTINUOUS
 10
108.4882346631
 20
16.3781971309
 11
108.4882346631
 21
20.3780126158
  0
LINE
  5
6AB
100
AcDbEntity
  8
0
100
AcDbLine
 62
7
  6
CONTINUOUS
 10
108.4882346631
 20
20.3781971294
 11
108.4882346631
 21
174.8871987627
  0
LINE
  5
6AC
100
AcDbEntity
  8
0
100
AcDbLine
 62
7
  6
CONTINUOUS
 10
108.4882346631
 20
174.8873724387
 11
108.4882346631
 21
178.8871987621
  0
LINE
  5
6AD
100
AcDbEntity
  8
0
100
AcDbLine
 62
7
  6
CONTINUOUS
 10
58.838234663
 20
54.7376983474
 11
59.5182346627
 21
54.9726983468
  0
LINE
  5
6AE
100
AcDbEntity
  8
0
100
AcDbLine
 62
7
  6
CONTINUOUS
 10
67.088234663
 20
54.7376983474
 11
67.2682346631
 21
54.7999042297
  0
LINE
  5
6AF
100
AcDbEntity
  8
0
100
AcDbLine
 62
7
  6
CONTINUOUS
 10
58.838234663
 20
51.2376983474
 11
59.5182346627
 21
51.4726983468
  0
LINE
  5
6B0
100
AcDbEntity
  8
0
100
AcDbLine
 62
7
  6
CONTINUOUS
 10
64.8182346629
 20
135.182698323
 11
64.0182346631
 21
135.182698323
  0
LINE
  5
6B1
100
AcDbEntity
  8
0
100
AcDbLine
 62
7
  6
CONTINUOUS
 10
56.568234664
 20
135.182698323
 11
55.7682346633
 21
135.182698323
  0
LINE
  5
6B2
100
AcDbEntity
  8
0
100
AcDbLine
 62
7
  6
CONTINUOUS
 10
58.1682346631
 20
135.1826983216
 11
58.6382346635
 21
135.1826983216
  0
LINE
  5
6B3
100
AcDbEntity
  8
0
100
AcDbLine
 62
7
  6
CONTINUOUS
 10
66.4182346631
 20
135.1826983216
 11
66.8882346635
 21
135.1826983216
  0
LINE
  5
6B4
100
AcDbEntity
  8
0
100
AcDbLine
 62
7
  6
CONTINUOUS
 10
31.9682346631
 20
135.8826979465
 11
32.1682346635
 21
135.8826979465
  0
LINE
  5
6B5
100
AcDbEntity
  8
0
100
AcDbLine
 62
7
  6
CONTINUOUS
 10
32.1682346635
 20
136.3326979465
 11
31.9682346624
 21
136.3326979465
  0
LINE
  5
6B6
100
AcDbEntity
  8
0
100
AcDbLine
 62
7
  6
CONTINUOUS
 10
53.8682346642
 20
136.332698322
 11
58.1682346631
 21
136.332698322
  0
LINE
  5
6B7
100
AcDbEntity
  8
0
100
AcDbLine
 62
7
  6
CONTINUOUS
 10
62.1182346642
 20
136.332698322
 11
66.4182346631
 21
136.332698322
  0
LINE
  5
6B8
100
AcDbEntity
  8
0
100
AcDbLine
 62
7
  6
CONTINUOUS
 10
66.4182346631
 20
136.7326983223
 11
62.1182346642
 21
136.7326983205
  0
LINE
  5
6B9
100
AcDbEntity
  8
0
100
AcDbLine
 62
7
  6
CONTINUOUS
 10
58.1682346631
 20
136.7326983205
 11
53.8682346642
 21
136.7326983205
  0
LINE
  5
6BA
100
AcDbEntity
  8
0
100
AcDbLine
 62
7
  6
CONTINUOUS
 10
66.8882346625
 20
137.8826983227
 11
66.4182346631
 21
137.8826983227
  0
LINE
  5
6BB
100
AcDbEntity
  8
0
100
AcDbLine
 62
7
  6
CONTINUOUS
 10
58.6382346621
 20
137.8826983209
 11
58.1682346631
 21
137.8826983209
  0
LINE
  5
6BC
100
AcDbEntity
  8
0
100
AcDbLine
 62
7
  6
CONTINUOUS
 10
55.7682346633
 20
137.8826983222
 11
56.568234664
 21
137.8826983222
  0
LINE
  5
6BD
100
AcDbEntity
  8
0
100
AcDbLine
 62
7
  6
CONTINUOUS
 10
64.0182346631
 20
137.8826983222
 11
64.8182346629
 21
137.8826983222
  0
LINE
  5
6BE
100
AcDbEntity
  8
0
100
AcDbLine
 62
7
  6
CONTINUOUS
 10
64.8182346629
 20
138.682698323
 11
64.0182346631
 21
138.682698323
  0
LINE
  5
6BF
100
AcDbEntity
  8
0
100
AcDbLine
 62
7
  6
CONTINUOUS
 10
56.568234664
 20
138.682698323
 11
55.7682346633
 21
138.682698323
  0
LINE
  5
6C0
100
AcDbEntity
  8
0
100
AcDbLine
 62
7
  6
CONTINUOUS
 10
58.1682346631
 20
138.6826983216
 11
58.6382346635
 21
138.6826983216
  0
LINE
  5
6C1
100
AcDbEntity
  8
0
100
AcDbLine
 62
7
  6
CONTINUOUS
 10
66.4182346631
 20
138.6826983216
 11
66.8882346635
 21
138.6826983216
  0
LINE
  5
6C2
100
AcDbEntity
  8
0
100
AcDbLine
 62
7
  6
CONTINUOUS
 10
53.8682346642
 20
139.832698322
 11
58.1682346631
 21
139.832698322
  0
LINE
  5
6C3
100
AcDbEntity
  8
0
100
AcDbLine
 62
7
  6
CONTINUOUS
 10
62.1182346642
 20
139.832698322
 11
66.4182346631
 21
139.832698322
  0
LINE
  5
6C4
100
AcDbEntity
  8
0
100
AcDbLine
 62
7
  6
CONTINUOUS
 10
66.4182346631
 20
140.2326983223
 11
62.1182346642
 21
140.2326983205
  0
LINE
  5
6C5
100
AcDbEntity
  8
0
100
AcDbLine
 62
7
  6
CONTINUOUS
 10
58.1682346631
 20
140.2326983205
 11
53.8682346642
 21
140.2326983205
  0
LINE
  5
6C6
100
AcDbEntity
  8
0
100
AcDbLine
 62
7
  6
CONTINUOUS
 10
59.5182346627
 20
140.292698321
 11
58.838234663
 21
140.5276983204
  0
LINE
  5
6C7
100
AcDbEntity
  8
0
100
AcDbLine
 62
7
  6
CONTINUOUS
 10
67.2682346631
 20
140.4654924382
 11
67.088234663
 21
140.5276983204
  0
LINE
  5
6C8
100
AcDbEntity
  8
0
100
AcDbLine
 62
7
  6
CONTINUOUS
 10
59.5182346627
 20
143.792698321
 11
58.838234663
 21
144.0276983204
  0
LINE
  5
6C9
100
AcDbEntity
  8
0
100
AcDbLine
 62
7
  6
CONTINUOUS
 10
89.5738531916
 20
18.6847783052
 11
89.5159252934
 21
18.540588408
  0
LINE
  5
6CA
100
AcDbEntity
  8
0
100
AcDbLine
 62
7
  6
CONTINUOUS
 10
67.088234663
 20
51.2376983474
 11
67.2682346631
 21
51.2999042297
  0
LINE
  5
6CB
100
AcDbEntity
  8
0
100
AcDbLine
 62
7
  6
CONTINUOUS
 10
66.8882346625
 20
141.3826983227
 11
66.4182346631
 21
141.3826983227
  0
LINE
  5
6CC
100
AcDbEntity
  8
0
100
AcDbLine
 62
7
  6
CONTINUOUS
 10
58.6382346621
 20
141.3826983209
 11
58.1682346631
 21
141.3826983209
  0
LINE
  5
6CD
100
AcDbEntity
  8
0
100
AcDbLine
 62
7
  6
CONTINUOUS
 10
55.7682346633
 20
141.3826983222
 11
56.568234664
 21
141.3826983222
  0
LINE
  5
6CE
100
AcDbEntity
  8
0
100
AcDbLine
 62
7
  6
CONTINUOUS
 10
64.0182346631
 20
141.3826983222
 11
64.8182346629
 21
141.3826983222
  0
LINE
  5
6CF
100
AcDbEntity
  8
0
100
AcDbLine
 62
7
  6
CONTINUOUS
 10
64.8182346629
 20
142.182698323
 11
64.0182346631
 21
142.182698323
  0
LINE
  5
6D0
100
AcDbEntity
  8
0
100
AcDbLine
 62
7
  6
CONTINUOUS
 10
56.568234664
 20
142.182698323
 11
55.7682346633
 21
142.182698323
  0
LINE
  5
6D1
100
AcDbEntity
  8
0
100
AcDbLine
 62
7
  6
CONTINUOUS
 10
58.1682346631
 20
142.1826983216
 11
58.6382346635
 21
142.1826983216
  0
LINE
  5
6D2
100
AcDbEntity
  8
0
100
AcDbLine
 62
7
  6
CONTINUOUS
 10
66.4182346631
 20
142.1826983216
 11
66.8882346635
 21
142.1826983216
  0
LINE
  5
6D3
100
AcDbEntity
  8
0
100
AcDbLine
 62
7
  6
CONTINUOUS
 10
53.8682346642
 20
143.332698322
 11
58.1682346631
 21
143.332698322
  0
LINE
  5
6D4
100
AcDbEntity
  8
0
100
AcDbLine
 62
7
  6
CONTINUOUS
 10
62.1182346642
 20
143.332698322
 11
66.4182346631
 21
143.332698322
  0
LINE
  5
6D5
100
AcDbEntity
  8
0
100
AcDbLine
 62
7
  6
CONTINUOUS
 10
66.4182346631
 20
143.7326983223
 11
62.1182346642
 21
143.7326983205
  0
LINE
  5
6D6
100
AcDbEntity
  8
0
100
AcDbLine
 62
7
  6
CONTINUOUS
 10
58.1682346631
 20
143.7326983205
 11
53.8682346642
 21
143.7326983205
  0
LINE
  5
6D7
100
AcDbEntity
  8
0
100
AcDbLine
 62
7
  6
CONTINUOUS
 10
66.8882346625
 20
144.8826983227
 11
66.4182346631
 21
144.8826983227
  0
LINE
  5
6D8
100
AcDbEntity
  8
0
100
AcDbLine
 62
7
  6
CONTINUOUS
 10
58.6382346621
 20
144.8826983209
 11
58.1682346631
 21
144.8826983209
  0
LINE
  5
6D9
100
AcDbEntity
  8
0
100
AcDbLine
 62
7
  6
CONTINUOUS
 10
55.7682346633
 20
144.8826983222
 11
56.568234664
 21
144.8826983222
  0
LINE
  5
6DA
100
AcDbEntity
  8
0
100
AcDbLine
 62
7
  6
CONTINUOUS
 10
64.0182346631
 20
144.8826983222
 11
64.8182346629
 21
144.8826983222
  0
LINE
  5
6DB
100
AcDbEntity
  8
0
100
AcDbLine
 62
7
  6
CONTINUOUS
 10
64.8182346629
 20
145.682698323
 11
64.0182346631
 21
145.682698323
  0
LINE
  5
6DC
100
AcDbEntity
  8
0
100
AcDbLine
 62
7
  6
CONTINUOUS
 10
56.568234664
 20
145.682698323
 11
55.7682346633
 21
145.682698323
  0
LINE
  5
6DD
100
AcDbEntity
  8
0
100
AcDbLine
 62
7
  6
CONTINUOUS
 10
58.1682346631
 20
145.6826983216
 11
58.6382346635
 21
145.6826983216
  0
LINE
  5
6DE
100
AcDbEntity
  8
0
100
AcDbLine
 62
7
  6
CONTINUOUS
 10
66.4182346631
 20
145.6826983216
 11
66.8882346635
 21
145.6826983216
  0
LINE
  5
6DF
100
AcDbEntity
  8
0
100
AcDbLine
 62
7
  6
CONTINUOUS
 10
67.2682346631
 20
143.9654924382
 11
67.088234663
 21
144.0276983204
  0
LINE
  5
6E0
100
AcDbEntity
  8
0
100
AcDbLine
 62
7
  6
CONTINUOUS
 10
52.4675036555
 20
150.9326979465
 11
49.7682346627
 21
150.8384373955
  0
LINE
  5
6E1
100
AcDbEntity
  8
0
100
AcDbLine
 62
7
  6
CONTINUOUS
 10
67.2682346631
 20
150.9570303753
 11
52.4675036549
 21
150.9525198675
  0
LINE
  5
6E2
100
AcDbEntity
  8
0
100
AcDbLine
 62
7
  6
CONTINUOUS
 10
53.8682346642
 20
146.832698322
 11
58.1682346631
 21
146.832698322
  0
LINE
  5
6E3
100
AcDbEntity
  8
0
100
AcDbLine
 62
7
  6
CONTINUOUS
 10
62.1182346642
 20
146.832698322
 11
66.4182346631
 21
146.832698322
  0
LINE
  5
6E4
100
AcDbEntity
  8
0
100
AcDbLine
 62
7
  6
CONTINUOUS
 10
67.2682346631
 20
147.4826982955
 11
53.2182346635
 21
147.4826982955
  0
LINE
  5
6E5
100
AcDbEntity
  8
0
100
AcDbLine
 62
7
  6
CONTINUOUS
 10
31.9682346624
 20
148.5326979465
 11
32.1682346635
 21
148.5326979465
  0
LINE
  5
6E6
100
AcDbEntity
  8
0
100
AcDbLine
 62
7
  6
CONTINUOUS
 10
32.1682346635
 20
149.4837383111
 11
32.2682346631
 21
149.4837383111
  0
LINE
  5
6E7
100
AcDbEntity
  8
0
100
AcDbLine
 62
7
  6
CONTINUOUS
 10
32.2682346631
 20
150.0326979465
 11
32.1682346635
 21
150.0326979465
  0
LINE
  5
6E8
100
AcDbEntity
  8
0
100
AcDbLine
 62
7
  6
CONTINUOUS
 10
31.9682346624
 20
150.2326979465
 11
32.2682346631
 21
150.2326979465
  0
LINE
  5
6E9
100
AcDbEntity
  8
0
100
AcDbLine
 62
7
  6
CONTINUOUS
 10
32.2682346631
 20
150.9326979465
 11
31.9682346624
 21
150.9326979465
  0
LINE
  5
6EA
100
AcDbEntity
  8
0
100
AcDbLine
 62
7
  6
CONTINUOUS
 10
67.2682346631
 20
153.671778313
 11
67.1762070285
 21
153.6601171405
  0
LINE
  5
6EB
100
AcDbEntity
  8
0
100
AcDbLine
 62
7
  6
CONTINUOUS
 10
68.0211359346
 20
154.6581273328
 11
68.2048105527
 21
154.6697619584
  0
LINE
  5
6EC
100
AcDbEntity
  8
0
100
AcDbLine
 62
7
  6
CONTINUOUS
 10
43.6563590961
 20
153.2731589483
 11
42.9906476804
 21
153.2731576969
  0
LINE
  5
6ED
100
AcDbEntity
  8
0
100
AcDbLine
 62
7
  6
CONTINUOUS
 10
82.9182346631
 20
153.6477904753
 11
89.5159252934
 21
153.6477904753
  0
LINE
  5
6EE
100
AcDbEntity
  8
0
100
AcDbLine
 62
7
  6
CONTINUOUS
 10
67.2682346631
 20
153.6717783665
 11
68.2394534675
 21
153.6717783665
  0
LINE
  5
6EF
100
AcDbEntity
  8
0
100
AcDbLine
 62
7
  6
CONTINUOUS
 10
69.7894350147
 20
155.3326979465
 11
70.32669952
 21
155.3326979465
  0
LINE
  5
6F0
100
AcDbEntity
  8
0
100
AcDbLine
 62
7
  6
CONTINUOUS
 10
71.3894534724
 20
155.7506590775
 11
70.4182346631
 21
155.7506590775
  0
LINE
  5
6F1
100
AcDbEntity
  8
0
100
AcDbLine
 62
7
  6
CONTINUOUS
 10
72.7682346627
 20
157.7326979471
 11
81.9495924128
 21
157.7344533759
  0
LINE
  5
6F2
100
AcDbEntity
  8
0
100
AcDbLine
 62
7
  6
CONTINUOUS
 10
82.9182346631
 20
157.7344533754
 11
81.9495924128
 21
157.734453376
  0
LINE
  5
6F3
100
AcDbEntity
  8
0
100
AcDbLine
 62
7
  6
CONTINUOUS
 10
70.4182346631
 20
157.7673644572
 11
71.3894534724
 21
157.7673644572
  0
LINE
  5
6F4
100
AcDbEntity
  8
0
100
AcDbLine
 62
7
  6
CONTINUOUS
 10
39.8980999352
 20
157.832713259
 11
68.2982346631
 21
157.8327164407
  0
LINE
  5
6F5
100
AcDbEntity
  8
0
100
AcDbLine
 62
7
  6
CONTINUOUS
 10
39.8980980627
 20
157.9829654144
 11
40.5974950553
 21
157.982975358
  0
LINE
  5
6F6
100
AcDbEntity
  8
0
100
AcDbLine
 62
7
  6
CONTINUOUS
 10
32.5689081278
 20
153.8924596535
 11
32.2682346901
 21
153.892498548
  0
LINE
  5
6F7
100
AcDbEntity
  8
0
100
AcDbLine
 62
7
  6
CONTINUOUS
 10
72.7682346631
 20
157.7152375612
 11
71.3894534682
 21
157.7673644571
  0
LINE
  5
6F8
100
AcDbEntity
  8
0
100
AcDbLine
 62
7
  6
CONTINUOUS
 10
70.4182346631
 20
160.5674849784
 11
69.4844427237
 21
160.5022375151
  0
LINE
  5
6F9
100
AcDbEntity
  8
0
100
AcDbLine
 62
7
  6
CONTINUOUS
 10
67.2682346622
 20
161.4231733297
 11
72.7682346631
 21
161.6152375611
  0
LINE
  5
6FA
100
AcDbEntity
  8
0
100
AcDbLine
 62
7
  6
CONTINUOUS
 10
47.5078683199
 20
159.7605167218
 11
43.5437806645
 21
159.627456415
  0
LINE
  5
6FB
100
AcDbEntity
  8
0
100
AcDbLine
 62
7
  6
CONTINUOUS
 10
67.240990801
 20
160.4237582187
 11
43.5437806645
 21
159.6274564154
  0
LINE
  5
6FC
100
AcDbEntity
  8
0
100
AcDbLine
 62
7
  6
CONTINUOUS
 10
56.5245362881
 20
160.0637077972
 11
47.5078683199
 21
159.7605167218
  0
LINE
  5
6FD
100
AcDbEntity
  8
0
100
AcDbLine
 62
7
  6
CONTINUOUS
 10
43.5104524424
 20
160.6268952103
 11
67.2682346622
 21
161.4231733297
  0
LINE
  5
6FE
100
AcDbEntity
  8
0
100
AcDbLine
 62
7
  6
CONTINUOUS
 10
69.7894350147
 20
160.3326979465
 11
70.4182346631
 21
160.3326979465
  0
LINE
  5
6FF
100
AcDbEntity
  8
0
100
AcDbLine
 62
7
  6
CONTINUOUS
 10
73.4182346631
 20
161.3326979458
 11
72.7682346627
 21
161.3326979458
  0
LINE
  5
700
100
AcDbEntity
  8
0
100
AcDbLine
 62
7
  6
CONTINUOUS
 10
89.5159252934
 20
164.2860452148
 11
91.0182346634
 21
164.2860452143
  0
LINE
  5
701
100
AcDbEntity
  8
0
100
AcDbLine
 62
7
  6
CONTINUOUS
 10
73.4182346631
 20
161.6326979465
 11
81.9495924204
 21
161.365042074
  0
LINE
  5
702
100
AcDbEntity
  8
0
100
AcDbLine
 62
7
  6
CONTINUOUS
 10
91.0182346635
 20
27.9822161328
 11
89.8337910401
 21
27.46539922
  0
LINE
  5
703
100
AcDbEntity
  8
0
100
AcDbLine
 62
7
  6
CONTINUOUS
 10
91.0182346634
 20
167.2831784144
 11
89.8337910401
 21
167.7999953276
  0
LINE
  5
704
100
AcDbEntity
  8
0
100
AcDbLine
 62
7
  6
CONTINUOUS
 10
89.8337910401
 20
18.3632218498
 11
91.0182346631
 21
19.0941113375
  0
LINE
  5
705
100
AcDbEntity
  8
0
100
AcDbLine
 62
7
  6
CONTINUOUS
 10
98.9182346638
 20
174.8470799213
 11
108.4882346631
 21
174.8871987627
  0
LINE
  5
706
100
AcDbEntity
  8
0
100
AcDbLine
 62
7
  6
CONTINUOUS
 10
91.0182346627
 20
174.8811196009
 11
98.9182346638
 21
174.8470799218
  0
LINE
  5
707
100
AcDbEntity
  8
0
100
AcDbLine
 62
7
  6
CONTINUOUS
 10
91.0182346626
 20
176.1712845548
 11
89.8337910401
 21
176.9021740422
  0
LINE
  5
708
100
AcDbEntity
  8
0
100
AcDbLine
 62
7
  6
CONTINUOUS
 10
89.8337910401
 20
19.8187476994
 11
91.0182346629
 21
20.3355646124
  0
LINE
  5
709
100
AcDbEntity
  8
0
100
AcDbLine
 62
7
  6
CONTINUOUS
 10
91.0182346631
 20
178.8736748816
 11
98.9182346623
 21
179.1326979472
  0
LINE
  5
70A
100
AcDbEntity
  8
0
100
AcDbLine
 62
7
  6
CONTINUOUS
 10
98.9182346623
 20
179.1326979473
 11
108.4882346631
 21
178.8871987629
  0
LINE
  5
70B
100
AcDbEntity
  8
0
100
AcDbLine
 62
7
  6
CONTINUOUS
 10
89.8337910401
 20
175.4466483276
 11
91.0182346628
 21
174.9298314147
  0
ARC
  5
70C
100
AcDbEntity
  8
0
100
AcDbCircle
 62
7
  6
CONTINUOUS
 10
41.5661842155
 20
93.2220647861
 40
2.0024496553
100
AcDbArc
 50
44.6552207831
 51
60.9253061355
  0
ARC
  5
70D
100
AcDbEntity
  8
0
100
AcDbCircle
 62
7
  6
CONTINUOUS
 10
42.2684432685
 20
93.2223878182
 40
1.0001929291
100
AcDbArc
 50
0.0297208198
 51
44.7178470619
  0
ARC
  5
70E
100
AcDbEntity
  8
0
100
AcDbCircle
 62
7
  6
CONTINUOUS
 10
42.2684389589
 20
93.2226604453
 40
1.0001929291
100
AcDbArc
 50
44.7283447383
 51
61.0035971934
  0
ARC
  5
70F
100
AcDbEntity
  8
0
100
AcDbCircle
 62
7
  6
CONTINUOUS
 10
44.2682346631
 20
35.6136639825
 40
1.0
100
AcDbArc
 50
180.0
 51
268.080363637
  0
ARC
  5
710
100
AcDbEntity
  8
0
100
AcDbCircle
 62
7
  6
CONTINUOUS
 10
42.9575812966
 20
94.4665570737
 40
0.4214705738
100
AcDbArc
 50
236.1201243118
 51
241.0343646154
  0
ARC
  5
711
100
AcDbEntity
  8
0
100
AcDbCircle
 62
7
  6
CONTINUOUS
 10
33.2678309219
 20
100.5170427747
 40
1.0001911718
100
AcDbArc
 50
180.0396123038
 51
240.9689096614
  0
ARC
  5
712
100
AcDbEntity
  8
0
100
AcDbCircle
 62
7
  6
CONTINUOUS
 10
33.2682346631
 20
153.8925058329
 40
1.0
100
AcDbArc
 50
119.1661982597
 51
179.9999999968
  0
ARC
  5
713
100
AcDbEntity
  8
0
100
AcDbCircle
 62
7
  6
CONTINUOUS
 10
43.5439501507
 20
159.6274564161
 40
1.0
100
AcDbArc
 50
91.919636414
 51
119.1661982626
  0
ARC
  5
714
100
AcDbEntity
  8
0
100
AcDbCircle
 62
7
  6
CONTINUOUS
 10
52.6682346571
 20
49.982698346
 40
1.5000000056
100
AcDbArc
 50
323.1301025239
 51
36.8698975133
  0
ARC
  5
715
100
AcDbEntity
  8
0
100
AcDbCircle
 62
7
  6
CONTINUOUS
 10
52.6682346571
 20
53.482698346
 40
1.5000000056
100
AcDbArc
 50
323.1301025239
 51
36.8698975133
  0
ARC
  5
716
100
AcDbEntity
  8
0
100
AcDbCircle
 62
7
  6
CONTINUOUS
 10
52.6682346571
 20
56.982698346
 40
1.5000000056
100
AcDbArc
 50
323.1301025239
 51
36.8698975133
  0
ARC
  5
717
100
AcDbEntity
  8
0
100
AcDbCircle
 62
7
  6
CONTINUOUS
 10
52.6682346571
 20
60.482698346
 40
1.5000000056
100
AcDbArc
 50
323.1301025239
 51
36.8698975133
  0
ARC
  5
718
100
AcDbEntity
  8
0
100
AcDbCircle
 62
7
  6
CONTINUOUS
 10
52.6682346571
 20
63.982698346
 40
1.5000000056
100
AcDbArc
 50
323.1301025239
 51
36.8698975133
  0
ARC
  5
719
100
AcDbEntity
  8
0
100
AcDbCircle
 62
7
  6
CONTINUOUS
 10
52.6682346571
 20
67.482698346
 40
1.5000000056
100
AcDbArc
 50
323.1301025239
 51
36.8698975133
  0
ARC
  5
71A
100
AcDbEntity
  8
0
100
AcDbCircle
 62
7
  6
CONTINUOUS
 10
52.6682346571
 20
70.982698346
 40
1.5000000056
100
AcDbArc
 50
323.1301025239
 51
36.8698975133
  0
CIRCLE
  5
71B
100
AcDbEntity
  8
0
100
AcDbCircle
 62
7
  6
CONTINUOUS
 10
56.1682346631
 20
49.9826511348
 40
0.8
  0
CIRCLE
  5
71C
100
AcDbEntity
  8
0
100
AcDbCircle
 62
7
  6
CONTINUOUS
 10
56.1682346631
 20
53.4826511348
 40
0.8
  0
CIRCLE
  5
71D
100
AcDbEntity
  8
0
100
AcDbCircle
 62
7
  6
CONTINUOUS
 10
56.1682346631
 20
56.9826511348
 40
0.8
  0
CIRCLE
  5
71E
100
AcDbEntity
  8
0
100
AcDbCircle
 62
7
  6
CONTINUOUS
 10
56.1682346631
 20
60.4826511348
 40
0.8
  0
CIRCLE
  5
71F
100
AcDbEntity
  8
0
100
AcDbCircle
 62
7
  6
CONTINUOUS
 10
56.1682346631
 20
63.9826511348
 40
0.8
  0
CIRCLE
  5
720
100
AcDbEntity
  8
0
100
AcDbCircle
 62
7
  6
CONTINUOUS
 10
56.1682346631
 20
67.4826511348
 40
0.8
  0
CIRCLE
  5
721
100
AcDbEntity
  8
0
100
AcDbCircle
 62
7
  6
CONTINUOUS
 10
56.1682346631
 20
70.9826511348
 40
0.8
  0
ARC
  5
722
100
AcDbEntity
  8
0
100
AcDbCircle
 62
7
  6
CONTINUOUS
 10
52.6682346571
 20
74.482698346
 40
1.5000000056
100
AcDbArc
 50
323.1301025239
 51
36.8698975133
  0
ARC
  5
723
100
AcDbEntity
  8
0
100
AcDbCircle
 62
7
  6
CONTINUOUS
 10
52.6682346571
 20
77.982698346
 40
1.5000000056
100
AcDbArc
 50
323.1301025239
 51
36.8698975133
  0
ARC
  5
724
100
AcDbEntity
  8
0
100
AcDbCircle
 62
7
  6
CONTINUOUS
 10
52.6682346571
 20
81.482698346
 40
1.5000000056
100
AcDbArc
 50
323.1301025239
 51
36.8698975133
  0
ARC
  5
725
100
AcDbEntity
  8
0
100
AcDbCircle
 62
7
  6
CONTINUOUS
 10
52.6682346571
 20
84.982698346
 40
1.5000000056
100
AcDbArc
 50
323.1301025239
 51
36.8698975133
  0
ARC
  5
726
100
AcDbEntity
  8
0
100
AcDbCircle
 62
7
  6
CONTINUOUS
 10
52.6682346571
 20
88.482698346
 40
1.5000000056
100
AcDbArc
 50
323.1301025237
 51
36.8698975135
  0
ARC
  5
727
100
AcDbEntity
  8
0
100
AcDbCircle
 62
7
  6
CONTINUOUS
 10
52.6682346571
 20
91.982698346
 40
1.5000000056
100
AcDbArc
 50
323.1301025236
 51
36.8698975135
  0
ARC
  5
728
100
AcDbEntity
  8
0
100
AcDbCircle
 62
7
  6
CONTINUOUS
 10
52.6682346571
 20
95.482698346
 40
1.5000000056
100
AcDbArc
 50
323.1301025236
 51
36.8698975135
  0
CIRCLE
  5
729
100
AcDbEntity
  8
0
100
AcDbCircle
 62
7
  6
CONTINUOUS
 10
56.1682346631
 20
74.4826511348
 40
0.8
  0
CIRCLE
  5
72A
100
AcDbEntity
  8
0
100
AcDbCircle
 62
7
  6
CONTINUOUS
 10
56.1682346631
 20
77.9826511348
 40
0.8
  0
CIRCLE
  5
72B
100
AcDbEntity
  8
0
100
AcDbCircle
 62
7
  6
CONTINUOUS
 10
56.1682346631
 20
81.4826511348
 40
0.8
  0
CIRCLE
  5
72C
100
AcDbEntity
  8
0
100
AcDbCircle
 62
7
  6
CONTINUOUS
 10
56.1682346631
 20
84.9826511348
 40
0.8
  0
CIRCLE
  5
72D
100
AcDbEntity
  8
0
100
AcDbCircle
 62
7
  6
CONTINUOUS
 10
56.1682346631
 20
88.4826511348
 40
0.8
  0
CIRCLE
  5
72E
100
AcDbEntity
  8
0
100
AcDbCircle
 62
7
  6
CONTINUOUS
 10
56.1682346631
 20
91.9826511348
 40
0.8
  0
CIRCLE
  5
72F
100
AcDbEntity
  8
0
100
AcDbCircle
 62
7
  6
CONTINUOUS
 10
56.1682346631
 20
95.4826511348
 40
0.8
  0
ARC
  5
730
100
AcDbEntity
  8
0
100
AcDbCircle
 62
7
  6
CONTINUOUS
 10
60.9182346631
 20
49.982698346
 40
1.5
100
AcDbArc
 50
323.130102485
 51
36.8698976288
  0
ARC
  5
731
100
AcDbEntity
  8
0
100
AcDbCircle
 62
7
  6
CONTINUOUS
 10
60.9182346631
 20
53.482698346
 40
1.5
100
AcDbArc
 50
323.130102485
 51
36.8698976288
  0
ARC
  5
732
100
AcDbEntity
  8
0
100
AcDbCircle
 62
7
  6
CONTINUOUS
 10
60.9182346631
 20
56.982698346
 40
1.5
100
AcDbArc
 50
323.130102485
 51
36.8698976288
  0
ARC
  5
733
100
AcDbEntity
  8
0
100
AcDbCircle
 62
7
  6
CONTINUOUS
 10
60.9182346631
 20
60.482698346
 40
1.5
100
AcDbArc
 50
323.130102485
 51
36.8698976288
  0
ARC
  5
734
100
AcDbEntity
  8
0
100
AcDbCircle
 62
7
  6
CONTINUOUS
 10
60.9182346631
 20
63.982698346
 40
1.5
100
AcDbArc
 50
323.130102485
 51
36.8698976288
  0
ARC
  5
735
100
AcDbEntity
  8
0
100
AcDbCircle
 62
7
  6
CONTINUOUS
 10
60.9182346631
 20
67.482698346
 40
1.5
100
AcDbArc
 50
323.130102485
 51
36.8698976288
  0
ARC
  5
736
100
AcDbEntity
  8
0
100
AcDbCircle
 62
7
  6
CONTINUOUS
 10
60.9182346631
 20
70.982698346
 40
1.5
100
AcDbArc
 50
323.130102485
 51
36.8698976288
  0
ARC
  5
737
100
AcDbEntity
  8
0
100
AcDbCircle
 62
7
  6
CONTINUOUS
 10
58.638234662
 20
50.582698347
 40
0.2000000006
100
AcDbArc
 50
270.0000004256
 51
359.9999997391
  0
ARC
  5
738
100
AcDbEntity
  8
0
100
AcDbCircle
 62
7
  6
CONTINUOUS
 10
58.638234662
 20
49.382698345
 40
0.2000000006
100
AcDbArc
 50
0.0000006094
 51
89.9999998513
  0
ARC
  5
739
100
AcDbEntity
  8
0
100
AcDbCircle
 62
7
  6
CONTINUOUS
 10
58.638234662
 20
54.082698347
 40
0.2000000006
100
AcDbArc
 50
270.0000004256
 51
359.9999997391
  0
ARC
  5
73A
100
AcDbEntity
  8
0
100
AcDbCircle
 62
7
  6
CONTINUOUS
 10
58.638234662
 20
52.882698345
 40
0.2000000006
100
AcDbArc
 50
0.0000006094
 51
89.9999998513
  0
ARC
  5
73B
100
AcDbEntity
  8
0
100
AcDbCircle
 62
7
  6
CONTINUOUS
 10
58.638234662
 20
57.582698347
 40
0.2000000006
100
AcDbArc
 50
270.0000004256
 51
359.9999997391
  0
ARC
  5
73C
100
AcDbEntity
  8
0
100
AcDbCircle
 62
7
  6
CONTINUOUS
 10
58.638234662
 20
56.382698345
 40
0.2000000006
100
AcDbArc
 50
0.0000006094
 51
89.9999998513
  0
ARC
  5
73D
100
AcDbEntity
  8
0
100
AcDbCircle
 62
7
  6
CONTINUOUS
 10
58.638234662
 20
61.082698347
 40
0.2000000006
100
AcDbArc
 50
270.0000004256
 51
359.9999997391
  0
ARC
  5
73E
100
AcDbEntity
  8
0
100
AcDbCircle
 62
7
  6
CONTINUOUS
 10
58.638234662
 20
59.882698345
 40
0.2000000006
100
AcDbArc
 50
0.0000006094
 51
89.9999998513
  0
ARC
  5
73F
100
AcDbEntity
  8
0
100
AcDbCircle
 62
7
  6
CONTINUOUS
 10
58.638234662
 20
64.582698347
 40
0.2000000006
100
AcDbArc
 50
270.0000004256
 51
359.9999997391
  0
ARC
  5
740
100
AcDbEntity
  8
0
100
AcDbCircle
 62
7
  6
CONTINUOUS
 10
58.638234662
 20
63.382698345
 40
0.2000000006
100
AcDbArc
 50
0.0000006094
 51
89.9999998513
  0
ARC
  5
741
100
AcDbEntity
  8
0
100
AcDbCircle
 62
7
  6
CONTINUOUS
 10
58.638234662
 20
68.082698347
 40
0.2000000006
100
AcDbArc
 50
270.0000004256
 51
359.9999997391
  0
ARC
  5
742
100
AcDbEntity
  8
0
100
AcDbCircle
 62
7
  6
CONTINUOUS
 10
58.638234662
 20
66.882698345
 40
0.2000000006
100
AcDbArc
 50
0.0000006094
 51
89.9999998513
  0
ARC
  5
743
100
AcDbEntity
  8
0
100
AcDbCircle
 62
7
  6
CONTINUOUS
 10
58.638234662
 20
71.582698347
 40
0.2000000006
100
AcDbArc
 50
270.0000004256
 51
359.9999997391
  0
ARC
  5
744
100
AcDbEntity
  8
0
100
AcDbCircle
 62
7
  6
CONTINUOUS
 10
58.638234662
 20
70.382698345
 40
0.2000000006
100
AcDbArc
 50
0.0000006094
 51
89.9999998513
  0
ARC
  5
745
100
AcDbEntity
  8
0
100
AcDbCircle
 62
7
  6
CONTINUOUS
 10
60.9182346631
 20
74.482698346
 40
1.5
100
AcDbArc
 50
323.130102485
 51
36.8698976288
  0
ARC
  5
746
100
AcDbEntity
  8
0
100
AcDbCircle
 62
7
  6
CONTINUOUS
 10
60.9182346631
 20
77.982698346
 40
1.5
100
AcDbArc
 50
323.130102485
 51
36.8698976288
  0
ARC
  5
747
100
AcDbEntity
  8
0
100
AcDbCircle
 62
7
  6
CONTINUOUS
 10
60.9182346631
 20
81.482698346
 40
1.5
100
AcDbArc
 50
323.130102485
 51
36.8698976288
  0
ARC
  5
748
100
AcDbEntity
  8
0
100
AcDbCircle
 62
7
  6
CONTINUOUS
 10
60.9182346631
 20
84.982698346
 40
1.5
100
AcDbArc
 50
323.130102485
 51
36.8698976288
  0
ARC
  5
749
100
AcDbEntity
  8
0
100
AcDbCircle
 62
7
  6
CONTINUOUS
 10
60.9182346631
 20
88.482698346
 40
1.5
100
AcDbArc
 50
323.1301024876
 51
36.8698976313
  0
ARC
  5
74A
100
AcDbEntity
  8
0
100
AcDbCircle
 62
7
  6
CONTINUOUS
 10
60.9182346631
 20
91.982698346
 40
1.5
100
AcDbArc
 50
323.1301024875
 51
36.8698976313
  0
ARC
  5
74B
100
AcDbEntity
  8
0
100
AcDbCircle
 62
7
  6
CONTINUOUS
 10
60.9182346631
 20
95.482698346
 40
1.5
100
AcDbArc
 50
323.1301024875
 51
36.8698976313
  0
ARC
  5
74C
100
AcDbEntity
  8
0
100
AcDbCircle
 62
7
  6
CONTINUOUS
 10
58.638234662
 20
75.082698347
 40
0.2000000006
100
AcDbArc
 50
270.0000004256
 51
359.9999997391
  0
ARC
  5
74D
100
AcDbEntity
  8
0
100
AcDbCircle
 62
7
  6
CONTINUOUS
 10
58.638234662
 20
73.882698345
 40
0.2000000006
100
AcDbArc
 50
0.0000006094
 51
89.9999998513
  0
ARC
  5
74E
100
AcDbEntity
  8
0
100
AcDbCircle
 62
7
  6
CONTINUOUS
 10
58.638234662
 20
78.582698347
 40
0.2000000006
100
AcDbArc
 50
270.0000004256
 51
359.9999997391
  0
ARC
  5
74F
100
AcDbEntity
  8
0
100
AcDbCircle
 62
7
  6
CONTINUOUS
 10
58.638234662
 20
77.382698345
 40
0.2000000006
100
AcDbArc
 50
0.0000006094
 51
89.9999998513
  0
ARC
  5
750
100
AcDbEntity
  8
0
100
AcDbCircle
 62
7
  6
CONTINUOUS
 10
58.638234662
 20
82.082698347
 40
0.2000000006
100
AcDbArc
 50
270.0000005497
 51
359.9999997391
  0
ARC
  5
751
100
AcDbEntity
  8
0
100
AcDbCircle
 62
7
  6
CONTINUOUS
 10
58.638234662
 20
80.882698345
 40
0.2000000006
100
AcDbArc
 50
0.0000006094
 51
89.9999998513
  0
ARC
  5
752
100
AcDbEntity
  8
0
100
AcDbCircle
 62
7
  6
CONTINUOUS
 10
58.638234662
 20
85.582698347
 40
0.2000000006
100
AcDbArc
 50
270.0000005497
 51
359.9999997391
  0
ARC
  5
753
100
AcDbEntity
  8
0
100
AcDbCircle
 62
7
  6
CONTINUOUS
 10
58.638234662
 20
84.382698345
 40
0.2000000006
100
AcDbArc
 50
0.0000006094
 51
89.9999998513
  0
ARC
  5
754
100
AcDbEntity
  8
0
100
AcDbCircle
 62
7
  6
CONTINUOUS
 10
58.638234662
 20
89.082698347
 40
0.2000000006
100
AcDbArc
 50
270.0000005178
 51
359.9999997448
  0
ARC
  5
755
100
AcDbEntity
  8
0
100
AcDbCircle
 62
7
  6
CONTINUOUS
 10
58.638234662
 20
87.882698345
 40
0.2000000006
100
AcDbArc
 50
0.0000006008
 51
89.9999998939
  0
ARC
  5
756
100
AcDbEntity
  8
0
100
AcDbCircle
 62
7
  6
CONTINUOUS
 10
58.638234662
 20
92.582698347
 40
0.2000000006
100
AcDbArc
 50
270.0000005178
 51
359.9999997448
  0
ARC
  5
757
100
AcDbEntity
  8
0
100
AcDbCircle
 62
7
  6
CONTINUOUS
 10
58.638234662
 20
91.382698345
 40
0.2000000006
100
AcDbArc
 50
0.0000006008
 51
89.9999998939
  0
ARC
  5
758
100
AcDbEntity
  8
0
100
AcDbCircle
 62
7
  6
CONTINUOUS
 10
58.638234662
 20
96.082698347
 40
0.2000000006
100
AcDbArc
 50
270.0000003937
 51
359.9999997448
  0
ARC
  5
759
100
AcDbEntity
  8
0
100
AcDbCircle
 62
7
  6
CONTINUOUS
 10
58.638234662
 20
94.882698345
 40
0.2000000006
100
AcDbArc
 50
0.0000006008
 51
89.9999998939
  0
ARC
  5
75A
100
AcDbEntity
  8
0
100
AcDbCircle
 62
7
  6
CONTINUOUS
 10
52.6682346571
 20
98.982698346
 40
1.5000000056
100
AcDbArc
 50
323.1301025237
 51
36.8698975135
  0
CIRCLE
  5
75B
100
AcDbEntity
  8
0
100
AcDbCircle
 62
7
  6
CONTINUOUS
 10
56.1682346631
 20
98.9826511348
 40
0.8
  0
ARC
  5
75C
100
AcDbEntity
  8
0
100
AcDbCircle
 62
7
  6
CONTINUOUS
 10
52.6682346571
 20
134.7826983219
 40
1.5000000056
100
AcDbArc
 50
323.1301024833
 51
36.8698974736
  0
ARC
  5
75D
100
AcDbEntity
  8
0
100
AcDbCircle
 62
7
  6
CONTINUOUS
 10
52.6682346571
 20
131.2826983219
 40
1.5000000056
100
AcDbArc
 50
323.1301024833
 51
36.8698974736
  0
ARC
  5
75E
100
AcDbEntity
  8
0
100
AcDbCircle
 62
7
  6
CONTINUOUS
 10
52.6682346571
 20
127.7826983219
 40
1.5000000056
100
AcDbArc
 50
323.1301024833
 51
36.8698974736
  0
ARC
  5
75F
100
AcDbEntity
  8
0
100
AcDbCircle
 62
7
  6
CONTINUOUS
 10
52.6682346571
 20
145.2826983219
 40
1.5000000056
100
AcDbArc
 50
323.1301024833
 51
36.8698974736
  0
ARC
  5
760
100
AcDbEntity
  8
0
100
AcDbCircle
 62
7
  6
CONTINUOUS
 10
52.6682346571
 20
141.7826983219
 40
1.5000000056
100
AcDbArc
 50
323.1301024833
 51
36.8698974736
  0
ARC
  5
761
100
AcDbEntity
  8
0
100
AcDbCircle
 62
7
  6
CONTINUOUS
 10
52.6682346571
 20
138.2826983219
 40
1.5000000056
100
AcDbArc
 50
323.1301024833
 51
36.8698974736
  0
CIRCLE
  5
762
100
AcDbEntity
  8
0
100
AcDbCircle
 62
7
  6
CONTINUOUS
 10
56.1682346631
 20
134.7826511069
 40
0.8
  0
CIRCLE
  5
763
100
AcDbEntity
  8
0
100
AcDbCircle
 62
7
  6
CONTINUOUS
 10
56.1682346631
 20
131.2826511069
 40
0.8
  0
CIRCLE
  5
764
100
AcDbEntity
  8
0
100
AcDbCircle
 62
7
  6
CONTINUOUS
 10
56.1682346631
 20
127.7826511069
 40
0.8
  0
CIRCLE
  5
765
100
AcDbEntity
  8
0
100
AcDbCircle
 62
7
  6
CONTINUOUS
 10
56.1682346631
 20
145.2826511069
 40
0.8
  0
CIRCLE
  5
766
100
AcDbEntity
  8
0
100
AcDbCircle
 62
7
  6
CONTINUOUS
 10
56.1682346631
 20
141.7826511069
 40
0.8
  0
CIRCLE
  5
767
100
AcDbEntity
  8
0
100
AcDbCircle
 62
7
  6
CONTINUOUS
 10
56.1682346631
 20
138.2826511069
 40
0.8
  0
ARC
  5
768
100
AcDbEntity
  8
0
100
AcDbCircle
 62
7
  6
CONTINUOUS
 10
60.9182346631
 20
98.982698346
 40
1.5
100
AcDbArc
 50
323.1301024876
 51
36.8698976313
  0
ARC
  5
769
100
AcDbEntity
  8
0
100
AcDbCircle
 62
7
  6
CONTINUOUS
 10
58.638234662
 20
99.582698347
 40
0.2000000006
100
AcDbArc
 50
270.0000003937
 51
359.9999997448
  0
ARC
  5
76A
100
AcDbEntity
  8
0
100
AcDbCircle
 62
7
  6
CONTINUOUS
 10
58.638234662
 20
98.382698345
 40
0.2000000006
100
AcDbArc
 50
0.0000006011
 51
89.9999998854
  0
ARC
  5
76B
100
AcDbEntity
  8
0
100
AcDbCircle
 62
7
  6
CONTINUOUS
 10
60.9182346571
 20
145.2826983219
 40
1.5000000056
100
AcDbArc
 50
323.1301024857
 51
36.8698974684
  0
ARC
  5
76C
100
AcDbEntity
  8
0
100
AcDbCircle
 62
7
  6
CONTINUOUS
 10
60.9182346571
 20
141.7826983219
 40
1.5000000056
100
AcDbArc
 50
323.1301024857
 51
36.8698974684
  0
ARC
  5
76D
100
AcDbEntity
  8
0
100
AcDbCircle
 62
7
  6
CONTINUOUS
 10
60.9182346571
 20
138.2826983219
 40
1.5000000056
100
AcDbArc
 50
323.1301024857
 51
36.8698974684
  0
ARC
  5
76E
100
AcDbEntity
  8
0
100
AcDbCircle
 62
7
  6
CONTINUOUS
 10
60.9182346571
 20
134.7826983219
 40
1.5000000056
100
AcDbArc
 50
323.1301024857
 51
36.8698974684
  0
ARC
  5
76F
100
AcDbEntity
  8
0
100
AcDbCircle
 62
7
  6
CONTINUOUS
 10
60.9182346571
 20
131.2826983219
 40
1.5000000056
100
AcDbArc
 50
323.1301024857
 51
36.8698974684
  0
ARC
  5
770
100
AcDbEntity
  8
0
100
AcDbCircle
 62
7
  6
CONTINUOUS
 10
60.9182346571
 20
127.7826983219
 40
1.5000000056
100
AcDbArc
 50
323.1301024857
 51
36.8698974684
  0
ARC
  5
771
100
AcDbEntity
  8
0
100
AcDbCircle
 62
7
  6
CONTINUOUS
 10
58.638234662
 20
145.8826983229
 40
0.2000000006
100
AcDbArc
 50
270.0000004433
 51
359.9999993953
  0
ARC
  5
772
100
AcDbEntity
  8
0
100
AcDbCircle
 62
7
  6
CONTINUOUS
 10
58.638234662
 20
144.6826983209
 40
0.2000000006
100
AcDbArc
 50
0.0000003565
 51
89.9999999578
  0
ARC
  5
773
100
AcDbEntity
  8
0
100
AcDbCircle
 62
7
  6
CONTINUOUS
 10
58.638234662
 20
142.3826983229
 40
0.2000000006
100
AcDbArc
 50
270.0000004433
 51
359.9999993953
  0
ARC
  5
774
100
AcDbEntity
  8
0
100
AcDbCircle
 62
7
  6
CONTINUOUS
 10
58.638234662
 20
141.1826983209
 40
0.2000000006
100
AcDbArc
 50
0.0000003565
 51
89.9999999578
  0
ARC
  5
775
100
AcDbEntity
  8
0
100
AcDbCircle
 62
7
  6
CONTINUOUS
 10
58.638234662
 20
138.8826983229
 40
0.2000000006
100
AcDbArc
 50
270.0000004433
 51
359.9999993953
  0
ARC
  5
776
100
AcDbEntity
  8
0
100
AcDbCircle
 62
7
  6
CONTINUOUS
 10
58.638234662
 20
137.6826983209
 40
0.2000000006
100
AcDbArc
 50
0.0000003565
 51
89.9999999578
  0
ARC
  5
777
100
AcDbEntity
  8
0
100
AcDbCircle
 62
7
  6
CONTINUOUS
 10
58.638234662
 20
135.3826983229
 40
0.2000000006
100
AcDbArc
 50
270.0000004433
 51
359.9999993953
  0
ARC
  5
778
100
AcDbEntity
  8
0
100
AcDbCircle
 62
7
  6
CONTINUOUS
 10
58.638234662
 20
134.1826983209
 40
0.2000000006
100
AcDbArc
 50
0.0000003565
 51
89.9999999578
  0
ARC
  5
779
100
AcDbEntity
  8
0
100
AcDbCircle
 62
7
  6
CONTINUOUS
 10
58.638234662
 20
131.8826983229
 40
0.2000000006
100
AcDbArc
 50
270.0000004433
 51
359.9999993953
  0
ARC
  5
77A
100
AcDbEntity
  8
0
100
AcDbCircle
 62
7
  6
CONTINUOUS
 10
58.638234662
 20
130.6826983209
 40
0.2000000006
100
AcDbArc
 50
0.0000003565
 51
89.9999999578
  0
ARC
  5
77B
100
AcDbEntity
  8
0
100
AcDbCircle
 62
7
  6
CONTINUOUS
 10
58.638234662
 20
128.3826983229
 40
0.2000000006
100
AcDbArc
 50
270.0000004433
 51
359.9999993953
  0
ARC
  5
77C
100
AcDbEntity
  8
0
100
AcDbCircle
 62
7
  6
CONTINUOUS
 10
58.638234662
 20
127.1826983209
 40
0.2000000006
100
AcDbArc
 50
0.0000003565
 51
89.9999999578
  0
ARC
  5
77D
100
AcDbEntity
  8
0
100
AcDbCircle
 62
7
  6
CONTINUOUS
 10
38.8406435676
 20
616.7835419344
 40
463.045786025
100
AcDbArc
 50
273.6358381442
 51
273.7945372528
  0
ARC
  5
77E
100
AcDbEntity
  8
0
100
AcDbCircle
 62
7
  6
CONTINUOUS
 10
39.0063255423
 20
613.8063120432
 40
461.062213266
100
AcDbArc
 50
273.635212468
 51
273.7949125393
  0
CIRCLE
  5
77F
100
AcDbEntity
  8
0
100
AcDbCircle
 62
7
  6
CONTINUOUS
 10
64.4182346631
 20
49.9826511348
 40
0.8
  0
CIRCLE
  5
780
100
AcDbEntity
  8
0
100
AcDbCircle
 62
7
  6
CONTINUOUS
 10
64.4182346631
 20
53.4826511348
 40
0.8
  0
CIRCLE
  5
781
100
AcDbEntity
  8
0
100
AcDbCircle
 62
7
  6
CONTINUOUS
 10
64.4182346631
 20
56.9826511348
 40
0.8
  0
ARC
  5
782
100
AcDbEntity
  8
0
100
AcDbCircle
 62
7
  6
CONTINUOUS
 10
66.8882346631
 20
50.582698346
 40
0.2
100
AcDbArc
 50
269.9999997142
 51
360.0
  0
ARC
  5
783
100
AcDbEntity
  8
0
100
AcDbCircle
 62
7
  6
CONTINUOUS
 10
66.8882346631
 20
49.382698346
 40
0.2
100
AcDbArc
 50
0.0000003229
 51
90.0000001665
  0
ARC
  5
784
100
AcDbEntity
  8
0
100
AcDbCircle
 62
7
  6
CONTINUOUS
 10
66.8882346631
 20
54.082698346
 40
0.2
100
AcDbArc
 50
269.9999997142
 51
360.0
  0
ARC
  5
785
100
AcDbEntity
  8
0
100
AcDbCircle
 62
7
  6
CONTINUOUS
 10
66.8882346631
 20
52.882698346
 40
0.2
100
AcDbArc
 50
0.0000003229
 51
90.0000001665
  0
ARC
  5
786
100
AcDbEntity
  8
0
100
AcDbCircle
 62
7
  6
CONTINUOUS
 10
66.8882346631
 20
57.582698346
 40
0.2
100
AcDbArc
 50
269.9999997142
 51
360.0
  0
ARC
  5
787
100
AcDbEntity
  8
0
100
AcDbCircle
 62
7
  6
CONTINUOUS
 10
66.8882346631
 20
56.382698346
 40
0.2
100
AcDbArc
 50
0.0000003229
 51
90.0000001665
  0
CIRCLE
  5
788
100
AcDbEntity
  8
0
100
AcDbCircle
 62
7
  6
CONTINUOUS
 10
64.4182346631
 20
60.4826511348
 40
0.8
  0
CIRCLE
  5
789
100
AcDbEntity
  8
0
100
AcDbCircle
 62
7
  6
CONTINUOUS
 10
64.4182346631
 20
63.9826511348
 40
0.8
  0
CIRCLE
  5
78A
100
AcDbEntity
  8
0
100
AcDbCircle
 62
7
  6
CONTINUOUS
 10
64.4182346631
 20
67.4826511348
 40
0.8
  0
CIRCLE
  5
78B
100
AcDbEntity
  8
0
100
AcDbCircle
 62
7
  6
CONTINUOUS
 10
64.4182346631
 20
70.9826511348
 40
0.8
  0
CIRCLE
  5
78C
100
AcDbEntity
  8
0
100
AcDbCircle
 62
7
  6
CONTINUOUS
 10
64.4182346631
 20
74.4826511348
 40
0.8
  0
CIRCLE
  5
78D
100
AcDbEntity
  8
0
100
AcDbCircle
 62
7
  6
CONTINUOUS
 10
64.4182346631
 20
77.9826511348
 40
0.8
  0
CIRCLE
  5
78E
100
AcDbEntity
  8
0
100
AcDbCircle
 62
7
  6
CONTINUOUS
 10
64.4182346631
 20
81.4826511348
 40
0.8
  0
CIRCLE
  5
78F
100
AcDbEntity
  8
0
100
AcDbCircle
 62
7
  6
CONTINUOUS
 10
64.4182346631
 20
84.9826511348
 40
0.8
  0
CIRCLE
  5
790
100
AcDbEntity
  8
0
100
AcDbCircle
 62
7
  6
CONTINUOUS
 10
64.4182346631
 20
88.4826511348
 40
0.8
  0
CIRCLE
  5
791
100
AcDbEntity
  8
0
100
AcDbCircle
 62
7
  6
CONTINUOUS
 10
64.4182346631
 20
91.9826511348
 40
0.8
  0
CIRCLE
  5
792
100
AcDbEntity
  8
0
100
AcDbCircle
 62
7
  6
CONTINUOUS
 10
64.4182346631
 20
95.4826511348
 40
0.8
  0
ARC
  5
793
100
AcDbEntity
  8
0
100
AcDbCircle
 62
7
  6
CONTINUOUS
 10
66.8882346631
 20
61.082698346
 40
0.2
100
AcDbArc
 50
269.9999997142
 51
360.0
  0
ARC
  5
794
100
AcDbEntity
  8
0
100
AcDbCircle
 62
7
  6
CONTINUOUS
 10
66.8882346631
 20
59.882698346
 40
0.2
100
AcDbArc
 50
0.0000003229
 51
90.0000001665
  0
ARC
  5
795
100
AcDbEntity
  8
0
100
AcDbCircle
 62
7
  6
CONTINUOUS
 10
66.8882346631
 20
64.582698346
 40
0.2
100
AcDbArc
 50
269.9999997142
 51
360.0
  0
ARC
  5
796
100
AcDbEntity
  8
0
100
AcDbCircle
 62
7
  6
CONTINUOUS
 10
66.8882346631
 20
63.382698346
 40
0.2
100
AcDbArc
 50
0.0000003229
 51
90.0000001665
  0
ARC
  5
797
100
AcDbEntity
  8
0
100
AcDbCircle
 62
7
  6
CONTINUOUS
 10
66.8882346631
 20
68.082698346
 40
0.2
100
AcDbArc
 50
269.9999997142
 51
360.0
  0
ARC
  5
798
100
AcDbEntity
  8
0
100
AcDbCircle
 62
7
  6
CONTINUOUS
 10
66.8882346631
 20
66.882698346
 40
0.2
100
AcDbArc
 50
0.0000003229
 51
90.0000001665
  0
ARC
  5
799
100
AcDbEntity
  8
0
100
AcDbCircle
 62
7
  6
CONTINUOUS
 10
66.8882346631
 20
71.582698346
 40
0.2
100
AcDbArc
 50
269.9999997142
 51
360.0
  0
ARC
  5
79A
100
AcDbEntity
  8
0
100
AcDbCircle
 62
7
  6
CONTINUOUS
 10
66.8882346631
 20
70.382698346
 40
0.2
100
AcDbArc
 50
0.0000003229
 51
90.0000001665
  0
ARC
  5
79B
100
AcDbEntity
  8
0
100
AcDbCircle
 62
7
  6
CONTINUOUS
 10
66.8882346631
 20
75.082698346
 40
0.2
100
AcDbArc
 50
269.9999997142
 51
360.0
  0
ARC
  5
79C
100
AcDbEntity
  8
0
100
AcDbCircle
 62
7
  6
CONTINUOUS
 10
66.8882346631
 20
73.882698346
 40
0.2
100
AcDbArc
 50
0.0000003229
 51
90.0000001665
  0
ARC
  5
79D
100
AcDbEntity
  8
0
100
AcDbCircle
 62
7
  6
CONTINUOUS
 10
66.8882346631
 20
77.382698346
 40
0.2
100
AcDbArc
 50
0.0000003229
 51
90.0000001665
  0
ARC
  5
79E
100
AcDbEntity
  8
0
100
AcDbCircle
 62
7
  6
CONTINUOUS
 10
66.8882346631
 20
78.582698346
 40
0.2
100
AcDbArc
 50
269.9999997142
 51
360.0
  0
ARC
  5
79F
100
AcDbEntity
  8
0
100
AcDbCircle
 62
7
  6
CONTINUOUS
 10
66.8882346631
 20
82.082698346
 40
0.2
100
AcDbArc
 50
269.9999996569
 51
360.0
  0
ARC
  5
7A0
100
AcDbEntity
  8
0
100
AcDbCircle
 62
7
  6
CONTINUOUS
 10
66.8882346631
 20
80.882698346
 40
0.2
100
AcDbArc
 50
0.0000003229
 51
90.0000001665
  0
ARC
  5
7A1
100
AcDbEntity
  8
0
100
AcDbCircle
 62
7
  6
CONTINUOUS
 10
66.8882346631
 20
85.582698346
 40
0.2
100
AcDbArc
 50
269.9999996569
 51
360.0
  0
ARC
  5
7A2
100
AcDbEntity
  8
0
100
AcDbCircle
 62
7
  6
CONTINUOUS
 10
66.8882346631
 20
84.382698346
 40
0.2
100
AcDbArc
 50
0.0000003229
 51
90.0000001665
  0
ARC
  5
7A3
100
AcDbEntity
  8
0
100
AcDbCircle
 62
7
  6
CONTINUOUS
 10
66.8882346631
 20
89.082698346
 40
0.2
100
AcDbArc
 50
269.9999996569
 51
360.0
  0
ARC
  5
7A4
100
AcDbEntity
  8
0
100
AcDbCircle
 62
7
  6
CONTINUOUS
 10
66.8882346631
 20
87.882698346
 40
0.2
100
AcDbArc
 50
0.0000003143
 51
90.0000002091
  0
ARC
  5
7A5
100
AcDbEntity
  8
0
100
AcDbCircle
 62
7
  6
CONTINUOUS
 10
66.8882346631
 20
92.582698346
 40
0.2
100
AcDbArc
 50
269.9999996569
 51
360.0
  0
ARC
  5
7A6
100
AcDbEntity
  8
0
100
AcDbCircle
 62
7
  6
CONTINUOUS
 10
66.8882346631
 20
91.382698346
 40
0.2
100
AcDbArc
 50
0.0000003143
 51
90.0000002091
  0
ARC
  5
7A7
100
AcDbEntity
  8
0
100
AcDbCircle
 62
7
  6
CONTINUOUS
 10
66.8882346631
 20
96.082698346
 40
0.2
100
AcDbArc
 50
269.9999997142
 51
360.0
  0
ARC
  5
7A8
100
AcDbEntity
  8
0
100
AcDbCircle
 62
7
  6
CONTINUOUS
 10
66.8882346631
 20
94.882698346
 40
0.2
100
AcDbArc
 50
0.0000003143
 51
90.0000002091
  0
ARC
  5
7A9
100
AcDbEntity
  8
0
100
AcDbCircle
 62
7
  6
CONTINUOUS
 10
69.017328964
 20
20.6165603363
 40
14.1546202262
100
AcDbArc
 50
85.9259571714
 51
86.8413649425
  0
ARC
  5
7AA
100
AcDbEntity
  8
0
100
AcDbCircle
 62
7
  6
CONTINUOUS
 10
69.7894350147
 20
36.245378727
 40
1.3126807809
100
AcDbArc
 50
197.1018254176
 51
270.0
  0
ARC
  5
7AB
100
AcDbEntity
  8
0
100
AcDbCircle
 62
7
  6
CONTINUOUS
 10
69.7894350147
 20
38.620017166
 40
1.3126807809
100
AcDbArc
 50
90.0
 51
162.8981745824
  0
ARC
  5
7AC
100
AcDbEntity
  8
0
100
AcDbCircle
 62
7
  6
CONTINUOUS
 10
68.2652303023
 20
41.5209511906
 40
1.0890798642
100
AcDbArc
 50
179.6681326978
 51
181.5293677626
  0
ARC
  5
7AD
100
AcDbEntity
  8
0
100
AcDbCircle
 62
7
  6
CONTINUOUS
 10
68.2682346631
 20
41.5211719124
 40
1.0
100
AcDbArc
 50
180.0000000005
 51
268.1065618928
  0
ARC
  5
7AE
100
AcDbEntity
  8
0
100
AcDbCircle
 62
7
  6
CONTINUOUS
 10
69.4182346631
 20
39.482061754
 40
1.0
100
AcDbArc
 50
359.9999999039
 51
88.1065619203
  0
ARC
  5
7AF
100
AcDbEntity
  8
0
100
AcDbCircle
 62
7
  6
CONTINUOUS
 10
71.4182346631
 20
34.6979109148
 40
1.0
100
AcDbArc
 50
180.0000000286
 51
268.0000018232
  0
ARC
  5
7B0
100
AcDbEntity
  8
0
100
AcDbCircle
 62
7
  6
CONTINUOUS
 10
70.4099086146
 20
92.174371898
 40
0.7916739534
100
AcDbArc
 50
180.0039971572
 51
269.996000222
  0
CIRCLE
  5
7B1
100
AcDbEntity
  8
0
100
AcDbCircle
 62
7
  6
CONTINUOUS
 10
64.4182346631
 20
127.7826511069
 40
0.8
  0
CIRCLE
  5
7B2
100
AcDbEntity
  8
0
100
AcDbCircle
 62
7
  6
CONTINUOUS
 10
64.4182346631
 20
98.9826511348
 40
0.8
  0
ARC
  5
7B3
100
AcDbEntity
  8
0
100
AcDbCircle
 62
7
  6
CONTINUOUS
 10
66.8882346631
 20
127.1826983219
 40
0.2
100
AcDbArc
 50
0.0000000509
 51
90.0000001665
  0
ARC
  5
7B4
100
AcDbEntity
  8
0
100
AcDbCircle
 62
7
  6
CONTINUOUS
 10
66.8882346631
 20
128.3826983219
 40
0.2
100
AcDbArc
 50
270.0000001281
 51
0.000000063
  0
ARC
  5
7B5
100
AcDbEntity
  8
0
100
AcDbCircle
 62
7
  6
CONTINUOUS
 10
66.8882346631
 20
99.582698346
 40
0.2
100
AcDbArc
 50
269.9999997142
 51
360.0
  0
ARC
  5
7B6
100
AcDbEntity
  8
0
100
AcDbCircle
 62
7
  6
CONTINUOUS
 10
66.8882346631
 20
98.382698346
 40
0.2
100
AcDbArc
 50
0.0000003132
 51
90.0000002005
  0
CIRCLE
  5
7B7
100
AcDbEntity
  8
0
100
AcDbCircle
 62
7
  6
CONTINUOUS
 10
64.4182346631
 20
138.2826511069
 40
0.8
  0
CIRCLE
  5
7B8
100
AcDbEntity
  8
0
100
AcDbCircle
 62
7
  6
CONTINUOUS
 10
64.4182346631
 20
134.7826511069
 40
0.8
  0
CIRCLE
  5
7B9
100
AcDbEntity
  8
0
100
AcDbCircle
 62
7
  6
CONTINUOUS
 10
64.4182346631
 20
131.2826511069
 40
0.8
  0
CIRCLE
  5
7BA
100
AcDbEntity
  8
0
100
AcDbCircle
 62
7
  6
CONTINUOUS
 10
64.4182346631
 20
145.2826511069
 40
0.8
  0
CIRCLE
  5
7BB
100
AcDbEntity
  8
0
100
AcDbCircle
 62
7
  6
CONTINUOUS
 10
64.4182346631
 20
141.7826511069
 40
0.8
  0
ARC
  5
7BC
100
AcDbEntity
  8
0
100
AcDbCircle
 62
7
  6
CONTINUOUS
 10
66.8882346631
 20
137.6826983219
 40
0.2
100
AcDbArc
 50
0.0000000509
 51
90.0000001665
  0
ARC
  5
7BD
100
AcDbEntity
  8
0
100
AcDbCircle
 62
7
  6
CONTINUOUS
 10
66.8882346631
 20
134.1826983219
 40
0.2
100
AcDbArc
 50
0.0000000509
 51
90.0000001665
  0
ARC
  5
7BE
100
AcDbEntity
  8
0
100
AcDbCircle
 62
7
  6
CONTINUOUS
 10
66.8882346631
 20
135.3826983219
 40
0.2
100
AcDbArc
 50
270.0000001281
 51
0.000000063
  0
ARC
  5
7BF
100
AcDbEntity
  8
0
100
AcDbCircle
 62
7
  6
CONTINUOUS
 10
66.8882346631
 20
130.6826983219
 40
0.2
100
AcDbArc
 50
0.0000000509
 51
90.0000001665
  0
ARC
  5
7C0
100
AcDbEntity
  8
0
100
AcDbCircle
 62
7
  6
CONTINUOUS
 10
66.8882346631
 20
131.8826983219
 40
0.2
100
AcDbArc
 50
270.0000001281
 51
0.000000063
  0
ARC
  5
7C1
100
AcDbEntity
  8
0
100
AcDbCircle
 62
7
  6
CONTINUOUS
 10
66.8882346631
 20
144.6826983219
 40
0.2
100
AcDbArc
 50
0.0000000509
 51
90.0000001665
  0
ARC
  5
7C2
100
AcDbEntity
  8
0
100
AcDbCircle
 62
7
  6
CONTINUOUS
 10
66.8882346631
 20
145.8826983219
 40
0.2
100
AcDbArc
 50
270.0000001281
 51
0.000000063
  0
ARC
  5
7C3
100
AcDbEntity
  8
0
100
AcDbCircle
 62
7
  6
CONTINUOUS
 10
66.8882346631
 20
141.1826983219
 40
0.2
100
AcDbArc
 50
0.0000000509
 51
90.0000001665
  0
ARC
  5
7C4
100
AcDbEntity
  8
0
100
AcDbCircle
 62
7
  6
CONTINUOUS
 10
66.8882346631
 20
142.3826983219
 40
0.2
100
AcDbArc
 50
270.0000001281
 51
0.000000063
  0
ARC
  5
7C5
100
AcDbEntity
  8
0
100
AcDbCircle
 62
7
  6
CONTINUOUS
 10
66.8882346631
 20
138.8826983219
 40
0.2
100
AcDbArc
 50
270.0000001281
 51
0.000000063
  0
ARC
  5
7C6
100
AcDbEntity
  8
0
100
AcDbCircle
 62
7
  6
CONTINUOUS
 10
70.4579157947
 20
103.0430168149
 40
0.8396811337
100
AcDbArc
 50
90.0039997135
 51
179.9959979215
  0
ARC
  5
7C7
100
AcDbEntity
  8
0
100
AcDbCircle
 62
7
  6
CONTINUOUS
 10
70.5190908146
 20
102.9818303073
 40
0.2984384145
100
AcDbArc
 50
90.0052686464
 51
179.924597851
  0
ARC
  5
7C8
100
AcDbEntity
  8
0
100
AcDbCircle
 62
7
  6
CONTINUOUS
 10
69.7894350147
 20
159.020017166
 40
1.3126807809
100
AcDbArc
 50
90.0
 51
162.8981745824
  0
ARC
  5
7C9
100
AcDbEntity
  8
0
100
AcDbCircle
 62
7
  6
CONTINUOUS
 10
69.7894350147
 20
156.645378727
 40
1.3126807809
100
AcDbArc
 50
197.1018254176
 51
270.0
  0
ARC
  5
7CA
100
AcDbEntity
  8
0
100
AcDbCircle
 62
7
  6
CONTINUOUS
 10
68.2652950046
 20
153.6721792175
 40
1.089154514
100
AcDbArc
 50
178.5462246334
 51
180.6345449659
  0
ARC
  5
7CB
100
AcDbEntity
  8
0
100
AcDbCircle
 62
7
  6
CONTINUOUS
 10
68.2682346631
 20
153.6717784424
 40
1.0
100
AcDbArc
 50
93.6363829316
 51
180.0
  0
ARC
  5
7CC
100
AcDbEntity
  8
0
100
AcDbCircle
 62
7
  6
CONTINUOUS
 10
69.4182346631
 20
155.7506590779
 40
1.0
100
AcDbArc
 50
273.7962142198
 51
0.000000079
  0
ARC
  5
7CD
100
AcDbEntity
  8
0
100
AcDbCircle
 62
7
  6
CONTINUOUS
 10
71.4182346631
 20
160.5674849782
 40
1.0
100
AcDbArc
 50
91.9999999923
 51
180.0
  0
ARC
  5
7CE
100
AcDbEntity
  8
0
100
AcDbCircle
 62
7
  6
CONTINUOUS
 10
81.9182346631
 20
34.8998620367
 40
1.0
100
AcDbArc
 50
271.7969616793
 51
360.0
  0
ARC
  5
7CF
100
AcDbEntity
  8
0
100
AcDbCircle
 62
7
  6
CONTINUOUS
 10
78.762707531
 20
92.2382250786
 40
0.8555271342
100
AcDbArc
 50
270.0039997123
 51
359.9959979079
  0
ARC
  5
7D0
100
AcDbEntity
  8
0
100
AcDbCircle
 62
7
  6
CONTINUOUS
 10
89.7243427305
 20
18.540588408
 40
0.2084174371
100
AcDbArc
 50
180.0
 51
301.6776607357
  0
ARC
  5
7D1
100
AcDbEntity
  8
0
100
AcDbCircle
 62
7
  6
CONTINUOUS
 10
81.9175179882
 20
160.3648953792
 40
1.000713675
100
AcDbArc
 50
0.036555444
 51
88.1631694859
  0
ARC
  5
7D2
100
AcDbEntity
  8
0
100
AcDbCircle
 62
7
  6
CONTINUOUS
 10
78.7608513727
 20
103.0253146561
 40
0.8573832925
100
AcDbArc
 50
0.0039973978
 51
89.9960002397
  0
ARC
  5
7D3
100
AcDbEntity
  8
0
100
AcDbCircle
 62
7
  6
CONTINUOUS
 10
89.7243427305
 20
176.7248074857
 40
0.2084174371
100
AcDbArc
 50
58.3223390174
 51
180.0
  0
SPLINE
  5
7D4
100
AcDbEntity
  8
0
100
AcDbSpline
 62
7
  6
CONTINUOUS
 70
0
 71
3
 72
13
 73
9
 74
0
 42
0.0000001
 43
0.0000001
 44
0.0000000001
 40
0.0
 40
0.0
 40
0.0
 40
0.0
 40
0.125264034
 40
0.2506224478
 40
0.499998027
 40
0.7493717916
 40
0.8747313306
 40
1.0
 40
1.0
 40
1.0
 40
1.0
 10
78.682999815
 20
91.9851206552
 30
0.0
 10
78.7047749948
 20
91.9851205992
 30
0.0
 10
78.7484737827
 20
91.9894537262
 30
0.0
 10
78.8320690892
 20
92.0148328855
 30
0.0
 10
78.9247972887
 20
92.0767806574
 30
0.0
 10
78.9864478614
 20
92.1697080132
 30
0.0
 10
79.0115585192
 20
92.2533833972
 30
0.0
 10
79.015811813
 20
92.2970821564
 30
0.0
 10
79.0158119313
 20
92.318858142
 30
0.0
  0
SPLINE
  5
7D5
100
AcDbEntity
  8
0
100
AcDbSpline
 62
7
  6
CONTINUOUS
 70
0
 71
3
 72
11
 73
7
 74
0
 42
0.0000001
 43
0.0000001
 44
0.0000000001
 40
0.0
 40
0.0
 40
0.0
 40
0.0
 40
0.2492439507
 40
0.499647691
 40
0.7498801331
 40
1.0
 40
1.0
 40
1.0
 40
1.0
 10
70.2206643074
 20
92.3056887449
 30
0.0
 10
70.2206642831
 20
92.2641568393
 30
0.0
 10
70.237800232
 20
92.1801244146
 30
0.0
 10
70.3086857236
 20
92.0734468681
 30
0.0
 10
70.4153870059
 20
92.0023332375
 30
0.0
 10
70.4995494649
 20
91.985127526
 30
0.0
 10
70.5412273258
 20
91.9851275802
 30
0.0
  0
SPLINE
  5
7D6
100
AcDbEntity
  8
0
100
AcDbSpline
 62
7
  6
CONTINUOUS
 70
0
 71
3
 72
15
 73
11
 74
0
 42
0.0000001
 43
0.0000001
 44
0.0000000001
 40
0.0
 40
0.0
 40
0.0
 40
0.0
 40
0.1252113276
 40
0.2502338583
 40
0.375137954
 40
0.4999995373
 40
0.6248639469
 40
0.7497634127
 40
0.8747872064
 40
1.0
 40
1.0
 40
1.0
 40
1.0
 10
78.6714224791
 20
103.7791403015
 30
0.0
 10
78.7265660627
 20
103.7790096461
 30
0.0
 10
78.8370402925
 20
103.7676825579
 30
0.0
 10
78.9959405861
 20
103.7189630643
 30
0.0
 10
79.1423846702
 20
103.6405431915
 30
0.0
 10
79.2707322632
 20
103.5351926738
 30
0.0
 10
79.3760841787
 20
103.4068496262
 30
0.0
 10
79.4545118423
 20
103.2604087832
 30
0.0
 10
79.5032151864
 20
103.1015042805
 30
0.0
 10
79.5145464148
 20
102.9910300011
 30
0.0
 10
79.5146770058
 20
102.9358857717
 30
0.0
  0
SPLINE
  5
7D7
100
AcDbEntity
  8
0
100
AcDbSpline
 62
7
  6
CONTINUOUS
 70
0
 71
3
 72
15
 73
11
 74
0
 42
0.0000001
 43
0.0000001
 44
0.0000000001
 40
0.0
 40
0.0
 40
0.0
 40
0.0
 40
0.1252284725
 40
0.2502578262
 40
0.3751547816
 40
0.4999998128
 40
0.6248468024
 40
0.7497413629
 40
0.8747697785
 40
1.0
 40
1.0
 40
1.0
 40
1.0
 10
79.514676862
 20
92.3181390969
 30
0.0
 10
79.5145601173
 20
92.2637265679
 30
0.0
 10
79.5034112682
 20
92.1547188879
 30
0.0
 10
79.4553803295
 20
91.997927378
 30
0.0
 10
79.3780360033
 20
91.8534380391
 30
0.0
 10
79.2741121341
 20
91.7268184687
 30
0.0
 10
79.1474951709
 20
91.6228936706
 30
0.0
 10
79.0030080971
 20
91.5455448194
 30
0.0
 10
78.8462139771
 20
91.4975248682
 30
0.0
 10
78.7372067769
 20
91.4863724608
 30
0.0
 10
78.682793488
 20
91.4862557233
 30
0.0
  0
SPLINE
  5
7D8
100
AcDbEntity
  8
0
100
AcDbSpline
 62
7
  6
CONTINUOUS
 70
0
 71
3
 72
15
 73
11
 74
0
 42
0.0000001
 43
0.0000001
 44
0.0000000001
 40
0.0
 40
0.0
 40
0.0
 40
0.0
 40
0.1255889014
 40
0.2506318375
 40
0.375500953
 40
0.500385753
 40
0.6252359802
 40
0.750103135
 40
0.8750030148
 40
1.0
 40
1.0
 40
1.0
 40
1.0
 10
70.5412273515
 20
91.4862566365
 30
0.0
 10
70.4875094737
 20
91.4864494237
 30
0.0
 10
70.3800683763
 20
91.4977394382
 30
0.0
 10
70.2256645531
 20
91.5453217875
 30
0.0
 10
70.0835912624
 20
91.6217769114
 30
0.0
 10
69.9590265557
 20
91.7241780976
 30
0.0
 10
69.856831615
 20
91.8489025168
 30
0.0
 10
69.780526048
 20
91.9909592657
 30
0.0
 10
69.7331207703
 20
92.1450943481
 30
0.0
 10
69.7219846535
 20
92.2522259105
 30
0.0
 10
69.7217933572
 20
92.3056906113
 30
0.0
  0
SPLINE
  5
7D9
100
AcDbEntity
  8
0
100
AcDbSpline
 62
7
  6
CONTINUOUS
 70
0
 71
3
 72
15
 73
11
 74
0
 42
0.0000001
 43
0.0000001
 44
0.0000000001
 40
0.0
 40
0.0
 40
0.0
 40
0.0
 40
0.124961643
 40
0.2500193809
 40
0.3749938951
 40
0.4999976539
 40
0.6250016848
 40
0.7499753714
 40
0.8750341552
 40
1.0
 40
1.0
 40
1.0
 40
1.0
 10
79.0158119425
 20
102.9360788597
 30
0.0
 10
79.0158120045
 20
102.9585941146
 30
0.0
 10
79.0113303646
 20
103.0037649183
 30
0.0
 10
78.9915412104
 20
103.0688027221
 30
0.0
 10
78.9593987436
 20
103.1287429247
 30
0.0
 10
78.9161972523
 20
103.1812539416
 30
0.0
 10
78.8635631637
 20
103.2243061248
 30
0.0
 10
78.803526039
 20
103.25626819
 30
0.0
 10
78.7384320488
 20
103.2758690598
 30
0.0
 10
78.6932610652
 20
103.2802750913
 30
0.0
 10
78.6707450532
 20
103.2802752379
 30
0.0
  0
SPLINE
  5
7DA
100
AcDbEntity
  8
0
100
AcDbSpline
 62
7
  6
CONTINUOUS
 70
0
 71
3
 72
15
 73
11
 74
0
 42
0.0000001
 43
0.0000001
 44
0.0000000001
 40
0.0
 40
0.0
 40
0.0
 40
0.0
 40
0.1252568313
 40
0.2503034404
 40
0.3751896797
 40
0.5000001538
 40
0.6248151853
 40
0.7496926744
 40
0.874755874
 40
1.0
 40
1.0
 40
1.0
 40
1.0
 10
69.7217926588
 20
102.9821621545
 30
0.0
 10
69.721881563
 20
103.0343121869
 30
0.0
 10
69.7325173168
 20
103.1387876862
 30
0.0
 10
69.7784870092
 20
103.2890586562
 30
0.0
 10
69.8525549651
 20
103.4275193784
 30
0.0
 10
69.9520977039
 20
103.5488390749
 30
0.0
 10
70.0734104466
 20
103.6483794795
 30
0.0
 10
70.2118661353
 20
103.7224780238
 30
0.0
 10
70.3621557537
 20
103.7683745801
 30
0.0
 10
70.4666257359
 20
103.779051212
 30
0.0
 10
70.5187704787
 20
103.7791399646
 30
0.0
  0
SPLINE
  5
7DB
100
AcDbEntity
  8
0
100
AcDbSpline
 62
7
  6
CONTINUOUS
 70
0
 71
3
 72
9
 73
5
 74
0
 42
0.0000001
 43
0.0000001
 44
0.0000000001
 40
0.0
 40
0.0
 40
0.0
 40
0.0
 40
0.2565304723
 40
1.0
 40
1.0
 40
1.0
 40
1.0
 10
89.7243427305
 20
175.4686044812
 30
0.0
 10
89.7339247474
 20
175.4686044812
 30
0.0
 10
89.771237159
 20
175.4667905049
 30
0.0
 10
89.808338187
 20
175.4577542223
 30
0.0
 10
89.83379104
 20
175.4466481936
 30
0.0
  0
SPLINE
  5
7DC
100
AcDbEntity
  8
0
100
AcDbSpline
 62
7
  6
CONTINUOUS
 70
0
 71
3
 72
11
 73
7
 74
0
 42
0.0000001
 43
0.0000001
 44
0.0000000001
 40
0.0
 40
0.0
 40
0.0
 40
0.0
 40
0.209286103
 40
0.4445967589
 40
0.7123469925
 40
1.0
 40
1.0
 40
1.0
 40
1.0
 10
89.5159252991
 20
27.5908175263
 30
0.0
 10
89.5159267305
 20
27.5713084369
 30
0.0
 10
89.5287149801
 20
27.5294280417
 30
0.0
 10
89.5771210422
 20
27.4812156125
 30
0.0
 10
89.6454681096
 20
27.4505700329
 30
0.0
 10
89.6975284883
 20
27.4434441432
 30
0.0
 10
89.7243427305
 20
27.4434441432
 30
0.0
  0
SPLINE
  5
7DD
100
AcDbEntity
  8
0
100
AcDbSpline
 62
7
  6
CONTINUOUS
 70
0
 71
3
 72
10
 73
6
 74
0
 42
0.0000001
 43
0.0000001
 44
0.0000000001
 40
0.0
 40
0.0
 40
0.0
 40
0.0
 40
0.246502708
 40
0.4963474448
 40
1.0
 40
1.0
 40
1.0
 40
1.0
 10
89.5159023391
 20
93.149524376
 30
0.0
 10
89.5159180858
 20
93.1753790519
 30
0.0
 10
89.5270946039
 20
93.2280505312
 30
0.0
 10
89.5884670885
 20
93.3157966441
 30
0.0
 10
89.6715166334
 20
93.3479936259
 30
0.0
 10
89.7243427305
 20
93.3479936259
 30
0.0
  0
SPLINE
  5
7DE
100
AcDbEntity
  8
0
100
AcDbSpline
 62
7
  6
CONTINUOUS
 70
0
 71
3
 72
10
 73
6
 74
0
 42
0.0000001
 43
0.0000001
 44
0.0000000001
 40
0.0
 40
0.0
 40
0.0
 40
0.0
 40
0.2464967045
 40
0.496356834
 40
1.0
 40
1.0
 40
1.0
 40
1.0
 10
89.515936922
 20
102.1158715431
 30
0.0
 10
89.5159698948
 20
102.0900176825
 30
0.0
 10
89.5270798461
 20
102.0373385757
 30
0.0
 10
89.5884713713
 20
101.9495843748
 30
0.0
 10
89.6715179642
 20
101.9174022676
 30
0.0
 10
89.7243427305
 20
101.9174022676
 30
0.0
  0
SPLINE
  5
7DF
100
AcDbEntity
  8
0
100
AcDbSpline
 62
7
  6
CONTINUOUS
 70
0
 71
3
 72
11
 73
7
 74
0
 42
0.0000001
 43
0.0000001
 44
0.0000000001
 40
0.0
 40
0.0
 40
0.0
 40
0.0
 40
0.2873830251
 40
0.5554863904
 40
0.790591334
 40
1.0
 40
1.0
 40
1.0
 40
1.0
 10
89.7243427305
 20
19.7967914129
 30
0.0
 10
89.6975530788
 20
19.7967914129
 30
0.0
 10
89.6454752003
 20
19.8039464723
 30
0.0
 10
89.5771955391
 20
19.8346164677
 30
0.0
 10
89.5285748126
 20
19.8827151003
 30
0.0
 10
89.5159704497
 20
19.9246439001
 30
0.0
 10
89.515936922
 20
19.9441648059
 30
0.0
  0
SPLINE
  5
7E0
100
AcDbEntity
  8
0
100
AcDbSpline
 62
7
  6
CONTINUOUS
 70
0
 71
3
 72
9
 73
5
 74
0
 42
0.0000001
 43
0.0000001
 44
0.0000000001
 40
0.0
 40
0.0
 40
0.0
 40
0.0
 40
0.2425148437
 40
1.0
 40
1.0
 40
1.0
 40
1.0
 10
89.83379104
 20
19.8187477006
 30
0.0
 10
89.8254872613
 20
19.8151244524
 30
0.0
 10
89.7904029046
 20
19.802159066
 30
0.0
 10
89.752640763
 20
19.7967914129
 30
0.0
 10
89.7243427305
 20
19.7967914129
 30
0.0
  0
SPLINE
  5
7E1
100
AcDbEntity
  8
0
100
AcDbSpline
 62
7
  6
CONTINUOUS
 70
0
 71
3
 72
9
 73
5
 74
0
 42
0.0000001
 43
0.0000001
 44
0.0000000001
 40
0.0
 40
0.0
 40
0.0
 40
0.0
 40
0.2565304723
 40
1.0
 40
1.0
 40
1.0
 40
1.0
 10
89.7243427305
 20
27.4434441432
 30
0.0
 10
89.7339247474
 20
27.4434441432
 30
0.0
 10
89.771237159
 20
27.4452581197
 30
0.0
 10
89.808338187
 20
27.4542944022
 30
0.0
 10
89.83379104
 20
27.4654004309
 30
0.0
  0
SPLINE
  5
7E2
100
AcDbEntity
  8
0
100
AcDbSpline
 62
7
  6
CONTINUOUS
 70
0
 71
3
 72
9
 73
5
 74
0
 42
0.0000001
 43
0.0000001
 44
0.0000000001
 40
0.0
 40
0.0
 40
0.0
 40
0.0
 40
0.2425148437
 40
1.0
 40
1.0
 40
1.0
 40
1.0
 10
89.83379104
 20
167.7999954618
 30
0.0
 10
89.8254872613
 20
167.80361871
 30
0.0
 10
89.7904029046
 20
167.8165840964
 30
0.0
 10
89.752640763
 20
167.8219517495
 30
0.0
 10
89.7243427305
 20
167.8219517495
 30
0.0
  0
SPLINE
  5
7E3
100
AcDbEntity
  8
0
100
AcDbSpline
 62
7
  6
CONTINUOUS
 70
0
 71
3
 72
11
 73
7
 74
0
 42
0.0000001
 43
0.0000001
 44
0.0000000001
 40
0.0
 40
0.0
 40
0.0
 40
0.0
 40
0.2874630352
 40
0.5554895262
 40
0.7905797912
 40
1.0
 40
1.0
 40
1.0
 40
1.0
 10
89.7243427305
 20
167.8219517495
 30
0.0
 10
89.6975445793
 20
167.8219517495
 30
0.0
 10
89.6454598824
 20
167.8148185279
 30
0.0
 10
89.5771893116
 20
167.7841055782
 30
0.0
 10
89.528591669
 20
167.7360222489
 30
0.0
 10
89.5159183518
 20
167.694101138
 30
0.0
 10
89.5159023391
 20
167.6745783756
 30
0.0
  0
SPLINE
  5
7E4
100
AcDbEntity
  8
0
100
AcDbSpline
 62
7
  6
CONTINUOUS
 70
0
 71
3
 72
8
 73
4
 74
0
 42
0.0000001
 43
0.0000001
 44
0.0000000001
 40
0.0
 40
0.0
 40
0.0
 40
0.0
 40
1.0
 40
1.0
 40
1.0
 40
1.0
 10
89.7243427305
 20
101.9174022676
 30
0.0
 10
89.7621334466
 20
101.9174022676
 30
0.0
 10
89.8012091702
 20
101.9278252714
 30
0.0
 10
89.8337910399
 20
101.9469710278
 30
0.0
  0
SPLINE
  5
7E5
100
AcDbEntity
  8
0
100
AcDbSpline
 62
7
  6
CONTINUOUS
 70
0
 71
3
 72
8
 73
4
 74
0
 42
0.0000001
 43
0.0000001
 44
0.0000000001
 40
0.0
 40
0.0
 40
0.0
 40
0.0
 40
1.0
 40
1.0
 40
1.0
 40
1.0
 10
89.7243427305
 20
93.3479936259
 30
0.0
 10
89.7621334466
 20
93.3479936259
 30
0.0
 10
89.8012091702
 20
93.3375706222
 30
0.0
 10
89.8337910399
 20
93.3184248658
 30
0.0
  0
SPLINE
  5
7E6
100
AcDbEntity
  8
0
100
AcDbSpline
 62
7
  6
CONTINUOUS
 70
0
 71
3
 72
11
 73
7
 74
0
 42
0.0000001
 43
0.0000001
 44
0.0000000001
 40
0.0
 40
0.0
 40
0.0
 40
0.0
 40
0.2094202088
 40
0.4445104738
 40
0.7125369648
 40
1.0
 40
1.0
 40
1.0
 40
1.0
 10
89.5159023391
 20
175.3212311073
 30
0.0
 10
89.5159183518
 20
175.3407538697
 30
0.0
 10
89.528591669
 20
175.3826749806
 30
0.0
 10
89.5771893116
 20
175.43075831
 30
0.0
 10
89.6454598824
 20
175.4614712597
 30
0.0
 10
89.6975445793
 20
175.4686044812
 30
0.0
 10
89.7243427305
 20
175.4686044812
 30
0.0
  0
SPLINE
  5
7E7
100
AcDbEntity
  8
0
100
AcDbSpline
 62
7
  6
CONTINUOUS
 70
0
 71
3
 72
18
 73
14
 74
0
 42
0.0000001
 43
0.0000001
 44
0.0000000001
 40
0.0
 40
0.0
 40
0.0
 40
0.0
 40
0.1948074902
 40
0.3820738854
 40
0.5545850299
 40
0.7059022913
 40
0.830113071
 40
0.8805988218
 40
0.9226304874
 40
0.9557405006
 40
0.979703701
 40
0.9943926671
 40
1.0
 40
1.0
 40
1.0
 40
1.0
 10
69.4555349015
 20
41.480969766
 30
0.0
 10
69.4533898199
 20
41.4160290484
 30
0.0
 10
69.4495406063
 20
41.2886487297
 30
0.0
 10
69.4450110971
 20
41.1037294752
 30
0.0
 10
69.4419477459
 20
40.9332759339
 30
0.0
 10
69.4404388921
 20
40.7838697661
 30
0.0
 10
69.4404719954
 20
40.6750615666
 30
0.0
 10
69.4414942926
 20
40.6028839378
 30
0.0
 10
69.4425571144
 20
40.5607688365
 30
0.0
 10
69.4440906635
 20
40.5283375298
 30
0.0
 10
69.4456796732
 20
40.5030903536
 30
0.0
 10
69.4479193202
 20
40.4909328772
 30
0.0
 10
69.4494061303
 20
40.4815775571
 30
0.0
 10
69.4512753801
 20
40.4815157588
 30
0.0
  0
SPLINE
  5
7E8
100
AcDbEntity
  8
0
100
AcDbSpline
 62
7
  6
CONTINUOUS
 70
0
 71
3
 72
11
 73
7
 74
0
 42
0.0000001
 43
0.0000001
 44
0.0000000001
 40
0.0
 40
0.0
 40
0.0
 40
0.0
 40
0.294721638
 40
0.5593889089
 40
0.7910513973
 40
1.0
 40
1.0
 40
1.0
 40
1.0
 10
32.568763917
 20
100.5163194692
 30
0.0
 10
32.5429298055
 20
100.4252970984
 30
0.0
 10
32.5111436316
 20
100.2467465261
 30
0.0
 10
32.529192798
 20
99.9903045313
 30
0.0
 10
32.6163536439
 20
99.7759109076
 30
0.0
 10
32.7237021089
 20
99.6749562523
 30
0.0
 10
32.7823293841
 20
99.6423573027
 30
0.0
  0
SPLINE
  5
7E9
100
AcDbEntity
  8
0
100
AcDbSpline
 62
7
  6
CONTINUOUS
 70
0
 71
3
 72
9
 73
5
 74
0
 42
0.0000001
 43
0.0000001
 44
0.0000000001
 40
0.0
 40
0.0
 40
0.0
 40
0.0
 40
0.2464586822
 40
1.0
 40
1.0
 40
1.0
 40
1.0
 10
66.3024390252
 20
40.4599319197
 30
0.0
 10
64.4896203087
 20
40.5076978451
 30
0.0
 10
57.1340737989
 20
40.6984872993
 30
0.0
 10
49.7782365091
 20
40.878002428
 30
0.0
 10
44.2351895998
 20
41.0080414237
 30
0.0
  0
SPLINE
  5
7EA
100
AcDbEntity
  8
0
100
AcDbSpline
 62
7
  6
CONTINUOUS
 70
0
 71
3
 72
11
 73
7
 74
0
 42
0.0000001
 43
0.0000001
 44
0.0000000001
 40
0.0
 40
0.0
 40
0.0
 40
0.0
 40
0.0946429515
 40
0.2338048045
 40
0.4469450794
 40
1.0
 40
1.0
 40
1.0
 40
1.0
 10
68.051057621
 20
40.5278237051
 30
0.0
 10
67.9958669143
 20
40.5296427565
 30
0.0
 10
67.8593381309
 20
40.5255815339
 30
0.0
 10
67.5992605607
 20
40.5070038684
 30
0.0
 10
67.0726911535
 20
40.4655447265
 30
0.0
 10
66.6250148157
 20
40.4514237237
 30
0.0
 10
66.3024396079
 20
40.4599235756
 30
0.0
  0
SPLINE
  5
7EB
100
AcDbEntity
  8
0
100
AcDbSpline
 62
7
  6
CONTINUOUS
 70
0
 71
3
 72
15
 73
11
 74
0
 42
0.0000001
 43
0.0000001
 44
0.0000000001
 40
0.0
 40
0.0
 40
0.0
 40
0.0
 40
0.1081636785
 40
0.2194546552
 40
0.3351798396
 40
0.456102931
 40
0.583083598
 40
0.7167464219
 40
0.8565583547
 40
1.0
 40
1.0
 40
1.0
 40
1.0
 10
42.9903409034
 20
153.273160097
 30
0.0
 10
42.7968244206
 20
153.3559747101
 30
0.0
 10
42.4114331723
 20
153.542123088
 30
0.0
 10
41.8617697537
 20
153.8969848537
 30
0.0
 10
41.3486163022
 20
154.3420324868
 30
0.0
 10
40.8787847047
 20
154.8740908125
 30
0.0
 10
40.4708188167
 20
155.4978973721
 30
0.0
 10
40.1502676687
 20
156.2121031671
 30
0.0
 10
39.9464726691
 20
157.0014697416
 30
0.0
 10
39.9004334434
 20
157.5535795144
 30
0.0
 10
39.8979559879
 20
157.8327132539
 30
0.0
  0
SPLINE
  5
7EC
100
AcDbEntity
  8
0
100
AcDbSpline
 62
7
  6
CONTINUOUS
 70
0
 71
3
 72
9
 73
5
 74
0
 42
0.0000001
 43
0.0000001
 44
0.0000000001
 40
0.0
 40
0.0
 40
0.0
 40
0.0
 40
0.2555575919
 40
1.0
 40
1.0
 40
1.0
 40
1.0
 10
69.4512751076
 20
34.7654447416
 30
0.0
 10
69.480752876
 20
34.7642125611
 30
0.0
 10
69.5961010246
 20
34.7594386965
 30
0.0
 10
69.7114436792
 20
34.7543997141
 30
0.0
 10
69.7972579055
 20
34.749676928
 30
0.0
  0
SPLINE
  5
7ED
100
AcDbEntity
  8
0
100
AcDbSpline
 62
7
  6
CONTINUOUS
 70
0
 71
3
 72
13
 73
9
 74
0
 42
0.0000001
 43
0.0000001
 44
0.0000000001
 40
0.0
 40
0.0
 40
0.0
 40
0.0
 40
0.4088816141
 40
0.7216216659
 40
0.8367443819
 40
0.9221834133
 40
0.9768090372
 40
1.0
 40
1.0
 40
1.0
 40
1.0
 10
70.0229518609
 20
34.7354128512
 30
0.0
 10
70.0769049978
 20
34.7315923427
 30
0.0
 10
70.172082285
 20
34.7243615955
 30
0.0
 10
70.2823727929
 20
34.71463621
 30
0.0
 10
70.3498543999
 20
34.7073806431
 30
0.0
 10
70.3834618641
 20
34.7036580292
 30
0.0
 10
70.4046954472
 20
34.7002231986
 30
0.0
 10
70.415047809
 20
34.6991231388
 30
0.0
 10
70.417935407
 20
34.6980872607
 30
0.0
  0
LINE
  5
7EE
100
AcDbEntity
  8
0
100
AcDbLine
 62
7
  6
CONTINUOUS
 10
70.417935407
 20
34.6980872607
 11
70.4182346631
 21
34.6979110293
  0
SPLINE
  5
7EF
100
AcDbEntity
  8
0
100
AcDbSpline
 62
7
  6
CONTINUOUS
 70
0
 71
3
 72
24
 73
20
 74
0
 42
0.0000001
 43
0.0000001
 44
0.0000000001
 40
0.0
 40
0.0
 40
0.0
 40
0.0
 40
0.1949952957
 40
0.3826473166
 40
0.5554653535
 40
0.634275344
 40
0.7069911861
 40
0.7728799191
 40
0.8313352249
 40
0.8817839265
 40
0.9237305154
 40
0.9413977889
 40
0.9568004442
 40
0.9698933974
 40
0.9806429237
 40
0.9890332022
 40
0.9950516169
 40
0.9986917772
 40
1.0
 40
1.0
 40
1.0
 40
1.0
 10
71.3894534674
 20
37.4980314357
 30
0.0
 10
71.391807563
 20
37.2510260307
 30
0.0
 10
71.3958047629
 20
36.7663110487
 30
0.0
 10
71.4000778091
 20
36.0626697901
 30
0.0
 10
71.402125829
 20
35.5062004522
 30
0.0
 10
71.4026525611
 20
35.09532753
 30
0.0
 10
71.4025161571
 20
34.8199103109
 30
0.0
 10
71.4018621711
 20
34.5702793257
 30
0.0
 10
71.4007042554
 20
34.3488564537
 30
0.0
 10
71.3990500263
 20
34.1577718152
 30
0.0
 10
71.3971984294
 20
34.0183492208
 30
0.0
 10
71.3954057592
 20
33.9233505329
 30
0.0
 10
71.3940448619
 20
33.8648541875
 30
0.0
 10
71.3925532761
 20
33.8152598521
 30
0.0
 10
71.3910674622
 20
33.7741803007
 30
0.0
 10
71.3892556386
 20
33.7430634918
 30
0.0
 10
71.3879892881
 20
33.7186364109
 30
0.0
 10
71.3856347228
 20
33.7077206153
 30
0.0
 10
71.384991783
 20
33.6984725856
 30
0.0
 10
71.3833352301
 20
33.6985200855
 30
0.0
  0
SPLINE
  5
7F0
100
AcDbEntity
  8
0
100
AcDbSpline
 62
7
  6
CONTINUOUS
 70
0
 71
3
 72
11
 73
7
 74
0
 42
0.0000001
 43
0.0000001
 44
0.0000000001
 40
0.0
 40
0.0
 40
0.0
 40
0.0
 40
0.249987374
 40
0.4999346239
 40
0.7499174676
 40
1.0
 40
1.0
 40
1.0
 40
1.0
 10
69.4555348918
 20
41.4809697662
 30
0.0
 10
69.7100771583
 20
41.4725549131
 30
0.0
 10
70.2211844869
 20
41.3558701787
 30
0.0
 10
70.8620557185
 20
40.9070381226
 30
0.0
 10
71.2894195278
 20
40.2516132409
 30
0.0
 10
71.3894534345
 20
39.7368402775
 30
0.0
 10
71.3894534682
 20
39.4820620115
 30
0.0
  0
SPLINE
  5
7F1
100
AcDbEntity
  8
0
100
AcDbSpline
 62
7
  6
CONTINUOUS
 70
0
 71
3
 72
11
 73
7
 74
0
 42
0.0000001
 43
0.0000001
 44
0.0000000001
 40
0.0
 40
0.0
 40
0.0
 40
0.0
 40
0.2500517593
 40
0.5000845453
 40
0.7500735313
 40
1.0
 40
1.0
 40
1.0
 40
1.0
 10
71.3894704637
 20
155.7506590824
 30
0.0
 10
71.3894704545
 20
155.5013530219
 30
0.0
 10
71.2938980725
 20
154.9977190721
 30
0.0
 10
70.8837494817
 20
154.3519268804
 30
0.0
 10
70.2665331215
 20
153.9001444803
 30
0.0
 10
69.7705031177
 20
153.7715276024
 30
0.0
 10
69.5218687036
 20
153.7550300149
 30
0.0
  0
SPLINE
  5
7F2
100
AcDbEntity
  8
0
100
AcDbSpline
 62
7
  6
CONTINUOUS
 70
0
 71
3
 72
12
 73
8
 74
0
 42
0.0000001
 43
0.0000001
 44
0.0000000001
 40
0.0
 40
0.0
 40
0.0
 40
0.0
 40
0.3842432603
 40
0.5505416466
 40
0.7659307277
 40
0.9060378196
 40
1.0
 40
1.0
 40
1.0
 40
1.0
 10
66.3018553231
 20
41.4195404231
 30
0.0
 10
66.4148275211
 20
41.4139727855
 30
0.0
 10
66.577883194
 20
41.4227524603
 30
0.0
 10
66.8001219415
 20
41.4607767289
 30
0.0
 10
66.9500183069
 20
41.4948431655
 30
0.0
 10
67.0793056508
 20
41.5221273602
 30
0.0
 10
67.1484648947
 20
41.5290910555
 30
0.0
 10
67.1760653654
 20
41.5272841296
 30
0.0
  0
SPLINE
  5
7F3
100
AcDbEntity
  8
0
100
AcDbSpline
 62
7
  6
CONTINUOUS
 70
0
 71
3
 72
18
 73
14
 74
0
 42
0.0000001
 43
0.0000001
 44
0.0000000001
 40
0.0
 40
0.0
 40
0.0
 40
0.0
 40
0.0058548069
 40
0.0201961964
 40
0.0438411661
 40
0.0766807731
 40
0.1183837837
 40
0.1685409098
 40
0.292310115
 40
0.4433619751
 40
0.6159785191
 40
0.8039569605
 40
1.0
 40
1.0
 40
1.0
 40
1.0
 10
42.979144361
 20
93.926189082
 30
0.0
 10
42.9777799082
 20
93.9275223558
 30
0.0
 10
42.9816874133
 20
93.9355455356
 30
0.0
 10
42.990743286
 20
93.9442597741
 30
0.0
 10
43.0071049062
 20
93.9618607932
 30
0.0
 10
43.0290791023
 20
93.9845398321
 30
0.0
 10
43.0570525966
 20
94.0142273558
 30
0.0
 10
43.10528737
 20
94.06521321
 30
0.0
 10
43.1781940666
 20
94.1420708003
 30
0.0
 10
43.2790975729
 20
94.2472760539
 30
0.0
 10
43.3959959382
 20
94.3661657661
 30
0.0
 10
43.522159
 20
94.4963977571
 30
0.0
 10
43.609150644
 20
94.5865218711
 30
0.0
 10
43.6564333431
 20
94.6294722558
 30
0.0
  0
SPLINE
  5
7F4
100
AcDbEntity
  8
0
100
AcDbSpline
 62
7
  6
CONTINUOUS
 70
0
 71
3
 72
11
 73
7
 74
0
 42
0.0000001
 43
0.0000001
 44
0.0000000001
 40
0.0
 40
0.0
 40
0.0
 40
0.0
 40
0.3039815739
 40
0.5698363182
 40
0.7975470147
 40
1.0
 40
1.0
 40
1.0
 40
1.0
 10
42.9906291543
 20
94.6294728931
 30
0.0
 10
42.9558975063
 20
94.5622846575
 30
0.0
 10
42.9010188191
 20
94.4304300951
 30
0.0
 10
42.866016984
 20
94.2330811109
 30
0.0
 10
42.8868144996
 20
94.0576724024
 30
0.0
 10
42.9436754129
 20
93.9619573337
 30
0.0
 10
42.9791447025
 20
93.9261894197
 30
0.0
  0
LINE
  5
7F5
100
AcDbEntity
  8
0
100
AcDbLine
 62
7
  6
CONTINUOUS
 10
44.2346140433
 20
92.1479864803
 11
44.2346144177
 21
93.2228796423
  0
SPLINE
  5
7F6
100
AcDbEntity
  8
0
100
AcDbSpline
 62
7
  6
CONTINUOUS
 70
0
 71
3
 72
22
 73
18
 74
0
 42
0.0000001
 43
0.0000001
 44
0.0000000001
 40
0.0
 40
0.0
 40
0.0
 40
0.0
 40
0.0020850986
 40
0.0081638884
 40
0.0179134607
 40
0.0310132314
 40
0.0471454491
 40
0.0660233349
 40
0.1111778497
 40
0.1648472201
 40
0.2254277829
 40
0.2915876741
 40
0.3621737596
 40
0.5123992082
 40
0.6708366261
 40
0.834278763
 40
1.0
 40
1.0
 40
1.0
 40
1.0
 10
43.2682346631
 20
93.222881218
 30
0.0
 10
43.268234662
 20
93.2238858903
 30
0.0
 10
43.2721381757
 20
93.216486119
 30
0.0
 10
43.2761119768
 20
93.2137570614
 30
0.0
 10
43.2856704022
 20
93.2007490584
 30
0.0
 10
43.2974114025
 20
93.187267234
 30
0.0
 10
43.3126895737
 20
93.1693953341
 30
0.0
 10
43.3383684087
 20
93.1407326299
 30
0.0
 10
43.3767221883
 20
93.098836062
 30
0.0
 10
43.4287684843
 20
93.0423994487
 30
0.0
 10
43.4873336151
 20
92.9781452141
 30
0.0
 10
43.5510151071
 20
92.9075476395
 30
0.0
 10
43.6433809596
 20
92.8046483602
 30
0.0
 10
43.7653000852
 20
92.6685324097
 30
0.0
 10
43.9175624773
 20
92.4995275949
 30
0.0
 10
44.0759652113
 20
92.3260165739
 30
0.0
 10
44.1819481869
 20
92.2080128618
 30
0.0
 10
44.2346139745
 20
92.1479931157
 30
0.0
  0
SPLINE
  5
7F7
100
AcDbEntity
  8
0
100
AcDbSpline
 62
7
  6
CONTINUOUS
 70
0
 71
3
 72
11
 73
7
 74
0
 42
0.0000001
 43
0.0000001
 44
0.0000000001
 40
0.0
 40
0.0
 40
0.0
 40
0.0
 40
0.2928271723
 40
0.5574819185
 40
0.7906014438
 40
1.0
 40
1.0
 40
1.0
 40
1.0
 10
42.5395435906
 20
94.9731194573
 30
0.0
 10
42.5146928378
 20
94.8858666822
 30
0.0
 10
42.4832985788
 20
94.7144455151
 30
0.0
 10
42.4964605637
 20
94.4671748046
 30
0.0
 10
42.5724831744
 20
94.2573243283
 30
0.0
 10
42.6687685159
 20
94.1528096903
 30
0.0
 10
42.7226310312
 20
94.1166487752
 30
0.0
  0
SPLINE
  5
7F8
100
AcDbEntity
  8
0
100
AcDbSpline
 62
7
  6
CONTINUOUS
 70
0
 71
3
 72
24
 73
20
 74
0
 42
0.0000001
 43
0.0000001
 44
0.0000000001
 40
0.0
 40
0.0
 40
0.0
 40
0.0
 40
0.0013082305
 40
0.0049483929
 40
0.0109668084
 40
0.0193570874
 40
0.0301066139
 40
0.0431995673
 40
0.0586022228
 40
0.0762694964
 40
0.1182160856
 40
0.1686647873
 40
0.2271200935
 40
0.2930088266
 40
0.3657246685
 40
0.4445346591
 40
0.6173526946
 40
0.8050047095
 40
1.0
 40
1.0
 40
1.0
 40
1.0
 10
71.3833353341
 20
161.5668758112
 30
0.0
 10
71.3849918967
 20
161.5669233118
 30
0.0
 10
71.3856349825
 20
161.5576753274
 30
0.0
 10
71.3879895253
 20
161.5467594726
 30
0.0
 10
71.3892559862
 20
161.5223324221
 30
0.0
 10
71.3910678483
 20
161.4912155998
 30
0.0
 10
71.3925537262
 20
161.450136054
 30
0.0
 10
71.3940453608
 20
161.4005417167
 30
0.0
 10
71.3954063064
 20
161.3420453713
 30
0.0
 10
71.3971990364
 20
161.2470466819
 30
0.0
 10
71.3990506923
 20
161.1076240852
 30
0.0
 10
71.4007049678
 20
160.9165394428
 30
0.0
 10
71.4018629082
 20
160.6951165663
 30
0.0
 10
71.402516897
 20
160.4454855763
 30
0.0
 10
71.4026532816
 20
160.1700683525
 30
0.0
 10
71.4021264927
 20
159.759195425
 30
0.0
 10
71.4000783434
 20
159.2027260869
 30
0.0
 10
71.3958050715
 20
158.4990848334
 30
0.0
 10
71.3918076773
 20
158.0143698587
 30
0.0
 10
71.3894534668
 20
157.7673644571
 30
0.0
  0
SPLINE
  5
7F9
100
AcDbEntity
  8
0
100
AcDbSpline
 62
7
  6
CONTINUOUS
 70
0
 71
3
 72
18
 73
14
 74
0
 42
0.0000001
 43
0.0000001
 44
0.0000000001
 40
0.0
 40
0.0
 40
0.0
 40
0.0
 40
0.194858911
 40
0.3821473486
 40
0.5546588608
 40
0.705962937
 40
0.8301538849
 40
0.8806294948
 40
0.9226520919
 40
0.9557541827
 40
0.9797106944
 40
0.9943950622
 40
1.0
 40
1.0
 40
1.0
 40
1.0
 10
69.5218696404
 20
153.7550474323
 30
0.0
 10
69.5175742373
 20
153.8198361387
 30
0.0
 10
69.5095064271
 20
153.9469210007
 30
0.0
 10
69.4988499692
 20
154.1314354055
 30
0.0
 10
69.4901366016
 20
154.3015329771
 30
0.0
 10
69.4836725137
 20
154.4506525071
 30
0.0
 10
69.4800937143
 20
154.5592830151
 30
0.0
 10
69.4787175179
 20
154.6313724862
 30
0.0
 10
69.4783791369
 20
154.6734501774
 30
0.0
 10
69.4788326034
 20
154.7058755425
 30
0.0
 10
69.4795774104
 20
154.7311308576
 30
0.0
 10
69.4814103334
 20
154.7433403121
 30
0.0
 10
69.48257892
 20
154.7527283096
 30
0.0
 10
69.4844424412
 20
154.7528528621
 30
0.0
  0
SPLINE
  5
7FA
100
AcDbEntity
  8
0
100
AcDbSpline
 62
7
  6
CONTINUOUS
 70
0
 71
3
 72
18
 73
14
 74
0
 42
0.0000001
 43
0.0000001
 44
0.0000000001
 40
0.0
 40
0.0
 40
0.0
 40
0.0
 40
0.1947347308
 40
0.3823077823
 40
0.554926927
 40
0.7062096825
 40
0.8304552756
 40
0.8808531226
 40
0.9228133912
 40
0.9559188436
 40
0.9798411117
 40
0.9944644187
 40
1.0
 40
1.0
 40
1.0
 40
1.0
 10
68.2394534675
 20
153.6717783676
 30
0.0
 10
68.2353071411
 20
153.7365352073
 30
0.0
 10
68.2277551806
 20
153.8637058676
 30
0.0
 10
68.2179126066
 20
154.0483540293
 30
0.0
 10
68.2097025989
 20
154.2186000588
 30
0.0
 10
68.2036839989
 20
154.3677842958
 30
0.0
 10
68.2003894896
 20
154.4764102071
 30
0.0
 10
68.1991754443
 20
154.5484713616
 30
0.0
 10
68.1989032271
 20
154.5905091574
 30
0.0
 10
68.1993884599
 20
154.6228879145
 30
0.0
 10
68.2000783429
 20
154.6481455338
 30
0.0
 10
68.2019210729
 20
154.6602533954
 30
0.0
 10
68.202969549
 20
154.6696480329
 30
0.0
 10
68.2048104
 20
154.6697650211
 30
0.0
  0
SPLINE
  5
7FB
100
AcDbEntity
  8
0
100
AcDbSpline
 62
7
  6
CONTINUOUS
 70
0
 71
3
 72
13
 73
9
 74
0
 42
0.0000001
 43
0.0000001
 44
0.0000000001
 40
0.0
 40
0.0
 40
0.0
 40
0.0
 40
0.0193920545
 40
0.0764455479
 40
0.1689951613
 40
0.2935010526
 40
0.6178189394
 40
1.0
 40
1.0
 40
1.0
 40
1.0
 10
40.1044561807
 20
158.8530452096
 30
0.0
 10
40.1081340345
 20
158.8476815742
 30
0.0
 10
40.1194471481
 20
158.8245597367
 30
0.0
 10
40.148176109
 20
158.7757604332
 30
0.0
 10
40.1923356931
 20
158.6950916564
 30
0.0
 10
40.2815864703
 20
158.5370035671
 30
0.0
 10
40.4151592745
 20
158.2923769587
 30
0.0
 10
40.5346424657
 20
158.0877305334
 30
0.0
 10
40.6004240844
 20
157.9777275097
 30
0.0
  0
SPLINE
  5
7FC
100
AcDbEntity
  8
0
100
AcDbSpline
 62
7
  6
CONTINUOUS
 70
0
 71
3
 72
10
 73
6
 74
0
 42
0.0000001
 43
0.0000001
 44
0.0000000001
 40
0.0
 40
0.0
 40
0.0
 40
0.0
 40
0.2500000118
 40
0.6250002194
 40
1.0
 40
1.0
 40
1.0
 40
1.0
 10
40.6004240844
 20
157.9777275097
 30
0.0
 10
40.8459551521
 20
158.1147572377
 30
0.0
 10
41.4595466135
 20
158.4577548995
 30
0.0
 10
42.4427377291
 20
159.0039641665
 30
0.0
 10
43.1771929079
 20
159.4188785546
 30
0.0
 10
43.5438209419
 20
159.6273842517
 30
0.0
  0
LINE
  5
7FD
100
AcDbEntity
  8
0
100
AcDbLine
 62
7
  6
CONTINUOUS
 10
69.484440647
 20
160.5022674528
 11
67.2409791227
 21
160.4237582265
  0
SPLINE
  5
7FE
100
AcDbEntity
  8
0
100
AcDbSpline
 62
7
  6
CONTINUOUS
 70
0
 71
3
 72
11
 73
7
 74
0
 42
0.0000001
 43
0.0000001
 44
0.0000000001
 40
0.0
 40
0.0
 40
0.0
 40
0.0
 40
0.2531495656
 40
0.5021503697
 40
0.7510939867
 40
1.0
 40
1.0
 40
1.0
 40
1.0
 10
43.689700167
 20
154.1945425136
 30
0.0
 10
45.5962930999
 20
154.1733805498
 30
0.0
 10
49.3784765895
 20
154.1400972798
 30
0.0
 10
55.0357148187
 20
154.210055632
 30
0.0
 10
60.6582833815
 20
154.3927450931
 30
0.0
 10
64.4038283419
 20
154.5734663146
 30
0.0
 10
66.2758856308
 20
154.6738759374
 30
0.0
  0
SPLINE
  5
7FF
100
AcDbEntity
  8
0
100
AcDbSpline
 62
7
  6
CONTINUOUS
 70
0
 71
3
 72
13
 73
9
 74
0
 42
0.0000001
 43
0.0000001
 44
0.0000000001
 40
0.0
 40
0.0
 40
0.0
 40
0.0
 40
0.1384755025
 40
0.2689963058
 40
0.394486002
 40
0.5172388479
 40
0.7591107824
 40
1.0
 40
1.0
 40
1.0
 40
1.0
 10
40.5974580134
 20
157.8327231965
 30
0.0
 10
40.5974621996
 20
157.5976913007
 30
0.0
 10
40.6505014126
 20
157.1394642247
 30
0.0
 10
40.8698645223
 20
156.5022741056
 30
0.0
 10
41.1930147955
 20
155.9424239305
 30
0.0
 10
41.7250539654
 20
155.2989195606
 30
0.0
 10
42.5468565016
 20
154.6602454115
 30
0.0
 10
43.3013197172
 20
154.3223540301
 30
0.0
 10
43.6896863585
 20
154.1945446915
 30
0.0
  0
SPLINE
  5
800
100
AcDbEntity
  8
0
100
AcDbSpline
 62
7
  6
CONTINUOUS
 70
0
 71
3
 72
9
 73
5
 74
0
 42
0.0000001
 43
0.0000001
 44
0.0000000001
 40
0.0
 40
0.0
 40
0.0
 40
0.0
 40
0.2531051184
 40
1.0
 40
1.0
 40
1.0
 40
1.0
 10
44.2346138618
 20
41.9284234054
 30
0.0
 10
46.0964496957
 20
41.8880931354
 30
0.0
 10
53.4523776106
 20
41.7264347836
 30
0.0
 10
60.8080909742
 20
41.5548977169
 30
0.0
 10
66.3018552107
 20
41.4195352508
 30
0.0
  0
SPLINE
  5
801
100
AcDbEntity
  8
0
100
AcDbSpline
 62
7
  6
CONTINUOUS
 70
0
 71
3
 72
9
 73
5
 74
0
 42
0.0000001
 43
0.0000001
 44
0.0000000001
 40
0.0
 40
0.0
 40
0.0
 40
0.0
 40
0.4999057393
 40
1.0
 40
1.0
 40
1.0
 40
1.0
 10
43.6565029378
 20
94.6295422184
 30
0.0
 10
43.8381643314
 20
94.4458831057
 30
0.0
 10
44.132544514
 20
94.0031156583
 30
0.0
 10
44.2347118831
 20
93.4813015295
 30
0.0
 10
44.2347114463
 20
93.2228796422
 30
0.0
  0
SPLINE
  5
802
100
AcDbEntity
  8
0
100
AcDbSpline
 62
7
  6
CONTINUOUS
 70
0
 71
3
 72
11
 73
7
 74
0
 42
0.0000001
 43
0.0000001
 44
0.0000000001
 40
0.0
 40
0.0
 40
0.0
 40
0.0
 40
0.2487891103
 40
0.4978187219
 40
0.7470045548
 40
1.0
 40
1.0
 40
1.0
 40
1.0
 10
66.301859245
 20
153.7129981383
 30
0.0
 10
64.4257030321
 20
153.6145104548
 30
0.0
 10
60.6704372527
 20
153.4377962605
 30
0.0
 10
55.0318187355
 20
153.2627232771
 30
0.0
 10
49.358841314
 20
153.2032479602
 30
0.0
 10
45.5666757759
 20
153.2464303766
 30
0.0
 10
43.6563581525
 20
153.2730972873
 30
0.0
  0
SPLINE
  5
803
100
AcDbEntity
  8
0
100
AcDbSpline
 62
7
  6
CONTINUOUS
 70
0
 71
3
 72
17
 73
13
 74
0
 42
0.0000001
 43
0.0000001
 44
0.0000000001
 40
0.0
 40
0.0
 40
0.0
 40
0.0
 40
0.0080448761
 40
0.0237325422
 40
0.0482043576
 40
0.0815604618
 40
0.1740732295
 40
0.2978532957
 40
0.448443997
 40
0.620030994
 40
0.8062600197
 40
1.0
 40
1.0
 40
1.0
 40
1.0
 10
69.5157468712
 20
161.5016581852
 30
0.0
 10
69.5130530621
 20
161.5015641152
 30
0.0
 10
69.5070951588
 20
161.4942185288
 30
0.0
 10
69.5026084739
 20
161.4794305322
 30
0.0
 10
69.4971187004
 20
161.4550231371
 30
0.0
 10
69.490276618
 20
161.4052896822
 30
0.0
 10
69.4836135621
 20
161.3217252957
 30
0.0
 10
69.4784227641
 20
161.1989629577
 30
0.0
 10
69.475762177
 20
161.0495319441
 30
0.0
 10
69.4757830072
 20
160.8791901546
 30
0.0
 10
69.4785836822
 20
160.6944031586
 30
0.0
 10
69.482185209
 20
160.567141188
 30
0.0
 10
69.4844407203
 20
160.5022674345
 30
0.0
  0
SPLINE
  5
804
100
AcDbEntity
  8
0
100
AcDbSpline
 62
7
  6
CONTINUOUS
 70
0
 71
3
 72
17
 73
13
 74
0
 42
0.0000001
 43
0.0000001
 44
0.0000000001
 40
0.0
 40
0.0
 40
0.0
 40
0.0
 40
0.0075979861
 40
0.023076184
 40
0.0474649414
 40
0.0808329435
 40
0.1733026914
 40
0.2972277306
 40
0.4478621137
 40
0.6196231615
 40
0.8062382441
 40
1.0
 40
1.0
 40
1.0
 40
1.0
 10
67.2682344968
 20
161.4231733239
 30
0.0
 10
67.2656926278
 20
161.4230844424
 30
0.0
 10
67.2602702432
 20
161.4154822601
 30
0.0
 10
67.2562871458
 20
161.401015754
 30
0.0
 10
67.2512884767
 20
161.3765237914
 30
0.0
 10
67.2451730243
 20
161.3268445551
 30
0.0
 10
67.2392193488
 20
161.2432292551
 30
0.0
 10
67.234766266
 20
161.1205206977
 30
0.0
 10
67.2326129885
 20
160.9710905706
 30
0.0
 10
67.2329952997
 20
160.8007038842
 30
0.0
 10
67.2359293768
 20
160.6158913446
 30
0.0
 10
67.2394848597
 20
160.4886072524
 30
0.0
 10
67.2416756575
 20
160.4237825987
 30
0.0
  0
SPLINE
  5
805
100
AcDbEntity
  8
0
100
AcDbSpline
 62
7
  6
CONTINUOUS
 70
0
 71
3
 72
12
 73
8
 74
0
 42
0.0000001
 43
0.0000001
 44
0.0000000001
 40
0.0
 40
0.0
 40
0.0
 40
0.0
 40
0.1700343178
 40
0.406476113
 40
0.543717745
 40
0.6903372835
 40
1.0
 40
1.0
 40
1.0
 40
1.0
 10
67.1762070285
 20
153.6601171405
 30
0.0
 10
67.1264552142
 20
153.6608726503
 30
0.0
 10
67.0074471884
 20
153.667265377
 30
0.0
 10
66.8504309151
 20
153.6938232213
 30
0.0
 10
66.6995029748
 20
153.7142367912
 30
0.0
 10
66.525967275
 20
153.7247837703
 30
0.0
 10
66.3922458808
 20
153.7194809819
 30
0.0
 10
66.3018553517
 20
153.7130735467
 30
0.0
  0
SPLINE
  5
806
100
AcDbEntity
  8
0
100
AcDbSpline
 62
7
  6
CONTINUOUS
 70
0
 71
3
 72
12
 73
8
 74
0
 42
0.0000001
 43
0.0000001
 44
0.0000000001
 40
0.0
 40
0.0
 40
0.0
 40
0.0
 40
0.0862649615
 40
0.1905632262
 40
0.4359278436
 40
0.7109831282
 40
1.0
 40
1.0
 40
1.0
 40
1.0
 10
68.0211366539
 20
154.6581274073
 30
0.0
 10
67.9710314357
 20
154.654962355
 30
0.0
 10
67.8600016636
 20
154.6543173605
 30
0.0
 10
67.606461289
 20
154.6626363642
 30
0.0
 10
67.2433235547
 20
154.6811687115
 30
0.0
 10
66.7722507768
 20
154.6916627985
 30
0.0
 10
66.4438923246
 20
154.6829545573
 30
0.0
 10
66.2759326594
 20
154.6738906287
 30
0.0
  0
SPLINE
  5
807
100
AcDbEntity
  8
0
100
AcDbSpline
 62
7
  6
CONTINUOUS
 70
0
 71
3
 72
11
 73
7
 74
0
 42
0.0000001
 43
0.0000001
 44
0.0000000001
 40
0.0
 40
0.0
 40
0.0
 40
0.0
 40
0.2609827064
 40
0.5151633219
 40
0.7606260195
 40
1.0
 40
1.0
 40
1.0
 40
1.0
 10
67.1764910693
 20
153.6998115514
 30
0.0
 10
67.1795660969
 20
153.8210424718
 30
0.0
 10
67.2257149612
 20
154.0614243373
 30
0.0
 10
67.4098376761
 20
154.3716207457
 30
0.0
 10
67.6858049987
 20
154.5895230806
 30
0.0
 10
67.9101287978
 20
154.6511152764
 30
0.0
 10
68.0211366104
 20
154.6581274046
 30
0.0
  0
SPLINE
  5
808
100
AcDbEntity
  8
0
100
AcDbSpline
 62
7
  6
CONTINUOUS
 70
0
 71
3
 72
11
 73
7
 74
0
 42
0.0000001
 43
0.0000001
 44
0.0000000001
 40
0.0
 40
0.0
 40
0.0
 40
0.0
 40
0.3306495934
 40
0.6269159117
 40
0.8575020099
 40
1.0
 40
1.0
 40
1.0
 40
1.0
 10
66.3018592431
 20
153.7129981382
 30
0.0
 10
66.2963102324
 20
153.8188213127
 30
0.0
 10
66.2869289298
 20
154.0195144461
 30
0.0
 10
66.276838128
 20
154.2941895851
 30
0.0
 10
66.2730613754
 20
154.5086070705
 30
0.0
 10
66.2729067572
 20
154.6283101481
 30
0.0
 10
66.2759321737
 20
154.6738784338
 30
0.0
  0
SPLINE
  5
809
100
AcDbEntity
  8
0
100
AcDbSpline
 62
7
  6
CONTINUOUS
 70
0
 71
3
 72
10
 73
6
 74
0
 42
0.0000001
 43
0.0000001
 44
0.0000000001
 40
0.0
 40
0.0
 40
0.0
 40
0.0
 40
0.5997648464
 40
0.8350610114
 40
1.0
 40
1.0
 40
1.0
 40
1.0
 10
43.6563590771
 20
153.2731581503
 30
0.0
 10
43.658929399
 20
153.4574949538
 30
0.0
 10
43.6644694089
 20
153.7141563067
 30
0.0
 10
43.6775828009
 20
154.02124301
 30
0.0
 10
43.6850383699
 20
154.1440803222
 30
0.0
 10
43.6897688406
 20
154.1945578224
 30
0.0
  0
SPLINE
  5
80A
100
AcDbEntity
  8
0
100
AcDbSpline
 62
7
  6
CONTINUOUS
 70
0
 71
3
 72
10
 73
6
 74
0
 42
0.0000001
 43
0.0000001
 44
0.0000000001
 40
0.0
 40
0.0
 40
0.0
 40
0.0
 40
0.2673488264
 40
0.6580667128
 40
1.0
 40
1.0
 40
1.0
 40
1.0
 10
42.9906477094
 20
153.2731588938
 30
0.0
 10
43.0126074141
 20
153.3774901975
 30
0.0
 10
43.0960111598
 20
153.6286654091
 30
0.0
 10
43.3165615636
 20
153.9682487664
 30
0.0
 10
43.5616580734
 20
154.1478407592
 30
0.0
 10
43.689768464
 20
154.1945537466
 30
0.0
  0
SPLINE
  5
80B
100
AcDbEntity
  8
0
100
AcDbSpline
 62
7
  6
CONTINUOUS
 70
0
 71
3
 72
9
 73
5
 74
0
 42
0.0000001
 43
0.0000001
 44
0.0000000001
 40
0.0
 40
0.0
 40
0.0
 40
0.0
 40
0.2462909332
 40
1.0
 40
1.0
 40
1.0
 40
1.0
 10
32.7808900767
 20
154.7657155584
 30
0.0
 10
32.7669301073
 20
154.7579212215
 30
0.0
 10
32.7120525696
 20
154.7230801167
 30
0.0
 10
32.6655774848
 20
154.6755281077
 30
0.0
 10
32.6369947369
 20
154.6358161454
 30
0.0
  0
SPLINE
  5
80C
100
AcDbEntity
  8
0
100
AcDbSpline
 62
7
  6
CONTINUOUS
 70
0
 71
3
 72
18
 73
14
 74
0
 42
0.0000001
 43
0.0000001
 44
0.0000000001
 40
0.0
 40
0.0
 40
0.0
 40
0.0
 40
0.1947134413
 40
0.3823577451
 40
0.5551602617
 40
0.706606301
 40
0.8308845508
 40
0.8812146814
 40
0.9230619768
 40
0.9560304299
 40
0.979802791
 40
0.9943060169
 40
1.0
 40
1.0
 40
1.0
 40
1.0
 10
69.4512753689
 20
34.7654448106
 30
0.0
 10
69.4537298132
 20
34.7005105902
 30
0.0
 10
69.4577541979
 20
34.5729688693
 30
0.0
 10
69.4622599483
 20
34.387755146
 30
0.0
 10
69.4654436334
 20
34.2169441011
 30
0.0
 10
69.4668229082
 20
34.0672878312
 30
0.0
 10
69.4664399732
 20
33.9584119787
 30
0.0
 10
69.4649789927
 20
33.8862806396
 30
0.0
 10
69.4635044869
 20
33.8443405262
 30
0.0
 10
69.4617859833
 20
33.8120081281
 30
0.0
 10
69.4595495136
 20
33.7871141803
 30
0.0
 10
69.4576186449
 20
33.7747742087
 30
0.0
 10
69.4550332249
 20
33.7658578751
 30
0.0
 10
69.4531341624
 20
33.7659241919
 30
0.0
  0
SPLINE
  5
80D
100
AcDbEntity
  8
0
100
AcDbSpline
 62
7
  6
CONTINUOUS
 70
0
 71
3
 72
18
 73
14
 74
0
 42
0.0000001
 43
0.0000001
 44
0.0000000001
 40
0.0
 40
0.0
 40
0.0
 40
0.0
 40
0.0058130141
 40
0.0205366479
 40
0.0445101285
 40
0.0776411804
 40
0.1196105708
 40
0.1700054279
 40
0.2942166291
 40
0.4454342124
 40
0.617959766
 40
0.8054112866
 40
1.0
 40
1.0
 40
1.0
 40
1.0
 10
67.2675352821
 20
33.8422460041
 30
0.0
 10
67.2655969036
 20
33.8423109718
 30
0.0
 10
67.2634132553
 20
33.8513786332
 30
0.0
 10
67.2611297071
 20
33.8638776318
 30
0.0
 10
67.2590031899
 20
33.8889551476
 30
0.0
 10
67.2572161745
 20
33.9214458811
 30
0.0
 10
67.2558150843
 20
33.9634920532
 30
0.0
 10
67.2544176405
 20
34.0356481296
 30
0.0
 10
67.2540453694
 20
34.144418655
 30
0.0
 10
67.2553269998
 20
34.293848185
 30
0.0
 10
67.258364876
 20
34.4643871126
 30
0.0
 10
67.2630392633
 20
34.6493535655
 30
0.0
 10
67.2671068751
 20
34.7767550744
 30
0.0
 10
67.2693925619
 20
34.8416378369
 30
0.0
  0
SPLINE
  5
80E
100
AcDbEntity
  8
0
100
AcDbSpline
 62
7
  6
CONTINUOUS
 70
0
 71
3
 72
18
 73
14
 74
0
 42
0.0000001
 43
0.0000001
 44
0.0000000001
 40
0.0
 40
0.0
 40
0.0
 40
0.0
 40
0.0058015611
 40
0.0205237015
 40
0.0444978506
 40
0.0776300369
 40
0.1196002197
 40
0.1699958478
 40
0.2942073362
 40
0.4454250276
 40
0.6179539009
 40
0.8054112678
 40
1.0
 40
1.0
 40
1.0
 40
1.0
 10
44.2347369547
 20
34.6142251882
 30
0.0
 10
44.2328023585
 20
34.6142900291
 30
0.0
 10
44.2306508386
 20
34.6233708421
 30
0.0
 10
44.2283497752
 20
34.6358501783
 30
0.0
 10
44.2262190822
 20
34.6609357774
 30
0.0
 10
44.2243978941
 20
34.6934224323
 30
0.0
 10
44.2229527722
 20
34.7354701861
 30
0.0
 10
44.2214668355
 20
34.8076258021
 30
0.0
 10
44.2209479444
 20
34.9163985095
 30
0.0
 10
44.2220107273
 20
35.0658336302
 30
0.0
 10
44.2247840387
 20
35.2363834353
 30
0.0
 10
44.2291653675
 20
35.4213636241
 30
0.0
 10
44.2330215004
 20
35.5487760573
 30
0.0
 10
44.2351939424
 20
35.613663954
 30
0.0
  0
SPLINE
  5
80F
100
AcDbEntity
  8
0
100
AcDbSpline
 62
7
  6
CONTINUOUS
 70
0
 71
3
 72
11
 73
7
 74
0
 42
0.0000001
 43
0.0000001
 44
0.0000000001
 40
0.0
 40
0.0
 40
0.0
 40
0.0
 40
0.2947716301
 40
0.5594476166
 40
0.791090356
 40
1.0
 40
1.0
 40
1.0
 40
1.0
 10
39.8980980529
 20
157.982965414
 30
0.0
 10
39.8721935979
 20
158.0738574684
 30
0.0
 10
39.8402181357
 20
158.2521517446
 30
0.0
 10
39.8578771013
 20
158.5082975018
 30
0.0
 10
39.9445717038
 20
158.7225346865
 30
0.0
 10
40.0515891153
 20
158.8235317416
 30
0.0
 10
40.1100726499
 20
158.8561851093
 30
0.0
  0
SPLINE
  5
810
100
AcDbEntity
  8
0
100
AcDbSpline
 62
7
  6
CONTINUOUS
 70
0
 71
3
 72
9
 73
5
 74
0
 42
0.0000001
 43
0.0000001
 44
0.0000000001
 40
0.0
 40
0.0
 40
0.0
 40
0.0
 40
0.2381557366
 40
1.0
 40
1.0
 40
1.0
 40
1.0
 10
32.6369947369
 20
154.6358161454
 30
0.0
 10
32.6265482509
 20
154.6212987082
 30
0.0
 10
32.5860281315
 20
154.5579448468
 30
0.0
 10
32.558885672
 20
154.4865164006
 30
0.0
 10
32.5449462671
 20
154.4310264735
 30
0.0
  0
SPLINE
  5
811
100
AcDbEntity
  8
0
100
AcDbSpline
 62
7
  6
CONTINUOUS
 70
0
 71
3
 72
9
 73
5
 74
0
 42
0.0000001
 43
0.0000001
 44
0.0000000001
 40
0.0
 40
0.0
 40
0.0
 40
0.0
 40
0.229761795
 40
1.0
 40
1.0
 40
1.0
 40
1.0
 10
32.5449462671
 20
154.4310264735
 30
0.0
 10
32.5348205511
 20
154.3907180634
 30
0.0
 10
32.5058259582
 20
154.2115079352
 30
0.0
 10
32.5307331594
 20
154.0264551021
 30
0.0
 10
32.5689236172
 20
153.8924658928
 30
0.0
  0
SPLINE
  5
812
100
AcDbEntity
  8
0
100
AcDbSpline
 62
7
  6
CONTINUOUS
 70
0
 71
3
 72
10
 73
6
 74
0
 42
0.0000001
 43
0.0000001
 44
0.0000000001
 40
0.0
 40
0.0
 40
0.0
 40
0.0
 40
0.1651203341
 40
0.4004246531
 40
1.0
 40
1.0
 40
1.0
 40
1.0
 10
44.2351918312
 20
41.0080399423
 30
0.0
 10
44.2322761592
 20
41.058621393
 30
0.0
 10
44.2292074554
 20
41.1814883797
 30
0.0
 10
44.2270462682
 20
41.4883086422
 30
0.0
 10
44.2306343486
 20
41.7444985516
 30
0.0
 10
44.2346139659
 20
41.928428811
 30
0.0
  0
SPLINE
  5
813
100
AcDbEntity
  8
0
100
AcDbSpline
 62
7
  6
CONTINUOUS
 70
0
 71
3
 72
12
 73
8
 74
0
 42
0.0000001
 43
0.0000001
 44
0.0000000001
 40
0.0
 40
0.0
 40
0.0
 40
0.0
 40
0.2403096866
 40
0.3629724828
 40
0.4873420399
 40
0.7408834662
 40
1.0
 40
1.0
 40
1.0
 40
1.0
 10
43.2682346631
 20
41.9284288115
 30
0.0
 10
43.2682346631
 20
41.8107631965
 30
0.0
 10
43.3068610778
 20
41.6304583507
 30
0.0
 10
43.4256339847
 20
41.4221989547
 30
0.0
 10
43.5870886092
 20
41.2358009198
 30
0.0
 10
43.8565959805
 20
41.0640986872
 30
0.0
 10
44.1083761432
 20
41.0119020207
 30
0.0
 10
44.2351916077
 20
41.0080409243
 30
0.0
  0
SPLINE
  5
814
100
AcDbEntity
  8
0
100
AcDbSpline
 62
7
  6
CONTINUOUS
 70
0
 71
3
 72
11
 73
7
 74
0
 42
0.0000001
 43
0.0000001
 44
0.0000000001
 40
0.0
 40
0.0
 40
0.0
 40
0.0
 40
0.3293596517
 40
0.6248376384
 40
0.8562411416
 40
1.0
 40
1.0
 40
1.0
 40
1.0
 10
66.3018553599
 20
41.4195410401
 30
0.0
 10
66.2992591121
 20
41.3141963502
 30
0.0
 10
66.2954302798
 20
41.114324004
 30
0.0
 10
66.2930366433
 20
40.8403467682
 30
0.0
 10
66.2950452642
 20
40.6258472462
 30
0.0
 10
66.298266262
 20
40.5057362541
 30
0.0
 10
66.3024332674
 20
40.4599306041
 30
0.0
  0
SPLINE
  5
815
100
AcDbEntity
  8
0
100
AcDbSpline
 62
7
  6
CONTINUOUS
 70
0
 71
3
 72
11
 73
7
 74
0
 42
0.0000001
 43
0.0000001
 44
0.0000000001
 40
0.0
 40
0.0
 40
0.0
 40
0.0
 40
0.261004347
 40
0.5153524146
 40
0.7608247871
 40
1.0
 40
1.0
 40
1.0
 40
1.0
 10
67.1765383941
 20
41.4918843751
 30
0.0
 10
67.179846152
 20
41.3679331636
 30
0.0
 10
67.2282731445
 20
41.1220979463
 30
0.0
 10
67.4201694909
 20
40.8067361382
 30
0.0
 10
67.7063940891
 20
40.5886960846
 30
0.0
 10
67.9374991063
 20
40.5315591996
 30
0.0
 10
68.0510620397
 20
40.5278049468
 30
0.0
  0
SPLINE
  5
816
100
AcDbEntity
  8
0
100
AcDbSpline
 62
7
  6
CONTINUOUS
 70
0
 71
3
 72
18
 73
14
 74
0
 42
0.0000001
 43
0.0000001
 44
0.0000000001
 40
0.0
 40
0.0
 40
0.0
 40
0.0
 40
0.0055840577
 40
0.0202295759
 40
0.0441664197
 40
0.0772819684
 40
0.1192493275
 40
0.169652469
 40
0.2939028918
 40
0.4451821134
 40
0.617786757
 40
0.8053271426
 40
1.0
 40
1.0
 40
1.0
 40
1.0
 10
68.2351939493
 20
40.5217179059
 30
0.0
 10
68.2333324537
 20
40.5217794478
 30
0.0
 10
68.2318385901
 20
40.5310966025
 30
0.0
 10
68.2295987814
 20
40.5432321091
 30
0.0
 10
68.2280022625
 20
40.5684548881
 30
0.0
 10
68.226471228
 20
40.60085853
 30
0.0
 10
68.2254012705
 20
40.6429258452
 30
0.0
 10
68.2243730558
 20
40.7150680469
 30
0.0
 10
68.2243490194
 20
40.8238494763
 30
0.0
 10
68.225849265
 20
40.9732878222
 30
0.0
 10
68.228925704
 20
41.1438515142
 30
0.0
 10
68.2334575887
 20
41.3288488468
 30
0.0
 10
68.2373098633
 20
41.4562759094
 30
0.0
 10
68.2394534677
 20
41.5211719132
 30
0.0
  0
ENDSEC
  0
SECTION
  2
OBJECTS
  0
DICTIONARY
  5
C
100
AcDbDictionary
280
0
281
1
  3
ACAD_GROUP
350
D
  3
ACAD_MLINESTYLE
350
17
  3
ACAD_LAYOUT
350
1A
  3
ACAD_PLOTSETTINGS
350
19
  3
ACAD_PLOTSTYLENAME
350
E
  0
DICTIONARY
  5
D
102
{ACAD_REACTORS
330
C
102
}
100
AcDbDictionary
280
0
281
1
  0
ACDBDICTIONARYWDFLT
  5
E
102
{ACAD_REACTORS
330
C
102
}
100
AcDbDictionary
281
1
  3
Normal
350
F
100
AcDbDictionaryWithDefault
340
F
  0
DICTIONARY
  5
17
102
{ACAD_REACTORS
330
C
102
}
100
AcDbDictionary
280
0
281
1
  3
Standard
350
18
  0
DICTIONARY
  5
19
102
{ACAD_REACTORS
330
C
102
}
100
AcDbDictionary
281
1
  0
DICTIONARY
  5
1A
102
{ACAD_REACTORS
330
C
102
}
100
AcDbDictionary
281
1
  3
Model
350
817
  3
Layout1
350
818
  0
ACDBPLACEHOLDER
  5
F
102
{ACAD_REACTORS
330
E
102
}
  0
MLINESTYLE
  5
18
102
{ACAD_REACTORS
330
17
102
}
100
AcDbMlineStyle
  2
STANDARD
 70
0
  3

 62
256
 51
90.0
 52
90.0
 71
2
 49
0.5
 62
256
  6
BYLAYER
 49
-0.5
 62
256
  6
BYLAYER
  0
LAYOUT
  5
817
102
{ACAD_REACTORS
330
1A
102
}
100
AcDbPlotSettings
  1

  2
none_device
  4

  6

 40
0.0
 41
0.0
 42
0.0
 43
0.0
 44
210.0
 45
297.0
 46
0.0
 47
0.0
 48
0.0
 49
0.0
140
0.0
141
0.0
142
1.0
143
1.0
 70
1024
 72
1
 73
0
 74
0
  7

 75
0
147
1.0
148
0.0
149
0.0
100
AcDbLayout
  1
Model
 70
0
 71
0
 10
0.0
 20
0.0
 11
210.0
 21
297.0
 12
0.0
 22
0.0
 32
0.0
 14
0.0
 24
0.0
 34
0.0
 15
0.0
 25
0.0
 35
0.0
146
0.0
 13
0.0
 23
0.0
 33
0.0
 16
1.0
 26
0.0
 36
0.0
 17
0.0
 27
1.0
 37
0.0
 76
0
330
210
345
0
346
0
  0
LAYOUT
  5
818
102
{ACAD_REACTORS
330
1A
102
}
100
AcDbPlotSettings
  1

  2
none_device
  4

  6

 40
0.0
 41
0.0
 42
0.0
 43
0.0
 44
210.0
 45
297.0
 46
0.0
 47
0.0
 48
0.0
 49
0.0
140
0.0
141
0.0
142
1.0
143
1.0
 70
0
 72
1
 73
0
 74
0
  7

 75
0
147
1.0
148
0.0
149
0.0
100
AcDbLayout
  1
Layout1
 70
0
 71
1
 10
0.0
 20
0.0
 11
210.0
 21
297.0
 12
0.0
 22
0.0
 32
0.0
 14
0.0
 24
0.0
 34
0.0
 15
0.0
 25
0.0
 35
0.0
146
0.0
 13
0.0
 23
0.0
 33
0.0
 16
1.0
 26
0.0
 36
0.0
 17
0.0
 27
1.0
 37
0.0
 76
0
330
211
345
0
346
0
  0
ENDSEC
  0
EOF
