999
DXF file: C:\Users\sesa63760\Dev\_Creo\CAD\MCADID0003947_3D-CAD\drw0001_1.dxf
999
Pro/ENGINEER 2019471 by Parametric Technology Corporation
  0
SECTION
  2
HEADER
  9
$ACADVER
  1
AC1024
  9
$DWGCODEPAGE
  3
ANSI_1252
  9
$EXTMAX
 10
57.5178913394
 20
81.3467320372
 30
0.0
  9
$EXTMIN
 10
0.0
 20
0.0
 30
0.0
  9
$LIMMIN
 10
0.0
 20
0.0
  9
$LIMMAX
 10
57.5178913394
 20
81.3467320372
  9
$VIEWCTR
 10
28.7589456697
 20
40.6733660186
  9
$VIEWSIZE
 40
81.3467320372
  9
$CLAYER
  8
0
  9
$LTSCALE
 40
5.3026017921
  9
$CELTYPE
  6
BYLAYER
  9
$DIMSCALE
 40
1.0
  9
$DIMASZ
 40
0.6847368017
  9
$DIMEXO
 40
1.0
  9
$DIMDLI
 40
3.6636157836
  9
$DIMEXE
 40
1.0
  9
$DIMCEN
 40
0.8676984751
  9
$DIMLFAC
 40
1.0
  9
$DIMBLK
  1
_FILLED
  9
$DIMALT
 70
0
  9
$DIMALTF
 40
0.0393700787
  9
$DIMTXT
 40
0.9586315223
  9
$DIMTOL
 70
1
  9
$DIMLIM
 70
0
  9
$DIMTFAC
 40
1.0
  9
$DIMTP
 40
0.01
  9
$DIMTM
 40
0.01
  9
$DIMGAP
 40
0.625
  9
$DIMDSEP
 70
46
  9
$AUNITS
 70
0
  9
$PDMODE
 70
3
  9
$PDSIZE
 40
0.3125
  9
$HANDSEED
  5
2DA
  9
$TILEMODE
 70
1
  9
$MEASUREMENT
 70
1
  9
$INSUNITS
 70
4
  0
ENDSEC
  0
SECTION
  2
CLASSES
  0
CLASS
  1
ACDBDICTIONARYWDFLT
  2
AcDbDictionaryWithDefault
  3
AutoCAD 2000
 90
0
 91
1
280
0
281
0
  0
CLASS
  1
ACDBPLACEHOLDER
  2
AcDbPlaceHolder
  3
AutoCAD 2000
 90
0
 91
1
280
0
281
0
  0
CLASS
  1
LAYOUT
  2
AcDbLayout
  3
AutoCAD 2000
 90
0
 91
0
280
0
281
0
  0
ENDSEC
  0
SECTION
  2
TABLES
  0
TABLE
  2
VPORT
  5
8
100
AcDbSymbolTable
 70
2
  0
VPORT
  5
1F4
100
AcDbSymbolTableRecord
100
AcDbViewportTableRecord
  2
*ACTIVE
 70
0
 10
0.0
 20
0.0
 11
1.0
 21
1.0
 12
28.7589456697
 22
40.6733660186
 13
0.0
 23
0.0
 14
1.0
 24
1.0
 15
0.0
 25
0.0
 16
0.0
 26
0.0
 36
1.0
 17
0.0
 27
0.0
 37
0.0
 40
81.3467320372
 41
0.7070707071
 42
50.0
 43
0.0
 44
0.0
 50
0.0
 51
0.0
 71
0
 72
100
 73
1
 74
1
 75
0
 76
0
 77
0
 78
0
  0
ENDTAB
  0
TABLE
  2
LTYPE
  5
5
100
AcDbSymbolTable
 70
6
  0
LTYPE
  5
14
100
AcDbSymbolTableRecord
100
AcDbLinetypeTableRecord
  2
BYBLOCK
 70
0
  3

 72
65
 73
0
 40
0.0
  0
LTYPE
  5
15
100
AcDbSymbolTableRecord
100
AcDbLinetypeTableRecord
  2
BYLAYER
 70
0
  3

 72
65
 73
0
 40
0.0
  0
LTYPE
  5
16
100
AcDbSymbolTableRecord
100
AcDbLinetypeTableRecord
  2
CONTINUOUS
 70
64
  3
Solid line
 72
65
 73
0
 40
0.0
  0
LTYPE
  5
1F5
100
AcDbSymbolTableRecord
100
AcDbLinetypeTableRecord
  2
CENTER
 70
64
  3
____ _ ____ _ ____ _ ____ _ ____ _ ____ _ ____
 72
65
 73
4
 40
0.6
 49
0.375
 74
0
 49
-0.075
 74
0
 49
0.075
 74
0
 49
-0.075
 74
0
  0
LTYPE
  5
1F6
100
AcDbSymbolTableRecord
100
AcDbLinetypeTableRecord
  2
HIDDEN
 70
64
  3
- - - - - - - - - - - - - - - - - - - -
 72
65
 73
2
 40
0.2
 49
0.1
 74
0
 49
-0.1
 74
0
  0
LTYPE
  5
1F7
100
AcDbSymbolTableRecord
100
AcDbLinetypeTableRecord
  2
PHANTOM
 70
64
  3
_____ _ _ _____ _ _ _____ _ _ _____
 72
65
 73
6
 40
0.8
 49
0.45
 74
0
 49
-0.05
 74
0
 49
0.1
 74
0
 49
-0.05
 74
0
 49
0.1
 74
0
 49
-0.05
 74
0
  0
LTYPE
  5
1F8
100
AcDbSymbolTableRecord
100
AcDbLinetypeTableRecord
  2
DOT
 70
64
  3
. . . . . . . . . . . . . . . . . . . .
 72
65
 73
2
 40
0.2
 49
0.1
 74
0
 49
-0.1
 74
0
  0
LTYPE
  5
1F9
100
AcDbSymbolTableRecord
100
AcDbLinetypeTableRecord
  2
DASHED
 70
64
  3
- - - - - - - - - - - - - - - - - - - -
 72
65
 73
2
 40
0.2
 49
0.1
 74
0
 49
-0.1
 74
0
  0
ENDTAB
  0
TABLE
  2
LAYER
  5
2
100
AcDbSymbolTable
 70
36
  0
LAYER
  5
10
100
AcDbSymbolTableRecord
100
AcDbLayerTableRecord
  2
0
 70
0
 62
7
  6
CONTINUOUS
370
-3
390
F
  0
LAYER
  5
1FA
100
AcDbSymbolTableRecord
100
AcDbLayerTableRecord
  2
DEFAULT_1
 70
0
 62
7
  6
CENTER
370
-3
390
F
  0
LAYER
  5
1FB
100
AcDbSymbolTableRecord
100
AcDbLayerTableRecord
  2
DEFAULT_2
 70
0
 62
7
  6
HIDDEN
370
-3
390
F
  0
LAYER
  5
1FC
100
AcDbSymbolTableRecord
100
AcDbLayerTableRecord
  2
DEFAULT_3
 70
0
 62
7
  6
PHANTOM
370
-3
390
F
  0
LAYER
  5
1FD
100
AcDbSymbolTableRecord
100
AcDbLayerTableRecord
  2
00_COMPONENTS
 70
0
 62
7
  6
CONTINUOUS
370
-3
390
F
  0
LAYER
  5
1FE
100
AcDbSymbolTableRecord
100
AcDbLayerTableRecord
  2
01_1_DEFAULT_DATUMS
 70
0
 62
7
  6
CONTINUOUS
370
-3
390
F
  0
LAYER
  5
1FF
100
AcDbSymbolTableRecord
100
AcDbLayerTableRecord
  2
01_PLANES
 70
0
 62
7
  6
CONTINUOUS
370
-3
390
F
  0
LAYER
  5
200
100
AcDbSymbolTableRecord
100
AcDbLayerTableRecord
  2
02_COORD_SYS
 70
0
 62
7
  6
CONTINUOUS
370
-3
390
F
  0
LAYER
  5
201
100
AcDbSymbolTableRecord
100
AcDbLayerTableRecord
  2
03_AXES
 70
0
 62
7
  6
CONTINUOUS
370
-3
390
F
  0
LAYER
  5
202
100
AcDbSymbolTableRecord
100
AcDbLayerTableRecord
  2
04_POINTS
 70
0
 62
7
  6
CONTINUOUS
370
-3
390
F
  0
LAYER
  5
203
100
AcDbSymbolTableRecord
100
AcDbLayerTableRecord
  2
05_CURVES
 70
0
 62
7
  6
CONTINUOUS
370
-3
390
F
  0
LAYER
  5
204
100
AcDbSymbolTableRecord
100
AcDbLayerTableRecord
  2
06_SURFS
 70
0
 62
7
  6
CONTINUOUS
370
-3
390
F
  0
LAYER
  5
205
100
AcDbSymbolTableRecord
100
AcDbLayerTableRecord
  2
07_COSMETICS
 70
0
 62
7
  6
CONTINUOUS
370
-3
390
F
  0
LAYER
  5
206
100
AcDbSymbolTableRecord
100
AcDbLayerTableRecord
  2
10_NOTES
 70
0
 62
7
  6
CONTINUOUS
370
-3
390
F
  0
LAYER
  5
207
100
AcDbSymbolTableRecord
100
AcDbLayerTableRecord
  2
11_NOTES_PUB
 70
0
 62
7
  6
CONTINUOUS
370
-3
390
F
  0
LAYER
  5
208
100
AcDbSymbolTableRecord
100
AcDbLayerTableRecord
  2
13_REF_GTOL
 70
0
 62
7
  6
CONTINUOUS
370
-3
390
F
  0
LAYER
  5
209
100
AcDbSymbolTableRecord
100
AcDbLayerTableRecord
  2
16_MISC
 70
0
 62
7
  6
CONTINUOUS
370
-3
390
F
  0
LAYER
  5
20A
100
AcDbSymbolTableRecord
100
AcDbLayerTableRecord
  2
17_NO_PRINT
 70
0
 62
7
  6
CONTINUOUS
370
-3
390
F
  0
LAYER
  5
20B
100
AcDbSymbolTableRecord
100
AcDbLayerTableRecord
  2
18_DATUM_CAMS_JOINTS
 70
0
 62
7
  6
CONTINUOUS
370
-3
390
F
  0
LAYER
  5
20C
100
AcDbSymbolTableRecord
100
AcDbLayerTableRecord
  2
19_DATUM_FUNCTIONAL
 70
0
 62
7
  6
CONTINUOUS
370
-3
390
F
  0
LAYER
  5
20D
100
AcDbSymbolTableRecord
100
AcDbLayerTableRecord
  2
20_DATUM_KINEMATIC_SCHEME
 70
0
 62
7
  6
CONTINUOUS
370
-3
390
F
  0
ENDTAB
  0
TABLE
  2
STYLE
  5
3
100
AcDbSymbolTable
 70
1
  0
STYLE
  5
11
100
AcDbSymbolTableRecord
100
AcDbTextStyleTableRecord
  2
STANDARD
 70
0
 40
0.0
 41
1.0
 50
0.0
 71
0
 42
0.2
  3
ARIAL.TTF
  4

  0
STYLE
  5
20E
100
AcDbSymbolTableRecord
100
AcDbTextStyleTableRecord
  2
TEXTSTYLE_1
 70
0
 40
0.0
 41
0.8
 50
0.0
 71
0
 42
0.2
  3
gdt
  4

  0
ENDTAB
  0
TABLE
  2
VIEW
  5
6
100
AcDbSymbolTable
 70
0
  0
ENDTAB
  0
TABLE
  2
UCS
  5
7
100
AcDbSymbolTable
 70
0
  0
ENDTAB
  0
TABLE
  2
APPID
  5
9
100
AcDbSymbolTable
 70
1
  0
APPID
  5
20F
100
AcDbSymbolTableRecord
100
AcDbRegAppTableRecord
  2
ACAD
 70
0
  0
ENDTAB
  0
TABLE
  2
BLOCK_RECORD
  5
1
100
AcDbSymbolTable
 70
0
  0
BLOCK_RECORD
  5
210
100
AcDbSymbolTableRecord
100
AcDbBlockTableRecord
  2
*Model_Space
  0
BLOCK_RECORD
  5
211
100
AcDbSymbolTableRecord
100
AcDbBlockTableRecord
  2
*Paper_Space
  0
BLOCK_RECORD
  5
212
100
AcDbSymbolTableRecord
100
AcDbBlockTableRecord
  2
_FILLED
  0
ENDTAB
  0
TABLE
  2
DIMSTYLE
  5
A
100
AcDbSymbolTable
 70
1
100
AcDbDimStyleTable
 71
0
  0
DIMSTYLE
105
213
100
AcDbSymbolTableRecord
100
AcDbDimStyleTableRecord
  2
STANDARD
 70
0
  3

  4

 40
1.0
 41
0.6847368017
 42
1.0
 43
0.38
 44
1.0
 45
0.0
 46
0.0
 47
0.01
 48
0.01
140
0.9586315223
141
0.09
142
0.0
143
25.4
144
1.0
145
0.0
146
1.0
147
0.625
 71
1
 72
0
 73
0
 74
0
 75
0
 76
0
 77
1
 78
8
 79
2
170
0
171
1
172
0
173
0
174
0
175
0
176
0
177
0
178
0
270
2
179
2
271
2
272
2
273
2
274
2
275
0
280
0
281
0
282
0
283
1
284
8
285
0
286
0
287
3
288
0
340
11
278
46
341
212
342
212
343
212
344
212
  0
ENDTAB
  0
ENDSEC
  0
SECTION
  2
BLOCKS
  0
BLOCK
  5
20
100
AcDbEntity
  8
0
100
AcDbBlockBegin
  2
*Model_Space
 70
0
 10
0.0
 20
0.0
 30
0.0
  3
*Model_Space
  1

  0
ENDBLK
  5
21
100
AcDbEntity
  8
0
100
AcDbBlockEnd
  0
BLOCK
  5
1C
100
AcDbEntity
  8
0
100
AcDbBlockBegin
  2
*Paper_Space
 70
0
 10
0.0
 20
0.0
 30
0.0
  3
*Paper_Space
  1

  0
ENDBLK
  5
1D
100
AcDbEntity
  8
0
100
AcDbBlockEnd
  0
BLOCK
  5
214
100
AcDbEntity
  8
0
100
AcDbBlockBegin
  2
_FILLED
 70
64
 10
0.0
 20
0.0
  3
_FILLED
  1

  0
SOLID
  5
215
100
AcDbEntity
  8
0
  6
BYBLOCK
 62
0
100
AcDbTrace
 10
0.0
 20
0.0
 11
-1.0
 21
0.25
 12
-1.0
 22
-0.25
 13
-1.0
 23
-0.25
  0
ENDBLK
  5
216
100
AcDbEntity
  8
0
  6
BYBLOCK
 62
0
100
AcDbBlockEnd
  0
ENDSEC
  0
SECTION
  2
ENTITIES
  0
LWPOLYLINE
  5
217
100
AcDbEntity
  8
0
100
AcDbPolyline
 62
7
  6
BYLAYER
 90
10
 70
0
 10
18.2005180271
 20
26.2231726697
 10
19.8995940724
 20
25.5620377458
 10
21.5063523664
 20
25.6315615802
 10
22.7390004089
 20
26.4596629101
 10
23.1731971624
 20
27.1304375532
 10
23.6227205369
 20
28.894366421
 10
23.4803072886
 20
31.0626574423
 10
22.7616593921
 20
33.3948801144
 10
21.5360899185
 20
35.6556002398
 10
20.7720755997
 20
36.6785634157
  0
LWPOLYLINE
  5
218
100
AcDbEntity
  8
0
100
AcDbPolyline
 62
7
  6
BYLAYER
 90
4
 70
0
 10
12.6978227341
 20
36.7807013884
 10
12.7919769668
 20
37.6258780004
 10
13.6444541054
 20
39.1370298368
 10
14.2692638802
 20
39.6259733484
  0
LWPOLYLINE
  5
219
100
AcDbEntity
  8
0
100
AcDbPolyline
 62
7
  6
BYLAYER
 90
3
 70
0
 10
25.4823300522
 20
27.7977051146
 10
26.3681669669
 20
27.5863994998
 10
28.1432149895
 20
28.0061750833
  0
LINE
  5
21A
100
AcDbEntity
  8
0
100
AcDbLine
 62
7
  6
BYLAYER
 10
18.0583106583
 20
42.5478690535
 11
17.6243314395
 21
41.3948333618
  0
LINE
  5
21B
100
AcDbEntity
  8
0
100
AcDbLine
 62
7
  6
BYLAYER
 10
23.3608428594
 20
50.9427072384
 11
21.1437626678
 21
49.6626830338
  0
LINE
  5
21C
100
AcDbEntity
  8
0
100
AcDbLine
 62
7
  6
BYLAYER
 10
26.8005933223
 20
52.9286362397
 11
29.0176736004
 21
54.2086604944
  0
LINE
  5
21D
100
AcDbEntity
  8
0
100
AcDbLine
 62
7
  6
BYLAYER
 10
19.1432552815
 20
43.5946556139
 11
18.0583106583
 21
42.5478690535
  0
LINE
  5
21E
100
AcDbEntity
  8
0
100
AcDbLine
 62
7
  6
BYLAYER
 10
12.4620831466
 20
36.5663522617
 11
14.0048108415
 21
37.9690964402
  0
LINE
  5
21F
100
AcDbEntity
  8
0
100
AcDbLine
 62
7
  6
BYLAYER
 10
16.8856009388
 20
41.1363851223
 11
16.8789182625
 21
41.1307614705
  0
LINE
  5
220
100
AcDbEntity
  8
0
100
AcDbLine
 62
7
  6
BYLAYER
 10
31.2337846186
 20
51.6460085484
 11
29.0167043417
 21
50.3659842945
  0
LINE
  5
221
100
AcDbEntity
  8
0
100
AcDbLine
 62
7
  6
BYLAYER
 10
34.6735350825
 20
53.6319375503
 11
36.8906152732
 21
54.9119617545
  0
LINE
  5
222
100
AcDbEntity
  8
0
100
AcDbLine
 62
7
  6
BYLAYER
 10
31.7055763974
 20
51.4343665816
 11
29.5247125387
 21
50.1752517616
  0
LINE
  5
223
100
AcDbEntity
  8
0
100
AcDbLine
 62
7
  6
BYLAYER
 10
35.1815432172
 20
53.4412049815
 11
37.3624071149
 21
54.700319824
  0
LINE
  5
224
100
AcDbEntity
  8
0
100
AcDbLine
 62
7
  6
BYLAYER
 10
14.3992883961
 20
38.2576690705
 11
14.0048108415
 21
37.9690964402
  0
LINE
  5
225
100
AcDbEntity
  8
0
100
AcDbLine
 62
7
  6
BYLAYER
 10
41.7213140911
 20
55.7640020234
 11
38.2672450091
 21
53.7698062128
  0
LINE
  5
226
100
AcDbEntity
  8
0
100
AcDbLine
 62
7
  6
BYLAYER
 10
18.9361492058
 20
42.3203847639
 11
16.8781141089
 21
41.1321509286
  0
LINE
  5
227
100
AcDbEntity
  8
0
100
AcDbLine
 62
7
  6
BYLAYER
 10
14.7528403147
 20
38.4617911474
 11
14.3992883961
 21
38.2576690705
  0
LINE
  5
228
100
AcDbEntity
  8
0
100
AcDbLine
 62
7
  6
BYLAYER
 10
16.8902197382
 20
41.1391488189
 11
16.8855560364
 21
41.1364628997
  0
LINE
  5
229
100
AcDbEntity
  8
0
100
AcDbLine
 62
7
  6
BYLAYER
 10
14.2692638802
 20
39.6259733484
 11
16.8211146931
 21
41.0992573677
  0
LINE
  5
22A
100
AcDbEntity
  8
0
100
AcDbLine
 62
7
  6
BYLAYER
 10
16.8847403916
 20
41.1346169436
 11
16.8911267453
 21
41.1380415404
  0
LINE
  5
22B
100
AcDbEntity
  8
0
100
AcDbLine
 62
7
  6
BYLAYER
 10
16.8905550187
 20
41.1385671619
 11
16.8856009388
 21
41.1363851223
  0
LWPOLYLINE
  5
22C
100
AcDbEntity
  8
0
100
AcDbPolyline
 62
7
  6
BYLAYER
 90
3
 70
0
 10
23.597581857
 20
38.3748810637
 10
22.7447542938
 20
39.3040043142
 10
20.9075501192
 20
40.7275182226
  0
LINE
  5
22D
100
AcDbEntity
  8
0
100
AcDbLine
 62
7
  6
BYLAYER
 10
23.597581857
 20
38.3748810637
 11
23.5860954836
 21
38.3887383952
  0
LINE
  5
22E
100
AcDbEntity
  8
0
100
AcDbLine
 62
7
  6
BYLAYER
 10
23.5268714733
 20
38.3340566483
 11
23.5396184471
 21
38.3186316501
  0
LINE
  5
22F
100
AcDbEntity
  8
0
100
AcDbLine
 62
7
  6
BYLAYER
 10
23.5268714733
 20
38.3340566483
 11
23.539048277
 21
38.3177630357
  0
LINE
  5
230
100
AcDbEntity
  8
0
100
AcDbLine
 62
7
  6
BYLAYER
 10
13.8567955203
 20
35.2009286273
 11
14.9589449494
 21
35.9352748887
  0
LINE
  5
231
100
AcDbEntity
  8
0
100
AcDbLine
 62
7
  6
BYLAYER
 10
40.1099497215
 20
52.7432283455
 11
45.2050051872
 21
55.684842431
  0
LINE
  5
232
100
AcDbEntity
  8
0
100
AcDbLine
 62
7
  6
BYLAYER
 10
46.4875860609
 20
54.9443607703
 11
41.2633195519
 21
51.9281470993
  0
LINE
  5
233
100
AcDbEntity
  8
0
100
AcDbLine
 62
7
  6
BYLAYER
 10
16.8148442124
 20
41.0956410147
 11
16.8216476179
 21
41.0983323991
  0
LINE
  5
234
100
AcDbEntity
  8
0
100
AcDbLine
 62
7
  6
BYLAYER
 10
16.8899633316
 20
41.1253576645
 11
16.8967541357
 21
41.1280440638
  0
LINE
  5
235
100
AcDbEntity
  8
0
100
AcDbLine
 62
7
  6
BYLAYER
 10
6.879849118
 20
30.7061366577
 11
13.9508874902
 21
34.7885781964
  0
LWPOLYLINE
  5
236
100
AcDbEntity
  8
0
100
AcDbPolyline
 62
7
  6
BYLAYER
 90
3
 70
0
 10
20.9075501192
 20
40.7275182226
 10
19.068111143
 20
41.4432508836
 10
18.5458814492
 20
41.4206211999
  0
LINE
  5
237
100
AcDbEntity
  8
0
100
AcDbLine
 62
7
  6
BYLAYER
 10
7.8798446411
 20
28.9740832654
 11
14.9508830133
 21
33.0565248041
  0
LINE
  5
238
100
AcDbEntity
  8
0
100
AcDbLine
 62
7
  6
BYLAYER
 10
15.2609414897
 20
32.7688619497
 11
16.4479817579
 21
33.3561720869
  0
LINE
  5
239
100
AcDbEntity
  8
0
100
AcDbLine
 62
7
  6
BYLAYER
 10
39.8234681277
 20
41.3356616984
 11
37.6426042303
 21
40.0765468561
  0
LINE
  5
23A
100
AcDbEntity
  8
0
100
AcDbLine
 62
7
  6
BYLAYER
 10
43.2994349476
 20
43.3425000984
 11
45.4802988062
 21
44.6016149183
  0
LINE
  5
23B
100
AcDbEntity
  8
0
100
AcDbLine
 62
7
  6
BYLAYER
 10
40.0252887648
 20
40.709325746
 11
37.8082085842
 21
39.4293015477
  0
LINE
  5
23C
100
AcDbEntity
  8
0
100
AcDbLine
 62
7
  6
BYLAYER
 10
43.4650392699
 20
42.6952547717
 11
45.6821194746
 21
43.975278984
  0
LINE
  5
23D
100
AcDbEntity
  8
0
100
AcDbLine
 62
7
  6
BYLAYER
 10
24.8854594019
 20
27.2801411747
 11
24.8921420782
 21
27.2857648266
  0
LINE
  5
23E
100
AcDbEntity
  8
0
100
AcDbLine
 62
7
  6
BYLAYER
 10
24.8830552194
 20
27.2964024073
 11
24.8764668759
 21
27.2908911556
  0
LINE
  5
23F
100
AcDbEntity
  8
0
100
AcDbLine
 62
7
  6
BYLAYER
 10
24.8213637159
 20
27.2447965063
 11
24.8147698603
 21
27.2392806435
  0
LINE
  5
240
100
AcDbEntity
  8
0
100
AcDbLine
 62
7
  6
BYLAYER
 10
24.8901544409
 20
27.2844117606
 11
24.882936379
 21
27.2799375802
  0
LINE
  5
241
100
AcDbEntity
  8
0
100
AcDbLine
 62
7
  6
BYLAYER
 10
21.5028100958
 20
26.7704307494
 11
21.1492581772
 21
26.5663086725
  0
LINE
  5
242
100
AcDbEntity
  8
0
100
AcDbLine
 62
7
  6
BYLAYER
 10
24.8221233455
 20
27.2434839304
 11
22.2692280652
 21
25.76954621
  0
LINE
  5
243
100
AcDbEntity
  8
0
100
AcDbLine
 62
7
  6
BYLAYER
 10
49.9712771569
 20
41.474561537
 11
45.9886800076
 21
39.175221726
  0
LINE
  5
244
100
AcDbEntity
  8
0
100
AcDbLine
 62
7
  6
BYLAYER
 10
24.8808406025
 20
27.2773774781
 11
26.9361133908
 21
28.4639576256
  0
LINE
  5
245
100
AcDbEntity
  8
0
100
AcDbLine
 62
7
  6
BYLAYER
 10
20.7021071511
 20
26.3689697157
 11
21.1492581772
 21
26.5663086725
  0
LINE
  5
246
100
AcDbEntity
  8
0
100
AcDbLine
 62
7
  6
BYLAYER
 10
24.8805053221
 20
27.2779591352
 11
24.8854594019
 21
27.2801411747
  0
LINE
  5
247
100
AcDbEntity
  8
0
100
AcDbLine
 62
7
  6
BYLAYER
 10
18.7159279292
 20
25.7343106975
 11
20.7021071511
 21
26.3689697157
  0
LINE
  5
248
100
AcDbEntity
  8
0
100
AcDbLine
 62
7
  6
BYLAYER
 10
40.0252885287
 20
30.2120386591
 11
37.8082088203
 21
28.9320147333
  0
LINE
  5
249
100
AcDbEntity
  8
0
100
AcDbLine
 62
7
  6
BYLAYER
 10
43.4650395375
 20
32.1979679756
 11
45.6821192069
 21
33.4779918788
  0
LWPOLYLINE
  5
24A
100
AcDbEntity
  8
0
100
AcDbPolyline
 62
7
  6
BYLAYER
 90
3
 70
0
 10
38.7536763276
 20
53.2582344937
 10
39.5642674897
 20
53.0272535012
 10
40.1896278915
 20
52.7017562151
  0
LINE
  5
24B
100
AcDbEntity
  8
0
100
AcDbLine
 62
7
  6
BYLAYER
 10
39.8234681081
 20
29.7769215942
 11
37.6426042493
 21
28.5178067742
  0
LINE
  5
24C
100
AcDbEntity
  8
0
100
AcDbLine
 62
7
  6
BYLAYER
 10
43.2994349278
 20
31.7837599941
 11
45.4802988255
 21
33.0428748366
  0
ARC
  5
24D
100
AcDbEntity
  8
0
100
AcDbCircle
 62
7
  6
BYLAYER
 10
89.1356192518
 20
-15.9402963232
 40
92.8901788673
100
AcDbArc
 50
132.1490474654
 51
132.3891722277
  0
ARC
  5
24E
100
AcDbEntity
  8
0
100
AcDbCircle
 62
7
  6
BYLAYER
 10
83.0101487118
 20
-18.6906629463
 40
92.1934359417
100
AcDbArc
 50
132.1481401043
 51
132.3900795888
  0
ARC
  5
24F
100
AcDbEntity
  8
0
100
AcDbCircle
 62
7
  6
BYLAYER
 10
86.6195944861
 20
85.077449146
 40
80.9889379243
100
AcDbArc
 50
224.4341790555
 51
224.6637851718
  0
ARC
  5
250
100
AcDbEntity
  8
0
100
AcDbCircle
 62
7
  6
BYLAYER
 10
97.2703798149
 20
45.2003367861
 40
71.1507093873
100
AcDbArc
 50
173.9763745737
 51
175.0510440082
  0
ARC
  5
251
100
AcDbEntity
  8
0
100
AcDbCircle
 62
7
  6
BYLAYER
 10
96.1043247415
 20
54.6897682692
 40
60.2604265269
100
AcDbArc
 50
194.0342061182
 51
194.669436199
  0
ARC
  5
252
100
AcDbEntity
  8
0
100
AcDbCircle
 62
7
  6
BYLAYER
 10
101.5462941544
 20
57.9007470402
 40
60.038647254
100
AcDbArc
 50
194.0330328546
 51
194.6706094626
  0
ARC
  5
253
100
AcDbEntity
  8
0
100
AcDbCircle
 62
7
  6
BYLAYER
 10
-9.2145831858
 20
26.6319122063
 40
57.5711762445
100
AcDbArc
 50
17.5327486083
 51
18.187653191
  0
ARC
  5
254
100
AcDbEntity
  8
0
100
AcDbCircle
 62
7
  6
BYLAYER
 10
-14.8322892138
 20
23.3785658938
 40
57.5300712698
100
AcDbArc
 50
17.5325146426
 51
18.1878871567
  0
ARC
  5
255
100
AcDbEntity
  8
0
100
AcDbCircle
 62
7
  6
BYLAYER
 10
60.7651861784
 20
73.1616168706
 40
55.0845961417
100
AcDbArc
 50
234.805167165
 51
235.4492287944
  0
ARC
  5
256
100
AcDbEntity
  8
0
100
AcDbCircle
 62
7
  6
BYLAYER
 10
-7.3577814938
 20
51.9253706269
 40
52.1212443242
100
AcDbArc
 50
334.8530767001
 51
335.3803409984
  0
ARC
  5
257
100
AcDbEntity
  8
0
100
AcDbCircle
 62
7
  6
BYLAYER
 10
-1.292116281
 20
55.0016940902
 40
51.6705772941
100
AcDbArc
 50
334.8507773032
 51
335.3826403953
  0
ARC
  5
258
100
AcDbEntity
  8
0
100
AcDbCircle
 62
7
  6
BYLAYER
 10
52.391275891
 20
100.0505059313
 40
49.6850262527
100
AcDbArc
 50
249.1083887457
 51
249.7341460683
  0
ARC
  5
259
100
AcDbEntity
  8
0
100
AcDbCircle
 62
7
  6
BYLAYER
 10
46.6221546969
 20
96.4854716455
 40
49.3655648781
100
AcDbArc
 50
249.1063639811
 51
249.7361708329
  0
ARC
  5
25A
100
AcDbEntity
  8
0
100
AcDbCircle
 62
7
  6
BYLAYER
 10
19.5895043246
 20
15.7126822061
 40
42.8475432273
100
AcDbArc
 50
65.4936571968
 51
66.1851117716
  0
ARC
  5
25B
100
AcDbEntity
  8
0
100
AcDbCircle
 62
7
  6
BYLAYER
 10
13.9717121973
 20
12.5337536737
 40
42.7521651576
100
AcDbArc
 50
65.4928858861
 51
66.1858830823
  0
ARC
  5
25C
100
AcDbEntity
  8
0
100
AcDbCircle
 62
7
  6
BYLAYER
 10
76.6333264672
 20
13.1691257291
 40
41.9029644543
100
AcDbArc
 50
157.9029853369
 51
158.5129419841
  0
ARC
  5
25D
100
AcDbEntity
  8
0
100
AcDbCircle
 62
7
  6
BYLAYER
 10
82.101721732
 20
16.5104173767
 40
41.7000294477
100
AcDbArc
 50
157.9015011325
 51
158.5144261885
  0
ARC
  5
25E
100
AcDbEntity
  8
0
100
AcDbCircle
 62
7
  6
BYLAYER
 10
32.1907037072
 20
40.8947743134
 40
14.3439120495
100
AcDbArc
 50
39.3825141568
 51
39.6147542414
  0
ARC
  5
25F
100
AcDbEntity
  8
0
100
AcDbCircle
 62
7
  6
BYLAYER
 10
32.5500732278
 20
41.1087712631
 40
13.9729784224
100
AcDbArc
 50
39.6147649756
 51
39.8897060691
  0
ARC
  5
260
100
AcDbEntity
  8
0
100
AcDbCircle
 62
7
  6
BYLAYER
 10
38.5168574137
 20
44.5345388009
 40
13.1450159507
100
AcDbArc
 50
39.4875272586
 51
39.6148181901
  0
ARC
  5
261
100
AcDbEntity
  8
0
100
AcDbCircle
 62
7
  6
BYLAYER
 10
38.7208398162
 20
44.6553353726
 40
12.9922068141
100
AcDbArc
 50
39.6148030696
 51
39.8145263816
  0
ARC
  5
262
100
AcDbEntity
  8
0
100
AcDbCircle
 62
7
  6
BYLAYER
 10
13.8521588929
 20
30.2965055804
 40
12.6286683673
100
AcDbArc
 50
39.6148278366
 51
39.7447400762
  0
ARC
  5
263
100
AcDbEntity
  8
0
100
AcDbCircle
 62
7
  6
BYLAYER
 10
21.4229813845
 20
34.4077632217
 40
9.9182933963
100
AcDbArc
 50
219.441143284
 51
219.6147942963
  0
ARC
  5
264
100
AcDbEntity
  8
0
100
AcDbCircle
 62
7
  6
BYLAYER
 10
21.2599851951
 20
34.3082638519
 40
9.6902908867
100
AcDbArc
 50
219.6148262128
 51
219.7531434722
  0
ARC
  5
265
100
AcDbEntity
  8
0
100
AcDbCircle
 62
7
  6
BYLAYER
 10
37.9047906437
 20
41.6782767294
 40
8.648658208
100
AcDbArc
 50
0.0062825069
 51
1.0587494853
  0
ARC
  5
266
100
AcDbEntity
  8
0
100
AcDbCircle
 62
7
  6
BYLAYER
 10
35.8875744547
 20
45.2507815811
 40
8.6037556829
100
AcDbArc
 50
58.9189182949
 51
59.9986497327
  0
ARC
  5
267
100
AcDbEntity
  8
0
100
AcDbCircle
 62
7
  6
BYLAYER
 10
19.4621433474
 20
32.3955016061
 40
7.0597045736
100
AcDbArc
 50
232.6826293298
 51
233.6622652973
  0
ARC
  5
268
100
AcDbEntity
  8
0
100
AcDbCircle
 62
7
  6
BYLAYER
 10
17.893699139
 20
33.8927671453
 40
6.4049651946
100
AcDbArc
 50
181.2517494572
 51
184.2507042605
  0
ARC
  5
269
100
AcDbEntity
  8
0
100
AcDbCircle
 62
7
  6
BYLAYER
 10
17.6051279985
 20
33.8853240054
 40
6.1163004258
100
AcDbArc
 50
180.6682649374
 51
181.2410945365
  0
ARC
  5
26A
100
AcDbEntity
  8
0
100
AcDbCircle
 62
7
  6
BYLAYER
 10
17.5449674938
 20
33.8041027814
 40
5.9975555163
100
AcDbArc
 50
180.0154320944
 51
183.356379985
  0
ARC
  5
26B
100
AcDbEntity
  8
0
100
AcDbCircle
 62
7
  6
BYLAYER
 10
31.0961221594
 20
48.6679713409
 40
4.604288906
100
AcDbArc
 50
140.9562201829
 51
142.1828025835
  0
ARC
  5
26C
100
AcDbEntity
  8
0
100
AcDbCircle
 62
7
  6
BYLAYER
 10
23.5514953518
 20
29.5909889725
 40
2.6683247445
100
AcDbArc
 50
298.919362833
 51
299.8806341399
  0
ARC
  5
26D
100
AcDbEntity
  8
0
100
AcDbCircle
 62
7
  6
BYLAYER
 10
18.2188618342
 20
38.8267633331
 40
2.6669114024
100
AcDbArc
 50
120.1810625353
 51
120.7875589252
  0
ARC
  5
26E
100
AcDbEntity
  8
0
100
AcDbCircle
 62
7
  6
BYLAYER
 10
23.4816429529
 20
29.5486639669
 40
2.6665975857
100
AcDbArc
 50
300.1783392042
 51
301.7018180627
  0
ARC
  5
26F
100
AcDbEntity
  8
0
100
AcDbCircle
 62
7
  6
BYLAYER
 10
18.146353168
 20
38.7895588771
 40
2.6628864289
100
AcDbArc
 50
118.2797121604
 51
119.8459624825
  0
ARC
  5
270
100
AcDbEntity
  8
0
100
AcDbCircle
 62
7
  6
BYLAYER
 10
15.6883199435
 20
35.50069295
 40
1.0118320718
100
AcDbArc
 50
164.2414193313
 51
164.7179636329
  0
SPLINE
  5
271
100
AcDbEntity
  8
0
100
AcDbSpline
 62
7
  6
BYLAYER
 70
0
 71
3
 72
26
 73
22
 74
0
 42
0.0000001
 43
0.0000001
 44
0.0000000001
 40
0.0
 40
0.0
 40
0.0
 40
0.0
 40
0.0731581961
 40
0.1472658335
 40
0.2216568105
 40
0.2956950245
 40
0.3687335564
 40
0.4401634897
 40
0.509425775
 40
0.5760354679
 40
0.6396056736
 40
0.6998738135
 40
0.7567308908
 40
0.8102519623
 40
0.8607205976
 40
0.884980472
 40
0.9086866255
 40
0.9319320097
 40
0.9548203841
 40
0.9774683488
 40
1.0
 40
1.0
 40
1.0
 40
1.0
 10
48.7293672464
 20
52.9394657783
 30
0.0
 10
48.9279724369
 20
52.6995199502
 30
0.0
 10
49.3106184329
 20
52.2020678306
 30
0.0
 10
49.8340564866
 20
51.4159978901
 30
0.0
 10
50.3054651238
 20
50.5932972138
 30
0.0
 10
50.7186349383
 20
49.7449248758
 30
0.0
 10
51.0681030358
 20
48.8819370664
 30
0.0
 10
51.349237721
 20
48.0156331357
 30
0.0
 10
51.5582787191
 20
47.1572311775
 30
0.0
 10
51.6923616734
 20
46.3177331802
 30
0.0
 10
51.7494868466
 20
45.5077399329
 30
0.0
 10
51.7284658244
 20
44.7373367773
 30
0.0
 10
51.6287667732
 20
44.0159693024
 30
0.0
 10
51.4505492253
 20
43.35272415
 30
0.0
 10
51.2340514575
 20
42.8488529931
 30
0.0
 10
51.0222001065
 20
42.4867385015
 30
0.0
 10
50.8468982649
 20
42.2388710102
 30
0.0
 10
50.6537066572
 20
42.0122806306
 30
0.0
 10
50.4432187158
 20
41.8080233504
 30
0.0
 10
50.2162321692
 20
41.6271304114
 30
0.0
 10
50.0543554414
 20
41.5225265206
 30
0.0
 10
49.9712771569
 20
41.474561537
 30
0.0
  0
SPLINE
  5
272
100
AcDbEntity
  8
0
100
AcDbSpline
 62
7
  6
BYLAYER
 70
0
 71
3
 72
15
 73
11
 74
0
 42
0.0000001
 43
0.0000001
 44
0.0000000001
 40
0.0
 40
0.0
 40
0.0
 40
0.0
 40
0.1135563793
 40
0.2283382126
 40
0.3455749986
 40
0.4663299205
 40
0.5915195043
 40
0.7218765461
 40
0.8579287175
 40
1.0
 40
1.0
 40
1.0
 40
1.0
 10
41.7213140911
 20
55.7640020234
 30
0.0
 10
41.8401701245
 20
55.8326231766
 30
0.0
 10
42.0894328211
 20
55.9536091202
 30
0.0
 10
42.4883367047
 20
56.0816109169
 30
0.0
 10
42.9094581059
 20
56.1558645652
 30
0.0
 10
43.3490196756
 20
56.1764029588
 30
0.0
 10
43.8036170067
 20
56.1437827436
 30
0.0
 10
44.2700881808
 20
56.0589118319
 30
0.0
 10
44.7454219617
 20
55.9229952012
 30
0.0
 10
45.0594730312
 20
55.8018233129
 30
0.0
 10
45.2170733786
 20
55.7336692341
 30
0.0
  0
SPLINE
  5
273
100
AcDbEntity
  8
0
100
AcDbSpline
 62
7
  6
BYLAYER
 70
0
 71
3
 72
9
 73
5
 74
0
 42
0.0000001
 43
0.0000001
 44
0.0000000001
 40
0.0
 40
0.0
 40
0.0
 40
0.0
 40
0.4869232174
 40
1.0
 40
1.0
 40
1.0
 40
1.0
 10
45.2170733786
 20
55.7336692341
 30
0.0
 10
45.4363335876
 20
55.638850423
 30
0.0
 10
45.8760127487
 20
55.4189802899
 30
0.0
 10
46.2923177062
 20
55.1580204379
 30
0.0
 10
46.4997471504
 20
55.0154248156
 30
0.0
  0
SPLINE
  5
274
100
AcDbEntity
  8
0
100
AcDbSpline
 62
7
  6
BYLAYER
 70
0
 71
3
 72
11
 73
7
 74
0
 42
0.0000001
 43
0.0000001
 44
0.0000000001
 40
0.0
 40
0.0
 40
0.0
 40
0.0
 40
0.2377353715
 40
0.4844330371
 40
0.7390161055
 40
1.0
 40
1.0
 40
1.0
 40
1.0
 10
46.4997471504
 20
55.0154248156
 30
0.0
 10
46.6963224788
 20
54.8802907637
 30
0.0
 10
47.0859666372
 20
54.5887659945
 30
0.0
 10
47.6464628501
 20
54.1023994302
 30
0.0
 10
48.1894248087
 20
53.5629434362
 30
0.0
 10
48.5327519781
 20
53.1754521061
 30
0.0
 10
48.7004294328
 20
52.9743033965
 30
0.0
  0
SPLINE
  5
275
100
AcDbEntity
  8
0
100
AcDbSpline
 62
7
  6
BYLAYER
 70
0
 71
3
 72
26
 73
22
 74
0
 42
0.0000001
 43
0.0000001
 44
0.0000000001
 40
0.0
 40
0.0
 40
0.0
 40
0.0
 40
0.0738984525
 40
0.1487570872
 40
0.2238975617
 40
0.2986626059
 40
0.3723871746
 40
0.4444416187
 40
0.514242091
 40
0.5812737942
 40
0.6451135313
 40
0.7054557222
 40
0.7621428117
 40
0.8152000526
 40
0.8648730113
 40
0.8886065873
 40
0.911703277
 40
0.9342669787
 40
0.9564155081
 40
0.9782800156
 40
1.0
 40
1.0
 40
1.0
 40
1.0
 10
48.6616947957
 20
52.8935889167
 30
0.0
 10
48.8607046185
 20
52.6520638229
 30
0.0
 10
49.2441735077
 20
52.1514994152
 30
0.0
 10
49.7688404375
 20
51.3608950421
 30
0.0
 10
50.2414556107
 20
50.5338389318
 30
0.0
 10
50.6557408547
 20
49.6814173661
 30
0.0
 10
51.0061926687
 20
48.8148722638
 30
0.0
 10
51.2881682572
 20
47.9457129704
 30
0.0
 10
51.4979210348
 20
47.0854237332
 30
0.0
 10
51.6326661961
 20
46.2453480736
 30
0.0
 10
51.6905790166
 20
45.4365032102
 30
0.0
 10
51.6707970415
 20
44.6694494656
 30
0.0
 10
51.573331337
 20
43.9541006908
 30
0.0
 10
51.3991358678
 20
43.2998625903
 30
0.0
 10
51.1880182899
 20
42.805126305
 30
0.0
 10
50.9821829586
 20
42.4515663005
 30
0.0
 10
50.8127471854
 20
42.2109703924
 30
0.0
 10
50.6265473665
 20
41.9918174966
 30
0.0
 10
50.424126798
 20
41.7949161861
 30
0.0
 10
50.2062513742
 20
41.620955728
 30
0.0
 10
50.0509360248
 20
41.5205522337
 30
0.0
 10
49.9712753443
 20
41.4745646765
 30
0.0
  0
SPLINE
  5
276
100
AcDbEntity
  8
0
100
AcDbSpline
 62
7
  6
BYLAYER
 70
0
 71
3
 72
11
 73
7
 74
0
 42
0.0000001
 43
0.0000001
 44
0.0000000001
 40
0.0
 40
0.0
 40
0.0
 40
0.0
 40
0.2377564994
 40
0.4845290977
 40
0.7390851844
 40
1.0
 40
1.0
 40
1.0
 40
1.0
 10
46.4875860609
 20
54.9443607703
 30
0.0
 10
46.6798144465
 20
54.8088306915
 30
0.0
 10
47.0609708197
 20
54.5173571059
 30
0.0
 10
47.6097075234
 20
54.033382842
 30
0.0
 10
48.1417409616
 20
53.4983251132
 30
0.0
 10
48.4785206831
 20
53.1149425107
 30
0.0
 10
48.6430989259
 20
52.9161065052
 30
0.0
  0
SPLINE
  5
277
100
AcDbEntity
  8
0
100
AcDbSpline
 62
7
  6
BYLAYER
 70
0
 71
3
 72
20
 73
16
 74
0
 42
0.0000001
 43
0.0000001
 44
0.0000000001
 40
0.0
 40
0.0
 40
0.0
 40
0.0
 40
0.0313497575
 40
0.0658198105
 40
0.1002032588
 40
0.1342581411
 40
0.2009496207
 40
0.2660859291
 40
0.3301937669
 40
0.3934732584
 40
0.5179162958
 40
0.6404119303
 40
0.7614012722
 40
0.88119827
 40
1.0
 40
1.0
 40
1.0
 40
1.0
 10
45.2050051872
 20
55.684842431
 30
0.0
 10
45.2079952776
 20
55.6865687502
 30
0.0
 10
45.2151228528
 20
55.6886058654
 30
0.0
 10
45.226123147
 20
55.6895658462
 30
0.0
 10
45.2374708354
 20
55.6890107176
 30
0.0
 10
45.252269948
 20
55.6874316289
 30
0.0
 10
45.2702566493
 20
55.6840720373
 30
0.0
 10
45.2911779469
 20
55.678769347
 30
0.0
 10
45.3115644822
 20
55.6729303561
 30
0.0
 10
45.3380091338
 20
55.6645586145
 30
0.0
 10
45.3701922621
 20
55.6530629367
 30
0.0
 10
45.4079685946
 20
55.6383948462
 30
0.0
 10
45.444921897
 20
55.6230502489
 30
0.0
 10
45.4812274356
 20
55.6072264082
 30
0.0
 10
45.5051575377
 20
55.59636738
 30
0.0
 10
45.5170382112
 20
55.5908863663
 30
0.0
  0
SPLINE
  5
278
100
AcDbEntity
  8
0
100
AcDbSpline
 62
7
  6
BYLAYER
 70
0
 71
3
 72
31
 73
27
 74
0
 42
0.0000001
 43
0.0000001
 44
0.0000000001
 40
0.0
 40
0.0
 40
0.0
 40
0.0
 40
0.1343670167
 40
0.2662427501
 40
0.3962533535
 40
0.5245358455
 40
0.5880049715
 40
0.6509381659
 40
0.7132301573
 40
0.7440928578
 40
0.7747317996
 40
0.8051172557
 40
0.8351947033
 40
0.8648574125
 40
0.8939830569
 40
0.9083020028
 40
0.9224204967
 40
0.936312966
 40
0.9498984072
 40
0.9629828876
 40
0.969283602
 40
0.9754099402
 40
0.9813396016
 40
0.9870841821
 40
0.9929874435
 40
1.0
 40
1.0
 40
1.0
 40
1.0
 10
45.5170382112
 20
55.5908863663
 30
0.0
 10
45.5655206679
 20
55.568519536
 30
0.0
 10
45.6605067946
 20
55.5218532764
 30
0.0
 10
45.7996215094
 20
55.4480667104
 30
0.0
 10
45.934842208
 20
55.372190387
 30
0.0
 10
46.0448976406
 20
55.307085801
 30
0.0
 10
46.1310571666
 20
55.2539895911
 30
0.0
 10
46.1943090702
 20
55.2137178566
 30
0.0
 10
46.2460372289
 20
55.1794868306
 30
0.0
 10
46.2866087743
 20
55.1516684046
 30
0.0
 10
46.3164556282
 20
55.1306339716
 30
0.0
 10
46.3457419413
 20
55.1093521026
 30
0.0
 10
46.3743445157
 20
55.0877963439
 30
0.0
 10
46.4020108249
 20
55.0658450189
 30
0.0
 10
46.4241603485
 20
55.0470357173
 30
0.0
 10
46.4411030352
 20
55.0316651894
 30
0.0
 10
46.453244645
 20
55.0200209178
 30
0.0
 10
46.4648170629
 20
55.0082137734
 30
0.0
 10
46.4756165878
 20
54.9962416578
 30
0.0
 10
46.4836017096
 20
54.9858139592
 30
0.0
 10
46.4888863594
 20
54.9771544107
 30
0.0
 10
46.4921845828
 20
54.970631073
 30
0.0
 10
46.4945953867
 20
54.9639718632
 30
0.0
 10
46.4958490484
 20
54.9569982073
 30
0.0
 10
46.4939548934
 20
54.9495114746
 30
0.0
 10
46.4899992989
 20
54.9457540456
 30
0.0
 10
46.4875860609
 20
54.9443607703
 30
0.0
  0
SPLINE
  5
279
100
AcDbEntity
  8
0
100
AcDbSpline
 62
7
  6
BYLAYER
 70
0
 71
3
 72
15
 73
11
 74
0
 42
0.0000001
 43
0.0000001
 44
0.0000000001
 40
0.0
 40
0.0
 40
0.0
 40
0.0
 40
0.1112955833
 40
0.2241503153
 40
0.3400192117
 40
0.4601674152
 40
0.585606486
 40
0.7170967035
 40
0.855170273
 40
1.0
 40
1.0
 40
1.0
 40
1.0
 10
41.7213143812
 20
55.764001521
 30
0.0
 10
41.8375429234
 20
55.8311089107
 30
0.0
 10
42.0819541351
 20
55.9491885483
 30
0.0
 10
42.4742972535
 20
56.0727586375
 30
0.0
 10
42.8904791998
 20
56.1425671358
 30
0.0
 10
43.3272070123
 20
56.1582646109
 30
0.0
 10
43.7813108332
 20
56.1200523356
 30
0.0
 10
44.2496173132
 20
56.0283543174
 30
0.0
 10
44.7287695222
 20
55.8839867604
 30
0.0
 10
45.0457166559
 20
55.7564628952
 30
0.0
 10
45.2050051872
 20
55.684842431
 30
0.0
  0
SPLINE
  5
27A
100
AcDbEntity
  8
0
100
AcDbSpline
 62
7
  6
BYLAYER
 70
0
 71
3
 72
11
 73
7
 74
0
 42
0.0000001
 43
0.0000001
 44
0.0000000001
 40
0.0
 40
0.0
 40
0.0
 40
0.0
 40
0.24389094
 40
0.4915600863
 40
0.7434920037
 40
1.0
 40
1.0
 40
1.0
 40
1.0
 10
45.6821194625
 20
43.975278977
 30
0.0
 10
45.7301399589
 20
43.5647532455
 30
0.0
 10
45.8169894616
 20
42.7361350591
 30
0.0
 10
45.914111686
 20
41.4797078637
 30
0.0
 10
45.974417246
 20
40.1995429094
 30
0.0
 10
45.9877870492
 20
39.3378185586
 30
0.0
 10
45.9877870492
 20
38.9031115457
 30
0.0
  0
SPLINE
  5
27B
100
AcDbEntity
  8
0
100
AcDbSpline
 62
7
  6
BYLAYER
 70
0
 71
3
 72
10
 73
6
 74
0
 42
0.0000001
 43
0.0000001
 44
0.0000000001
 40
0.0
 40
0.0
 40
0.0
 40
0.0
 40
0.2518572263
 40
0.5024569043
 40
1.0
 40
1.0
 40
1.0
 40
1.0
 10
41.7451280274
 20
49.837897736
 30
0.0
 10
42.0835852374
 20
49.416856122
 30
0.0
 10
42.7459445578
 20
48.5664296511
 30
0.0
 10
44.0125098874
 20
46.8351012448
 30
0.0
 10
44.9055224191
 20
45.5007930895
 30
0.0
 10
45.4802988062
 20
44.6016149183
 30
0.0
  0
SPLINE
  5
27C
100
AcDbEntity
  8
0
100
AcDbSpline
 62
7
  6
BYLAYER
 70
0
 71
3
 72
9
 73
5
 74
0
 42
0.0000001
 43
0.0000001
 44
0.0000000001
 40
0.0
 40
0.0
 40
0.0
 40
0.0
 40
0.5170225978
 40
1.0
 40
1.0
 40
1.0
 40
1.0
 10
29.0176735571
 20
54.2086604694
 30
0.0
 10
29.7461797564
 20
54.3190589398
 30
0.0
 10
31.1573799609
 20
54.5188400336
 30
0.0
 10
32.5742364341
 20
54.675544007
 30
0.0
 10
33.2598113139
 20
54.7367868929
 30
0.0
  0
SPLINE
  5
27D
100
AcDbEntity
  8
0
100
AcDbSpline
 62
7
  6
BYLAYER
 70
0
 71
3
 72
9
 73
5
 74
0
 42
0.0000001
 43
0.0000001
 44
0.0000000001
 40
0.0
 40
0.0
 40
0.0
 40
0.0
 40
0.5215749941
 40
1.0
 40
1.0
 40
1.0
 40
1.0
 10
33.2598113139
 20
54.7367868929
 30
0.0
 10
33.8894252292
 20
54.7930316833
 30
0.0
 10
35.0988668717
 20
54.8772999645
 30
0.0
 10
36.3107994752
 20
54.9085787555
 30
0.0
 10
36.8906152732
 20
54.9119617545
 30
0.0
  0
SPLINE
  5
27E
100
AcDbEntity
  8
0
100
AcDbSpline
 62
7
  6
BYLAYER
 70
0
 71
3
 72
10
 73
6
 74
0
 42
0.0000001
 43
0.0000001
 44
0.0000000001
 40
0.0
 40
0.0
 40
0.0
 40
0.0
 40
0.5016857922
 40
0.7513585179
 40
1.0
 40
1.0
 40
1.0
 40
1.0
 10
37.3624070951
 20
54.7003198126
 30
0.0
 10
38.1340811671
 20
53.9232453274
 30
0.0
 10
39.2674603108
 20
52.7365761057
 30
0.0
 10
40.7104197119
 20
51.0982830348
 30
0.0
 10
41.4050740966
 20
50.2609286372
 30
0.0
 10
41.7451280274
 20
49.837897736
 30
0.0
  0
SPLINE
  5
27F
100
AcDbEntity
  8
0
100
AcDbSpline
 62
7
  6
BYLAYER
 70
0
 71
3
 72
11
 73
7
 74
0
 42
0.0000001
 43
0.0000001
 44
0.0000000001
 40
0.0
 40
0.0
 40
0.0
 40
0.0
 40
0.2442393084
 40
0.4926107609
 40
0.7447042584
 40
1.0
 40
1.0
 40
1.0
 40
1.0
 10
45.9877870492
 20
38.9031115457
 30
0.0
 10
45.9877870457
 20
38.4605504362
 30
0.0
 10
45.9736955574
 20
37.5678875942
 30
0.0
 10
45.9128226646
 20
36.2196935891
 30
0.0
 10
45.8153736406
 20
34.8535957179
 30
0.0
 10
45.7295402985
 20
33.9381502118
 30
0.0
 10
45.6821192069
 20
33.4779918788
 30
0.0
  0
SPLINE
  5
280
100
AcDbEntity
  8
0
100
AcDbSpline
 62
7
  6
BYLAYER
 70
0
 71
3
 72
9
 73
5
 74
0
 42
0.0000001
 43
0.0000001
 44
0.0000000001
 40
0.0
 40
0.0
 40
0.0
 40
0.0
 40
0.4887655343
 40
1.0
 40
1.0
 40
1.0
 40
1.0
 10
40.1089101984
 20
31.3545701141
 30
0.0
 10
40.6301737775
 20
31.4128779744
 30
0.0
 10
41.6951022675
 20
31.5463027147
 30
0.0
 10
42.7571055351
 20
31.7008728017
 30
0.0
 10
43.299434947
 20
31.7837600052
 30
0.0
  0
SPLINE
  5
281
100
AcDbEntity
  8
0
100
AcDbSpline
 62
7
  6
BYLAYER
 70
0
 71
3
 72
9
 73
5
 74
0
 42
0.0000001
 43
0.0000001
 44
0.0000000001
 40
0.0
 40
0.0
 40
0.0
 40
0.0
 40
0.5215749948
 40
1.0
 40
1.0
 40
1.0
 40
1.0
 10
30.4313974562
 20
53.1038111383
 30
0.0
 10
29.8017835173
 20
53.0475663441
 30
0.0
 10
28.5923418311
 20
52.9632980573
 30
0.0
 10
27.3804091837
 20
52.9320192639
 30
0.0
 10
26.8005933655
 20
52.9286362647
 30
0.0
  0
SPLINE
  5
282
100
AcDbEntity
  8
0
100
AcDbSpline
 62
7
  6
BYLAYER
 70
0
 71
3
 72
15
 73
11
 74
0
 42
0.0000001
 43
0.0000001
 44
0.0000000001
 40
0.0
 40
0.0
 40
0.0
 40
0.0
 40
0.1108410465
 40
0.2280578197
 40
0.3507094003
 40
0.477625969
 40
0.6074737799
 40
0.7388131746
 40
0.8701524765
 40
1.0
 40
1.0
 40
1.0
 40
1.0
 10
43.1593716978
 20
37.2701350948
 30
0.0
 10
43.1593716978
 20
37.7110695942
 30
0.0
 10
43.106557246
 20
38.618816733
 30
0.0
 10
42.886961254
 20
39.9985221777
 30
0.0
 10
42.5284380622
 20
41.4148050807
 30
0.0
 10
42.0370683866
 20
42.8436530861
 30
0.0
 10
41.4211586958
 20
44.2610579062
 30
0.0
 10
40.6910976021
 20
45.6430841116
 30
0.0
 10
39.859311083
 20
46.9662597181
 30
0.0
 10
39.2403433894
 20
47.8023286929
 30
0.0
 10
38.9167133582
 20
48.2049216337
 30
0.0
  0
SPLINE
  5
283
100
AcDbEntity
  8
0
100
AcDbSpline
 62
7
  6
BYLAYER
 70
0
 71
3
 72
18
 73
14
 74
0
 42
0.0000001
 43
0.0000001
 44
0.0000000001
 40
0.0
 40
0.0
 40
0.0
 40
0.0
 40
0.0547137435
 40
0.1092787251
 40
0.1640156557
 40
0.2192353614
 40
0.2752366986
 40
0.3322972456
 40
0.4504785609
 40
0.5755126783
 40
0.708471406
 40
0.8499435052
 40
1.0
 40
1.0
 40
1.0
 40
1.0
 10
40.1796807279
 20
31.534871315
 30
0.0
 10
40.2955720543
 20
31.5820734192
 30
0.0
 10
40.5228379188
 20
31.687093558
 30
0.0
 10
40.8475793582
 20
31.8759092637
 30
0.0
 10
41.1542026654
 20
32.0949557321
 30
0.0
 10
41.4417555207
 20
32.3435105482
 30
0.0
 10
41.7093386762
 20
32.6208751391
 30
0.0
 10
42.0423128908
 20
33.0325078209
 30
0.0
 10
42.4045757968
 20
33.6197752562
 30
0.0
 10
42.7417909976
 20
34.4143066746
 30
0.0
 10
42.9840771755
 20
35.2977401521
 30
0.0
 10
43.129108795
 20
36.259615108
 30
0.0
 10
43.1593716877
 20
36.9269423208
 30
0.0
 10
43.1593716978
 20
37.2701350948
 30
0.0
  0
SPLINE
  5
284
100
AcDbEntity
  8
0
100
AcDbSpline
 62
7
  6
BYLAYER
 70
0
 71
3
 72
15
 73
11
 74
0
 42
0.0000001
 43
0.0000001
 44
0.0000000001
 40
0.0
 40
0.0
 40
0.0
 40
0.0
 40
0.1289737045
 40
0.2552348192
 40
0.3794646469
 40
0.5024842696
 40
0.6251806672
 40
0.7484374014
 40
0.8731075284
 40
1.0
 40
1.0
 40
1.0
 40
1.0
 10
30.4313966451
 20
53.103810702
 30
0.0
 10
30.2865152098
 20
53.0908693345
 30
0.0
 10
30.000761708
 20
53.0522296419
 30
0.0
 10
29.5834699733
 20
52.9543190439
 30
0.0
 10
29.1843374058
 20
52.8173435337
 30
0.0
 10
28.804987305
 20
52.641855798
 30
0.0
 10
28.4468541178
 20
52.4284739352
 30
0.0
 10
28.1112551979
 20
52.1780378955
 30
0.0
 10
27.7994921412
 20
51.8915388109
 30
0.0
 10
27.6102819099
 20
51.6794255573
 30
0.0
 10
27.5201327162
 20
51.5682775026
 30
0.0
  0
SPLINE
  5
285
100
AcDbEntity
  8
0
100
AcDbSpline
 62
7
  6
BYLAYER
 70
0
 71
3
 72
16
 73
12
 74
0
 42
0.0000001
 43
0.0000001
 44
0.0000000001
 40
0.0
 40
0.0
 40
0.0
 40
0.0
 40
0.149123298
 40
0.2932350969
 40
0.4309609546
 40
0.5611954111
 40
0.6831905498
 40
0.7966605182
 40
0.8503030609
 40
0.9019889224
 40
1.0
 40
1.0
 40
1.0
 40
1.0
 10
38.9167133582
 20
48.2049216337
 30
0.0
 10
38.600393333
 20
48.5984285199
 30
0.0
 10
37.9479316461
 20
49.3484074897
 30
0.0
 10
36.9007369999
 20
50.3669458067
 30
0.0
 10
35.8155405803
 20
51.2470484113
 30
0.0
 10
34.7103588263
 20
51.9738428083
 30
0.0
 10
33.6034803226
 20
52.5349732567
 30
0.0
 10
32.6772982165
 20
52.8624259815
 30
0.0
 10
31.9543718419
 20
53.0276869786
 30
0.0
 10
31.272578619
 20
53.1261712724
 30
0.0
 10
30.7619133733
 20
53.1333387427
 30
0.0
 10
30.4313966451
 20
53.103810702
 30
0.0
  0
SPLINE
  5
286
100
AcDbEntity
  8
0
100
AcDbSpline
 62
7
  6
BYLAYER
 70
0
 71
3
 72
11
 73
7
 74
0
 42
0.0000001
 43
0.0000001
 44
0.0000000001
 40
0.0
 40
0.0
 40
0.0
 40
0.0
 40
0.2442393976
 40
0.4926107704
 40
0.7447041797
 40
1.0
 40
1.0
 40
1.0
 40
1.0
 10
43.1593716952
 20
37.2701349273
 30
0.0
 10
43.1593716952
 20
37.7126962114
 30
0.0
 10
43.1734646112
 20
38.6053590726
 30
0.0
 10
43.2343360756
 20
39.9535530062
 30
0.0
 10
43.3317835589
 20
41.3196508916
 30
0.0
 10
43.4176181681
 20
42.235096291
 30
0.0
 10
43.4650392819
 20
42.6952547787
 30
0.0
  0
SPLINE
  5
287
100
AcDbEntity
  8
0
100
AcDbSpline
 62
7
  6
BYLAYER
 70
0
 71
3
 72
10
 73
6
 74
0
 42
0.0000001
 43
0.0000001
 44
0.0000000001
 40
0.0
 40
0.0
 40
0.0
 40
0.0
 40
0.5016857921
 40
0.7513585178
 40
1.0
 40
1.0
 40
1.0
 40
1.0
 10
43.2994349476
 20
43.3425000984
 30
0.0
 10
42.5277609004
 20
44.1195745587
 30
0.0
 10
41.3943817921
 20
45.3062437416
 30
0.0
 10
39.9514224334
 20
46.944536757
 30
0.0
 10
39.2567680679
 20
47.7818911256
 30
0.0
 10
38.9167141462
 20
48.2049220121
 30
0.0
  0
SPLINE
  5
288
100
AcDbEntity
  8
0
100
AcDbSpline
 62
7
  6
BYLAYER
 70
0
 71
3
 72
11
 73
7
 74
0
 42
0.0000001
 43
0.0000001
 44
0.0000000001
 40
0.0
 40
0.0
 40
0.0
 40
0.0
 40
0.2438910355
 40
0.4915600687
 40
0.7434918931
 40
1.0
 40
1.0
 40
1.0
 40
1.0
 10
43.4650395375
 20
32.1979679756
 30
0.0
 10
43.4170190338
 20
32.6084938321
 30
0.0
 10
43.3301709583
 20
33.4371120592
 30
0.0
 10
43.2330469986
 20
34.6935387874
 30
0.0
 10
43.1727400537
 20
35.9737034382
 30
0.0
 10
43.1593716987
 20
36.8354277659
 30
0.0
 10
43.1593716952
 20
37.2701349273
 30
0.0
  0
SPLINE
  5
289
100
AcDbEntity
  8
0
100
AcDbSpline
 62
7
  6
BYLAYER
 70
0
 71
3
 72
10
 73
6
 74
0
 42
0.0000001
 43
0.0000001
 44
0.0000000001
 40
0.0
 40
0.0
 40
0.0
 40
0.0
 40
0.2518572262
 40
0.5024569044
 40
1.0
 40
1.0
 40
1.0
 40
1.0
 10
38.9167141462
 20
48.2049220121
 30
0.0
 10
38.5782569237
 20
48.6259636383
 30
0.0
 10
37.9158975861
 20
49.4763901404
 30
0.0
 10
36.6493321985
 20
51.2077185905
 30
0.0
 10
35.756319642
 20
52.5420267924
 30
0.0
 10
35.1815432364
 20
53.4412049925
 30
0.0
  0
SPLINE
  5
28A
100
AcDbEntity
  8
0
100
AcDbSpline
 62
7
  6
BYLAYER
 70
0
 71
3
 72
9
 73
5
 74
0
 42
0.0000001
 43
0.0000001
 44
0.0000000001
 40
0.0
 40
0.0
 40
0.0
 40
0.0
 40
0.5170225972
 40
1.0
 40
1.0
 40
1.0
 40
1.0
 10
34.6735350825
 20
53.6319375503
 30
0.0
 10
33.9450289064
 20
53.5215390834
 30
0.0
 10
32.5338287453
 20
53.3217579951
 30
0.0
 10
31.1169723157
 20
53.1650540243
 30
0.0
 10
30.4313974562
 20
53.1038111383
 30
0.0
  0
SPLINE
  5
28B
100
AcDbEntity
  8
0
100
AcDbSpline
 62
7
  6
BYLAYER
 70
0
 71
3
 72
11
 73
7
 74
0
 42
0.0000001
 43
0.0000001
 44
0.0000000001
 40
0.0
 40
0.0
 40
0.0
 40
0.0
 40
0.2442393084
 40
0.4926107609
 40
0.7447042584
 40
1.0
 40
1.0
 40
1.0
 40
1.0
 10
40.3309563515
 20
35.6371583148
 30
0.0
 10
40.330956348
 20
35.1945972052
 30
0.0
 10
40.3168648597
 20
34.3019343632
 30
0.0
 10
40.2559919669
 20
32.9537403581
 30
0.0
 10
40.1585429429
 20
31.587642487
 30
0.0
 10
40.0727096008
 20
30.6721969809
 30
0.0
 10
40.0252885092
 20
30.2120386478
 30
0.0
  0
SPLINE
  5
28C
100
AcDbEntity
  8
0
100
AcDbSpline
 62
7
  6
BYLAYER
 70
0
 71
3
 72
10
 73
6
 74
0
 42
0.0000001
 43
0.0000001
 44
0.0000000001
 40
0.0
 40
0.0
 40
0.0
 40
0.0
 40
0.4826174386
 40
0.7375707838
 40
1.0
 40
1.0
 40
1.0
 40
1.0
 10
33.2598833419
 20
27.968284791
 30
0.0
 10
33.967738352
 20
28.0315178634
 30
0.0
 10
35.047500982
 20
28.15164258
 30
0.0
 10
36.5068821607
 20
28.3481291178
 30
0.0
 10
37.2606023817
 20
28.459423316
 30
0.0
 10
37.6426042493
 20
28.5178067742
 30
0.0
  0
SPLINE
  5
28D
100
AcDbEntity
  8
0
100
AcDbSpline
 62
7
  6
BYLAYER
 70
0
 71
3
 72
11
 73
7
 74
0
 42
0.0000001
 43
0.0000001
 44
0.0000000001
 40
0.0
 40
0.0
 40
0.0
 40
0.0
 40
0.24389094
 40
0.4915600863
 40
0.7434920037
 40
1.0
 40
1.0
 40
1.0
 40
1.0
 10
40.0252887648
 20
40.709325746
 30
0.0
 10
40.0733092612
 20
40.2988000146
 30
0.0
 10
40.1601587639
 20
39.4701818282
 30
0.0
 10
40.2572809883
 20
38.2137546327
 30
0.0
 10
40.3175865483
 20
36.9335896784
 30
0.0
 10
40.3309563515
 20
36.0718653277
 30
0.0
 10
40.3309563515
 20
35.6371583148
 30
0.0
  0
SPLINE
  5
28E
100
AcDbEntity
  8
0
100
AcDbSpline
 62
7
  6
BYLAYER
 70
0
 71
3
 72
10
 73
6
 74
0
 42
0.0000001
 43
0.0000001
 44
0.0000000001
 40
0.0
 40
0.0
 40
0.0
 40
0.0
 40
0.2518572263
 40
0.5024569043
 40
1.0
 40
1.0
 40
1.0
 40
1.0
 10
36.0882973297
 20
46.571944505
 30
0.0
 10
36.4267545397
 20
46.150902891
 30
0.0
 10
37.0891138601
 20
45.3004764201
 30
0.0
 10
38.3556791897
 20
43.5691480138
 30
0.0
 10
39.2486917214
 20
42.2348398585
 30
0.0
 10
39.8234681085
 20
41.3356616874
 30
0.0
  0
SPLINE
  5
28F
100
AcDbEntity
  8
0
100
AcDbSpline
 62
7
  6
BYLAYER
 70
0
 71
3
 72
10
 73
6
 74
0
 42
0.0000001
 43
0.0000001
 44
0.0000000001
 40
0.0
 40
0.0
 40
0.0
 40
0.0
 40
0.5016857922
 40
0.7513585179
 40
1.0
 40
1.0
 40
1.0
 40
1.0
 10
31.7055763974
 20
51.4343665816
 30
0.0
 10
32.4772504694
 20
50.6572920964
 30
0.0
 10
33.6106296131
 20
49.4706228747
 30
0.0
 10
35.0535890142
 20
47.8323298038
 30
0.0
 10
35.7482433989
 20
46.9949754062
 30
0.0
 10
36.0882973297
 20
46.571944505
 30
0.0
  0
SPLINE
  5
290
100
AcDbEntity
  8
0
100
AcDbSpline
 62
7
  6
BYLAYER
 70
0
 71
3
 72
9
 73
5
 74
0
 42
0.0000001
 43
0.0000001
 44
0.0000000001
 40
0.0
 40
0.0
 40
0.0
 40
0.0
 40
0.5215749941
 40
1.0
 40
1.0
 40
1.0
 40
1.0
 10
27.6029806161
 20
51.4708336619
 30
0.0
 10
28.2325945315
 20
51.5270784523
 30
0.0
 10
29.442036174
 20
51.6113467335
 30
0.0
 10
30.6539687775
 20
51.6426255245
 30
0.0
 10
31.2337845754
 20
51.6460085235
 30
0.0
  0
SPLINE
  5
291
100
AcDbEntity
  8
0
100
AcDbSpline
 62
7
  6
BYLAYER
 70
0
 71
3
 72
9
 73
5
 74
0
 42
0.0000001
 43
0.0000001
 44
0.0000000001
 40
0.0
 40
0.0
 40
0.0
 40
0.0
 40
0.5170225978
 40
1.0
 40
1.0
 40
1.0
 40
1.0
 10
23.3608428594
 20
50.9427072384
 30
0.0
 10
24.0893490587
 20
51.0531057089
 30
0.0
 10
25.5005492632
 20
51.2528868026
 30
0.0
 10
26.9174057364
 20
51.409590776
 30
0.0
 10
27.6029806161
 20
51.4708336619
 30
0.0
  0
SPLINE
  5
292
100
AcDbEntity
  8
0
100
AcDbSpline
 62
7
  6
BYLAYER
 70
0
 71
3
 72
10
 73
6
 74
0
 42
0.0000001
 43
0.0000001
 44
0.0000000001
 40
0.0
 40
0.0
 40
0.0
 40
0.0
 40
0.5065063743
 40
0.7550831495
 40
1.0
 40
1.0
 40
1.0
 40
1.0
 10
20.8556834726
 20
49.4008349044
 30
0.0
 10
20.7669813555
 20
48.5590142132
 30
0.0
 10
20.6552208739
 20
47.3016149735
 30
0.0
 10
20.564963594
 20
45.6327055872
 30
0.0
 10
20.5417944535
 20
44.8081724744
 30
0.0
 10
20.536089429
 20
44.3989035286
 30
0.0
  0
SPLINE
  5
293
100
AcDbEntity
  8
0
100
AcDbSpline
 62
7
  6
BYLAYER
 70
0
 71
3
 72
11
 73
7
 74
0
 42
0.0000001
 43
0.0000001
 44
0.0000000001
 40
0.0
 40
0.0
 40
0.0
 40
0.0
 40
0.2339652414
 40
0.4778384833
 40
0.7329085966
 40
1.0
 40
1.0
 40
1.0
 40
1.0
 10
29.5247125393
 20
27.7926237515
 30
0.0
 10
29.8164187459
 20
27.7936405239
 30
0.0
 10
30.4121825745
 20
27.8015784463
 30
0.0
 10
31.3254999423
 20
27.8331184367
 30
0.0
 10
32.2791307168
 20
27.8873216715
 30
0.0
 10
32.9281945167
 20
27.9386540739
 30
0.0
 10
33.2598833419
 20
27.968284791
 30
0.0
  0
SPLINE
  5
294
100
AcDbEntity
  8
0
100
AcDbSpline
 62
7
  6
BYLAYER
 70
0
 71
3
 72
20
 73
16
 74
0
 42
0.0000001
 43
0.0000001
 44
0.0000000001
 40
0.0
 40
0.0
 40
0.0
 40
0.0
 40
0.0593674349
 40
0.1174681919
 40
0.1746296068
 40
0.2312464558
 40
0.2877430814
 40
0.3445405802
 40
0.4020449166
 40
0.4606389256
 40
0.5206695863
 40
0.582440014
 40
0.7120557418
 40
0.8510135947
 40
1.0
 40
1.0
 40
1.0
 40
1.0
 10
24.7745659474
 20
49.837857471
 30
0.0
 10
24.6270044155
 20
49.8246767069
 30
0.0
 10
24.3360233382
 20
49.7850817951
 30
0.0
 10
23.911357338
 20
49.6842199977
 30
0.0
 10
23.505597717
 20
49.5428160252
 30
0.0
 10
23.1204540475
 20
49.361470007
 30
0.0
 10
22.7574441267
 20
49.140834905
 30
0.0
 10
22.4179555574
 20
48.8818411615
 30
0.0
 10
22.1033418926
 20
48.5854922283
 30
0.0
 10
21.8147945861
 20
48.2530139344
 30
0.0
 10
21.5533585121
 20
47.8857120849
 30
0.0
 10
21.2372015657
 20
47.3429408726
 30
0.0
 10
20.9170543188
 20
46.5789586585
 30
0.0
 10
20.6611522303
 20
45.5656879354
 30
0.0
 10
20.5764268385
 20
44.8500564941
 30
0.0
 10
20.5529400633
 20
44.479009523
 30
0.0
  0
SPLINE
  5
295
100
AcDbEntity
  8
0
100
AcDbSpline
 62
7
  6
BYLAYER
 70
0
 71
3
 72
16
 73
12
 74
0
 42
0.0000001
 43
0.0000001
 44
0.0000000001
 40
0.0
 40
0.0
 40
0.0
 40
0.0
 40
0.149123298
 40
0.2932350969
 40
0.4309609546
 40
0.5611954111
 40
0.6831905498
 40
0.7966605182
 40
0.8503030609
 40
0.9019889224
 40
1.0
 40
1.0
 40
1.0
 40
1.0
 10
33.2598826605
 20
44.9389684027
 30
0.0
 10
32.9435626353
 20
45.3324752889
 30
0.0
 10
32.2911009484
 20
46.0824542588
 30
0.0
 10
31.2439063022
 20
47.1009925757
 30
0.0
 10
30.1587098825
 20
47.9810951804
 30
0.0
 10
29.0535281286
 20
48.7078895774
 30
0.0
 10
27.9466496248
 20
49.2690200257
 30
0.0
 10
27.0204675188
 20
49.5964727505
 30
0.0
 10
26.2975411442
 20
49.7617337476
 30
0.0
 10
25.6157479213
 20
49.8602180414
 30
0.0
 10
25.1050826755
 20
49.8673855117
 30
0.0
 10
24.7745659474
 20
49.837857471
 30
0.0
  0
SPLINE
  5
296
100
AcDbEntity
  8
0
100
AcDbSpline
 62
7
  6
BYLAYER
 70
0
 71
3
 72
11
 73
7
 74
0
 42
0.0000001
 43
0.0000001
 44
0.0000000001
 40
0.0
 40
0.0
 40
0.0
 40
0.0
 40
0.2442393976
 40
0.4926107704
 40
0.7447041797
 40
1.0
 40
1.0
 40
1.0
 40
1.0
 10
37.5025409975
 20
34.0041816964
 30
0.0
 10
37.5025409975
 20
34.4467429804
 30
0.0
 10
37.5166339134
 20
35.3394058416
 30
0.0
 10
37.5775053779
 20
36.6875997753
 30
0.0
 10
37.6749528612
 20
38.0536976606
 30
0.0
 10
37.7607874704
 20
38.96914306
 30
0.0
 10
37.8082085842
 20
39.4293015477
 30
0.0
  0
SPLINE
  5
297
100
AcDbEntity
  8
0
100
AcDbSpline
 62
7
  6
BYLAYER
 70
0
 71
3
 72
10
 73
6
 74
0
 42
0.0000001
 43
0.0000001
 44
0.0000000001
 40
0.0
 40
0.0
 40
0.0
 40
0.0
 40
0.5016857921
 40
0.7513585178
 40
1.0
 40
1.0
 40
1.0
 40
1.0
 10
37.6426042499
 20
40.0765468675
 30
0.0
 10
36.8709302027
 20
40.8536213277
 30
0.0
 10
35.7375510944
 20
42.0402905107
 30
0.0
 10
34.2945917357
 20
43.678583526
 30
0.0
 10
33.5999373701
 20
44.5159378947
 30
0.0
 10
33.2598834485
 20
44.9389687811
 30
0.0
  0
SPLINE
  5
298
100
AcDbEntity
  8
0
100
AcDbSpline
 62
7
  6
BYLAYER
 70
0
 71
3
 72
9
 73
5
 74
0
 42
0.0000001
 43
0.0000001
 44
0.0000000001
 40
0.0
 40
0.0
 40
0.0
 40
0.0
 40
0.5170225972
 40
1.0
 40
1.0
 40
1.0
 40
1.0
 10
29.0167043848
 20
50.3659843194
 30
0.0
 10
28.2881982087
 20
50.2555858525
 30
0.0
 10
26.8769980475
 20
50.0558047641
 30
0.0
 10
25.460141618
 20
49.8991007933
 30
0.0
 10
24.7745667585
 20
49.8378579073
 30
0.0
  0
SPLINE
  5
299
100
AcDbEntity
  8
0
100
AcDbSpline
 62
7
  6
BYLAYER
 70
0
 71
3
 72
10
 73
6
 74
0
 42
0.0000001
 43
0.0000001
 44
0.0000000001
 40
0.0
 40
0.0
 40
0.0
 40
0.0
 40
0.2518572262
 40
0.5024569044
 40
1.0
 40
1.0
 40
1.0
 40
1.0
 10
33.2598834485
 20
44.9389687811
 30
0.0
 10
32.921426226
 20
45.3600104073
 30
0.0
 10
32.2590668884
 20
46.2104369094
 30
0.0
 10
30.9925015008
 20
47.9417653595
 30
0.0
 10
30.0994889443
 20
49.2760735614
 30
0.0
 10
29.5247125387
 20
50.1752517616
 30
0.0
  0
SPLINE
  5
29A
100
AcDbEntity
  8
0
100
AcDbSpline
 62
7
  6
BYLAYER
 70
0
 71
3
 72
9
 73
5
 74
0
 42
0.0000001
 43
0.0000001
 44
0.0000000001
 40
0.0
 40
0.0
 40
0.0
 40
0.0
 40
0.5215749948
 40
1.0
 40
1.0
 40
1.0
 40
1.0
 10
24.7745667585
 20
49.8378579073
 30
0.0
 10
24.1449528196
 20
49.7816131131
 30
0.0
 10
22.9355111334
 20
49.6973448263
 30
0.0
 10
21.723578486
 20
49.6660660329
 30
0.0
 10
21.1437626678
 20
49.6626830338
 30
0.0
  0
SPLINE
  5
29B
100
AcDbEntity
  8
0
100
AcDbSpline
 62
7
  6
BYLAYER
 70
0
 71
3
 72
11
 73
7
 74
0
 42
0.0000001
 43
0.0000001
 44
0.0000000001
 40
0.0
 40
0.0
 40
0.0
 40
0.0
 40
0.2438910355
 40
0.4915600687
 40
0.7434918931
 40
1.0
 40
1.0
 40
1.0
 40
1.0
 10
37.8082088398
 20
28.9320147446
 30
0.0
 10
37.7601883361
 20
29.3425406011
 30
0.0
 10
37.6733402606
 20
30.1711588282
 30
0.0
 10
37.5762163009
 20
31.4275855564
 30
0.0
 10
37.515909356
 20
32.7077502073
 30
0.0
 10
37.502541001
 20
33.5694745349
 30
0.0
 10
37.5025409975
 20
34.0041816964
 30
0.0
  0
SPLINE
  5
29C
100
AcDbEntity
  8
0
100
AcDbSpline
 62
7
  6
BYLAYER
 70
0
 71
3
 72
15
 73
11
 74
0
 42
0.0000001
 43
0.0000001
 44
0.0000000001
 40
0.0
 40
0.0
 40
0.0
 40
0.0
 40
0.1108410465
 40
0.2280578197
 40
0.3507094003
 40
0.477625969
 40
0.6074737799
 40
0.7388131746
 40
0.8701524765
 40
1.0
 40
1.0
 40
1.0
 40
1.0
 10
37.5025410001
 20
34.0041818638
 30
0.0
 10
37.5025410001
 20
34.4451163632
 30
0.0
 10
37.4497265483
 20
35.3528635021
 30
0.0
 10
37.2301305563
 20
36.7325689468
 30
0.0
 10
36.8716073645
 20
38.1488518497
 30
0.0
 10
36.3802376889
 20
39.5776998552
 30
0.0
 10
35.7643279981
 20
40.9951046753
 30
0.0
 10
35.0342669044
 20
42.3771308807
 30
0.0
 10
34.2024803853
 20
43.7003064871
 30
0.0
 10
33.5835126916
 20
44.536375462
 30
0.0
 10
33.2598826605
 20
44.9389684027
 30
0.0
  0
SPLINE
  5
29D
100
AcDbEntity
  8
0
100
AcDbSpline
 62
7
  6
BYLAYER
 70
0
 71
3
 72
22
 73
18
 74
0
 42
0.0000001
 43
0.0000001
 44
0.0000000001
 40
0.0
 40
0.0
 40
0.0
 40
0.0
 40
0.0583081743
 40
0.1153047538
 40
0.171367918
 40
0.2269530149
 40
0.2825406528
 40
0.3386013771
 40
0.395585374
 40
0.4539070085
 40
0.5139331819
 40
0.5759708136
 40
0.6402676006
 40
0.707003102
 40
0.8481639025
 40
0.9227833117
 40
1.0
 40
1.0
 40
1.0
 40
1.0
 10
33.259882638
 20
27.9682843641
 30
0.0
 10
33.4179415692
 20
27.9824025383
 30
0.0
 10
33.7293849383
 20
28.0258227331
 30
0.0
 10
34.1828085381
 20
28.138659711
 30
0.0
 10
34.6142310251
 20
28.2980869546
 30
0.0
 10
35.0215668202
 20
28.5033156114
 30
0.0
 10
35.4029457532
 20
28.7534899873
 30
0.0
 10
35.7566954609
 20
29.047364411
 30
0.0
 10
36.0811561624
 20
29.3836414105
 30
0.0
 10
36.3750101374
 20
29.760666695
 30
0.0
 10
36.6369667159
 20
30.1767759086
 30
0.0
 10
36.8660525341
 20
30.6300550586
 30
0.0
 10
37.0612852537
 20
31.1185812489
 30
0.0
 10
37.2795799294
 20
31.8271567325
 30
0.0
 10
37.4206610043
 20
32.5860846382
 30
0.0
 10
37.4910102568
 20
33.3806484674
 30
0.0
 10
37.5025409939
 20
33.7940333152
 30
0.0
 10
37.5025410001
 20
34.0041818638
 30
0.0
  0
SPLINE
  5
29E
100
AcDbEntity
  8
0
100
AcDbSpline
 62
7
  6
BYLAYER
 70
0
 71
3
 72
11
 73
7
 74
0
 42
0.0000001
 43
0.0000001
 44
0.0000000001
 40
0.0
 40
0.0
 40
0.0
 40
0.0
 40
0.2744646138
 40
0.5318275568
 40
0.7730165367
 40
1.0
 40
1.0
 40
1.0
 40
1.0
 10
29.613928911
 20
28.7848085151
 30
0.0
 10
29.9237555433
 20
28.6311530913
 30
0.0
 10
30.5399473293
 20
28.3636931087
 30
0.0
 10
31.4756665278
 20
28.0840216493
 30
0.0
 10
32.3819218427
 20
27.9427226362
 30
0.0
 10
32.9750094979
 20
27.9428320827
 30
0.0
 10
33.259882638
 20
27.9682843641
 30
0.0
  0
SPLINE
  5
29F
100
AcDbEntity
  8
0
100
AcDbSpline
 62
7
  6
BYLAYER
 70
0
 71
3
 72
12
 73
8
 74
0
 42
0.0000001
 43
0.0000001
 44
0.0000000001
 40
0.0
 40
0.0
 40
0.0
 40
0.0
 40
0.1081682869
 40
0.2183546418
 40
0.4513100563
 40
0.7105879139
 40
1.0
 40
1.0
 40
1.0
 40
1.0
 10
6.8798596559
 20
30.7061185404
 30
0.0
 10
6.8634674055
 20
30.6966458426
 30
0.0
 10
6.8319525171
 20
30.6746415954
 30
0.0
 10
6.7753799283
 20
30.6190625597
 30
0.0
 10
6.7193650016
 20
30.527726635
 30
0.0
 10
6.6804615345
 20
30.3953790323
 30
0.0
 10
6.6727371544
 20
30.2990058724
 30
0.0
 10
6.6727371544
 20
30.248350716
 30
0.0
  0
SPLINE
  5
2A0
100
AcDbEntity
  8
0
100
AcDbSpline
 62
7
  6
BYLAYER
 70
0
 71
3
 72
11
 73
7
 74
0
 42
0.0000001
 43
0.0000001
 44
0.0000000001
 40
0.0
 40
0.0
 40
0.0
 40
0.0
 40
0.2390207478
 40
0.4819161236
 40
0.7344161991
 40
1.0
 40
1.0
 40
1.0
 40
1.0
 10
15.2609414897
 20
32.7688619497
 30
0.0
 10
15.2100676809
 20
32.7436911914
 30
0.0
 10
15.0996707974
 20
32.7074441862
 30
0.0
 10
14.923767926
 20
32.6987519703
 30
0.0
 10
14.7446646448
 20
32.7312726698
 30
0.0
 10
14.6294587825
 20
32.7765091864
 30
0.0
 10
14.5727267976
 20
32.804060212
 30
0.0
  0
SPLINE
  5
2A1
100
AcDbEntity
  8
0
100
AcDbSpline
 62
7
  6
BYLAYER
 70
0
 71
3
 72
23
 73
19
 74
0
 42
0.0000001
 43
0.0000001
 44
0.0000000001
 40
0.0
 40
0.0
 40
0.0
 40
0.0
 40
0.0736416896
 40
0.1482631303
 40
0.2231676809
 40
0.2977290176
 40
0.3712947776
 40
0.4432454943
 40
0.5130099576
 40
0.5800767126
 40
0.6440242454
 40
0.704541986
 40
0.7614586183
 40
0.8147785501
 40
0.8647141451
 40
0.9117177299
 40
0.9564991959
 40
1.0
 40
1.0
 40
1.0
 40
1.0
 10
23.5396184471
 20
38.3186316501
 30
0.0
 10
23.730811241
 20
38.0869003206
 30
0.0
 10
24.099432672
 20
37.6066595325
 30
0.0
 10
24.6044326065
 20
36.8483767333
 30
0.0
 10
25.0600972403
 20
36.0550861973
 30
0.0
 10
25.460465867
 20
35.2372991329
 30
0.0
 10
25.8003656654
 20
34.4055565853
 30
0.0
 10
26.0753709716
 20
33.5706924932
 30
0.0
 10
26.281900804
 20
32.7435352976
 30
0.0
 10
26.4172394435
 20
31.9347775503
 30
0.0
 10
26.4796318057
 20
31.1548484378
 30
0.0
 10
26.4681652415
 20
30.4137318045
 30
0.0
 10
26.3827636384
 20
29.720872258
 30
0.0
 10
26.2242141887
 20
29.0850760247
 30
0.0
 10
25.9939975169
 20
28.5145435427
 30
0.0
 10
25.6941828277
 20
28.0169580124
 30
0.0
 10
25.3282018272
 20
27.5998127809
 30
0.0
 10
25.0408409089
 20
27.3781485471
 30
0.0
 10
24.8901544409
 20
27.2844117606
 30
0.0
  0
SPLINE
  5
2A2
100
AcDbEntity
  8
0
100
AcDbSpline
 62
7
  6
BYLAYER
 70
0
 71
3
 72
11
 73
7
 74
0
 42
0.0000001
 43
0.0000001
 44
0.0000000001
 40
0.0
 40
0.0
 40
0.0
 40
0.0
 40
0.2667076236
 40
0.5195053432
 40
0.7617565518
 40
1.0
 40
1.0
 40
1.0
 40
1.0
 10
13.5414339183
 20
34.5583149707
 30
0.0
 10
13.5445975321
 20
34.6241434893
 30
0.0
 10
13.5608998565
 20
34.7522668153
 30
0.0
 10
13.6212215526
 20
34.9320914285
 30
0.0
 10
13.7183225141
 20
35.0873071694
 30
0.0
 10
13.8078033674
 20
35.1682858627
 30
0.0
 10
13.8567955203
 20
35.2009286272
 30
0.0
  0
SPLINE
  5
2A3
100
AcDbEntity
  8
0
100
AcDbSpline
 62
7
  6
BYLAYER
 70
0
 71
3
 72
15
 73
11
 74
0
 42
0.0000001
 43
0.0000001
 44
0.0000000001
 40
0.0
 40
0.0
 40
0.0
 40
0.0
 40
0.1293604282
 40
0.2605108457
 40
0.3918433705
 40
0.5218317606
 40
0.6489507161
 40
0.7718025273
 40
0.8891497384
 40
1.0
 40
1.0
 40
1.0
 40
1.0
 10
43.3141425491
 20
50.0182570867
 30
0.0
 10
43.5603296468
 20
49.7208249457
 30
0.0
 10
44.0316635143
 20
49.1011960935
 30
0.0
 10
44.6656121458
 20
48.1170773986
 30
0.0
 10
45.22294216
 20
47.0854123397
 30
0.0
 10
45.6938156894
 20
46.0246618316
 30
0.0
 10
46.0698882567
 20
44.9534269417
 30
0.0
 10
46.3445295645
 20
43.8905596916
 30
0.0
 10
46.512866531
 20
42.8548804001
 30
0.0
 10
46.5534333036
 20
42.1733826215
 30
0.0
 10
46.5534336225
 20
41.8425287809
 30
0.0
  0
SPLINE
  5
2A4
100
AcDbEntity
  8
0
100
AcDbSpline
 62
7
  6
BYLAYER
 70
0
 71
3
 72
10
 73
6
 74
0
 42
0.0000001
 43
0.0000001
 44
0.0000000001
 40
0.0
 40
0.0
 40
0.0
 40
0.0
 40
0.2717281755
 40
0.5289420493
 40
1.0
 40
1.0
 40
1.0
 40
1.0
 10
46.5534487998
 20
41.6792250585
 30
0.0
 10
46.5534569894
 20
41.4382869258
 30
0.0
 10
46.5334634296
 20
40.9687494238
 30
0.0
 10
46.41050799
 20
40.0901766364
 30
0.0
 10
46.2192297791
 20
39.4645849045
 30
0.0
 10
46.0413205983
 20
39.0866879191
 30
0.0
  0
SPLINE
  5
2A5
100
AcDbEntity
  8
0
100
AcDbSpline
 62
7
  6
BYLAYER
 70
0
 71
3
 72
11
 73
7
 74
0
 42
0.0000001
 43
0.0000001
 44
0.0000000001
 40
0.0
 40
0.0
 40
0.0
 40
0.0
 40
0.2327533901
 40
0.4781947229
 40
0.734666325
 40
1.0
 40
1.0
 40
1.0
 40
1.0
 10
40.3310450475
 20
52.6200977498
 30
0.0
 10
40.5937919558
 20
52.4684013721
 30
0.0
 10
41.1168390149
 20
52.1270544613
 30
0.0
 10
41.866860105
 20
51.529694425
 30
0.0
 10
42.5937447659
 20
50.8411687542
 30
0.0
 10
43.0494597049
 20
50.3351799127
 30
0.0
 10
43.27126548
 20
50.0698070673
 30
0.0
  0
SPLINE
  5
2A6
100
AcDbEntity
  8
0
100
AcDbSpline
 62
7
  6
BYLAYER
 70
0
 71
3
 72
20
 73
16
 74
0
 42
0.0000001
 43
0.0000001
 44
0.0000000001
 40
0.0
 40
0.0
 40
0.0
 40
0.0
 40
0.0623646044
 40
0.1288050383
 40
0.2703051791
 40
0.4173629131
 40
0.5616119072
 40
0.6302495432
 40
0.6953765372
 40
0.7563593032
 40
0.8128296619
 40
0.8647616635
 40
0.9125646663
 40
0.9571664617
 40
1.0
 40
1.0
 40
1.0
 40
1.0
 10
6.6727371544
 20
30.248350716
 30
0.0
 10
6.6727371544
 20
30.2069016883
 30
0.0
 10
6.6783984084
 20
30.1212364521
 30
0.0
 10
6.7098349302
 20
29.9440857688
 30
0.0
 10
6.785940798
 20
29.7191643877
 30
0.0
 10
6.9234064826
 20
29.465126907
 30
0.0
 10
7.0714909158
 20
29.2754690545
 30
0.0
 10
7.2047637322
 20
29.1471150367
 30
0.0
 10
7.3068750469
 20
29.0671548211
 30
0.0
 10
7.4106539148
 20
29.0036794709
 30
0.0
 10
7.513973631
 20
28.958004191
 30
0.0
 10
7.6147940798
 20
28.931227098
 30
0.0
 10
7.7111267553
 20
28.9241252263
 30
0.0
 10
7.8008351842
 20
28.9372745032
 30
0.0
 10
7.8551855316
 20
28.9598575499
 30
0.0
 10
7.8798341033
 20
28.9741013826
 30
0.0
  0
SPLINE
  5
2A7
100
AcDbEntity
  8
0
100
AcDbSpline
 62
7
  6
BYLAYER
 70
0
 71
3
 72
16
 73
12
 74
0
 42
0.0000001
 43
0.0000001
 44
0.0000000001
 40
0.0
 40
0.0
 40
0.0
 40
0.0
 40
0.1510401505
 40
0.2962112875
 40
0.4339796485
 40
0.5633424034
 40
0.6838590556
 40
0.7958547501
 40
0.9005029699
 40
0.9507582625
 40
1.0
 40
1.0
 40
1.0
 40
1.0
 10
13.7824376709
 20
28.0836320042
 30
0.0
 10
13.9674822559
 20
27.8600694877
 30
0.0
 10
14.3497639844
 20
27.4371726424
 30
0.0
 10
14.9658062856
 20
26.8732776846
 30
0.0
 10
15.6038951037
 20
26.4010598949
 30
0.0
 10
16.2521048546
 20
26.0302440267
 30
0.0
 10
16.8992224716
 20
25.769035715
 30
0.0
 10
17.5338854272
 20
25.6244630686
 30
0.0
 10
18.0504292544
 20
25.6065990725
 30
0.0
 10
18.439952913
 20
25.6584404245
 30
0.0
 10
18.6258036914
 20
25.7055126113
 30
0.0
 10
18.7159279291
 20
25.7343106974
 30
0.0
  0
SPLINE
  5
2A8
100
AcDbEntity
  8
0
100
AcDbSpline
 62
7
  6
BYLAYER
 70
0
 71
3
 72
13
 73
9
 74
0
 42
0.0000001
 43
0.0000001
 44
0.0000000001
 40
0.0
 40
0.0
 40
0.0
 40
0.0
 40
0.1102324036
 40
0.2232509259
 40
0.3399854976
 40
0.4612384701
 40
0.7191993558
 40
1.0
 40
1.0
 40
1.0
 40
1.0
 10
12.4620831466
 20
36.5663522617
 30
0.0
 10
12.3804203081
 20
36.4920993189
 30
0.0
 10
12.2256021961
 20
36.3296881534
 30
0.0
 10
12.0251964336
 20
36.0533991466
 30
0.0
 10
11.8555437298
 20
35.7446109695
 30
0.0
 10
11.6674157508
 20
35.2840435958
 30
0.0
 10
11.5167872794
 20
34.6360814137
 30
0.0
 10
11.4859681456
 20
34.0951297139
 30
0.0
 10
11.4892435847
 20
33.8139886211
 30
0.0
  0
SPLINE
  5
2A9
100
AcDbEntity
  8
0
100
AcDbSpline
 62
7
  6
BYLAYER
 70
0
 71
3
 72
11
 73
7
 74
0
 42
0.0000001
 43
0.0000001
 44
0.0000000001
 40
0.0
 40
0.0
 40
0.0
 40
0.0
 40
0.2473458004
 40
0.4988949696
 40
0.7510265142
 40
1.0
 40
1.0
 40
1.0
 40
1.0
 10
11.9480358135
 20
31.348031423
 30
0.0
 10
12.0480800683
 20
31.0569603146
 30
0.0
 10
12.2778032936
 20
30.4791351786
 30
0.0
 10
12.6991259365
 20
29.6436782464
 30
0.0
 10
13.1925152238
 20
28.846272756
 30
0.0
 10
13.5664879136
 20
28.3460768396
 30
0.0
 10
13.7633057293
 20
28.106817836
 30
0.0
  0
SPLINE
  5
2AA
100
AcDbEntity
  8
0
100
AcDbSpline
 62
7
  6
BYLAYER
 70
0
 71
3
 72
14
 73
10
 74
0
 42
0.0000001
 43
0.0000001
 44
0.0000000001
 40
0.0
 40
0.0
 40
0.0
 40
0.0
 40
0.1138530963
 40
0.2288902514
 40
0.3463150949
 40
0.4671863757
 40
0.5923854495
 40
0.7226476095
 40
1.0
 40
1.0
 40
1.0
 40
1.0
 10
22.2692280652
 20
25.76954621
 30
0.0
 10
22.1551440919
 20
25.7036801906
 30
0.0
 10
21.9160466027
 20
25.5874054089
 30
0.0
 10
21.5336789918
 20
25.4636312477
 30
0.0
 10
21.130170899
 20
25.3909187205
 30
0.0
 10
20.7091292429
 20
25.369060599
 30
0.0
 10
20.273682698
 20
25.3977329213
 30
0.0
 10
19.6655564539
 20
25.5041715941
 30
0.0
 10
19.2150926204
 20
25.6550012494
 30
0.0
 10
18.919594322
 20
25.7801517348
 30
0.0
  0
SPLINE
  5
2AB
100
AcDbEntity
  8
0
100
AcDbSpline
 62
7
  6
BYLAYER
 70
0
 71
3
 72
21
 73
17
 74
0
 42
0.0000001
 43
0.0000001
 44
0.0000000001
 40
0.0
 40
0.0
 40
0.0
 40
0.0
 40
0.0474077999
 40
0.0955351287
 40
0.1449195022
 40
0.1960261417
 40
0.2492380234
 40
0.3048411562
 40
0.3630351785
 40
0.4239282439
 40
0.4875572546
 40
0.5538862679
 40
0.6228244781
 40
0.6942185813
 40
0.8435453153
 40
1.0
 40
1.0
 40
1.0
 40
1.0
 10
16.8911267453
 20
41.1380415404
 30
0.0
 10
16.9989458939
 20
41.1956695248
 30
0.0
 10
17.2245344289
 20
41.2969180025
 30
0.0
 10
17.5839799333
 20
41.4029396809
 30
0.0
 10
17.9635225942
 20
41.4630809444
 30
0.0
 10
18.3605389791
 20
41.4772160061
 30
0.0
 10
18.7725086623
 20
41.4452998423
 30
0.0
 10
19.1968701296
 20
41.3678167762
 30
0.0
 10
19.6309917063
 20
41.2452363251
 30
0.0
 10
20.0722628854
 20
41.0785239358
 30
0.0
 10
20.5179473495
 20
40.8686506702
 30
0.0
 10
20.9653706533
 20
40.6170450293
 30
0.0
 10
21.4117301643
 20
40.325192025
 30
0.0
 10
22.0107567115
 20
39.8782854545
 30
0.0
 10
22.7377833773
 20
39.2290163503
 30
0.0
 10
23.2696157956
 20
38.6448613481
 30
0.0
 10
23.5268714733
 20
38.3340566483
 30
0.0
  0
SPLINE
  5
2AC
100
AcDbEntity
  8
0
100
AcDbSpline
 62
7
  6
BYLAYER
 70
0
 71
3
 72
9
 73
5
 74
0
 42
0.0000001
 43
0.0000001
 44
0.0000000001
 40
0.0
 40
0.0
 40
0.0
 40
0.0
 40
0.5256447756
 40
1.0
 40
1.0
 40
1.0
 40
1.0
 10
17.0599619286
 20
34.0491974741
 30
0.0
 10
17.0599619286
 20
33.9696270378
 30
0.0
 10
17.0487694967
 20
33.8178968677
 30
0.0
 10
17.0090130839
 20
33.6704458308
 30
0.0
 10
16.981971907
 20
33.6039256688
 30
0.0
  0
SPLINE
  5
2AD
100
AcDbEntity
  8
0
100
AcDbSpline
 62
7
  6
BYLAYER
 70
0
 71
3
 72
13
 73
9
 74
0
 42
0.0000001
 43
0.0000001
 44
0.0000000001
 40
0.0
 40
0.0
 40
0.0
 40
0.0
 40
0.1085515828
 40
0.2185595715
 40
0.3321221942
 40
0.4510410264
 40
0.7095796466
 40
1.0
 40
1.0
 40
1.0
 40
1.0
 10
15.2609387469
 20
32.7688669452
 30
0.0
 10
15.2858540799
 20
32.7811878014
 30
0.0
 10
15.3339047515
 20
32.810562963
 30
0.0
 10
15.3977431645
 20
32.8673647686
 30
0.0
 10
15.4527860303
 20
32.93614561
 30
0.0
 10
15.5152768832
 20
33.0457563807
 30
0.0
 10
15.5668100954
 20
33.2109034669
 30
0.0
 10
15.5784768314
 20
33.3519371097
 30
0.0
 10
15.5784768314
 20
33.4263009595
 30
0.0
  0
SPLINE
  5
2AE
100
AcDbEntity
  8
0
100
AcDbSpline
 62
7
  6
BYLAYER
 70
0
 71
3
 72
9
 73
5
 74
0
 42
0.0000001
 43
0.0000001
 44
0.0000000001
 40
0.0
 40
0.0
 40
0.0
 40
0.0
 40
0.2636397656
 40
1.0
 40
1.0
 40
1.0
 40
1.0
 10
14.7145180107
 20
35.7754909433
 30
0.0
 10
14.7213610742
 20
35.7997400173
 30
0.0
 10
14.7507170304
 20
35.8906637223
 30
0.0
 10
14.7947060076
 20
35.9773256141
 30
0.0
 10
14.8360037833
 20
36.0343082238
 30
0.0
  0
SPLINE
  5
2AF
100
AcDbEntity
  8
0
100
AcDbSpline
 62
7
  6
BYLAYER
 70
0
 71
3
 72
23
 73
19
 74
0
 42
0.0000001
 43
0.0000001
 44
0.0000000001
 40
0.0
 40
0.0
 40
0.0
 40
0.0
 40
0.045132361
 40
0.0890130158
 40
0.1339325891
 40
0.1819198769
 40
0.234370128
 40
0.2919455218
 40
0.3546810881
 40
0.4221168737
 40
0.4934309276
 40
0.567553339
 40
0.6432448071
 40
0.7191837163
 40
0.7940297836
 40
0.8664959816
 40
0.9354935267
 40
1.0
 40
1.0
 40
1.0
 40
1.0
 10
14.8360037833
 20
36.0343082238
 30
0.0
 10
14.8679679408
 20
36.078412321
 30
0.0
 10
14.94220098
 20
36.1581653506
 30
0.0
 10
15.0829417991
 20
36.2419717764
 30
0.0
 10
15.2448100884
 20
36.2837270506
 30
0.0
 10
15.4218728379
 20
36.282848083
 30
0.0
 10
15.6091151654
 20
36.2407404144
 30
0.0
 10
15.8020455244
 20
36.1593125119
 30
0.0
 10
15.9960666179
 20
36.0409212747
 30
0.0
 10
16.1864121647
 20
35.8886889841
 30
0.0
 10
16.3683026269
 20
35.7065752568
 30
0.0
 10
16.5370529255
 20
35.4992725329
 30
0.0
 10
16.6882785564
 20
35.2721542413
 30
0.0
 10
16.8180598116
 20
35.0311470607
 30
0.0
 10
16.9230139414
 20
34.7825447092
 30
0.0
 10
17.000427688
 20
34.5327333796
 30
0.0
 10
17.0481927348
 20
34.2882902983
 30
0.0
 10
17.0599619286
 20
34.1270486441
 30
0.0
 10
17.0599619286
 20
34.0491974741
 30
0.0
  0
SPLINE
  5
2B0
100
AcDbEntity
  8
0
100
AcDbSpline
 62
7
  6
BYLAYER
 70
0
 71
3
 72
21
 73
17
 74
0
 42
0.0000001
 43
0.0000001
 44
0.0000000001
 40
0.0
 40
0.0
 40
0.0
 40
0.0
 40
0.1600248382
 40
0.3116377895
 40
0.3835678533
 40
0.4525933193
 40
0.5185597953
 40
0.5814073347
 40
0.6411637237
 40
0.6979704052
 40
0.7520834786
 40
0.8038952337
 40
0.8539226486
 40
0.9028007299
 40
0.951243991
 40
1.0
 40
1.0
 40
1.0
 40
1.0
 10
18.1187338833
 20
34.6600050185
 30
0.0
 10
17.8935710486
 20
34.9320365936
 30
0.0
 10
17.4269284765
 20
35.4393103382
 30
0.0
 10
16.783842388
 20
35.9932655998
 30
0.0
 10
16.2543181816
 20
36.3634351348
 30
0.0
 10
15.8619101218
 20
36.5977699285
 30
0.0
 10
15.4702486645
 20
36.7917375411
 30
0.0
 10
15.0823486292
 20
36.9439277657
 30
0.0
 10
14.70107534
 20
37.0529922609
 30
0.0
 10
14.3293338675
 20
37.1181214737
 30
0.0
 10
13.9699164864
 20
37.1385055424
 30
0.0
 10
13.6256249982
 20
37.1139240234
 30
0.0
 10
13.299262803
 20
37.0441865424
 30
0.0
 10
12.9935584106
 20
36.9298000162
 30
0.0
 10
12.7113431797
 20
36.7715336496
 30
0.0
 10
12.5416840965
 20
36.638735394
 30
0.0
 10
12.4620839063
 20
36.5663511418
 30
0.0
  0
SPLINE
  5
2B1
100
AcDbEntity
  8
0
100
AcDbSpline
 62
7
  6
BYLAYER
 70
0
 71
3
 72
15
 73
11
 74
0
 42
0.0000001
 43
0.0000001
 44
0.0000000001
 40
0.0
 40
0.0
 40
0.0
 40
0.0
 40
0.1291216354
 40
0.2599298548
 40
0.390927286
 40
0.5206616551
 40
0.6476891314
 40
0.7706760242
 40
0.8884363274
 40
1.0
 40
1.0
 40
1.0
 40
1.0
 10
43.2775041743
 20
49.9959098626
 30
0.0
 10
43.5216695848
 20
49.6984739608
 30
0.0
 10
43.9894781355
 20
49.0798598613
 30
0.0
 10
44.6202070912
 20
48.0990454568
 30
0.0
 10
45.1766353275
 20
47.0720935855
 30
0.0
 10
45.6494330965
 20
46.0163745427
 30
0.0
 10
46.030659506
 20
44.9494919214
 30
0.0
 10
46.3139409789
 20
43.8892647291
 30
0.0
 10
46.4945084406
 20
42.8535106512
 30
0.0
 10
46.5458369365
 20
42.170517082
 30
0.0
 10
46.5519723038
 20
41.8380832876
 30
0.0
  0
SPLINE
  5
2B2
100
AcDbEntity
  8
0
100
AcDbSpline
 62
7
  6
BYLAYER
 70
0
 71
3
 72
18
 73
14
 74
0
 42
0.0000001
 43
0.0000001
 44
0.0000000001
 40
0.0
 40
0.0
 40
0.0
 40
0.0
 40
0.0475083943
 40
0.0956213126
 40
0.1449043658
 40
0.1958583119
 40
0.3041693586
 40
0.3622136048
 40
0.4229990635
 40
0.5528127957
 40
0.6932521493
 40
0.8429838736
 40
1.0
 40
1.0
 40
1.0
 40
1.0
 10
14.7528516842
 20
38.461771466
 30
0.0
 10
14.8433516174
 20
38.5140235419
 30
0.0
 10
15.0331183813
 20
38.606585045
 30
0.0
 10
15.3370118211
 20
38.7057500201
 30
0.0
 10
15.6588185257
 20
38.7652405985
 30
0.0
 10
16.1177783984
 20
38.7916345172
 30
0.0
 10
16.596666555
 20
38.7339065346
 30
0.0
 10
17.0795645672
 20
38.6041980901
 30
0.0
 10
17.5938171923
 20
38.4159770389
 30
0.0
 10
18.2442769746
 20
38.0821630359
 30
0.0
 10
19.0037252102
 20
37.5521223479
 30
0.0
 10
19.7404182947
 20
36.8973633585
 30
0.0
 10
20.195897223
 20
36.3977566042
 30
0.0
 10
20.4161188158
 20
36.1316948144
 30
0.0
  0
SPLINE
  5
2B3
100
AcDbEntity
  8
0
100
AcDbSpline
 62
7
  6
BYLAYER
 70
0
 71
3
 72
15
 73
11
 74
0
 42
0.0000001
 43
0.0000001
 44
0.0000000001
 40
0.0
 40
0.0
 40
0.0
 40
0.0
 40
0.0999805399
 40
0.2069613742
 40
0.3215737685
 40
0.4439378241
 40
0.5737469989
 40
0.710331763
 40
0.8528168002
 40
1.0
 40
1.0
 40
1.0
 40
1.0
 10
18.3657801892
 20
41.4655905275
 30
0.0
 10
18.5732898047
 20
41.4659402591
 30
0.0
 10
19.0034627897
 20
41.4280781493
 30
0.0
 10
19.6537426181
 20
41.2688287591
 30
0.0
 10
20.3204451191
 20
41.0084724234
 30
0.0
 10
20.994242264
 20
40.6510341817
 30
0.0
 10
21.6659260664
 20
40.2017202723
 30
0.0
 10
22.3262497125
 20
39.6669581649
 30
0.0
 10
22.9657707062
 20
39.0543510151
 30
0.0
 10
23.3670349036
 20
38.605760326
 30
0.0
 10
23.5623487094
 20
38.370877287
 30
0.0
  0
SPLINE
  5
2B4
100
AcDbEntity
  8
0
100
AcDbSpline
 62
7
  6
BYLAYER
 70
0
 71
3
 72
18
 73
14
 74
0
 42
0.0000001
 43
0.0000001
 44
0.0000000001
 40
0.0
 40
0.0
 40
0.0
 40
0.0
 40
0.157014589
 40
0.3067471559
 40
0.447185826
 40
0.5769999621
 40
0.6377858068
 40
0.6958299039
 40
0.8041412735
 40
0.8550955082
 40
0.9043785808
 40
0.9524916273
 40
1.0
 40
1.0
 40
1.0
 40
1.0
 10
20.0625668972
 20
35.9275727374
 30
0.0
 10
19.8423472691
 20
36.1936321536
 30
0.0
 10
19.3868684314
 20
36.6932376052
 30
0.0
 10
18.6501795266
 20
37.347997881
 30
0.0
 10
17.8907293246
 20
37.8780400572
 30
0.0
 10
17.2402687267
 20
38.2118527532
 30
0.0
 10
16.7260174575
 20
38.4000835974
 30
0.0
 10
16.2431157277
 20
38.5297852884
 30
0.0
 10
15.7642273075
 20
38.5875166511
 30
0.0
 10
15.3052653188
 20
38.5611266798
 30
0.0
 10
14.9834571208
 20
38.5016347655
 30
0.0
 10
14.6795656823
 20
38.4024644004
 30
0.0
 10
14.4897938427
 20
38.3099116841
 30
0.0
 10
14.3992954421
 20
38.2576568668
 30
0.0
  0
SPLINE
  5
2B5
100
AcDbEntity
  8
0
100
AcDbSpline
 62
7
  6
BYLAYER
 70
0
 71
3
 72
21
 73
17
 74
0
 42
0.0000001
 43
0.0000001
 44
0.0000000001
 40
0.0
 40
0.0
 40
0.0
 40
0.0
 40
0.0474937594
 40
0.0955911404
 40
0.1448595599
 40
0.1957967317
 40
0.2488152288
 40
0.3042279469
 40
0.3622551225
 40
0.4230210505
 40
0.4865734884
 40
0.5528829295
 40
0.6218605143
 40
0.6933512284
 40
0.8430310187
 40
1.0
 40
1.0
 40
1.0
 40
1.0
 10
18.9361530381
 20
42.3203781258
 30
0.0
 10
19.0434180161
 20
42.3822982231
 30
0.0
 10
19.2683345459
 20
42.4919747434
 30
0.0
 10
19.6284971862
 20
42.6095591648
 30
0.0
 10
20.0098810199
 20
42.6800111717
 30
0.0
 10
20.4097632556
 20
42.7030363568
 30
0.0
 10
20.8255059177
 20
42.6786149001
 30
0.0
 10
21.2544314554
 20
42.6071498236
 30
0.0
 10
21.6938052826
 20
42.4891448022
 30
0.0
 10
22.1408973307
 20
42.3255406944
 30
0.0
 10
22.5928642247
 20
42.1173445941
 30
0.0
 10
23.0469069309
 20
41.8660060839
 30
0.0
 10
23.5001023243
 20
41.5730655183
 30
0.0
 10
24.1087154008
 20
41.1227853398
 30
0.0
 10
24.8473961425
 20
40.4661981439
 30
0.0
 10
25.3871757328
 20
39.8741262926
 30
0.0
 10
25.6481829849
 20
39.5587891099
 30
0.0
  0
SPLINE
  5
2B6
100
AcDbEntity
  8
0
100
AcDbSpline
 62
7
  6
BYLAYER
 70
0
 71
3
 72
23
 73
19
 74
0
 42
0.0000001
 43
0.0000001
 44
0.0000000001
 40
0.0
 40
0.0
 40
0.0
 40
0.0
 40
0.083266239
 40
0.1639636457
 40
0.2414101461
 40
0.3151229612
 40
0.3847218832
 40
0.4500174865
 40
0.5110463029
 40
0.5681108399
 40
0.6218284748
 40
0.6731389205
 40
0.7232574601
 40
0.773553433
 40
0.8253722803
 40
0.8798679103
 40
0.937899358
 40
1.0
 40
1.0
 40
1.0
 40
1.0
 10
20.7720755997
 20
36.6785634157
 30
0.0
 10
20.5838159608
 20
36.9060102153
 30
0.0
 10
20.1970257754
 20
37.3409034898
 30
0.0
 10
19.580830462
 20
37.9362988706
 30
0.0
 10
18.9443001614
 20
38.4581973802
 30
0.0
 10
18.2963007549
 20
38.8993705654
 30
0.0
 10
17.6454692194
 20
39.2537495785
 30
0.0
 10
17.0005116796
 20
39.5163486527
 30
0.0
 10
16.3699305944
 20
39.6832857491
 30
0.0
 10
15.7620307198
 20
39.751581016
 30
0.0
 10
15.1851373061
 20
39.7193043837
 30
0.0
 10
14.6478406472
 20
39.5856858487
 30
0.0
 10
14.1591132815
 20
39.3517731863
 30
0.0
 10
13.7275488427
 20
39.0212770778
 30
0.0
 10
13.3601182478
 20
38.6003529088
 30
0.0
 10
13.0617292398
 20
38.0963972302
 30
0.0
 10
12.8357061388
 20
37.517448855
 30
0.0
 10
12.7380843027
 20
37.101325632
 30
0.0
 10
12.7006649722
 20
36.8843269497
 30
0.0
  0
SPLINE
  5
2B7
100
AcDbEntity
  8
0
100
AcDbSpline
 62
7
  6
BYLAYER
 70
0
 71
3
 72
20
 73
16
 74
0
 42
0.0000001
 43
0.0000001
 44
0.0000000001
 40
0.0
 40
0.0
 40
0.0
 40
0.0
 40
0.0428305003
 40
0.0874294165
 40
0.135231355
 40
0.1871614829
 40
0.2436310239
 40
0.3046112396
 40
0.3697363172
 40
0.4383710902
 40
0.5826208773
 40
0.729685327
 40
0.8711937848
 40
0.9376359647
 40
1.0
 40
1.0
 40
1.0
 40
1.0
 10
13.9508964602
 20
34.7885627238
 30
0.0
 10
13.9755432301
 20
34.8028056633
 30
0.0
 10
14.0298914748
 20
34.8253822961
 30
0.0
 10
14.1195936927
 20
34.8385406769
 30
0.0
 10
14.2159224536
 20
34.831433466
 30
0.0
 10
14.3167427095
 20
34.8046668376
 30
0.0
 10
14.4200581489
 20
34.7589894416
 30
0.0
 10
14.5238379044
 20
34.695522735
 30
0.0
 10
14.6259446104
 20
34.6155641163
 30
0.0
 10
14.7592213323
 20
34.4872181947
 30
0.0
 10
14.9073091743
 20
34.297558326
 30
0.0
 10
15.0447850678
 20
34.043514459
 30
0.0
 10
15.1208956964
 20
33.8185823939
 30
0.0
 10
15.152333319
 20
33.6414254486
 30
0.0
 10
15.1579949769
 20
33.555759413
 30
0.0
 10
15.1579949769
 20
33.5143107457
 30
0.0
  0
SPLINE
  5
2B8
100
AcDbEntity
  8
0
100
AcDbSpline
 62
7
  6
BYLAYER
 70
0
 71
3
 72
23
 73
19
 74
0
 42
0.0000001
 43
0.0000001
 44
0.0000000001
 40
0.0
 40
0.0
 40
0.0
 40
0.0
 40
0.073831372
 40
0.1486740751
 40
0.2237988803
 40
0.2985653937
 40
0.3723078458
 40
0.4443884765
 40
0.514223303
 40
0.5812936452
 40
0.6451721951
 40
0.7055488525
 40
0.7622649361
 40
0.8153439352
 40
0.8650288028
 40
0.9118189706
 40
0.9564775841
 40
1.0
 40
1.0
 40
1.0
 40
1.0
 10
20.4161188158
 20
36.1316948144
 30
0.0
 10
20.5795857049
 20
35.9342014962
 30
0.0
 10
20.8946684655
 20
35.5246379223
 30
0.0
 10
21.3259427878
 20
34.8775184643
 30
0.0
 10
21.7146063941
 20
34.2001571333
 30
0.0
 10
22.0554307619
 20
33.5017611304
 30
0.0
 10
22.343960561
 20
32.7915543786
 30
0.0
 10
22.5763204949
 20
32.0789850546
 30
0.0
 10
22.7493900983
 20
31.3735102544
 30
0.0
 10
22.8609032149
 20
30.684471769
 30
0.0
 10
22.9093379037
 20
30.020947081
 30
0.0
 10
22.8939152159
 20
29.3916269574
 30
0.0
 10
22.8147176744
 20
28.8047089426
 30
0.0
 10
22.6724431759
 20
28.2678212553
 30
0.0
 10
22.4683842868
 20
27.7881020476
 30
0.0
 10
22.2045280759
 20
27.3721908767
 30
0.0
 10
21.8839624707
 20
27.0265935742
 30
0.0
 10
21.6336743077
 20
26.8460180611
 30
0.0
 10
21.5027993236
 20
26.7704493807
 30
0.0
  0
SPLINE
  5
2B9
100
AcDbEntity
  8
0
100
AcDbSpline
 62
7
  6
BYLAYER
 70
0
 71
3
 72
12
 73
8
 74
0
 42
0.0000001
 43
0.0000001
 44
0.0000000001
 40
0.0
 40
0.0
 40
0.0
 40
0.0
 40
0.1081682869
 40
0.2183546418
 40
0.4513100563
 40
0.7105879139
 40
1.0
 40
1.0
 40
1.0
 40
1.0
 10
7.8798341033
 20
28.9741013826
 30
0.0
 10
7.8962263536
 20
28.9835740805
 30
0.0
 10
7.9277412421
 20
29.0055783276
 30
0.0
 10
7.9843138308
 20
29.0611573634
 30
0.0
 10
8.0403287575
 20
29.152493288
 30
0.0
 10
8.0792322246
 20
29.2848408907
 30
0.0
 10
8.0869566047
 20
29.3812140507
 30
0.0
 10
8.0869566047
 20
29.431869207
 30
0.0
  0
SPLINE
  5
2BA
100
AcDbEntity
  8
0
100
AcDbSpline
 62
7
  6
BYLAYER
 70
0
 71
3
 72
21
 73
17
 74
0
 42
0.0000001
 43
0.0000001
 44
0.0000000001
 40
0.0
 40
0.0
 40
0.0
 40
0.0
 40
0.1569713573
 40
0.3066474287
 40
0.3781401973
 40
0.4471175137
 40
0.5134265379
 40
0.5769787377
 40
0.6377450999
 40
0.695772085
 40
0.7511849313
 40
0.8042032606
 40
0.8551406056
 40
0.904408877
 40
0.9525064203
 40
1.0
 40
1.0
 40
1.0
 40
1.0
 10
26.694293283
 20
40.4878605032
 30
0.0
 10
26.4006556078
 20
40.8426202905
 30
0.0
 10
25.793410342
 20
41.5087031744
 30
0.0
 10
24.9623829671
 20
42.2473533038
 30
0.0
 10
24.2777058574
 20
42.7539263488
 30
0.0
 10
23.7678547936
 20
43.0834827742
 30
0.0
 10
23.2570592489
 20
43.3662377197
 30
0.0
 10
22.7485958059
 20
43.600455487
 30
0.0
 10
22.2456184349
 20
43.7845136384
 30
0.0
 10
21.7513212528
 20
43.9172685306
 30
0.0
 10
21.2687805887
 20
43.9976656375
 30
0.0
 10
20.8010694223
 20
44.0251416132
 30
0.0
 10
20.3512029666
 20
43.9992346383
 30
0.0
 10
19.9221430954
 20
43.9199829575
 30
0.0
 10
19.5169675025
 20
43.7876858878
 30
0.0
 10
19.263922423
 20
43.6643250587
 30
0.0
 10
19.1432578502
 20
43.5946511649
 30
0.0
  0
SPLINE
  5
2BB
100
AcDbEntity
  8
0
100
AcDbSpline
 62
7
  6
BYLAYER
 70
0
 71
3
 72
10
 73
6
 74
0
 42
0.0000001
 43
0.0000001
 44
0.0000000001
 40
0.0
 40
0.0
 40
0.0
 40
0.0
 40
0.5182443863
 40
0.7612865257
 40
1.0
 40
1.0
 40
1.0
 40
1.0
 10
16.7159424685
 20
33.6607153833
 30
0.0
 10
16.6890375767
 20
33.5945304771
 30
0.0
 10
16.6348952647
 20
33.5014945783
 30
0.0
 10
16.5342294849
 20
33.4062914354
 30
0.0
 10
16.4774777066
 20
33.3707658189
 30
0.0
 10
16.4479824082
 20
33.3561709027
 30
0.0
  0
SPLINE
  5
2BC
100
AcDbEntity
  8
0
100
AcDbSpline
 62
7
  6
BYLAYER
 70
0
 71
3
 72
9
 73
5
 74
0
 42
0.0000001
 43
0.0000001
 44
0.0000000001
 40
0.0
 40
0.0
 40
0.0
 40
0.0
 40
0.2698564128
 40
1.0
 40
1.0
 40
1.0
 40
1.0
 10
16.7847144211
 20
34.0533580678
 30
0.0
 10
16.7847144211
 20
34.0173838115
 30
0.0
 10
16.7796275152
 20
33.8842749371
 30
0.0
 10
16.7525971856
 20
33.7508844511
 30
0.0
 10
16.7159424685
 20
33.6607153833
 30
0.0
  0
SPLINE
  5
2BD
100
AcDbEntity
  8
0
100
AcDbSpline
 62
7
  6
BYLAYER
 70
0
 71
3
 72
11
 73
7
 74
0
 42
0.0000001
 43
0.0000001
 44
0.0000000001
 40
0.0
 40
0.0
 40
0.0
 40
0.0
 40
0.2336690028
 40
0.4793761385
 40
0.735527482
 40
1.0
 40
1.0
 40
1.0
 40
1.0
 10
40.3292682547
 20
52.6193613654
 30
0.0
 10
40.5898359197
 20
52.4623206642
 30
0.0
 10
41.1079170633
 20
52.1122330555
 30
0.0
 10
41.8506887478
 20
51.5060223307
 30
0.0
 10
42.5698261218
 20
50.8129204588
 30
0.0
 10
43.0209651345
 20
50.3060336974
 30
0.0
 10
43.2405230738
 20
50.0407737038
 30
0.0
  0
SPLINE
  5
2BE
100
AcDbEntity
  8
0
100
AcDbSpline
 62
7
  6
BYLAYER
 70
0
 71
3
 72
9
 73
5
 74
0
 42
0.0000001
 43
0.0000001
 44
0.0000000001
 40
0.0
 40
0.0
 40
0.0
 40
0.0
 40
0.483163562
 40
1.0
 40
1.0
 40
1.0
 40
1.0
 10
15.5784768314
 20
33.4263009595
 30
0.0
 10
15.5784768314
 20
33.4922476881
 30
0.0
 10
15.5683588248
 20
33.6288289348
 30
0.0
 10
15.5416712529
 20
33.7630120244
 30
0.0
 10
15.5242684722
 20
33.8313744314
 30
0.0
  0
SPLINE
  5
2BF
100
AcDbEntity
  8
0
100
AcDbSpline
 62
7
  6
BYLAYER
 70
0
 71
3
 72
19
 73
15
 74
0
 42
0.0000001
 43
0.0000001
 44
0.0000000001
 40
0.0
 40
0.0
 40
0.0
 40
0.0
 40
0.143891237
 40
0.2927021958
 40
0.4399433404
 40
0.5793325159
 40
0.6444805515
 40
0.7059076572
 40
0.7633310475
 40
0.81672012
 40
0.8663149912
 40
0.9127124181
 40
0.9568546872
 40
1.0
 40
1.0
 40
1.0
 40
1.0
 10
15.5242684722
 20
33.8313744314
 30
0.0
 10
15.495602048
 20
33.9439832029
 30
0.0
 10
15.4172822266
 20
34.1682631372
 30
0.0
 10
15.2508467364
 20
34.4835108237
 30
0.0
 10
15.0423345669
 20
34.7682290584
 30
0.0
 10
14.8398732707
 20
34.9696738857
 30
0.0
 10
14.6676889097
 20
35.0985730802
 30
0.0
 10
14.5399946167
 20
35.1751402926
 30
0.0
 10
14.4128439263
 20
35.2324046564
 30
0.0
 10
14.2882553167
 20
35.2694909908
 30
0.0
 10
14.168121927
 20
35.2855127573
 30
0.0
 10
14.0543690567
 20
35.2800793049
 30
0.0
 10
13.9490919461
 20
35.2528156302
 30
0.0
 10
13.885788176
 20
35.2202522674
 30
0.0
 10
13.85679659
 20
35.2009268631
 30
0.0
  0
SPLINE
  5
2C0
100
AcDbEntity
  8
0
100
AcDbSpline
 62
7
  6
BYLAYER
 70
0
 71
3
 72
22
 73
18
 74
0
 42
0.0000001
 43
0.0000001
 44
0.0000000001
 40
0.0
 40
0.0
 40
0.0
 40
0.0
 40
0.0750135811
 40
0.1525197062
 40
0.3090973958
 40
0.385663325
 40
0.4592811099
 40
0.5288494209
 40
0.5935392674
 40
0.6528849327
 40
0.7069403026
 40
0.7564219069
 40
0.8027924285
 40
0.8481760055
 40
0.894926799
 40
0.9450708987
 40
1.0
 40
1.0
 40
1.0
 40
1.0
 10
15.2567262378
 20
33.7779571569
 30
0.0
 10
15.2413197234
 20
33.8384777384
 30
0.0
 10
15.2031918384
 20
33.9598930097
 30
0.0
 10
15.1022346302
 20
34.1968837808
 30
0.0
 10
14.9675100163
 20
34.4198283863
 30
0.0
 10
14.8054450449
 20
34.6176077688
 30
0.0
 10
14.6754223241
 20
34.7468294312
 30
0.0
 10
14.5394918752
 20
34.8545903342
 30
0.0
 10
14.4010818319
 20
34.9381665354
 30
0.0
 10
14.2635546726
 20
34.9952993173
 30
0.0
 10
14.1301942012
 20
35.0243106533
 30
0.0
 10
14.0042136268
 20
35.023911318
 30
0.0
 10
13.8892039614
 20
34.9930938382
 30
0.0
 10
13.789390361
 20
34.9322318288
 30
0.0
 10
13.7085155385
 20
34.8437196789
 30
0.0
 10
13.648701859
 20
34.7311300337
 30
0.0
 10
13.6245928966
 20
34.6463943215
 30
0.0
 10
13.6157737441
 20
34.6015228478
 30
0.0
  0
SPLINE
  5
2C1
100
AcDbEntity
  8
0
100
AcDbSpline
 62
7
  6
BYLAYER
 70
0
 71
3
 72
9
 73
5
 74
0
 42
0.0000001
 43
0.0000001
 44
0.0000000001
 40
0.0
 40
0.0
 40
0.0
 40
0.0
 40
0.4831637088
 40
1.0
 40
1.0
 40
1.0
 40
1.0
 10
15.3032293121
 20
33.4304618046
 30
0.0
 10
15.3032293121
 20
33.487034722
 30
0.0
 10
15.2945493006
 20
33.6042019595
 30
0.0
 10
15.2716553407
 20
33.7193119654
 30
0.0
 10
15.2567262378
 20
33.7779571569
 30
0.0
  0
SPLINE
  5
2C2
100
AcDbEntity
  8
0
100
AcDbSpline
 62
7
  6
BYLAYER
 70
0
 71
3
 72
15
 73
11
 74
0
 42
0.0000001
 43
0.0000001
 44
0.0000000001
 40
0.0
 40
0.0
 40
0.0
 40
0.0
 40
0.1330546258
 40
0.2541883173
 40
0.3671585387
 40
0.4775928891
 40
0.5917622431
 40
0.7149772178
 40
0.8507233929
 40
1.0
 40
1.0
 40
1.0
 40
1.0
 10
14.6237575304
 20
32.8590108106
 30
0.0
 10
14.6689415716
 20
32.8437262663
 30
0.0
 10
14.7581691315
 20
32.821962994
 30
0.0
 10
14.8910699404
 20
32.8198860575
 30
0.0
 10
15.0123001371
 20
32.8512832474
 30
0.0
 10
15.116817929
 20
32.9158730365
 30
0.0
 10
15.2002385961
 20
33.0107413877
 30
0.0
 10
15.2602745255
 20
33.1316881896
 30
0.0
 10
15.2960304243
 20
33.2745178621
 30
0.0
 10
15.3032293121
 20
33.376947118
 30
0.0
 10
15.3032293121
 20
33.4304618046
 30
0.0
  0
SPLINE
  5
2C3
100
AcDbEntity
  8
0
100
AcDbSpline
 62
7
  6
BYLAYER
 70
0
 71
3
 72
12
 73
8
 74
0
 42
0.0000001
 43
0.0000001
 44
0.0000000001
 40
0.0
 40
0.0
 40
0.0
 40
0.0
 40
0.289423478
 40
0.5486976308
 40
0.7816470647
 40
0.8918328264
 40
1.0
 40
1.0
 40
1.0
 40
1.0
 10
15.1579949769
 20
33.5143107457
 30
0.0
 10
15.1579949769
 20
33.4636535298
 30
0.0
 10
15.1502706473
 20
33.3672788947
 30
0.0
 10
15.1113663635
 20
33.2349307709
 30
0.0
 10
15.0553502813
 20
33.1435977185
 30
0.0
 10
14.9987796193
 20
33.0880188478
 30
0.0
 10
14.9672661035
 20
33.0660129631
 30
0.0
 10
14.9508740432
 20
33.0565402767
 30
0.0
  0
SPLINE
  5
2C4
100
AcDbEntity
  8
0
100
AcDbSpline
 62
7
  6
BYLAYER
 70
0
 71
3
 72
21
 73
17
 74
0
 42
0.0000001
 43
0.0000001
 44
0.0000000001
 40
0.0
 40
0.0
 40
0.0
 40
0.0
 40
0.1569689813
 40
0.3066487716
 40
0.3781394857
 40
0.4471170705
 40
0.5134265116
 40
0.5769789495
 40
0.6377448775
 40
0.6957720531
 40
0.7511847712
 40
0.8042032683
 40
0.8551404401
 40
0.9044088596
 40
0.9525062406
 40
1.0
 40
1.0
 40
1.0
 40
1.0
 10
20.9812976593
 20
36.8643776944
 30
0.0
 10
20.7202904072
 20
37.1797148771
 30
0.0
 10
20.1805108169
 20
37.7717867283
 30
0.0
 10
19.4418300752
 20
38.4283739242
 30
0.0
 10
18.8332169987
 20
38.8786541027
 30
0.0
 10
18.3800216053
 20
39.1715946684
 30
0.0
 10
17.9259788991
 20
39.4229331785
 30
0.0
 10
17.474012005
 20
39.6311292788
 30
0.0
 10
17.026919957
 20
39.7947333866
 30
0.0
 10
16.5875461298
 20
39.9127384081
 30
0.0
 10
16.158620592
 20
39.9842034845
 30
0.0
 10
15.74287793
 20
40.0086249413
 30
0.0
 10
15.3429956943
 20
39.9855997562
 30
0.0
 10
14.9616118606
 20
39.9151477492
 30
0.0
 10
14.6014492202
 20
39.7975633278
 30
0.0
 10
14.3765326905
 20
39.6878868076
 30
0.0
 10
14.2692677125
 20
39.6259667102
 30
0.0
  0
SPLINE
  5
2C5
100
AcDbEntity
  8
0
100
AcDbSpline
 62
7
  6
BYLAYER
 70
0
 71
3
 72
20
 73
16
 74
0
 42
0.0000001
 43
0.0000001
 44
0.0000000001
 40
0.0
 40
0.0
 40
0.0
 40
0.0
 40
0.0623646044
 40
0.1288050383
 40
0.2703051791
 40
0.4173629131
 40
0.5616119072
 40
0.6302495432
 40
0.6953765372
 40
0.7563593032
 40
0.8128296619
 40
0.8647616635
 40
0.9125646663
 40
0.9571664617
 40
1.0
 40
1.0
 40
1.0
 40
1.0
 10
8.0869566047
 20
29.431869207
 30
0.0
 10
8.0869566047
 20
29.4733182348
 30
0.0
 10
8.0812953507
 20
29.5589834709
 30
0.0
 10
8.0498588289
 20
29.7361341542
 30
0.0
 10
7.9737529612
 20
29.9610555354
 30
0.0
 10
7.8362872765
 20
30.215093016
 30
0.0
 10
7.6882028434
 20
30.4047508686
 30
0.0
 10
7.5549300269
 20
30.5331048863
 30
0.0
 10
7.4528187122
 20
30.6130651019
 30
0.0
 10
7.3490398443
 20
30.6765404522
 30
0.0
 10
7.2457201281
 20
30.722215732
 30
0.0
 10
7.1448996794
 20
30.748992825
 30
0.0
 10
7.0485670039
 20
30.7560946968
 30
0.0
 10
6.958858575
 20
30.7429454198
 30
0.0
 10
6.9045082275
 20
30.7203623732
 30
0.0
 10
6.8798596559
 20
30.7061185404
 30
0.0
  0
SPLINE
  5
2C6
100
AcDbEntity
  8
0
100
AcDbSpline
 62
7
  6
BYLAYER
 70
0
 71
3
 72
9
 73
5
 74
0
 42
0.0000001
 43
0.0000001
 44
0.0000000001
 40
0.0
 40
0.0
 40
0.0
 40
0.0
 40
0.5033607359
 40
1.0
 40
1.0
 40
1.0
 40
1.0
 10
19.2210945119
 20
33.0421838788
 30
0.0
 10
19.0613420605
 20
33.3295888081
 30
0.0
 10
18.7180747255
 20
33.8865441314
 30
0.0
 10
18.3255974552
 20
34.4100817867
 30
0.0
 10
18.1187338833
 20
34.6600050185
 30
0.0
  0
SPLINE
  5
2C7
100
AcDbEntity
  8
0
100
AcDbSpline
 62
7
  6
BYLAYER
 70
0
 71
3
 72
21
 73
17
 74
0
 42
0.0000001
 43
0.0000001
 44
0.0000000001
 40
0.0
 40
0.0
 40
0.0
 40
0.0
 40
0.0463456832
 40
0.0924928077
 40
0.1394288809
 40
0.1880610715
 40
0.2391386784
 40
0.2932091562
 40
0.3506203506
 40
0.4115266575
 40
0.475920846
 40
0.5436569446
 40
0.6144744407
 40
0.6880225274
 40
0.8414407806
 40
1.0
 40
1.0
 40
1.0
 40
1.0
 10
18.7159211321
 20
25.7343247269
 30
0.0
 10
18.8369357632
 20
25.7729901037
 30
0.0
 10
19.0723019222
 20
25.8714784176
 30
0.0
 10
19.3939983728
 20
26.0815598987
 30
0.0
 10
19.6775752615
 20
26.3499976959
 30
0.0
 10
19.9197036959
 20
26.6730926499
 30
0.0
 10
20.1179634344
 20
27.0468197767
 30
0.0
 10
20.2707236942
 20
27.4667714676
 30
0.0
 10
20.3766094788
 20
27.9283872846
 30
0.0
 10
20.4348290482
 20
28.4267237458
 30
0.0
 10
20.4449138941
 20
28.9565230578
 30
0.0
 10
20.4068122259
 20
29.5121712347
 30
0.0
 10
20.3210585543
 20
30.0878008994
 30
0.0
 10
20.1417725001
 20
30.8847755109
 30
0.0
 10
19.8037121606
 20
31.8893720007
 30
0.0
 10
19.4322573868
 20
32.6622882928
 30
0.0
 10
19.2210945119
 20
33.0421838788
 30
0.0
  0
SPLINE
  5
2C8
100
AcDbEntity
  8
0
100
AcDbSpline
 62
7
  6
BYLAYER
 70
0
 71
3
 72
9
 73
5
 74
0
 42
0.0000001
 43
0.0000001
 44
0.0000000001
 40
0.0
 40
0.0
 40
0.0
 40
0.0
 40
0.5128059837
 40
1.0
 40
1.0
 40
1.0
 40
1.0
 10
13.8100241638
 20
28.1115051748
 30
0.0
 10
14.019290172
 20
27.8599183952
 30
0.0
 10
14.4523148903
 20
27.3894143316
 30
0.0
 10
14.9350830301
 20
26.969462251
 30
0.0
 10
15.1823418884
 20
26.7809911075
 30
0.0
  0
SPLINE
  5
2C9
100
AcDbEntity
  8
0
100
AcDbSpline
 62
7
  6
BYLAYER
 70
0
 71
3
 72
28
 73
24
 74
0
 42
0.0000001
 43
0.0000001
 44
0.0000000001
 40
0.0
 40
0.0
 40
0.0
 40
0.0
 40
0.0690345884
 40
0.1328763329
 40
0.1914070612
 40
0.2450456344
 40
0.2703798174
 40
0.2949468286
 40
0.3189821082
 40
0.3427478722
 40
0.3665228767
 40
0.3905845276
 40
0.4151949002
 40
0.4405851115
 40
0.4669506064
 40
0.4944413971
 40
0.5531416313
 40
0.6171571912
 40
0.686351839
 40
0.7601840433
 40
0.8377984376
 40
0.9181474297
 40
1.0
 40
1.0
 40
1.0
 40
1.0
 10
15.2789589568
 20
26.7086398158
 30
0.0
 10
15.4909310388
 20
26.5527355078
 30
0.0
 10
15.9164106034
 20
26.2752004997
 30
0.0
 10
16.5777293673
 20
25.9611424194
 30
0.0
 10
17.2247103065
 20
25.7718632563
 30
0.0
 10
17.7507772626
 20
25.7224859248
 30
0.0
 10
18.145028033
 20
25.75371826
 30
0.0
 10
18.4219303157
 20
25.8099824245
 30
0.0
 10
18.6837748786
 20
25.8991733145
 30
0.0
 10
18.9288457907
 20
26.0208934226
 30
0.0
 10
19.1555403605
 20
26.1743121916
 30
0.0
 10
19.362405414
 20
26.3584112805
 30
0.0
 10
19.5481225559
 20
26.5719791187
 30
0.0
 10
19.7116949037
 20
26.8135432379
 30
0.0
 10
19.8521197589
 20
27.0816483875
 30
0.0
 10
20.0110684897
 20
27.4808360092
 30
0.0
 10
20.1443346419
 20
28.0409923609
 30
0.0
 10
20.1996038209
 20
28.772794817
 30
0.0
 10
20.1535069976
 20
29.5626765897
 30
0.0
 10
20.0073616175
 20
30.3925516888
 30
0.0
 10
19.7647415862
 20
31.2436113772
 30
0.0
 10
19.4312517953
 20
32.0960185213
 30
0.0
 10
19.154588079
 20
32.6499911547
 30
0.0
 10
19.0030127755
 20
32.9226848693
 30
0.0
  0
SPLINE
  5
2CA
100
AcDbEntity
  8
0
100
AcDbSpline
 62
7
  6
BYLAYER
 70
0
 71
3
 72
11
 73
7
 74
0
 42
0.0000001
 43
0.0000001
 44
0.0000000001
 40
0.0
 40
0.0
 40
0.0
 40
0.0
 40
0.2471093523
 40
0.4987755723
 40
0.7510971769
 40
1.0
 40
1.0
 40
1.0
 40
1.0
 10
11.9821625524
 20
31.3712519092
 30
0.0
 10
12.0808182792
 20
31.0800134958
 30
0.0
 10
12.3086104384
 20
30.501526214
 30
0.0
 10
12.7287757845
 20
29.6653231883
 30
0.0
 10
13.2225339248
 20
28.8677327613
 30
0.0
 10
13.5975976921
 20
28.3681049789
 30
0.0
 10
13.7950863439
 20
28.1295081025
 30
0.0
  0
SPLINE
  5
2CB
100
AcDbEntity
  8
0
100
AcDbSpline
 62
7
  6
BYLAYER
 70
0
 71
3
 72
24
 73
20
 74
0
 42
0.0000001
 43
0.0000001
 44
0.0000000001
 40
0.0
 40
0.0
 40
0.0
 40
0.0
 40
0.0217149337
 40
0.0435747155
 40
0.0882312464
 40
0.1350193211
 40
0.1847020317
 40
0.2377778928
 40
0.2944911971
 40
0.3548646788
 40
0.4187383986
 40
0.4858042553
 40
0.5556352292
 40
0.6277123215
 40
0.7014501646
 40
0.7762145694
 40
0.8513355137
 40
0.9261656555
 40
1.0
 40
1.0
 40
1.0
 40
1.0
 10
28.1432124208
 20
28.0061795324
 30
0.0
 10
28.2302814394
 20
28.0564547492
 30
0.0
 10
28.4000430347
 20
28.1662400856
 30
0.0
 10
28.7196980271
 20
28.4214981018
 30
0.0
 10
29.0789731051
 20
28.8085836497
 30
0.0
 10
29.4306360784
 20
29.3630549939
 30
0.0
 10
29.702740461
 20
30.0027162977
 30
0.0
 10
29.8924494475
 20
30.718556139
 30
0.0
 10
29.9980379677
 20
31.5011208287
 30
0.0
 10
30.0185729708
 20
32.3402094287
 30
0.0
 10
29.9540256217
 20
33.224901883
 30
0.0
 10
29.805341554
 20
34.1436118876
 30
0.0
 10
29.5745504113
 20
35.0842352271
 30
0.0
 10
29.2647557419
 20
36.0343320816
 30
0.0
 10
28.8800676549
 20
36.981292989
 30
0.0
 10
28.4255936675
 20
37.9124770184
 30
0.0
 10
27.9073989438
 20
38.8156047026
 30
0.0
 10
27.3323916085
 20
39.6784424234
 30
0.0
 10
26.9122699732
 20
40.2245109033
 30
0.0
 10
26.694293283
 20
40.4878605032
 30
0.0
  0
SPLINE
  5
2CC
100
AcDbEntity
  8
0
100
AcDbSpline
 62
7
  6
BYLAYER
 70
0
 71
3
 72
26
 73
22
 74
0
 42
0.0000001
 43
0.0000001
 44
0.0000000001
 40
0.0
 40
0.0
 40
0.0
 40
0.0
 40
0.0825726788
 40
0.1622795382
 40
0.2383399958
 40
0.3102120944
 40
0.3775095644
 40
0.4401153286
 40
0.4982340391
 40
0.5524526108
 40
0.5784318582
 40
0.6038490346
 40
0.6288881612
 40
0.653748948
 40
0.6786380878
 40
0.7037611789
 40
0.7554085248
 40
0.810112112
 40
0.8688138391
 40
0.932072845
 40
1.0
 40
1.0
 40
1.0
 40
1.0
 10
17.9350993362
 20
34.4899514177
 30
0.0
 10
17.7739893135
 20
34.6845972761
 30
0.0
 10
17.4423390449
 20
35.0550373521
 30
0.0
 10
16.9117364171
 20
35.5566806387
 30
0.0
 10
16.3635527984
 20
35.9881711084
 30
0.0
 10
15.8068560532
 20
36.3424016507
 30
0.0
 10
15.2504413701
 20
36.6134811196
 30
0.0
 10
14.7030501946
 20
36.7967397141
 30
0.0
 10
14.1733742516
 20
36.88868627
 30
0.0
 10
13.7473294744
 20
36.8868880744
 30
0.0
 10
13.4276010061
 20
36.8363783301
 30
0.0
 10
13.2012263068
 20
36.7757555136
 30
0.0
 10
12.9859913252
 20
36.6920431582
 30
0.0
 10
12.7828760519
 20
36.5855641844
 30
0.0
 10
12.5927451242
 20
36.4568455613
 30
0.0
 10
12.3556770538
 20
36.2545757435
 30
0.0
 10
12.094417524
 20
35.9444179248
 30
0.0
 10
11.8500990754
 20
35.4992041263
 30
0.0
 10
11.6742555649
 20
34.9855444021
 30
0.0
 10
11.5690927143
 20
34.4122950311
 30
0.0
 10
11.547412195
 20
34.0103446668
 30
0.0
 10
11.547412195
 20
33.8024873947
 30
0.0
  0
SPLINE
  5
2CD
100
AcDbEntity
  8
0
100
AcDbSpline
 62
7
  6
BYLAYER
 70
0
 71
3
 72
9
 73
5
 74
0
 42
0.0000001
 43
0.0000001
 44
0.0000000001
 40
0.0
 40
0.0
 40
0.0
 40
0.0
 40
0.510981787
 40
1.0
 40
1.0
 40
1.0
 40
1.0
 10
18.5176850212
 20
41.5075454861
 30
0.0
 10
18.3452918161
 20
41.5153318146
 30
0.0
 10
18.00624591
 20
41.5068218421
 30
0.0
 10
17.6725513432
 20
41.4442198269
 30
0.0
 10
17.5135111488
 20
41.3997091065
 30
0.0
  0
SPLINE
  5
2CE
100
AcDbEntity
  8
0
100
AcDbSpline
 62
7
  6
BYLAYER
 70
0
 71
3
 72
9
 73
5
 74
0
 42
0.0000001
 43
0.0000001
 44
0.0000000001
 40
0.0
 40
0.0
 40
0.0
 40
0.0
 40
0.5026428606
 40
1.0
 40
1.0
 40
1.0
 40
1.0
 10
17.5135111488
 20
41.3997091065
 30
0.0
 10
17.4042989301
 20
41.369143786
 30
0.0
 10
17.190465319
 20
41.2951743728
 30
0.0
 10
16.9875184108
 20
41.1950544331
 30
0.0
 10
16.8902197382
 20
41.1391488189
 30
0.0
  0
SPLINE
  5
2CF
100
AcDbEntity
  8
0
100
AcDbSpline
 62
7
  6
BYLAYER
 70
0
 71
3
 72
9
 73
5
 74
0
 42
0.0000001
 43
0.0000001
 44
0.0000000001
 40
0.0
 40
0.0
 40
0.0
 40
0.0
 40
0.5033607104
 40
1.0
 40
1.0
 40
1.0
 40
1.0
 10
19.0030127755
 20
32.9226848693
 30
0.0
 10
18.8482523694
 20
33.2011087881
 30
0.0
 10
18.5157110999
 20
33.7406596888
 30
0.0
 10
18.1354987251
 20
34.24783792
 30
0.0
 10
17.9350993362
 20
34.4899514177
 30
0.0
  0
SPLINE
  5
2D0
100
AcDbEntity
  8
0
100
AcDbSpline
 62
7
  6
BYLAYER
 70
0
 71
3
 72
18
 73
14
 74
0
 42
0.0000001
 43
0.0000001
 44
0.0000000001
 40
0.0
 40
0.0
 40
0.0
 40
0.0
 40
0.1391662573
 40
0.2800359417
 40
0.4193348792
 40
0.5538789417
 40
0.6185021447
 40
0.6809253114
 40
0.740898932
 40
0.7982323849
 40
0.8528062359
 40
0.9045892358
 40
1.0
 40
1.0
 40
1.0
 40
1.0
 10
23.580631534
 20
38.3488397017
 30
0.0
 10
23.8934648825
 20
37.9708885683
 30
0.0
 10
24.479554258
 20
37.1734534836
 30
0.0
 10
25.2228650655
 20
35.8924286014
 30
0.0
 10
25.8174485516
 20
34.5536100953
 30
0.0
 10
26.1767932349
 20
33.4125136536
 30
0.0
 10
26.3698267575
 20
32.5101433042
 30
0.0
 10
26.4646320493
 20
31.8571267893
 30
0.0
 10
26.5106284359
 20
31.2245706133
 30
0.0
 10
26.5073768761
 20
30.6179934568
 30
0.0
 10
26.4547356737
 20
30.0423701438
 30
0.0
 10
26.3232026006
 20
29.3428692303
 30
0.0
 10
26.147982456
 20
28.8477322227
 30
0.0
 10
25.9935815982
 20
28.5488970551
 30
0.0
  0
SPLINE
  5
2D1
100
AcDbEntity
  8
0
100
AcDbSpline
 62
7
  6
BYLAYER
 70
0
 71
3
 72
23
 73
19
 74
0
 42
0.0000001
 43
0.0000001
 44
0.0000000001
 40
0.0
 40
0.0
 40
0.0
 40
0.0
 40
0.043522869
 40
0.0881819439
 40
0.1349725221
 40
0.1846577541
 40
0.2377369698
 40
0.2944529631
 40
0.3548293335
 40
0.4187073167
 40
0.4857766035
 40
0.5556107188
 40
0.6276921029
 40
0.7014350642
 40
0.7762012598
 40
0.8513257104
 40
0.9261684616
 40
1.0
 40
1.0
 40
1.0
 40
1.0
 10
21.1492511311
 20
26.5663208762
 30
0.0
 10
21.28012757
 20
26.6418904373
 30
0.0
 10
21.5304190576
 20
26.8224674006
 30
0.0
 10
21.8509862501
 20
27.1680701969
 30
0.0
 10
22.1148443361
 20
27.5839856856
 30
0.0
 10
22.3189024495
 20
28.0637096155
 30
0.0
 10
22.4611738441
 20
28.6006002826
 30
0.0
 10
22.5403706043
 20
29.1875183036
 30
0.0
 10
22.5557901841
 20
29.8168358116
 30
0.0
 10
22.5073539854
 20
30.4803541911
 30
0.0
 10
22.3958426936
 20
31.169385337
 30
0.0
 10
22.2227725874
 20
31.8748570602
 30
0.0
 10
21.990410998
 20
32.5874284576
 30
0.0
 10
21.7018810783
 20
33.2976394239
 30
0.0
 10
21.3610550558
 20
33.9960347355
 30
0.0
 10
20.9723924411
 20
34.6733948548
 30
0.0
 10
20.5411175397
 20
35.3205141354
 30
0.0
 10
20.2260342918
 20
35.7300788086
 30
0.0
 10
20.0625668972
 20
35.9275727374
 30
0.0
  0
SPLINE
  5
2D2
100
AcDbEntity
  8
0
100
AcDbSpline
 62
7
  6
BYLAYER
 70
0
 71
3
 72
25
 73
21
 74
0
 42
0.0000001
 43
0.0000001
 44
0.0000000001
 40
0.0
 40
0.0
 40
0.0
 40
0.0
 40
0.0217137206
 40
0.043572612
 40
0.0657164749
 40
0.0882767326
 40
0.1350625232
 40
0.1847433553
 40
0.2378162349
 40
0.2945261117
 40
0.3548971286
 40
0.4187678566
 40
0.485829875
 40
0.5556574069
 40
0.6277309674
 40
0.7014655428
 40
0.7762254525
 40
0.8513420377
 40
0.926172353
 40
1.0
 40
1.0
 40
1.0
 40
1.0
 10
22.2692242328
 20
25.7695528482
 30
0.0
 10
22.3466236632
 20
25.8142326714
 30
0.0
 10
22.4975268886
 20
25.9117966898
 30
0.0
 10
22.7091621581
 20
26.0808974597
 30
0.0
 10
22.9057681013
 20
26.2723234968
 30
0.0
 10
23.1497409671
 20
26.5597862628
 30
0.0
 10
23.4136939398
 20
26.9757163502
 30
0.0
 10
23.6554338013
 20
27.5442383195
 30
0.0
 10
23.8241018311
 20
28.1805582979
 30
0.0
 10
23.9179728854
 20
28.8761608036
 30
0.0
 10
23.9362113426
 20
29.6220214931
 30
0.0
 10
23.8788244487
 20
30.4084135766
 30
0.0
 10
23.7466780763
 20
31.2250465383
 30
0.0
 10
23.5415312095
 20
32.0611554333
 30
0.0
 10
23.2661489128
 20
32.9056853981
 30
0.0
 10
22.9242011921
 20
33.7474257802
 30
0.0
 10
22.520238039
 20
34.5751473474
 30
0.0
 10
22.0596116928
 20
35.3779352005
 30
0.0
 10
21.5484846754
 20
36.1448970504
 30
0.0
 10
21.1750468428
 20
36.6302986749
 30
0.0
 10
20.9812976593
 20
36.8643776944
 30
0.0
  0
SPLINE
  5
2D3
100
AcDbEntity
  8
0
100
AcDbSpline
 62
7
  6
BYLAYER
 70
0
 71
3
 72
22
 73
18
 74
0
 42
0.0000001
 43
0.0000001
 44
0.0000000001
 40
0.0
 40
0.0
 40
0.0
 40
0.0
 40
0.0428623744
 40
0.0871242296
 40
0.1343716688
 40
0.1856837396
 40
0.2415824005
 40
0.3021210575
 40
0.3669644191
 40
0.4354946202
 40
0.5068866254
 40
0.580162272
 40
0.7279507452
 40
0.8004060267
 40
0.8704705116
 40
0.9372817591
 40
1.0
 40
1.0
 40
1.0
 40
1.0
 10
14.9589451465
 20
35.9352745635
 30
0.0
 10
14.9946618257
 20
35.9590640461
 30
0.0
 10
15.0739931055
 20
35.9980532464
 30
0.0
 10
15.2071051896
 20
36.0250227397
 30
0.0
 10
15.3511311454
 20
36.0207105853
 30
0.0
 10
15.5026419744
 20
35.985876442
 30
0.0
 10
15.6585767603
 20
35.9218082374
 30
0.0
 10
15.8157276784
 20
35.8300132733
 30
0.0
 10
15.9708342013
 20
35.7125743872
 30
0.0
 10
16.1205981929
 20
35.5720753211
 30
0.0
 10
16.2617574407
 20
35.4115272924
 30
0.0
 10
16.4347798427
 20
35.1749634251
 30
0.0
 10
16.5771684942
 20
34.9158651657
 30
0.0
 10
16.6827606161
 20
34.6447495243
 30
0.0
 10
16.7405347349
 20
34.4429222426
 30
0.0
 10
16.7760326503
 20
34.2459241946
 30
0.0
 10
16.7847144211
 20
34.1161520077
 30
0.0
 10
16.7847144211
 20
34.0533580678
 30
0.0
  0
SPLINE
  5
2D4
100
AcDbEntity
  8
0
100
AcDbSpline
 62
7
  6
BYLAYER
 70
0
 71
3
 72
25
 73
21
 74
0
 42
0.0000001
 43
0.0000001
 44
0.0000000001
 40
0.0
 40
0.0
 40
0.0
 40
0.0
 40
0.0217094713
 40
0.0435683375
 40
0.0657158605
 40
0.0882828343
 40
0.1350887649
 40
0.1847940549
 40
0.2378912875
 40
0.2946221145
 40
0.3550085789
 40
0.4188881287
 40
0.485952106
 40
0.5557748275
 40
0.6278362126
 40
0.7015533821
 40
0.7762929873
 40
0.8513873203
 40
0.9261950337
 40
1.0
 40
1.0
 40
1.0
 40
1.0
 10
24.8929462318
 20
27.2843753684
 30
0.0
 10
24.9701322958
 20
27.3292645903
 30
0.0
 10
25.1206044338
 20
27.4272294801
 30
0.0
 10
25.3315753254
 20
27.5968516668
 30
0.0
 10
25.5275258042
 20
27.7887343067
 30
0.0
 10
25.7706443307
 20
28.0767385552
 30
0.0
 10
26.0335474074
 20
28.4931629553
 30
0.0
 10
26.2741431889
 20
29.0619990205
 30
0.0
 10
26.4417917002
 20
29.6984021741
 30
0.0
 10
26.5347818384
 20
30.3938755057
 30
0.0
 10
26.5522873798
 20
31.1394154816
 30
0.0
 10
26.4943218733
 20
31.9253193732
 30
0.0
 10
26.3617560515
 20
32.7413231374
 30
0.0
 10
26.1563512632
 20
33.5766857846
 30
0.0
 10
25.8808736128
 20
34.4203837841
 30
0.0
 10
25.5389791513
 20
35.2612402175
 30
0.0
 10
25.1352157809
 20
36.0880700899
 30
0.0
 10
24.6749113908
 20
36.8899897976
 30
0.0
 10
24.1642168733
 20
37.6561339196
 30
0.0
 10
23.7911368033
 20
38.1410367128
 30
0.0
 10
23.597581857
 20
38.3748810637
 30
0.0
  0
SPLINE
  5
2D5
100
AcDbEntity
  8
0
100
AcDbSpline
 62
7
  6
BYLAYER
 70
0
 71
3
 72
25
 73
21
 74
0
 42
0.0000001
 43
0.0000001
 44
0.0000000001
 40
0.0
 40
0.0
 40
0.0
 40
0.0
 40
0.073827647
 40
0.1486579623
 40
0.2237745475
 40
0.2985344572
 40
0.3722690326
 40
0.4443425931
 40
0.514170125
 40
0.5812321434
 40
0.6451028714
 40
0.7054738883
 40
0.7621837651
 40
0.8152566447
 40
0.8649374768
 40
0.9117232674
 40
0.9342835251
 40
0.956427388
 40
0.9782862794
 40
1.0
 40
1.0
 40
1.0
 40
1.0
 10
25.6481829849
 20
39.5587891099
 30
0.0
 10
25.8419321684
 20
39.3247100904
 30
0.0
 10
26.215370001
 20
38.839308466
 30
0.0
 10
26.7264970184
 20
38.072346616
 30
0.0
 10
27.1871233646
 20
37.2695587629
 30
0.0
 10
27.5910865177
 20
36.4418371957
 30
0.0
 10
27.9330342384
 20
35.6000968137
 30
0.0
 10
28.2084165351
 20
34.7555668488
 30
0.0
 10
28.413563402
 20
33.9194579538
 30
0.0
 10
28.5457097744
 20
33.1028249922
 30
0.0
 10
28.6030966682
 20
32.3164329086
 30
0.0
 10
28.5848582111
 20
31.5705722192
 30
0.0
 10
28.4909871567
 20
30.8749697134
 30
0.0
 10
28.3223191269
 20
30.238649735
 30
0.0
 10
28.0805792654
 20
29.6701277657
 30
0.0
 10
27.8166262927
 20
29.2541976783
 30
0.0
 10
27.5726534269
 20
28.9667349123
 30
0.0
 10
27.3760474837
 20
28.7753088753
 30
0.0
 10
27.1644122142
 20
28.6062081053
 30
0.0
 10
27.0135089888
 20
28.508644087
 30
0.0
 10
26.9361095584
 20
28.4639642637
 30
0.0
  0
SPLINE
  5
2D6
100
AcDbEntity
  8
0
100
AcDbSpline
 62
7
  6
BYLAYER
 70
0
 71
3
 72
11
 73
7
 74
0
 42
0.0000001
 43
0.0000001
 44
0.0000000001
 40
0.0
 40
0.0
 40
0.0
 40
0.0
 40
0.2654029428
 40
0.5126218845
 40
0.7529746517
 40
1.0
 40
1.0
 40
1.0
 40
1.0
 10
16.981971907
 20
33.6039256688
 30
0.0
 10
16.9592011552
 20
33.5479105738
 30
0.0
 10
16.9036177712
 20
33.4437294837
 30
0.0
 10
16.7849633806
 20
33.3167849017
 30
0.0
 10
16.6380119462
 20
33.2317335624
 30
0.0
 10
16.5282578307
 20
33.2060226178
 30
0.0
 10
16.4722808955
 20
33.2001941687
 30
0.0
  0
SPLINE
  5
2D7
100
AcDbEntity
  8
0
100
AcDbSpline
 62
7
  6
BYLAYER
 70
0
 71
3
 72
9
 73
5
 74
0
 42
0.0000001
 43
0.0000001
 44
0.0000000001
 40
0.0
 40
0.0
 40
0.0
 40
0.0
 40
0.4825345119
 40
1.0
 40
1.0
 40
1.0
 40
1.0
 10
16.4722808955
 20
33.2001941687
 30
0.0
 10
16.4263649013
 20
33.1954132882
 30
0.0
 10
16.3300337013
 20
33.1953966986
 30
0.0
 10
16.2353877095
 20
33.2122021666
 30
0.0
 10
16.1874043386
 20
33.2243860873
 30
0.0
  0
ENDSEC
  0
SECTION
  2
OBJECTS
  0
DICTIONARY
  5
C
100
AcDbDictionary
280
0
281
1
  3
ACAD_GROUP
350
D
  3
ACAD_MLINESTYLE
350
17
  3
ACAD_LAYOUT
350
1A
  3
ACAD_PLOTSETTINGS
350
19
  3
ACAD_PLOTSTYLENAME
350
E
  0
DICTIONARY
  5
D
102
{ACAD_REACTORS
330
C
102
}
100
AcDbDictionary
280
0
281
1
  0
ACDBDICTIONARYWDFLT
  5
E
102
{ACAD_REACTORS
330
C
102
}
100
AcDbDictionary
281
1
  3
Normal
350
F
100
AcDbDictionaryWithDefault
340
F
  0
DICTIONARY
  5
17
102
{ACAD_REACTORS
330
C
102
}
100
AcDbDictionary
280
0
281
1
  3
Standard
350
18
  0
DICTIONARY
  5
19
102
{ACAD_REACTORS
330
C
102
}
100
AcDbDictionary
281
1
  0
DICTIONARY
  5
1A
102
{ACAD_REACTORS
330
C
102
}
100
AcDbDictionary
281
1
  3
Model
350
2D8
  3
Layout1
350
2D9
  0
ACDBPLACEHOLDER
  5
F
102
{ACAD_REACTORS
330
E
102
}
  0
MLINESTYLE
  5
18
102
{ACAD_REACTORS
330
17
102
}
100
AcDbMlineStyle
  2
STANDARD
 70
0
  3

 62
256
 51
90.0
 52
90.0
 71
2
 49
0.5
 62
256
  6
BYLAYER
 49
-0.5
 62
256
  6
BYLAYER
  0
LAYOUT
  5
2D8
102
{ACAD_REACTORS
330
1A
102
}
100
AcDbPlotSettings
  1

  2
none_device
  4

  6

 40
0.0
 41
0.0
 42
0.0
 43
0.0
 44
210.0
 45
297.0
 46
0.0
 47
0.0
 48
0.0
 49
0.0
140
0.0
141
0.0
142
1.0
143
1.0
 70
1024
 72
1
 73
0
 74
0
  7

 75
0
147
1.0
148
0.0
149
0.0
100
AcDbLayout
  1
Model
 70
0
 71
0
 10
0.0
 20
0.0
 11
210.0
 21
297.0
 12
0.0
 22
0.0
 32
0.0
 14
0.0
 24
0.0
 34
0.0
 15
0.0
 25
0.0
 35
0.0
146
0.0
 13
0.0
 23
0.0
 33
0.0
 16
1.0
 26
0.0
 36
0.0
 17
0.0
 27
1.0
 37
0.0
 76
0
330
210
345
0
346
0
  0
LAYOUT
  5
2D9
102
{ACAD_REACTORS
330
1A
102
}
100
AcDbPlotSettings
  1

  2
none_device
  4

  6

 40
0.0
 41
0.0
 42
0.0
 43
0.0
 44
210.0
 45
297.0
 46
0.0
 47
0.0
 48
0.0
 49
0.0
140
0.0
141
0.0
142
1.0
143
1.0
 70
0
 72
1
 73
0
 74
0
  7

 75
0
147
1.0
148
0.0
149
0.0
100
AcDbLayout
  1
Layout1
 70
0
 71
1
 10
0.0
 20
0.0
 11
210.0
 21
297.0
 12
0.0
 22
0.0
 32
0.0
 14
0.0
 24
0.0
 34
0.0
 15
0.0
 25
0.0
 35
0.0
146
0.0
 13
0.0
 23
0.0
 33
0.0
 16
1.0
 26
0.0
 36
0.0
 17
0.0
 27
1.0
 37
0.0
 76
0
330
211
345
0
346
0
  0
ENDSEC
  0
EOF
