  0
SECTION
  2
HEADER
  9
$ACADVER
  1
AC1006
  9
$EXTMIN
 10
-2.484000
 20
-3.665965
  9
$EXTMAX
 10
2.480000
 20
3.663000
  9
$LTSCALE
 40
0.000394
  9
$PDMODE
 70
    35
  9
$PDSIZE
 40
0.000315
  0
ENDSEC
  0
SECTION
  2
TABLES
  0
TABLE
  2
LTYPE
 70
     9
  0
LTYPE
  2
CONTINUOUS
 70
    64
  3
Solid line
 72
    65
 73
     0
 40
0.000000
  0
LTYPE
  2
DASHED
 70
    64
  3
__ __ __ __ __ __ __ __ __ __ __ __ __ __ __
 72
    65
 73
     2
 40
0.000003
 49
0.000002
 49
-0.000001
  0
LTYPE
  2
HIDDEN
 70
    64
  3
 _ _ _ _ _ _ _ _ _ _ _ _ _ _ _ _ _ _ _ _ _ _
 72
    65
 73
     2
 40
0.000001
 49
0.000001
 49
-0.000000
  0
LTYPE
  2
CENTER
 70
    64
  3
____ _ ____ _ ____ _ ____ _ ____ _ ____ _ ____
 72
    65
 73
     4
 40
0.000008
 49
0.000005
 49
-0.000001
 49
0.000001
 49
-0.000001
  0
LTYPE
  2
PHANTOM
 70
    64
  3
_____ _ _ _____ _ _ _____ _ _ _____ _ _ ____
 72
    65
 73
     6
 40
0.000010
 49
0.000005
 49
-0.000001
 49
0.000001
 49
-0.000001
 49
0.000001
 49
-0.000001
  0
LTYPE
  2
DOT
 70
    64
  3
...............................................
 72
    65
 73
     2
 40
0.000001
 49
0.000000
 49
-0.000001
  0
LTYPE
  2
DASHDOT
 70
    64
  3
__ . __ . __ . __ . __ . __ . __ . __ . __ . __
 72
    65
 73
     4
 40
0.000004
 49
0.000002
 49
-0.000001
 49
0.000000
 49
-0.000001
  0
LTYPE
  2
BORDER
 70
    64
  3
__ __ . __ __ . __ __ . __ __ . __ __ . __ __
 72
    65
 73
     6
 40
0.000007
 49
0.000002
 49
-0.000001
 49
0.000002
 49
-0.000001
 49
0.000000
 49
-0.000001
  0
LTYPE
  2
DIVIDE
 70
    64
  3
__ . . __ . . __ . . __ . . __ . . __ . . __
 72
    65
 73
     6
 40
0.000005
 49
0.000002
 49
-0.000001
 49
0.000000
 49
-0.000001
 49
0.000000
 49
-0.000001
  0
LTYPE
  2
DOTDOT
 70
    64
  3
 . .  . .  . .  . .  . .  . . 
 72
    65
 73
     5
 40
0.000002
 49
-0.000001
 49
0.000000
 49
-0.000001
 49
0.000000
 49
-0.000001
  0
ENDTAB
  0
TABLE
  2
STYLE
 70
     0
  0
ENDTAB
  0
TABLE
  2
LAYER
 70
     3
  0
LAYER
  2
FOREGROUND
 70
    64
 62
     7
  6
CONTINUOUS
  0
LAYER
  2
BACKGROUND
 70
    65
 62
    -7
  6
CONTINUOUS
  0
LAYER
  2
PLAN_1
 70
    64
 62
     7
  6
CONTINUOUS
  0
ENDTAB
  0
ENDSEC
  0
SECTION
  2
ENTITIES
  0
POLYLINE
  8
PLAN_1
  6
CONTINUOUS
 66
     1
 40
0.003000
 41
0.003000
  0
VERTEX
  8
PLAN_1
  6
CONTINUOUS
 10
0.518126
 20
-3.631154
  0
VERTEX
  8
PLAN_1
  6
CONTINUOUS
 10
0.361472
 20
-3.631154
  0
VERTEX
  8
PLAN_1
  6
CONTINUOUS
 10
0.361472
 20
-3.608709
  0
VERTEX
  8
PLAN_1
  6
CONTINUOUS
 10
0.483772
 20
-3.455717
  0
VERTEX
  8
PLAN_1
  6
CONTINUOUS
 10
0.370634
 20
-3.455717
  0
VERTEX
  8
PLAN_1
  6
CONTINUOUS
 10
0.370634
 20
-3.431898
  0
VERTEX
  8
PLAN_1
  6
CONTINUOUS
 10
0.518126
 20
-3.431898
  0
VERTEX
  8
PLAN_1
  6
CONTINUOUS
 10
0.518126
 20
-3.455256
  0
VERTEX
  8
PLAN_1
  6
CONTINUOUS
 10
0.395827
 20
-3.607335
  0
VERTEX
  8
PLAN_1
  6
CONTINUOUS
 10
0.518126
 20
-3.607335
  0
VERTEX
  8
PLAN_1
  6
CONTINUOUS
 10
0.518126
 20
-3.631154
  0
SEQEND
  8
0
  0
POLYLINE
  8
PLAN_1
  6
CONTINUOUS
 66
     1
 40
0.003000
 41
0.003000
  0
VERTEX
  8
PLAN_1
  6
CONTINUOUS
 10
0.685780
 20
-3.491902
  0
VERTEX
  8
PLAN_1
  6
CONTINUOUS
 10
0.683945
 20
-3.485488
  0
VERTEX
  8
PLAN_1
  6
CONTINUOUS
 10
0.682114
 20
-3.479992
  0
VERTEX
  8
PLAN_1
  6
CONTINUOUS
 10
0.679366
 20
-3.474953
  0
VERTEX
  8
PLAN_1
  6
CONTINUOUS
 10
0.676618
 20
-3.470831
  0
VERTEX
  8
PLAN_1
  6
CONTINUOUS
 10
0.673409
 20
-3.466709
  0
VERTEX
  8
PLAN_1
  6
CONTINUOUS
 10
0.669744
 20
-3.463504
  0
VERTEX
  8
PLAN_1
  6
CONTINUOUS
 10
0.666083
 20
-3.460756
  0
VERTEX
  8
PLAN_1
  6
CONTINUOUS
 10
0.662417
 20
-3.458008
  0
VERTEX
  8
PLAN_1
  6
CONTINUOUS
 10
0.658295
 20
-3.456173
  0
VERTEX
  8
PLAN_1
  6
CONTINUOUS
 10
0.654173
 20
-3.454343
  0
VERTEX
  8
PLAN_1
  6
CONTINUOUS
 10
0.650047
 20
-3.452969
  0
VERTEX
  8
PLAN_1
  6
CONTINUOUS
 10
0.645469
 20
-3.452051
  0
VERTEX
  8
PLAN_1
  6
CONTINUOUS
 10
0.637681
 20
-3.451134
  0
VERTEX
  8
PLAN_1
  6
CONTINUOUS
 10
0.629894
 20
-3.450677
  0
VERTEX
  8
PLAN_1
  6
CONTINUOUS
 10
0.623480
 20
-3.450677
  0
VERTEX
  8
PLAN_1
  6
CONTINUOUS
 10
0.616610
 20
-3.452051
  0
VERTEX
  8
PLAN_1
  6
CONTINUOUS
 10
0.610657
 20
-3.453425
  0
VERTEX
  8
PLAN_1
  6
CONTINUOUS
 10
0.604701
 20
-3.455717
  0
VERTEX
  8
PLAN_1
  6
CONTINUOUS
 10
0.598748
 20
-3.458465
  0
VERTEX
  8
PLAN_1
  6
CONTINUOUS
 10
0.593248
 20
-3.461669
  0
VERTEX
  8
PLAN_1
  6
CONTINUOUS
 10
0.588213
 20
-3.465791
  0
VERTEX
  8
PLAN_1
  6
CONTINUOUS
 10
0.583630
 20
-3.470374
  0
VERTEX
  8
PLAN_1
  6
CONTINUOUS
 10
0.579508
 20
-3.475870
  0
VERTEX
  8
PLAN_1
  6
CONTINUOUS
 10
0.575843
 20
-3.481827
  0
VERTEX
  8
PLAN_1
  6
CONTINUOUS
 10
0.572638
 20
-3.488236
  0
VERTEX
  8
PLAN_1
  6
CONTINUOUS
 10
0.569890
 20
-3.495110
  0
VERTEX
  8
PLAN_1
  6
CONTINUOUS
 10
0.567598
 20
-3.502898
  0
VERTEX
  8
PLAN_1
  6
CONTINUOUS
 10
0.566224
 20
-3.511142
  0
VERTEX
  8
PLAN_1
  6
CONTINUOUS
 10
0.564850
 20
-3.520303
  0
VERTEX
  8
PLAN_1
  6
CONTINUOUS
 10
0.564850
 20
-3.529465
  0
VERTEX
  8
PLAN_1
  6
CONTINUOUS
 10
0.564850
 20
-3.538165
  0
VERTEX
  8
PLAN_1
  6
CONTINUOUS
 10
0.565307
 20
-3.546870
  0
VERTEX
  8
PLAN_1
  6
CONTINUOUS
 10
0.566681
 20
-3.554657
  0
VERTEX
  8
PLAN_1
  6
CONTINUOUS
 10
0.568055
 20
-3.562445
  0
VERTEX
  8
PLAN_1
  6
CONTINUOUS
 10
0.569890
 20
-3.569772
  0
VERTEX
  8
PLAN_1
  6
CONTINUOUS
 10
0.572638
 20
-3.576646
  0
VERTEX
  8
PLAN_1
  6
CONTINUOUS
 10
0.575843
 20
-3.583055
  0
VERTEX
  8
PLAN_1
  6
CONTINUOUS
 10
0.579051
 20
-3.588555
  0
VERTEX
  8
PLAN_1
  6
CONTINUOUS
 10
0.583173
 20
-3.594051
  0
VERTEX
  8
PLAN_1
  6
CONTINUOUS
 10
0.588213
 20
-3.598630
  0
VERTEX
  8
PLAN_1
  6
CONTINUOUS
 10
0.590961
 20
-3.600921
  0
VERTEX
  8
PLAN_1
  6
CONTINUOUS
 10
0.593709
 20
-3.602752
  0
VERTEX
  8
PLAN_1
  6
CONTINUOUS
 10
0.596457
 20
-3.604587
  0
VERTEX
  8
PLAN_1
  6
CONTINUOUS
 10
0.599661
 20
-3.606417
  0
VERTEX
  8
PLAN_1
  6
CONTINUOUS
 10
0.602870
 20
-3.607791
  0
VERTEX
  8
PLAN_1
  6
CONTINUOUS
 10
0.606531
 20
-3.609165
  0
VERTEX
  8
PLAN_1
  6
CONTINUOUS
 10
0.609740
 20
-3.610083
  0
VERTEX
  8
PLAN_1
  6
CONTINUOUS
 10
0.613862
 20
-3.611000
  0
VERTEX
  8
PLAN_1
  6
CONTINUOUS
 10
0.622106
 20
-3.612374
  0
VERTEX
  8
PLAN_1
  6
CONTINUOUS
 10
0.630811
 20
-3.612831
  0
VERTEX
  8
PLAN_1
  6
CONTINUOUS
 10
0.634016
 20
-3.612374
  0
VERTEX
  8
PLAN_1
  6
CONTINUOUS
 10
0.637681
 20
-3.612374
  0
VERTEX
  8
PLAN_1
  6
CONTINUOUS
 10
0.641803
 20
-3.611457
  0
VERTEX
  8
PLAN_1
  6
CONTINUOUS
 10
0.645925
 20
-3.610539
  0
VERTEX
  8
PLAN_1
  6
CONTINUOUS
 10
0.650047
 20
-3.609165
  0
VERTEX
  8
PLAN_1
  6
CONTINUOUS
 10
0.654173
 20
-3.607791
  0
VERTEX
  8
PLAN_1
  6
CONTINUOUS
 10
0.658295
 20
-3.605500
  0
VERTEX
  8
PLAN_1
  6
CONTINUOUS
 10
0.662417
 20
-3.602752
  0
VERTEX
  8
PLAN_1
  6
CONTINUOUS
 10
0.666539
 20
-3.599547
  0
VERTEX
  8
PLAN_1
  6
CONTINUOUS
 10
0.670205
 20
-3.595882
  0
VERTEX
  8
PLAN_1
  6
CONTINUOUS
 10
0.673866
 20
-3.591303
  0
VERTEX
  8
PLAN_1
  6
CONTINUOUS
 10
0.677531
 20
-3.586264
  0
VERTEX
  8
PLAN_1
  6
CONTINUOUS
 10
0.680740
 20
-3.580307
  0
VERTEX
  8
PLAN_1
  6
CONTINUOUS
 10
0.683488
 20
-3.573437
  0
VERTEX
  8
PLAN_1
  6
CONTINUOUS
 10
0.685780
 20
-3.566110
  0
VERTEX
  8
PLAN_1
  6
CONTINUOUS
 10
0.687610
 20
-3.557862
  0
VERTEX
  8
PLAN_1
  6
CONTINUOUS
 10
0.713720
 20
-3.557862
  0
VERTEX
  8
PLAN_1
  6
CONTINUOUS
 10
0.712803
 20
-3.564732
  0
VERTEX
  8
PLAN_1
  6
CONTINUOUS
 10
0.710972
 20
-3.571146
  0
VERTEX
  8
PLAN_1
  6
CONTINUOUS
 10
0.709598
 20
-3.577102
  0
VERTEX
  8
PLAN_1
  6
CONTINUOUS
 10
0.707307
 20
-3.583055
  0
VERTEX
  8
PLAN_1
  6
CONTINUOUS
 10
0.705472
 20
-3.588094
  0
VERTEX
  8
PLAN_1
  6
CONTINUOUS
 10
0.702724
 20
-3.593134
  0
VERTEX
  8
PLAN_1
  6
CONTINUOUS
 10
0.700437
 20
-3.597717
  0
VERTEX
  8
PLAN_1
  6
CONTINUOUS
 10
0.697689
 20
-3.601839
  0
VERTEX
  8
PLAN_1
  6
CONTINUOUS
 10
0.694480
 20
-3.605961
  0
VERTEX
  8
PLAN_1
  6
CONTINUOUS
 10
0.691732
 20
-3.609626
  0
VERTEX
  8
PLAN_1
  6
CONTINUOUS
 10
0.688528
 20
-3.612831
  0
VERTEX
  8
PLAN_1
  6
CONTINUOUS
 10
0.685319
 20
-3.616035
  0
VERTEX
  8
PLAN_1
  6
CONTINUOUS
 10
0.682114
 20
-3.618783
  0
VERTEX
  8
PLAN_1
  6
CONTINUOUS
 10
0.678449
 20
-3.621075
  0
VERTEX
  8
PLAN_1
  6
CONTINUOUS
 10
0.675244
 20
-3.623366
  0
VERTEX
  8
PLAN_1
  6
CONTINUOUS
 10
0.671579
 20
-3.625657
  0
VERTEX
  8
PLAN_1
  6
CONTINUOUS
 10
0.664709
 20
-3.628862
  0
VERTEX
  8
PLAN_1
  6
CONTINUOUS
 10
0.657835
 20
-3.631610
  0
VERTEX
  8
PLAN_1
  6
CONTINUOUS
 10
0.651421
 20
-3.633445
  0
VERTEX
  8
PLAN_1
  6
CONTINUOUS
 10
0.645012
 20
-3.634819
  0
VERTEX
  8
PLAN_1
  6
CONTINUOUS
 10
0.634016
 20
-3.636193
  0
VERTEX
  8
PLAN_1
  6
CONTINUOUS
 10
0.626689
 20
-3.636650
  0
VERTEX
  8
PLAN_1
  6
CONTINUOUS
 10
0.617984
 20
-3.636193
  0
VERTEX
  8
PLAN_1
  6
CONTINUOUS
 10
0.609740
 20
-3.635276
  0
VERTEX
  8
PLAN_1
  6
CONTINUOUS
 10
0.601496
 20
-3.633445
  0
VERTEX
  8
PLAN_1
  6
CONTINUOUS
 10
0.593709
 20
-3.630697
  0
VERTEX
  8
PLAN_1
  6
CONTINUOUS
 10
0.585921
 20
-3.627488
  0
VERTEX
  8
PLAN_1
  6
CONTINUOUS
 10
0.578134
 20
-3.623366
  0
VERTEX
  8
PLAN_1
  6
CONTINUOUS
 10
0.574925
 20
-3.620618
  0
VERTEX
  8
PLAN_1
  6
CONTINUOUS
 10
0.571264
 20
-3.618327
  0
VERTEX
  8
PLAN_1
  6
CONTINUOUS
 10
0.568055
 20
-3.615122
  0
VERTEX
  8
PLAN_1
  6
CONTINUOUS
 10
0.564850
 20
-3.612374
  0
VERTEX
  8
PLAN_1
  6
CONTINUOUS
 10
0.561642
 20
-3.609165
  0
VERTEX
  8
PLAN_1
  6
CONTINUOUS
 10
0.558894
 20
-3.605500
  0
VERTEX
  8
PLAN_1
  6
CONTINUOUS
 10
0.556146
 20
-3.601839
  0
VERTEX
  8
PLAN_1
  6
CONTINUOUS
 10
0.553398
 20
-3.597717
  0
VERTEX
  8
PLAN_1
  6
CONTINUOUS
 10
0.551106
 20
-3.593591
  0
VERTEX
  8
PLAN_1
  6
CONTINUOUS
 10
0.548819
 20
-3.589012
  0
VERTEX
  8
PLAN_1
  6
CONTINUOUS
 10
0.546528
 20
-3.584429
  0
VERTEX
  8
PLAN_1
  6
CONTINUOUS
 10
0.544697
 20
-3.579394
  0
VERTEX
  8
PLAN_1
  6
CONTINUOUS
 10
0.542862
 20
-3.574354
  0
VERTEX
  8
PLAN_1
  6
CONTINUOUS
 10
0.541488
 20
-3.568858
  0
VERTEX
  8
PLAN_1
  6
CONTINUOUS
 10
0.540114
 20
-3.562902
  0
VERTEX
  8
PLAN_1
  6
CONTINUOUS
 10
0.538740
 20
-3.556949
  0
VERTEX
  8
PLAN_1
  6
CONTINUOUS
 10
0.538283
 20
-3.550992
  0
VERTEX
  8
PLAN_1
  6
CONTINUOUS
 10
0.537366
 20
-3.544122
  0
VERTEX
  8
PLAN_1
  6
CONTINUOUS
 10
0.536909
 20
-3.537709
  0
VERTEX
  8
PLAN_1
  6
CONTINUOUS
 10
0.536909
 20
-3.530378
  0
VERTEX
  8
PLAN_1
  6
CONTINUOUS
 10
0.537366
 20
-3.519386
  0
VERTEX
  8
PLAN_1
  6
CONTINUOUS
 10
0.538740
 20
-3.508394
  0
VERTEX
  8
PLAN_1
  6
CONTINUOUS
 10
0.540571
 20
-3.498315
  0
VERTEX
  8
PLAN_1
  6
CONTINUOUS
 10
0.543319
 20
-3.488236
  0
VERTEX
  8
PLAN_1
  6
CONTINUOUS
 10
0.545154
 20
-3.483657
  0
VERTEX
  8
PLAN_1
  6
CONTINUOUS
 10
0.546984
 20
-3.479079
  0
VERTEX
  8
PLAN_1
  6
CONTINUOUS
 10
0.548819
 20
-3.474953
  0
VERTEX
  8
PLAN_1
  6
CONTINUOUS
 10
0.551106
 20
-3.470831
  0
VERTEX
  8
PLAN_1
  6
CONTINUOUS
 10
0.553398
 20
-3.466709
  0
VERTEX
  8
PLAN_1
  6
CONTINUOUS
 10
0.556146
 20
-3.463043
  0
VERTEX
  8
PLAN_1
  6
CONTINUOUS
 10
0.558894
 20
-3.458921
  0
VERTEX
  8
PLAN_1
  6
CONTINUOUS
 10
0.561642
 20
-3.455717
  0
VERTEX
  8
PLAN_1
  6
CONTINUOUS
 10
0.564850
 20
-3.452051
  0
VERTEX
  8
PLAN_1
  6
CONTINUOUS
 10
0.568055
 20
-3.449303
  0
VERTEX
  8
PLAN_1
  6
CONTINUOUS
 10
0.571264
 20
-3.446098
  0
VERTEX
  8
PLAN_1
  6
CONTINUOUS
 10
0.574925
 20
-3.443346
  0
VERTEX
  8
PLAN_1
  6
CONTINUOUS
 10
0.578591
 20
-3.440598
  0
VERTEX
  8
PLAN_1
  6
CONTINUOUS
 10
0.582713
 20
-3.438311
  0
VERTEX
  8
PLAN_1
  6
CONTINUOUS
 10
0.586835
 20
-3.436476
  0
VERTEX
  8
PLAN_1
  6
CONTINUOUS
 10
0.590961
 20
-3.434189
  0
VERTEX
  8
PLAN_1
  6
CONTINUOUS
 10
0.595083
 20
-3.432354
  0
VERTEX
  8
PLAN_1
  6
CONTINUOUS
 10
0.599661
 20
-3.430980
  0
VERTEX
  8
PLAN_1
  6
CONTINUOUS
 10
0.604701
 20
-3.429606
  0
VERTEX
  8
PLAN_1
  6
CONTINUOUS
 10
0.609283
 20
-3.428689
  0
VERTEX
  8
PLAN_1
  6
CONTINUOUS
 10
0.614319
 20
-3.427776
  0
VERTEX
  8
PLAN_1
  6
CONTINUOUS
 10
0.619358
 20
-3.427315
  0
VERTEX
  8
PLAN_1
  6
CONTINUOUS
 10
0.624398
 20
-3.426858
  0
VERTEX
  8
PLAN_1
  6
CONTINUOUS
 10
0.629894
 20
-3.426858
  0
VERTEX
  8
PLAN_1
  6
CONTINUOUS
 10
0.639055
 20
-3.426858
  0
VERTEX
  8
PLAN_1
  6
CONTINUOUS
 10
0.648217
 20
-3.428232
  0
VERTEX
  8
PLAN_1
  6
CONTINUOUS
 10
0.656004
 20
-3.430063
  0
VERTEX
  8
PLAN_1
  6
CONTINUOUS
 10
0.663791
 20
-3.432354
  0
VERTEX
  8
PLAN_1
  6
CONTINUOUS
 10
0.671118
 20
-3.435102
  0
VERTEX
  8
PLAN_1
  6
CONTINUOUS
 10
0.677531
 20
-3.438768
  0
VERTEX
  8
PLAN_1
  6
CONTINUOUS
 10
0.683488
 20
-3.442433
  0
VERTEX
  8
PLAN_1
  6
CONTINUOUS
 10
0.688528
 20
-3.447012
  0
VERTEX
  8
PLAN_1
  6
CONTINUOUS
 10
0.693563
 20
-3.451594
  0
VERTEX
  8
PLAN_1
  6
CONTINUOUS
 10
0.697689
 20
-3.456634
  0
VERTEX
  8
PLAN_1
  6
CONTINUOUS
 10
0.701350
 20
-3.462130
  0
VERTEX
  8
PLAN_1
  6
CONTINUOUS
 10
0.704559
 20
-3.467626
  0
VERTEX
  8
PLAN_1
  6
CONTINUOUS
 10
0.707307
 20
-3.473579
  0
VERTEX
  8
PLAN_1
  6
CONTINUOUS
 10
0.709138
 20
-3.479535
  0
VERTEX
  8
PLAN_1
  6
CONTINUOUS
 10
0.710972
 20
-3.485488
  0
VERTEX
  8
PLAN_1
  6
CONTINUOUS
 10
0.711886
 20
-3.491902
  0
VERTEX
  8
PLAN_1
  6
CONTINUOUS
 10
0.685780
 20
-3.491902
  0
SEQEND
  8
0
  0
POLYLINE
  8
PLAN_1
  6
CONTINUOUS
 66
     1
 40
0.003000
 41
0.003000
  0
VERTEX
  8
PLAN_1
  6
CONTINUOUS
 10
0.773268
 20
-3.631154
  0
VERTEX
  8
PLAN_1
  6
CONTINUOUS
 10
0.746240
 20
-3.631154
  0
VERTEX
  8
PLAN_1
  6
CONTINUOUS
 10
0.746240
 20
-3.431898
  0
VERTEX
  8
PLAN_1
  6
CONTINUOUS
 10
0.773268
 20
-3.431898
  0
VERTEX
  8
PLAN_1
  6
CONTINUOUS
 10
0.773268
 20
-3.528547
  0
VERTEX
  8
PLAN_1
  6
CONTINUOUS
 10
0.869917
 20
-3.431898
  0
VERTEX
  8
PLAN_1
  6
CONTINUOUS
 10
0.907020
 20
-3.431898
  0
VERTEX
  8
PLAN_1
  6
CONTINUOUS
 10
0.824110
 20
-3.512516
  0
VERTEX
  8
PLAN_1
  6
CONTINUOUS
 10
0.909311
 20
-3.631154
  0
VERTEX
  8
PLAN_1
  6
CONTINUOUS
 10
0.874500
 20
-3.631154
  0
VERTEX
  8
PLAN_1
  6
CONTINUOUS
 10
0.804413
 20
-3.531295
  0
VERTEX
  8
PLAN_1
  6
CONTINUOUS
 10
0.773268
 20
-3.561528
  0
VERTEX
  8
PLAN_1
  6
CONTINUOUS
 10
0.773268
 20
-3.631154
  0
SEQEND
  8
0
  0
POLYLINE
  8
PLAN_1
  6
CONTINUOUS
 66
     1
 40
0.003000
 41
0.003000
  0
VERTEX
  8
PLAN_1
  6
CONTINUOUS
 10
1.095740
 20
-3.631154
  0
VERTEX
  8
PLAN_1
  6
CONTINUOUS
 10
1.095740
 20
-3.513433
  0
VERTEX
  8
PLAN_1
  6
CONTINUOUS
 10
1.095740
 20
-3.510685
  0
VERTEX
  8
PLAN_1
  6
CONTINUOUS
 10
1.095740
 20
-3.506102
  0
VERTEX
  8
PLAN_1
  6
CONTINUOUS
 10
1.095740
 20
-3.500150
  0
VERTEX
  8
PLAN_1
  6
CONTINUOUS
 10
1.095740
 20
-3.493736
  0
VERTEX
  8
PLAN_1
  6
CONTINUOUS
 10
1.095740
 20
-3.486406
  0
VERTEX
  8
PLAN_1
  6
CONTINUOUS
 10
1.096201
 20
-3.478618
  0
VERTEX
  8
PLAN_1
  6
CONTINUOUS
 10
1.096201
 20
-3.471291
  0
VERTEX
  8
PLAN_1
  6
CONTINUOUS
 10
1.096201
 20
-3.463961
  0
VERTEX
  8
PLAN_1
  6
CONTINUOUS
 10
1.095740
 20
-3.463961
  0
VERTEX
  8
PLAN_1
  6
CONTINUOUS
 10
1.039402
 20
-3.631154
  0
VERTEX
  8
PLAN_1
  6
CONTINUOUS
 10
1.012835
 20
-3.631154
  0
VERTEX
  8
PLAN_1
  6
CONTINUOUS
 10
0.956949
 20
-3.463961
  0
VERTEX
  8
PLAN_1
  6
CONTINUOUS
 10
0.956031
 20
-3.463961
  0
VERTEX
  8
PLAN_1
  6
CONTINUOUS
 10
0.956492
 20
-3.471291
  0
VERTEX
  8
PLAN_1
  6
CONTINUOUS
 10
0.956492
 20
-3.478618
  0
VERTEX
  8
PLAN_1
  6
CONTINUOUS
 10
0.956492
 20
-3.486406
  0
VERTEX
  8
PLAN_1
  6
CONTINUOUS
 10
0.956492
 20
-3.493736
  0
VERTEX
  8
PLAN_1
  6
CONTINUOUS
 10
0.956492
 20
-3.500150
  0
VERTEX
  8
PLAN_1
  6
CONTINUOUS
 10
0.956949
 20
-3.506102
  0
VERTEX
  8
PLAN_1
  6
CONTINUOUS
 10
0.956949
 20
-3.510685
  0
VERTEX
  8
PLAN_1
  6
CONTINUOUS
 10
0.956949
 20
-3.513433
  0
VERTEX
  8
PLAN_1
  6
CONTINUOUS
 10
0.956949
 20
-3.631154
  0
VERTEX
  8
PLAN_1
  6
CONTINUOUS
 10
0.930839
 20
-3.631154
  0
VERTEX
  8
PLAN_1
  6
CONTINUOUS
 10
0.930839
 20
-3.431898
  0
VERTEX
  8
PLAN_1
  6
CONTINUOUS
 10
0.969319
 20
-3.431898
  0
VERTEX
  8
PLAN_1
  6
CONTINUOUS
 10
1.026118
 20
-3.600465
  0
VERTEX
  8
PLAN_1
  6
CONTINUOUS
 10
1.026575
 20
-3.600465
  0
VERTEX
  8
PLAN_1
  6
CONTINUOUS
 10
1.083374
 20
-3.431898
  0
VERTEX
  8
PLAN_1
  6
CONTINUOUS
 10
1.121850
 20
-3.431898
  0
VERTEX
  8
PLAN_1
  6
CONTINUOUS
 10
1.121850
 20
-3.631154
  0
VERTEX
  8
PLAN_1
  6
CONTINUOUS
 10
1.095740
 20
-3.631154
  0
SEQEND
  8
0
  0
POLYLINE
  8
PLAN_1
  6
CONTINUOUS
 66
     1
 40
0.003000
 41
0.003000
  0
VERTEX
  8
PLAN_1
  6
CONTINUOUS
 10
1.325689
 20
-3.476787
  0
VERTEX
  8
PLAN_1
  6
CONTINUOUS
 10
1.344469
 20
-3.476787
  0
VERTEX
  8
PLAN_1
  6
CONTINUOUS
 10
1.340346
 20
-3.491902
  0
VERTEX
  8
PLAN_1
  6
CONTINUOUS
 10
1.335764
 20
-3.506559
  0
VERTEX
  8
PLAN_1
  6
CONTINUOUS
 10
1.331642
 20
-3.520760
  0
VERTEX
  8
PLAN_1
  6
CONTINUOUS
 10
1.327976
 20
-3.534043
  0
VERTEX
  8
PLAN_1
  6
CONTINUOUS
 10
1.324315
 20
-3.545953
  0
VERTEX
  8
PLAN_1
  6
CONTINUOUS
 10
1.321567
 20
-3.555575
  0
VERTEX
  8
PLAN_1
  6
CONTINUOUS
 10
1.320193
 20
-3.562902
  0
VERTEX
  8
PLAN_1
  6
CONTINUOUS
 10
1.319276
 20
-3.567484
  0
VERTEX
  8
PLAN_1
  6
CONTINUOUS
 10
1.319276
 20
-3.569315
  0
VERTEX
  8
PLAN_1
  6
CONTINUOUS
 10
1.319732
 20
-3.570689
  0
VERTEX
  8
PLAN_1
  6
CONTINUOUS
 10
1.320193
 20
-3.572520
  0
VERTEX
  8
PLAN_1
  6
CONTINUOUS
 10
1.320650
 20
-3.573437
  0
VERTEX
  8
PLAN_1
  6
CONTINUOUS
 10
1.321567
 20
-3.574354
  0
VERTEX
  8
PLAN_1
  6
CONTINUOUS
 10
1.322480
 20
-3.574811
  0
VERTEX
  8
PLAN_1
  6
CONTINUOUS
 10
1.323854
 20
-3.575268
  0
VERTEX
  8
PLAN_1
  6
CONTINUOUS
 10
1.325228
 20
-3.575268
  0
VERTEX
  8
PLAN_1
  6
CONTINUOUS
 10
1.328894
 20
-3.575268
  0
VERTEX
  8
PLAN_1
  6
CONTINUOUS
 10
1.332102
 20
-3.574354
  0
VERTEX
  8
PLAN_1
  6
CONTINUOUS
 10
1.335764
 20
-3.572520
  0
VERTEX
  8
PLAN_1
  6
CONTINUOUS
 10
1.339429
 20
-3.570232
  0
VERTEX
  8
PLAN_1
  6
CONTINUOUS
 10
1.342638
 20
-3.567484
  0
VERTEX
  8
PLAN_1
  6
CONTINUOUS
 10
1.345843
 20
-3.564276
  0
VERTEX
  8
PLAN_1
  6
CONTINUOUS
 10
1.349047
 20
-3.560610
  0
VERTEX
  8
PLAN_1
  6
CONTINUOUS
 10
1.351799
 20
-3.556488
  0
VERTEX
  8
PLAN_1
  6
CONTINUOUS
 10
1.354547
 20
-3.552366
  0
VERTEX
  8
PLAN_1
  6
CONTINUOUS
 10
1.357295
 20
-3.547327
  0
VERTEX
  8
PLAN_1
  6
CONTINUOUS
 10
1.359126
 20
-3.542748
  0
VERTEX
  8
PLAN_1
  6
CONTINUOUS
 10
1.360957
 20
-3.537252
  0
VERTEX
  8
PLAN_1
  6
CONTINUOUS
 10
1.362791
 20
-3.532213
  0
VERTEX
  8
PLAN_1
  6
CONTINUOUS
 10
1.363709
 20
-3.526717
  0
VERTEX
  8
PLAN_1
  6
CONTINUOUS
 10
1.364165
 20
-3.521220
  0
VERTEX
  8
PLAN_1
  6
CONTINUOUS
 10
1.364622
 20
-3.515720
  0
VERTEX
  8
PLAN_1
  6
CONTINUOUS
 10
1.364165
 20
-3.507476
  0
VERTEX
  8
PLAN_1
  6
CONTINUOUS
 10
1.362791
 20
-3.499689
  0
VERTEX
  8
PLAN_1
  6
CONTINUOUS
 10
1.360957
 20
-3.492362
  0
VERTEX
  8
PLAN_1
  6
CONTINUOUS
 10
1.358209
 20
-3.485488
  0
VERTEX
  8
PLAN_1
  6
CONTINUOUS
 10
1.355004
 20
-3.479079
  0
VERTEX
  8
PLAN_1
  6
CONTINUOUS
 10
1.351339
 20
-3.473579
  0
VERTEX
  8
PLAN_1
  6
CONTINUOUS
 10
1.346760
 20
-3.468083
  0
VERTEX
  8
PLAN_1
  6
CONTINUOUS
 10
1.341720
 20
-3.463043
  0
VERTEX
  8
PLAN_1
  6
CONTINUOUS
 10
1.336224
 20
-3.458921
  0
VERTEX
  8
PLAN_1
  6
CONTINUOUS
 10
1.330268
 20
-3.454799
  0
VERTEX
  8
PLAN_1
  6
CONTINUOUS
 10
1.323854
 20
-3.451594
  0
VERTEX
  8
PLAN_1
  6
CONTINUOUS
 10
1.316984
 20
-3.448846
  0
VERTEX
  8
PLAN_1
  6
CONTINUOUS
 10
1.309657
 20
-3.446555
  0
VERTEX
  8
PLAN_1
  6
CONTINUOUS
 10
1.302327
 20
-3.445181
  0
VERTEX
  8
PLAN_1
  6
CONTINUOUS
 10
1.294996
 20
-3.444264
  0
VERTEX
  8
PLAN_1
  6
CONTINUOUS
 10
1.287213
 20
-3.443807
  0
VERTEX
  8
PLAN_1
  6
CONTINUOUS
 10
1.282630
 20
-3.443807
  0
VERTEX
  8
PLAN_1
  6
CONTINUOUS
 10
1.278051
 20
-3.444264
  0
VERTEX
  8
PLAN_1
  6
CONTINUOUS
 10
1.273469
 20
-3.444720
  0
VERTEX
  8
PLAN_1
  6
CONTINUOUS
 10
1.269346
 20
-3.445638
  0
VERTEX
  8
PLAN_1
  6
CONTINUOUS
 10
1.261102
 20
-3.447929
  0
VERTEX
  8
PLAN_1
  6
CONTINUOUS
 10
1.253315
 20
-3.450677
  0
VERTEX
  8
PLAN_1
  6
CONTINUOUS
 10
1.245528
 20
-3.454799
  0
VERTEX
  8
PLAN_1
  6
CONTINUOUS
 10
1.238657
 20
-3.458921
  0
VERTEX
  8
PLAN_1
  6
CONTINUOUS
 10
1.232244
 20
-3.463961
  0
VERTEX
  8
PLAN_1
  6
CONTINUOUS
 10
1.226287
 20
-3.469917
  0
VERTEX
  8
PLAN_1
  6
CONTINUOUS
 10
1.221252
 20
-3.476327
  0
VERTEX
  8
PLAN_1
  6
CONTINUOUS
 10
1.216669
 20
-3.483201
  0
VERTEX
  8
PLAN_1
  6
CONTINUOUS
 10
1.212547
 20
-3.490528
  0
VERTEX
  8
PLAN_1
  6
CONTINUOUS
 10
1.208882
 20
-3.498315
  0
VERTEX
  8
PLAN_1
  6
CONTINUOUS
 10
1.206134
 20
-3.506102
  0
VERTEX
  8
PLAN_1
  6
CONTINUOUS
 10
1.204303
 20
-3.514807
  0
VERTEX
  8
PLAN_1
  6
CONTINUOUS
 10
1.203386
 20
-3.523508
  0
VERTEX
  8
PLAN_1
  6
CONTINUOUS
 10
1.202929
 20
-3.532669
  0
VERTEX
  8
PLAN_1
  6
CONTINUOUS
 10
1.203386
 20
-3.541831
  0
VERTEX
  8
PLAN_1
  6
CONTINUOUS
 10
1.204303
 20
-3.550535
  0
VERTEX
  8
PLAN_1
  6
CONTINUOUS
 10
1.206591
 20
-3.558780
  0
VERTEX
  8
PLAN_1
  6
CONTINUOUS
 10
1.209343
 20
-3.567024
  0
VERTEX
  8
PLAN_1
  6
CONTINUOUS
 10
1.213004
 20
-3.574811
  0
VERTEX
  8
PLAN_1
  6
CONTINUOUS
 10
1.217126
 20
-3.581681
  0
VERTEX
  8
PLAN_1
  6
CONTINUOUS
 10
1.222165
 20
-3.588555
  0
VERTEX
  8
PLAN_1
  6
CONTINUOUS
 10
1.227661
 20
-3.594508
  0
VERTEX
  8
PLAN_1
  6
CONTINUOUS
 10
1.233618
 20
-3.600004
  0
VERTEX
  8
PLAN_1
  6
CONTINUOUS
 10
1.240488
 20
-3.605043
  0
VERTEX
  8
PLAN_1
  6
CONTINUOUS
 10
1.247358
 20
-3.609165
  0
VERTEX
  8
PLAN_1
  6
CONTINUOUS
 10
1.255146
 20
-3.612831
  0
VERTEX
  8
PLAN_1
  6
CONTINUOUS
 10
1.262933
 20
-3.615579
  0
VERTEX
  8
PLAN_1
  6
CONTINUOUS
 10
1.271638
 20
-3.617409
  0
VERTEX
  8
PLAN_1
  6
CONTINUOUS
 10
1.280339
 20
-3.618783
  0
VERTEX
  8
PLAN_1
  6
CONTINUOUS
 10
1.289043
 20
-3.619244
  0
VERTEX
  8
PLAN_1
  6
CONTINUOUS
 10
1.294083
 20
-3.619244
  0
VERTEX
  8
PLAN_1
  6
CONTINUOUS
 10
1.298661
 20
-3.618783
  0
VERTEX
  8
PLAN_1
  6
CONTINUOUS
 10
1.303701
 20
-3.617870
  0
VERTEX
  8
PLAN_1
  6
CONTINUOUS
 10
1.308283
 20
-3.616953
  0
VERTEX
  8
PLAN_1
  6
CONTINUOUS
 10
1.312862
 20
-3.616035
  0
VERTEX
  8
PLAN_1
  6
CONTINUOUS
 10
1.317441
 20
-3.614661
  0
VERTEX
  8
PLAN_1
  6
CONTINUOUS
 10
1.322024
 20
-3.612831
  0
VERTEX
  8
PLAN_1
  6
CONTINUOUS
 10
1.326602
 20
-3.611000
  0
VERTEX
  8
PLAN_1
  6
CONTINUOUS
 10
1.330728
 20
-3.608709
  0
VERTEX
  8
PLAN_1
  6
CONTINUOUS
 10
1.334850
 20
-3.606417
  0
VERTEX
  8
PLAN_1
  6
CONTINUOUS
 10
1.338972
 20
-3.603669
  0
VERTEX
  8
PLAN_1
  6
CONTINUOUS
 10
1.343094
 20
-3.600921
  0
VERTEX
  8
PLAN_1
  6
CONTINUOUS
 10
1.346760
 20
-3.597717
  0
VERTEX
  8
PLAN_1
  6
CONTINUOUS
 10
1.349965
 20
-3.594508
  0
VERTEX
  8
PLAN_1
  6
CONTINUOUS
 10
1.353630
 20
-3.591303
  0
VERTEX
  8
PLAN_1
  6
CONTINUOUS
 10
1.356378
 20
-3.587638
  0
VERTEX
  8
PLAN_1
  6
CONTINUOUS
 10
1.375157
 20
-3.587638
  0
VERTEX
  8
PLAN_1
  6
CONTINUOUS
 10
1.371492
 20
-3.593134
  0
VERTEX
  8
PLAN_1
  6
CONTINUOUS
 10
1.367831
 20
-3.598630
  0
VERTEX
  8
PLAN_1
  6
CONTINUOUS
 10
1.363709
 20
-3.603669
  0
VERTEX
  8
PLAN_1
  6
CONTINUOUS
 10
1.359126
 20
-3.608248
  0
VERTEX
  8
PLAN_1
  6
CONTINUOUS
 10
1.354087
 20
-3.612374
  0
VERTEX
  8
PLAN_1
  6
CONTINUOUS
 10
1.349047
 20
-3.616496
  0
VERTEX
  8
PLAN_1
  6
CONTINUOUS
 10
1.344012
 20
-3.620161
  0
VERTEX
  8
PLAN_1
  6
CONTINUOUS
 10
1.338512
 20
-3.623366
  0
VERTEX
  8
PLAN_1
  6
CONTINUOUS
 10
1.332559
 20
-3.626571
  0
VERTEX
  8
PLAN_1
  6
CONTINUOUS
 10
1.326602
 20
-3.628862
  0
VERTEX
  8
PLAN_1
  6
CONTINUOUS
 10
1.320650
 20
-3.631154
  0
VERTEX
  8
PLAN_1
  6
CONTINUOUS
 10
1.314693
 20
-3.632984
  0
VERTEX
  8
PLAN_1
  6
CONTINUOUS
 10
1.308283
 20
-3.634819
  0
VERTEX
  8
PLAN_1
  6
CONTINUOUS
 10
1.301870
 20
-3.635732
  0
VERTEX
  8
PLAN_1
  6
CONTINUOUS
 10
1.294996
 20
-3.636193
  0
VERTEX
  8
PLAN_1
  6
CONTINUOUS
 10
1.288587
 20
-3.636650
  0
VERTEX
  8
PLAN_1
  6
CONTINUOUS
 10
1.283087
 20
-3.636193
  0
VERTEX
  8
PLAN_1
  6
CONTINUOUS
 10
1.277591
 20
-3.636193
  0
VERTEX
  8
PLAN_1
  6
CONTINUOUS
 10
1.272094
 20
-3.635276
  0
VERTEX
  8
PLAN_1
  6
CONTINUOUS
 10
1.267055
 20
-3.634358
  0
VERTEX
  8
PLAN_1
  6
CONTINUOUS
 10
1.261559
 20
-3.633445
  0
VERTEX
  8
PLAN_1
  6
CONTINUOUS
 10
1.256520
 20
-3.632071
  0
VERTEX
  8
PLAN_1
  6
CONTINUOUS
 10
1.251941
 20
-3.630236
  0
VERTEX
  8
PLAN_1
  6
CONTINUOUS
 10
1.246902
 20
-3.628406
  0
VERTEX
  8
PLAN_1
  6
CONTINUOUS
 10
1.242323
 20
-3.626114
  0
VERTEX
  8
PLAN_1
  6
CONTINUOUS
 10
1.237740
 20
-3.623823
  0
VERTEX
  8
PLAN_1
  6
CONTINUOUS
 10
1.233161
 20
-3.621535
  0
VERTEX
  8
PLAN_1
  6
CONTINUOUS
 10
1.229035
 20
-3.618783
  0
VERTEX
  8
PLAN_1
  6
CONTINUOUS
 10
1.224913
 20
-3.616035
  0
VERTEX
  8
PLAN_1
  6
CONTINUOUS
 10
1.220791
 20
-3.612831
  0
VERTEX
  8
PLAN_1
  6
CONTINUOUS
 10
1.217126
 20
-3.609626
  0
VERTEX
  8
PLAN_1
  6
CONTINUOUS
 10
1.213465
 20
-3.605961
  0
VERTEX
  8
PLAN_1
  6
CONTINUOUS
 10
1.209799
 20
-3.602295
  0
VERTEX
  8
PLAN_1
  6
CONTINUOUS
 10
1.206591
 20
-3.598630
  0
VERTEX
  8
PLAN_1
  6
CONTINUOUS
 10
1.203386
 20
-3.594508
  0
VERTEX
  8
PLAN_1
  6
CONTINUOUS
 10
1.200181
 20
-3.590386
  0
VERTEX
  8
PLAN_1
  6
CONTINUOUS
 10
1.197890
 20
-3.586264
  0
VERTEX
  8
PLAN_1
  6
CONTINUOUS
 10
1.195142
 20
-3.581681
  0
VERTEX
  8
PLAN_1
  6
CONTINUOUS
 10
1.192850
 20
-3.577102
  0
VERTEX
  8
PLAN_1
  6
CONTINUOUS
 10
1.190559
 20
-3.572520
  0
VERTEX
  8
PLAN_1
  6
CONTINUOUS
 10
1.188728
 20
-3.567484
  0
VERTEX
  8
PLAN_1
  6
CONTINUOUS
 10
1.187354
 20
-3.562902
  0
VERTEX
  8
PLAN_1
  6
CONTINUOUS
 10
1.185980
 20
-3.557862
  0
VERTEX
  8
PLAN_1
  6
CONTINUOUS
 10
1.184606
 20
-3.552366
  0
VERTEX
  8
PLAN_1
  6
CONTINUOUS
 10
1.183689
 20
-3.547327
  0
VERTEX
  8
PLAN_1
  6
CONTINUOUS
 10
1.183232
 20
-3.541831
  0
VERTEX
  8
PLAN_1
  6
CONTINUOUS
 10
1.182772
 20
-3.536791
  0
VERTEX
  8
PLAN_1
  6
CONTINUOUS
 10
1.182315
 20
-3.531295
  0
VERTEX
  8
PLAN_1
  6
CONTINUOUS
 10
1.182772
 20
-3.525799
  0
VERTEX
  8
PLAN_1
  6
CONTINUOUS
 10
1.183232
 20
-3.520303
  0
VERTEX
  8
PLAN_1
  6
CONTINUOUS
 10
1.183689
 20
-3.515264
  0
VERTEX
  8
PLAN_1
  6
CONTINUOUS
 10
1.184606
 20
-3.509768
  0
VERTEX
  8
PLAN_1
  6
CONTINUOUS
 10
1.185980
 20
-3.504728
  0
VERTEX
  8
PLAN_1
  6
CONTINUOUS
 10
1.187354
 20
-3.499689
  0
VERTEX
  8
PLAN_1
  6
CONTINUOUS
 10
1.188728
 20
-3.495110
  0
VERTEX
  8
PLAN_1
  6
CONTINUOUS
 10
1.191020
 20
-3.490071
  0
VERTEX
  8
PLAN_1
  6
CONTINUOUS
 10
1.192850
 20
-3.485488
  0
VERTEX
  8
PLAN_1
  6
CONTINUOUS
 10
1.195142
 20
-3.481366
  0
VERTEX
  8
PLAN_1
  6
CONTINUOUS
 10
1.197890
 20
-3.476787
  0
VERTEX
  8
PLAN_1
  6
CONTINUOUS
 10
1.200638
 20
-3.472665
  0
VERTEX
  8
PLAN_1
  6
CONTINUOUS
 10
1.203386
 20
-3.468543
  0
VERTEX
  8
PLAN_1
  6
CONTINUOUS
 10
1.206591
 20
-3.464417
  0
VERTEX
  8
PLAN_1
  6
CONTINUOUS
 10
1.209799
 20
-3.460756
  0
VERTEX
  8
PLAN_1
  6
CONTINUOUS
 10
1.213465
 20
-3.457091
  0
VERTEX
  8
PLAN_1
  6
CONTINUOUS
 10
1.217126
 20
-3.453882
  0
VERTEX
  8
PLAN_1
  6
CONTINUOUS
 10
1.220791
 20
-3.450220
  0
VERTEX
  8
PLAN_1
  6
CONTINUOUS
 10
1.224913
 20
-3.447472
  0
VERTEX
  8
PLAN_1
  6
CONTINUOUS
 10
1.229035
 20
-3.444264
  0
VERTEX
  8
PLAN_1
  6
CONTINUOUS
 10
1.233161
 20
-3.441516
  0
VERTEX
  8
PLAN_1
  6
CONTINUOUS
 10
1.237740
 20
-3.439224
  0
VERTEX
  8
PLAN_1
  6
CONTINUOUS
 10
1.241862
 20
-3.436937
  0
VERTEX
  8
PLAN_1
  6
CONTINUOUS
 10
1.246902
 20
-3.434646
  0
VERTEX
  8
PLAN_1
  6
CONTINUOUS
 10
1.251480
 20
-3.432811
  0
VERTEX
  8
PLAN_1
  6
CONTINUOUS
 10
1.256063
 20
-3.431437
  0
VERTEX
  8
PLAN_1
  6
CONTINUOUS
 10
1.261102
 20
-3.430063
  0
VERTEX
  8
PLAN_1
  6
CONTINUOUS
 10
1.266142
 20
-3.428689
  0
VERTEX
  8
PLAN_1
  6
CONTINUOUS
 10
1.271177
 20
-3.427776
  0
VERTEX
  8
PLAN_1
  6
CONTINUOUS
 10
1.276677
 20
-3.427315
  0
VERTEX
  8
PLAN_1
  6
CONTINUOUS
 10
1.281713
 20
-3.426858
  0
VERTEX
  8
PLAN_1
  6
CONTINUOUS
 10
1.287213
 20
-3.426858
  0
VERTEX
  8
PLAN_1
  6
CONTINUOUS
 10
1.296831
 20
-3.427315
  0
VERTEX
  8
PLAN_1
  6
CONTINUOUS
 10
1.305992
 20
-3.428232
  0
VERTEX
  8
PLAN_1
  6
CONTINUOUS
 10
1.315154
 20
-3.430524
  0
VERTEX
  8
PLAN_1
  6
CONTINUOUS
 10
1.323854
 20
-3.433272
  0
VERTEX
  8
PLAN_1
  6
CONTINUOUS
 10
1.332102
 20
-3.436476
  0
VERTEX
  8
PLAN_1
  6
CONTINUOUS
 10
1.339886
 20
-3.440598
  0
VERTEX
  8
PLAN_1
  6
CONTINUOUS
 10
1.347217
 20
-3.445638
  0
VERTEX
  8
PLAN_1
  6
CONTINUOUS
 10
1.354087
 20
-3.451134
  0
VERTEX
  8
PLAN_1
  6
CONTINUOUS
 10
1.360500
 20
-3.457091
  0
VERTEX
  8
PLAN_1
  6
CONTINUOUS
 10
1.365996
 20
-3.463504
  0
VERTEX
  8
PLAN_1
  6
CONTINUOUS
 10
1.371035
 20
-3.470831
  0
VERTEX
  8
PLAN_1
  6
CONTINUOUS
 10
1.375157
 20
-3.478618
  0
VERTEX
  8
PLAN_1
  6
CONTINUOUS
 10
1.376531
 20
-3.482283
  0
VERTEX
  8
PLAN_1
  6
CONTINUOUS
 10
1.378366
 20
-3.486406
  0
VERTEX
  8
PLAN_1
  6
CONTINUOUS
 10
1.379740
 20
-3.490988
  0
VERTEX
  8
PLAN_1
  6
CONTINUOUS
 10
1.380654
 20
-3.495110
  0
VERTEX
  8
PLAN_1
  6
CONTINUOUS
 10
1.381571
 20
-3.499689
  0
VERTEX
  8
PLAN_1
  6
CONTINUOUS
 10
1.382028
 20
-3.503811
  0
VERTEX
  8
PLAN_1
  6
CONTINUOUS
 10
1.382488
 20
-3.508850
  0
VERTEX
  8
PLAN_1
  6
CONTINUOUS
 10
1.382488
 20
-3.513433
  0
VERTEX
  8
PLAN_1
  6
CONTINUOUS
 10
1.382488
 20
-3.518012
  0
VERTEX
  8
PLAN_1
  6
CONTINUOUS
 10
1.382028
 20
-3.522594
  0
VERTEX
  8
PLAN_1
  6
CONTINUOUS
 10
1.381571
 20
-3.526717
  0
VERTEX
  8
PLAN_1
  6
CONTINUOUS
 10
1.380654
 20
-3.531295
  0
VERTEX
  8
PLAN_1
  6
CONTINUOUS
 10
1.378823
 20
-3.539539
  0
VERTEX
  8
PLAN_1
  6
CONTINUOUS
 10
1.375618
 20
-3.546870
  0
VERTEX
  8
PLAN_1
  6
CONTINUOUS
 10
1.372409
 20
-3.554201
  0
VERTEX
  8
PLAN_1
  6
CONTINUOUS
 10
1.368287
 20
-3.560610
  0
VERTEX
  8
PLAN_1
  6
CONTINUOUS
 10
1.363709
 20
-3.567024
  0
VERTEX
  8
PLAN_1
  6
CONTINUOUS
 10
1.358669
 20
-3.572063
  0
VERTEX
  8
PLAN_1
  6
CONTINUOUS
 10
1.353630
 20
-3.577102
  0
VERTEX
  8
PLAN_1
  6
CONTINUOUS
 10
1.348134
 20
-3.581224
  0
VERTEX
  8
PLAN_1
  6
CONTINUOUS
 10
1.342638
 20
-3.584890
  0
VERTEX
  8
PLAN_1
  6
CONTINUOUS
 10
1.337138
 20
-3.588094
  0
VERTEX
  8
PLAN_1
  6
CONTINUOUS
 10
1.331642
 20
-3.590386
  0
VERTEX
  8
PLAN_1
  6
CONTINUOUS
 10
1.326146
 20
-3.592217
  0
VERTEX
  8
PLAN_1
  6
CONTINUOUS
 10
1.321106
 20
-3.593134
  0
VERTEX
  8
PLAN_1
  6
CONTINUOUS
 10
1.316528
 20
-3.593591
  0
VERTEX
  8
PLAN_1
  6
CONTINUOUS
 10
1.312862
 20
-3.593134
  0
VERTEX
  8
PLAN_1
  6
CONTINUOUS
 10
1.309657
 20
-3.592677
  0
VERTEX
  8
PLAN_1
  6
CONTINUOUS
 10
1.306449
 20
-3.591303
  0
VERTEX
  8
PLAN_1
  6
CONTINUOUS
 10
1.304157
 20
-3.589469
  0
VERTEX
  8
PLAN_1
  6
CONTINUOUS
 10
1.301870
 20
-3.586720
  0
VERTEX
  8
PLAN_1
  6
CONTINUOUS
 10
1.300035
 20
-3.583972
  0
VERTEX
  8
PLAN_1
  6
CONTINUOUS
 10
1.299122
 20
-3.580307
  0
VERTEX
  8
PLAN_1
  6
CONTINUOUS
 10
1.298661
 20
-3.576185
  0
VERTEX
  8
PLAN_1
  6
CONTINUOUS
 10
1.298205
 20
-3.576185
  0
VERTEX
  8
PLAN_1
  6
CONTINUOUS
 10
1.294996
 20
-3.579394
  0
VERTEX
  8
PLAN_1
  6
CONTINUOUS
 10
1.291335
 20
-3.582598
  0
VERTEX
  8
PLAN_1
  6
CONTINUOUS
 10
1.287213
 20
-3.585346
  0
VERTEX
  8
PLAN_1
  6
CONTINUOUS
 10
1.283087
 20
-3.588094
  0
VERTEX
  8
PLAN_1
  6
CONTINUOUS
 10
1.278965
 20
-3.590386
  0
VERTEX
  8
PLAN_1
  6
CONTINUOUS
 10
1.274386
 20
-3.592217
  0
VERTEX
  8
PLAN_1
  6
CONTINUOUS
 10
1.269346
 20
-3.593134
  0
VERTEX
  8
PLAN_1
  6
CONTINUOUS
 10
1.264768
 20
-3.593591
  0
VERTEX
  8
PLAN_1
  6
CONTINUOUS
 10
1.260185
 20
-3.593134
  0
VERTEX
  8
PLAN_1
  6
CONTINUOUS
 10
1.256063
 20
-3.592677
  0
VERTEX
  8
PLAN_1
  6
CONTINUOUS
 10
1.251941
 20
-3.591303
  0
VERTEX
  8
PLAN_1
  6
CONTINUOUS
 10
1.248276
 20
-3.589929
  0
VERTEX
  8
PLAN_1
  6
CONTINUOUS
 10
1.244610
 20
-3.588094
  0
VERTEX
  8
PLAN_1
  6
CONTINUOUS
 10
1.241406
 20
-3.585803
  0
VERTEX
  8
PLAN_1
  6
CONTINUOUS
 10
1.238197
 20
-3.583055
  0
VERTEX
  8
PLAN_1
  6
CONTINUOUS
 10
1.235449
 20
-3.580307
  0
VERTEX
  8
PLAN_1
  6
CONTINUOUS
 10
1.232701
 20
-3.577102
  0
VERTEX
  8
PLAN_1
  6
CONTINUOUS
 10
1.230409
 20
-3.573894
  0
VERTEX
  8
PLAN_1
  6
CONTINUOUS
 10
1.228579
 20
-3.570232
  0
VERTEX
  8
PLAN_1
  6
CONTINUOUS
 10
1.226748
 20
-3.566110
  0
VERTEX
  8
PLAN_1
  6
CONTINUOUS
 10
1.225374
 20
-3.561984
  0
VERTEX
  8
PLAN_1
  6
CONTINUOUS
 10
1.224457
 20
-3.557862
  0
VERTEX
  8
PLAN_1
  6
CONTINUOUS
 10
1.224000
 20
-3.553740
  0
VERTEX
  8
PLAN_1
  6
CONTINUOUS
 10
1.224000
 20
-3.549161
  0
VERTEX
  8
PLAN_1
  6
CONTINUOUS
 10
1.224000
 20
-3.542287
  0
VERTEX
  8
PLAN_1
  6
CONTINUOUS
 10
1.224913
 20
-3.534961
  0
VERTEX
  8
PLAN_1
  6
CONTINUOUS
 10
1.226287
 20
-3.528091
  0
VERTEX
  8
PLAN_1
  6
CONTINUOUS
 10
1.228579
 20
-3.521220
  0
VERTEX
  8
PLAN_1
  6
CONTINUOUS
 10
1.230870
 20
-3.514807
  0
VERTEX
  8
PLAN_1
  6
CONTINUOUS
 10
1.234075
 20
-3.508394
  0
VERTEX
  8
PLAN_1
  6
CONTINUOUS
 10
1.237283
 20
-3.502437
  0
VERTEX
  8
PLAN_1
  6
CONTINUOUS
 10
1.241406
 20
-3.496941
  0
VERTEX
  8
PLAN_1
  6
CONTINUOUS
 10
1.245984
 20
-3.491445
  0
VERTEX
  8
PLAN_1
  6
CONTINUOUS
 10
1.250567
 20
-3.486862
  0
VERTEX
  8
PLAN_1
  6
CONTINUOUS
 10
1.256063
 20
-3.482740
  0
VERTEX
  8
PLAN_1
  6
CONTINUOUS
 10
1.261559
 20
-3.479079
  0
VERTEX
  8
PLAN_1
  6
CONTINUOUS
 10
1.267516
 20
-3.476327
  0
VERTEX
  8
PLAN_1
  6
CONTINUOUS
 10
1.273925
 20
-3.474039
  0
VERTEX
  8
PLAN_1
  6
CONTINUOUS
 10
1.280799
 20
-3.473122
  0
VERTEX
  8
PLAN_1
  6
CONTINUOUS
 10
1.288126
 20
-3.472665
  0
VERTEX
  8
PLAN_1
  6
CONTINUOUS
 10
1.292709
 20
-3.472665
  0
VERTEX
  8
PLAN_1
  6
CONTINUOUS
 10
1.297748
 20
-3.473579
  0
VERTEX
  8
PLAN_1
  6
CONTINUOUS
 10
1.301870
 20
-3.475413
  0
VERTEX
  8
PLAN_1
  6
CONTINUOUS
 10
1.306449
 20
-3.477705
  0
VERTEX
  8
PLAN_1
  6
CONTINUOUS
 10
1.310114
 20
-3.480453
  0
VERTEX
  8
PLAN_1
  6
CONTINUOUS
 10
1.313780
 20
-3.484114
  0
VERTEX
  8
PLAN_1
  6
CONTINUOUS
 10
1.316984
 20
-3.488697
  0
VERTEX
  8
PLAN_1
  6
CONTINUOUS
 10
1.319732
 20
-3.494193
  0
VERTEX
  8
PLAN_1
  6
CONTINUOUS
 10
1.325689
 20
-3.476787
  0
SEQEND
  8
0
  0
POLYLINE
  8
PLAN_1
  6
CONTINUOUS
 66
     1
 40
0.003000
 41
0.003000
  0
VERTEX
  8
PLAN_1
  6
CONTINUOUS
 10
1.288587
 20
-3.492362
  0
VERTEX
  8
PLAN_1
  6
CONTINUOUS
 10
1.284004
 20
-3.492819
  0
VERTEX
  8
PLAN_1
  6
CONTINUOUS
 10
1.279425
 20
-3.493736
  0
VERTEX
  8
PLAN_1
  6
CONTINUOUS
 10
1.275303
 20
-3.495567
  0
VERTEX
  8
PLAN_1
  6
CONTINUOUS
 10
1.271638
 20
-3.497858
  0
VERTEX
  8
PLAN_1
  6
CONTINUOUS
 10
1.267972
 20
-3.500606
  0
VERTEX
  8
PLAN_1
  6
CONTINUOUS
 10
1.264307
 20
-3.503354
  0
VERTEX
  8
PLAN_1
  6
CONTINUOUS
 10
1.261102
 20
-3.507020
  0
VERTEX
  8
PLAN_1
  6
CONTINUOUS
 10
1.258354
 20
-3.511142
  0
VERTEX
  8
PLAN_1
  6
CONTINUOUS
 10
1.255606
 20
-3.515264
  0
VERTEX
  8
PLAN_1
  6
CONTINUOUS
 10
1.253315
 20
-3.519386
  0
VERTEX
  8
PLAN_1
  6
CONTINUOUS
 10
1.251480
 20
-3.523969
  0
VERTEX
  8
PLAN_1
  6
CONTINUOUS
 10
1.249650
 20
-3.528547
  0
VERTEX
  8
PLAN_1
  6
CONTINUOUS
 10
1.248276
 20
-3.533130
  0
VERTEX
  8
PLAN_1
  6
CONTINUOUS
 10
1.247358
 20
-3.537709
  0
VERTEX
  8
PLAN_1
  6
CONTINUOUS
 10
1.246902
 20
-3.542287
  0
VERTEX
  8
PLAN_1
  6
CONTINUOUS
 10
1.246445
 20
-3.546413
  0
VERTEX
  8
PLAN_1
  6
CONTINUOUS
 10
1.246902
 20
-3.552366
  0
VERTEX
  8
PLAN_1
  6
CONTINUOUS
 10
1.248276
 20
-3.557406
  0
VERTEX
  8
PLAN_1
  6
CONTINUOUS
 10
1.249193
 20
-3.559697
  0
VERTEX
  8
PLAN_1
  6
CONTINUOUS
 10
1.250567
 20
-3.561984
  0
VERTEX
  8
PLAN_1
  6
CONTINUOUS
 10
1.251480
 20
-3.564276
  0
VERTEX
  8
PLAN_1
  6
CONTINUOUS
 10
1.252858
 20
-3.566110
  0
VERTEX
  8
PLAN_1
  6
CONTINUOUS
 10
1.254689
 20
-3.567484
  0
VERTEX
  8
PLAN_1
  6
CONTINUOUS
 10
1.256520
 20
-3.569315
  0
VERTEX
  8
PLAN_1
  6
CONTINUOUS
 10
1.258354
 20
-3.570689
  0
VERTEX
  8
PLAN_1
  6
CONTINUOUS
 10
1.260642
 20
-3.571606
  0
VERTEX
  8
PLAN_1
  6
CONTINUOUS
 10
1.262476
 20
-3.572520
  0
VERTEX
  8
PLAN_1
  6
CONTINUOUS
 10
1.264768
 20
-3.572980
  0
VERTEX
  8
PLAN_1
  6
CONTINUOUS
 10
1.267516
 20
-3.573437
  0
VERTEX
  8
PLAN_1
  6
CONTINUOUS
 10
1.269803
 20
-3.573437
  0
VERTEX
  8
PLAN_1
  6
CONTINUOUS
 10
1.274386
 20
-3.572980
  0
VERTEX
  8
PLAN_1
  6
CONTINUOUS
 10
1.278508
 20
-3.572063
  0
VERTEX
  8
PLAN_1
  6
CONTINUOUS
 10
1.282630
 20
-3.570232
  0
VERTEX
  8
PLAN_1
  6
CONTINUOUS
 10
1.286295
 20
-3.567941
  0
VERTEX
  8
PLAN_1
  6
CONTINUOUS
 10
1.289961
 20
-3.565193
  0
VERTEX
  8
PLAN_1
  6
CONTINUOUS
 10
1.293622
 20
-3.561984
  0
VERTEX
  8
PLAN_1
  6
CONTINUOUS
 10
1.296374
 20
-3.558323
  0
VERTEX
  8
PLAN_1
  6
CONTINUOUS
 10
1.299579
 20
-3.554201
  0
VERTEX
  8
PLAN_1
  6
CONTINUOUS
 10
1.301870
 20
-3.549618
  0
VERTEX
  8
PLAN_1
  6
CONTINUOUS
 10
1.304618
 20
-3.545496
  0
VERTEX
  8
PLAN_1
  6
CONTINUOUS
 10
1.306449
 20
-3.540913
  0
VERTEX
  8
PLAN_1
  6
CONTINUOUS
 10
1.308283
 20
-3.535878
  0
VERTEX
  8
PLAN_1
  6
CONTINUOUS
 10
1.309657
 20
-3.531295
  0
VERTEX
  8
PLAN_1
  6
CONTINUOUS
 10
1.310571
 20
-3.526717
  0
VERTEX
  8
PLAN_1
  6
CONTINUOUS
 10
1.311031
 20
-3.522134
  0
VERTEX
  8
PLAN_1
  6
CONTINUOUS
 10
1.311488
 20
-3.518012
  0
VERTEX
  8
PLAN_1
  6
CONTINUOUS
 10
1.311031
 20
-3.515720
  0
VERTEX
  8
PLAN_1
  6
CONTINUOUS
 10
1.311031
 20
-3.512972
  0
VERTEX
  8
PLAN_1
  6
CONTINUOUS
 10
1.310114
 20
-3.510685
  0
VERTEX
  8
PLAN_1
  6
CONTINUOUS
 10
1.309657
 20
-3.508394
  0
VERTEX
  8
PLAN_1
  6
CONTINUOUS
 10
1.307366
 20
-3.503811
  0
VERTEX
  8
PLAN_1
  6
CONTINUOUS
 10
1.304618
 20
-3.500150
  0
VERTEX
  8
PLAN_1
  6
CONTINUOUS
 10
1.300953
 20
-3.496941
  0
VERTEX
  8
PLAN_1
  6
CONTINUOUS
 10
1.297287
 20
-3.494650
  0
VERTEX
  8
PLAN_1
  6
CONTINUOUS
 10
1.294996
 20
-3.493736
  0
VERTEX
  8
PLAN_1
  6
CONTINUOUS
 10
1.293165
 20
-3.492819
  0
VERTEX
  8
PLAN_1
  6
CONTINUOUS
 10
1.290874
 20
-3.492819
  0
VERTEX
  8
PLAN_1
  6
CONTINUOUS
 10
1.288587
 20
-3.492362
  0
SEQEND
  8
0
  0
SOLID
  8
PLAN_1
 10
1.423713
 20
-3.665965
 11
1.423713
 21
-3.652224
 12
1.578079
 22
-3.665965
 13
1.578079
 23
-3.652224
  0
POLYLINE
  8
PLAN_1
  6
CONTINUOUS
 66
     1
 40
0.003000
 41
0.003000
  0
VERTEX
  8
PLAN_1
  6
CONTINUOUS
 10
1.423713
 20
-3.665965
  0
VERTEX
  8
PLAN_1
  6
CONTINUOUS
 10
1.423713
 20
-3.652224
  0
VERTEX
  8
PLAN_1
  6
CONTINUOUS
 10
1.578079
 20
-3.652224
  0
VERTEX
  8
PLAN_1
  6
CONTINUOUS
 10
1.578079
 20
-3.665965
  0
VERTEX
  8
PLAN_1
  6
CONTINUOUS
 10
1.423713
 20
-3.665965
  0
SEQEND
  8
0
  0
SOLID
  8
PLAN_1
 10
1.578079
 20
-3.665965
 11
1.578079
 21
-3.652224
 12
1.732445
 22
-3.665965
 13
1.732445
 23
-3.652224
  0
POLYLINE
  8
PLAN_1
  6
CONTINUOUS
 66
     1
 40
0.003000
 41
0.003000
  0
VERTEX
  8
PLAN_1
  6
CONTINUOUS
 10
1.578079
 20
-3.665965
  0
VERTEX
  8
PLAN_1
  6
CONTINUOUS
 10
1.578079
 20
-3.652224
  0
VERTEX
  8
PLAN_1
  6
CONTINUOUS
 10
1.732445
 20
-3.652224
  0
VERTEX
  8
PLAN_1
  6
CONTINUOUS
 10
1.732445
 20
-3.665965
  0
VERTEX
  8
PLAN_1
  6
CONTINUOUS
 10
1.578079
 20
-3.665965
  0
SEQEND
  8
0
  0
POLYLINE
  8
PLAN_1
  6
CONTINUOUS
 66
     1
 40
0.003000
 41
0.003000
  0
VERTEX
  8
PLAN_1
  6
CONTINUOUS
 10
1.783291
 20
-3.631154
  0
VERTEX
  8
PLAN_1
  6
CONTINUOUS
 10
1.756264
 20
-3.631154
  0
VERTEX
  8
PLAN_1
  6
CONTINUOUS
 10
1.756264
 20
-3.431898
  0
VERTEX
  8
PLAN_1
  6
CONTINUOUS
 10
1.894142
 20
-3.431898
  0
VERTEX
  8
PLAN_1
  6
CONTINUOUS
 10
1.894142
 20
-3.455717
  0
VERTEX
  8
PLAN_1
  6
CONTINUOUS
 10
1.783291
 20
-3.455717
  0
VERTEX
  8
PLAN_1
  6
CONTINUOUS
 10
1.783291
 20
-3.517094
  0
VERTEX
  8
PLAN_1
  6
CONTINUOUS
 10
1.880858
 20
-3.517094
  0
VERTEX
  8
PLAN_1
  6
CONTINUOUS
 10
1.880858
 20
-3.540913
  0
VERTEX
  8
PLAN_1
  6
CONTINUOUS
 10
1.783291
 20
-3.540913
  0
VERTEX
  8
PLAN_1
  6
CONTINUOUS
 10
1.783291
 20
-3.631154
  0
SEQEND
  8
0
  0
SOLID
  8
PLAN_1
 10
1.913378
 20
-3.631154
 11
1.884520
 21
-3.631154
 12
1.913378
 22
-3.601839
 13
1.884520
 23
-3.601839
  0
POLYLINE
  8
PLAN_1
  6
CONTINUOUS
 66
     1
 40
0.003000
 41
0.003000
  0
VERTEX
  8
PLAN_1
  6
CONTINUOUS
 10
1.913378
 20
-3.631154
  0
VERTEX
  8
PLAN_1
  6
CONTINUOUS
 10
1.884520
 20
-3.631154
  0
VERTEX
  8
PLAN_1
  6
CONTINUOUS
 10
1.884520
 20
-3.601839
  0
VERTEX
  8
PLAN_1
  6
CONTINUOUS
 10
1.913378
 20
-3.601839
  0
VERTEX
  8
PLAN_1
  6
CONTINUOUS
 10
1.913378
 20
-3.631154
  0
SEQEND
  8
0
  0
POLYLINE
  8
PLAN_1
  6
CONTINUOUS
 66
     1
 40
0.003000
 41
0.003000
  0
VERTEX
  8
PLAN_1
  6
CONTINUOUS
 10
2.108512
 20
-3.631154
  0
VERTEX
  8
PLAN_1
  6
CONTINUOUS
 10
1.961476
 20
-3.631154
  0
VERTEX
  8
PLAN_1
  6
CONTINUOUS
 10
1.961476
 20
-3.431898
  0
VERTEX
  8
PLAN_1
  6
CONTINUOUS
 10
2.106681
 20
-3.431898
  0
VERTEX
  8
PLAN_1
  6
CONTINUOUS
 10
2.106681
 20
-3.455717
  0
VERTEX
  8
PLAN_1
  6
CONTINUOUS
 10
1.988043
 20
-3.455717
  0
VERTEX
  8
PLAN_1
  6
CONTINUOUS
 10
1.988043
 20
-3.517094
  0
VERTEX
  8
PLAN_1
  6
CONTINUOUS
 10
2.097520
 20
-3.517094
  0
VERTEX
  8
PLAN_1
  6
CONTINUOUS
 10
2.097520
 20
-3.540913
  0
VERTEX
  8
PLAN_1
  6
CONTINUOUS
 10
1.988043
 20
-3.540913
  0
VERTEX
  8
PLAN_1
  6
CONTINUOUS
 10
1.988043
 20
-3.607335
  0
VERTEX
  8
PLAN_1
  6
CONTINUOUS
 10
2.108512
 20
-3.607335
  0
VERTEX
  8
PLAN_1
  6
CONTINUOUS
 10
2.108512
 20
-3.631154
  0
SEQEND
  8
0
  0
POLYLINE
  8
PLAN_1
  6
CONTINUOUS
 66
     1
 40
0.003000
 41
0.003000
  0
VERTEX
  8
PLAN_1
  6
CONTINUOUS
 10
2.173559
 20
-3.631154
  0
VERTEX
  8
PLAN_1
  6
CONTINUOUS
 10
2.146531
 20
-3.631154
  0
VERTEX
  8
PLAN_1
  6
CONTINUOUS
 10
2.146531
 20
-3.431898
  0
VERTEX
  8
PLAN_1
  6
CONTINUOUS
 10
2.236311
 20
-3.431898
  0
VERTEX
  8
PLAN_1
  6
CONTINUOUS
 10
2.242724
 20
-3.432354
  0
VERTEX
  8
PLAN_1
  6
CONTINUOUS
 10
2.249138
 20
-3.433272
  0
VERTEX
  8
PLAN_1
  6
CONTINUOUS
 10
2.255551
 20
-3.434189
  0
VERTEX
  8
PLAN_1
  6
CONTINUOUS
 10
2.261047
 20
-3.436020
  0
VERTEX
  8
PLAN_1
  6
CONTINUOUS
 10
2.266087
 20
-3.438311
  0
VERTEX
  8
PLAN_1
  6
CONTINUOUS
 10
2.271126
 20
-3.441059
  0
VERTEX
  8
PLAN_1
  6
CONTINUOUS
 10
2.275705
 20
-3.444264
  0
VERTEX
  8
PLAN_1
  6
CONTINUOUS
 10
2.279827
 20
-3.447929
  0
VERTEX
  8
PLAN_1
  6
CONTINUOUS
 10
2.283035
 20
-3.452051
  0
VERTEX
  8
PLAN_1
  6
CONTINUOUS
 10
2.286240
 20
-3.456173
  0
VERTEX
  8
PLAN_1
  6
CONTINUOUS
 10
2.288988
 20
-3.460756
  0
VERTEX
  8
PLAN_1
  6
CONTINUOUS
 10
2.291280
 20
-3.465791
  0
VERTEX
  8
PLAN_1
  6
CONTINUOUS
 10
2.293110
 20
-3.470831
  0
VERTEX
  8
PLAN_1
  6
CONTINUOUS
 10
2.294484
 20
-3.476327
  0
VERTEX
  8
PLAN_1
  6
CONTINUOUS
 10
2.294945
 20
-3.482283
  0
VERTEX
  8
PLAN_1
  6
CONTINUOUS
 10
2.295402
 20
-3.488236
  0
VERTEX
  8
PLAN_1
  6
CONTINUOUS
 10
2.294945
 20
-3.493276
  0
VERTEX
  8
PLAN_1
  6
CONTINUOUS
 10
2.294484
 20
-3.498772
  0
VERTEX
  8
PLAN_1
  6
CONTINUOUS
 10
2.293571
 20
-3.503811
  0
VERTEX
  8
PLAN_1
  6
CONTINUOUS
 10
2.292197
 20
-3.508850
  0
VERTEX
  8
PLAN_1
  6
CONTINUOUS
 10
2.290362
 20
-3.513890
  0
VERTEX
  8
PLAN_1
  6
CONTINUOUS
 10
2.288071
 20
-3.518929
  0
VERTEX
  8
PLAN_1
  6
CONTINUOUS
 10
2.285323
 20
-3.523508
  0
VERTEX
  8
PLAN_1
  6
CONTINUOUS
 10
2.282118
 20
-3.528091
  0
VERTEX
  8
PLAN_1
  6
CONTINUOUS
 10
2.278453
 20
-3.532213
  0
VERTEX
  8
PLAN_1
  6
CONTINUOUS
 10
2.273874
 20
-3.535878
  0
VERTEX
  8
PLAN_1
  6
CONTINUOUS
 10
2.269291
 20
-3.539083
  0
VERTEX
  8
PLAN_1
  6
CONTINUOUS
 10
2.263795
 20
-3.541831
  0
VERTEX
  8
PLAN_1
  6
CONTINUOUS
 10
2.257843
 20
-3.544122
  0
VERTEX
  8
PLAN_1
  6
CONTINUOUS
 10
2.250969
 20
-3.545953
  0
VERTEX
  8
PLAN_1
  6
CONTINUOUS
 10
2.244098
 20
-3.546870
  0
VERTEX
  8
PLAN_1
  6
CONTINUOUS
 10
2.236311
 20
-3.547327
  0
VERTEX
  8
PLAN_1
  6
CONTINUOUS
 10
2.173559
 20
-3.547327
  0
VERTEX
  8
PLAN_1
  6
CONTINUOUS
 10
2.173559
 20
-3.631154
  0
SEQEND
  8
0
  0
POLYLINE
  8
PLAN_1
  6
CONTINUOUS
 66
     1
 40
0.003000
 41
0.003000
  0
VERTEX
  8
PLAN_1
  6
CONTINUOUS
 10
2.173559
 20
-3.523969
  0
VERTEX
  8
PLAN_1
  6
CONTINUOUS
 10
2.227150
 20
-3.523969
  0
VERTEX
  8
PLAN_1
  6
CONTINUOUS
 10
2.231272
 20
-3.523969
  0
VERTEX
  8
PLAN_1
  6
CONTINUOUS
 10
2.235854
 20
-3.523508
  0
VERTEX
  8
PLAN_1
  6
CONTINUOUS
 10
2.239976
 20
-3.523051
  0
VERTEX
  8
PLAN_1
  6
CONTINUOUS
 10
2.243642
 20
-3.522134
  0
VERTEX
  8
PLAN_1
  6
CONTINUOUS
 10
2.247307
 20
-3.521220
  0
VERTEX
  8
PLAN_1
  6
CONTINUOUS
 10
2.250512
 20
-3.519843
  0
VERTEX
  8
PLAN_1
  6
CONTINUOUS
 10
2.253717
 20
-3.518469
  0
VERTEX
  8
PLAN_1
  6
CONTINUOUS
 10
2.256469
 20
-3.516181
  0
VERTEX
  8
PLAN_1
  6
CONTINUOUS
 10
2.258756
 20
-3.513890
  0
VERTEX
  8
PLAN_1
  6
CONTINUOUS
 10
2.261047
 20
-3.511598
  0
VERTEX
  8
PLAN_1
  6
CONTINUOUS
 10
2.262878
 20
-3.508394
  0
VERTEX
  8
PLAN_1
  6
CONTINUOUS
 10
2.264713
 20
-3.505185
  0
VERTEX
  8
PLAN_1
  6
CONTINUOUS
 10
2.266087
 20
-3.501524
  0
VERTEX
  8
PLAN_1
  6
CONTINUOUS
 10
2.267000
 20
-3.497398
  0
VERTEX
  8
PLAN_1
  6
CONTINUOUS
 10
2.267461
 20
-3.493276
  0
VERTEX
  8
PLAN_1
  6
CONTINUOUS
 10
2.267461
 20
-3.488236
  0
VERTEX
  8
PLAN_1
  6
CONTINUOUS
 10
2.267461
 20
-3.483657
  0
VERTEX
  8
PLAN_1
  6
CONTINUOUS
 10
2.267000
 20
-3.479535
  0
VERTEX
  8
PLAN_1
  6
CONTINUOUS
 10
2.265626
 20
-3.475870
  0
VERTEX
  8
PLAN_1
  6
CONTINUOUS
 10
2.264713
 20
-3.472665
  0
VERTEX
  8
PLAN_1
  6
CONTINUOUS
 10
2.262878
 20
-3.469457
  0
VERTEX
  8
PLAN_1
  6
CONTINUOUS
 10
2.261047
 20
-3.466709
  0
VERTEX
  8
PLAN_1
  6
CONTINUOUS
 10
2.258756
 20
-3.464417
  0
VERTEX
  8
PLAN_1
  6
CONTINUOUS
 10
2.256008
 20
-3.462130
  0
VERTEX
  8
PLAN_1
  6
CONTINUOUS
 10
2.253260
 20
-3.460295
  0
VERTEX
  8
PLAN_1
  6
CONTINUOUS
 10
2.250512
 20
-3.458921
  0
VERTEX
  8
PLAN_1
  6
CONTINUOUS
 10
2.247307
 20
-3.457547
  0
VERTEX
  8
PLAN_1
  6
CONTINUOUS
 10
2.243642
 20
-3.456634
  0
VERTEX
  8
PLAN_1
  6
CONTINUOUS
 10
2.239976
 20
-3.455717
  0
VERTEX
  8
PLAN_1
  6
CONTINUOUS
 10
2.236311
 20
-3.455256
  0
VERTEX
  8
PLAN_1
  6
CONTINUOUS
 10
2.232189
 20
-3.455256
  0
VERTEX
  8
PLAN_1
  6
CONTINUOUS
 10
2.228067
 20
-3.454799
  0
VERTEX
  8
PLAN_1
  6
CONTINUOUS
 10
2.173559
 20
-3.454799
  0
VERTEX
  8
PLAN_1
  6
CONTINUOUS
 10
2.173559
 20
-3.523969
  0
SEQEND
  8
0
  0
POLYLINE
  8
PLAN_1
  6
CONTINUOUS
 66
     1
 40
0.003000
 41
0.003000
  0
VERTEX
  8
PLAN_1
  6
CONTINUOUS
 10
2.449311
 20
-3.490071
  0
VERTEX
  8
PLAN_1
  6
CONTINUOUS
 10
2.448850
 20
-3.484575
  0
VERTEX
  8
PLAN_1
  6
CONTINUOUS
 10
2.447476
 20
-3.479535
  0
VERTEX
  8
PLAN_1
  6
CONTINUOUS
 10
2.446102
 20
-3.474953
  0
VERTEX
  8
PLAN_1
  6
CONTINUOUS
 10
2.443815
 20
-3.470831
  0
VERTEX
  8
PLAN_1
  6
CONTINUOUS
 10
2.441524
 20
-3.467169
  0
VERTEX
  8
PLAN_1
  6
CONTINUOUS
 10
2.438776
 20
-3.463961
  0
VERTEX
  8
PLAN_1
  6
CONTINUOUS
 10
2.435567
 20
-3.461213
  0
VERTEX
  8
PLAN_1
  6
CONTINUOUS
 10
2.432362
 20
-3.458465
  0
VERTEX
  8
PLAN_1
  6
CONTINUOUS
 10
2.428697
 20
-3.456173
  0
VERTEX
  8
PLAN_1
  6
CONTINUOUS
 10
2.425031
 20
-3.454343
  0
VERTEX
  8
PLAN_1
  6
CONTINUOUS
 10
2.420909
 20
-3.452969
  0
VERTEX
  8
PLAN_1
  6
CONTINUOUS
 10
2.416787
 20
-3.451594
  0
VERTEX
  8
PLAN_1
  6
CONTINUOUS
 10
2.412665
 20
-3.450677
  0
VERTEX
  8
PLAN_1
  6
CONTINUOUS
 10
2.408083
 20
-3.450220
  0
VERTEX
  8
PLAN_1
  6
CONTINUOUS
 10
2.403961
 20
-3.449760
  0
VERTEX
  8
PLAN_1
  6
CONTINUOUS
 10
2.399839
 20
-3.449760
  0
VERTEX
  8
PLAN_1
  6
CONTINUOUS
 10
2.392969
 20
-3.450220
  0
VERTEX
  8
PLAN_1
  6
CONTINUOUS
 10
2.385638
 20
-3.451134
  0
VERTEX
  8
PLAN_1
  6
CONTINUOUS
 10
2.381516
 20
-3.451594
  0
VERTEX
  8
PLAN_1
  6
CONTINUOUS
 10
2.377854
 20
-3.452969
  0
VERTEX
  8
PLAN_1
  6
CONTINUOUS
 10
2.374189
 20
-3.454343
  0
VERTEX
  8
PLAN_1
  6
CONTINUOUS
 10
2.370524
 20
-3.455717
  0
VERTEX
  8
PLAN_1
  6
CONTINUOUS
 10
2.367319
 20
-3.458008
  0
VERTEX
  8
PLAN_1
  6
CONTINUOUS
 10
2.364110
 20
-3.460295
  0
VERTEX
  8
PLAN_1
  6
CONTINUOUS
 10
2.361362
 20
-3.463043
  0
VERTEX
  8
PLAN_1
  6
CONTINUOUS
 10
2.359071
 20
-3.466709
  0
VERTEX
  8
PLAN_1
  6
CONTINUOUS
 10
2.357240
 20
-3.470374
  0
VERTEX
  8
PLAN_1
  6
CONTINUOUS
 10
2.355409
 20
-3.474496
  0
VERTEX
  8
PLAN_1
  6
CONTINUOUS
 10
2.354492
 20
-3.479535
  0
VERTEX
  8
PLAN_1
  6
CONTINUOUS
 10
2.354492
 20
-3.484575
  0
VERTEX
  8
PLAN_1
  6
CONTINUOUS
 10
2.354492
 20
-3.487780
  0
VERTEX
  8
PLAN_1
  6
CONTINUOUS
 10
2.354949
 20
-3.490528
  0
VERTEX
  8
PLAN_1
  6
CONTINUOUS
 10
2.355409
 20
-3.493276
  0
VERTEX
  8
PLAN_1
  6
CONTINUOUS
 10
2.356323
 20
-3.495567
  0
VERTEX
  8
PLAN_1
  6
CONTINUOUS
 10
2.357240
 20
-3.497398
  0
VERTEX
  8
PLAN_1
  6
CONTINUOUS
 10
2.358614
 20
-3.499232
  0
VERTEX
  8
PLAN_1
  6
CONTINUOUS
 10
2.359988
 20
-3.501063
  0
VERTEX
  8
PLAN_1
  6
CONTINUOUS
 10
2.361819
 20
-3.502437
  0
VERTEX
  8
PLAN_1
  6
CONTINUOUS
 10
2.365484
 20
-3.505185
  0
VERTEX
  8
PLAN_1
  6
CONTINUOUS
 10
2.369150
 20
-3.507020
  0
VERTEX
  8
PLAN_1
  6
CONTINUOUS
 10
2.373272
 20
-3.508850
  0
VERTEX
  8
PLAN_1
  6
CONTINUOUS
 10
2.377854
 20
-3.509768
  0
VERTEX
  8
PLAN_1
  6
CONTINUOUS
 10
2.434654
 20
-3.523051
  0
VERTEX
  8
PLAN_1
  6
CONTINUOUS
 10
2.439689
 20
-3.524425
  0
VERTEX
  8
PLAN_1
  6
CONTINUOUS
 10
2.444272
 20
-3.525799
  0
VERTEX
  8
PLAN_1
  6
CONTINUOUS
 10
2.448394
 20
-3.527630
  0
VERTEX
  8
PLAN_1
  6
CONTINUOUS
 10
2.452516
 20
-3.529465
  0
VERTEX
  8
PLAN_1
  6
CONTINUOUS
 10
2.456638
 20
-3.531752
  0
VERTEX
  8
PLAN_1
  6
CONTINUOUS
 10
2.460303
 20
-3.534043
  0
VERTEX
  8
PLAN_1
  6
CONTINUOUS
 10
2.463969
 20
-3.536791
  0
VERTEX
  8
PLAN_1
  6
CONTINUOUS
 10
2.467173
 20
-3.540000
  0
VERTEX
  8
PLAN_1
  6
CONTINUOUS
 10
2.469921
 20
-3.543665
  0
VERTEX
  8
PLAN_1
  6
CONTINUOUS
 10
2.472669
 20
-3.547327
  0
VERTEX
  8
PLAN_1
  6
CONTINUOUS
 10
2.474504
 20
-3.550992
  0
VERTEX
  8
PLAN_1
  6
CONTINUOUS
 10
2.476335
 20
-3.555575
  0
VERTEX
  8
PLAN_1
  6
CONTINUOUS
 10
2.478169
 20
-3.560154
  0
VERTEX
  8
PLAN_1
  6
CONTINUOUS
 10
2.479083
 20
-3.565193
  0
VERTEX
  8
PLAN_1
  6
CONTINUOUS
 10
2.480000
 20
-3.570689
  0
VERTEX
  8
PLAN_1
  6
CONTINUOUS
 10
2.480000
 20
-3.576185
  0
VERTEX
  8
PLAN_1
  6
CONTINUOUS
 10
2.480000
 20
-3.580768
  0
VERTEX
  8
PLAN_1
  6
CONTINUOUS
 10
2.479543
 20
-3.584890
  0
VERTEX
  8
PLAN_1
  6
CONTINUOUS
 10
2.479083
 20
-3.588555
  0
VERTEX
  8
PLAN_1
  6
CONTINUOUS
 10
2.478169
 20
-3.592677
  0
VERTEX
  8
PLAN_1
  6
CONTINUOUS
 10
2.476795
 20
-3.595882
  0
VERTEX
  8
PLAN_1
  6
CONTINUOUS
 10
2.475878
 20
-3.599547
  0
VERTEX
  8
PLAN_1
  6
CONTINUOUS
 10
2.474043
 20
-3.602752
  0
VERTEX
  8
PLAN_1
  6
CONTINUOUS
 10
2.472669
 20
-3.605500
  0
VERTEX
  8
PLAN_1
  6
CONTINUOUS
 10
2.469008
 20
-3.611000
  0
VERTEX
  8
PLAN_1
  6
CONTINUOUS
 10
2.464425
 20
-3.616035
  0
VERTEX
  8
PLAN_1
  6
CONTINUOUS
 10
2.459386
 20
-3.620618
  0
VERTEX
  8
PLAN_1
  6
CONTINUOUS
 10
2.453890
 20
-3.624283
  0
VERTEX
  8
PLAN_1
  6
CONTINUOUS
 10
2.447937
 20
-3.627488
  0
VERTEX
  8
PLAN_1
  6
CONTINUOUS
 10
2.441524
 20
-3.629780
  0
VERTEX
  8
PLAN_1
  6
CONTINUOUS
 10
2.435110
 20
-3.632071
  0
VERTEX
  8
PLAN_1
  6
CONTINUOUS
 10
2.428697
 20
-3.633902
  0
VERTEX
  8
PLAN_1
  6
CONTINUOUS
 10
2.421827
 20
-3.634819
  0
VERTEX
  8
PLAN_1
  6
CONTINUOUS
 10
2.414957
 20
-3.635732
  0
VERTEX
  8
PLAN_1
  6
CONTINUOUS
 10
2.408543
 20
-3.636193
  0
VERTEX
  8
PLAN_1
  6
CONTINUOUS
 10
2.402130
 20
-3.636650
  0
VERTEX
  8
PLAN_1
  6
CONTINUOUS
 10
2.395260
 20
-3.636650
  0
VERTEX
  8
PLAN_1
  6
CONTINUOUS
 10
2.389303
 20
-3.636193
  0
VERTEX
  8
PLAN_1
  6
CONTINUOUS
 10
2.383350
 20
-3.635276
  0
VERTEX
  8
PLAN_1
  6
CONTINUOUS
 10
2.378311
 20
-3.634819
  0
VERTEX
  8
PLAN_1
  6
CONTINUOUS
 10
2.373272
 20
-3.633902
  0
VERTEX
  8
PLAN_1
  6
CONTINUOUS
 10
2.369150
 20
-3.632528
  0
VERTEX
  8
PLAN_1
  6
CONTINUOUS
 10
2.365028
 20
-3.631154
  0
VERTEX
  8
PLAN_1
  6
CONTINUOUS
 10
2.361362
 20
-3.629780
  0
VERTEX
  8
PLAN_1
  6
CONTINUOUS
 10
2.354949
 20
-3.627031
  0
VERTEX
  8
PLAN_1
  6
CONTINUOUS
 10
2.349909
 20
-3.623823
  0
VERTEX
  8
PLAN_1
  6
CONTINUOUS
 10
2.345331
 20
-3.620618
  0
VERTEX
  8
PLAN_1
  6
CONTINUOUS
 10
2.341665
 20
-3.617409
  0
VERTEX
  8
PLAN_1
  6
CONTINUOUS
 10
2.338917
 20
-3.614661
  0
VERTEX
  8
PLAN_1
  6
CONTINUOUS
 10
2.336169
 20
-3.611457
  0
VERTEX
  8
PLAN_1
  6
CONTINUOUS
 10
2.333421
 20
-3.608709
  0
VERTEX
  8
PLAN_1
  6
CONTINUOUS
 10
2.331587
 20
-3.605500
  0
VERTEX
  8
PLAN_1
  6
CONTINUOUS
 10
2.327925
 20
-3.599547
  0
VERTEX
  8
PLAN_1
  6
CONTINUOUS
 10
2.325177
 20
-3.593591
  0
VERTEX
  8
PLAN_1
  6
CONTINUOUS
 10
2.323343
 20
-3.587181
  0
VERTEX
  8
PLAN_1
  6
CONTINUOUS
 10
2.322429
 20
-3.580307
  0
VERTEX
  8
PLAN_1
  6
CONTINUOUS
 10
2.321512
 20
-3.573894
  0
VERTEX
  8
PLAN_1
  6
CONTINUOUS
 10
2.321512
 20
-3.567024
  0
VERTEX
  8
PLAN_1
  6
CONTINUOUS
 10
2.346705
 20
-3.567024
  0
VERTEX
  8
PLAN_1
  6
CONTINUOUS
 10
2.347161
 20
-3.573437
  0
VERTEX
  8
PLAN_1
  6
CONTINUOUS
 10
2.348079
 20
-3.579394
  0
VERTEX
  8
PLAN_1
  6
CONTINUOUS
 10
2.349453
 20
-3.584429
  0
VERTEX
  8
PLAN_1
  6
CONTINUOUS
 10
2.351744
 20
-3.589469
  0
VERTEX
  8
PLAN_1
  6
CONTINUOUS
 10
2.354492
 20
-3.593591
  0
VERTEX
  8
PLAN_1
  6
CONTINUOUS
 10
2.357240
 20
-3.597717
  0
VERTEX
  8
PLAN_1
  6
CONTINUOUS
 10
2.360906
 20
-3.600921
  0
VERTEX
  8
PLAN_1
  6
CONTINUOUS
 10
2.364567
 20
-3.603669
  0
VERTEX
  8
PLAN_1
  6
CONTINUOUS
 10
2.368693
 20
-3.606417
  0
VERTEX
  8
PLAN_1
  6
CONTINUOUS
 10
2.373272
 20
-3.608248
  0
VERTEX
  8
PLAN_1
  6
CONTINUOUS
 10
2.377854
 20
-3.610083
  0
VERTEX
  8
PLAN_1
  6
CONTINUOUS
 10
2.382433
 20
-3.611457
  0
VERTEX
  8
PLAN_1
  6
CONTINUOUS
 10
2.387012
 20
-3.612374
  0
VERTEX
  8
PLAN_1
  6
CONTINUOUS
 10
2.392051
 20
-3.612831
  0
VERTEX
  8
PLAN_1
  6
CONTINUOUS
 10
2.397091
 20
-3.613287
  0
VERTEX
  8
PLAN_1
  6
CONTINUOUS
 10
2.401673
 20
-3.613287
  0
VERTEX
  8
PLAN_1
  6
CONTINUOUS
 10
2.409461
 20
-3.613287
  0
VERTEX
  8
PLAN_1
  6
CONTINUOUS
 10
2.418161
 20
-3.612374
  0
VERTEX
  8
PLAN_1
  6
CONTINUOUS
 10
2.422283
 20
-3.611457
  0
VERTEX
  8
PLAN_1
  6
CONTINUOUS
 10
2.426866
 20
-3.610539
  0
VERTEX
  8
PLAN_1
  6
CONTINUOUS
 10
2.430988
 20
-3.609165
  0
VERTEX
  8
PLAN_1
  6
CONTINUOUS
 10
2.435110
 20
-3.607335
  0
VERTEX
  8
PLAN_1
  6
CONTINUOUS
 10
2.438776
 20
-3.605500
  0
VERTEX
  8
PLAN_1
  6
CONTINUOUS
 10
2.442441
 20
-3.603213
  0
VERTEX
  8
PLAN_1
  6
CONTINUOUS
 10
2.445646
 20
-3.600465
  0
VERTEX
  8
PLAN_1
  6
CONTINUOUS
 10
2.448394
 20
-3.597256
  0
VERTEX
  8
PLAN_1
  6
CONTINUOUS
 10
2.450685
 20
-3.593591
  0
VERTEX
  8
PLAN_1
  6
CONTINUOUS
 10
2.452516
 20
-3.589469
  0
VERTEX
  8
PLAN_1
  6
CONTINUOUS
 10
2.453433
 20
-3.584890
  0
VERTEX
  8
PLAN_1
  6
CONTINUOUS
 10
2.453890
 20
-3.579850
  0
VERTEX
  8
PLAN_1
  6
CONTINUOUS
 10
2.453890
 20
-3.576185
  0
VERTEX
  8
PLAN_1
  6
CONTINUOUS
 10
2.453433
 20
-3.572980
  0
VERTEX
  8
PLAN_1
  6
CONTINUOUS
 10
2.452976
 20
-3.569772
  0
VERTEX
  8
PLAN_1
  6
CONTINUOUS
 10
2.452059
 20
-3.566567
  0
VERTEX
  8
PLAN_1
  6
CONTINUOUS
 10
2.450685
 20
-3.564276
  0
VERTEX
  8
PLAN_1
  6
CONTINUOUS
 10
2.449311
 20
-3.561528
  0
VERTEX
  8
PLAN_1
  6
CONTINUOUS
 10
2.447020
 20
-3.559236
  0
VERTEX
  8
PLAN_1
  6
CONTINUOUS
 10
2.444728
 20
-3.557406
  0
VERTEX
  8
PLAN_1
  6
CONTINUOUS
 10
2.442441
 20
-3.555575
  0
VERTEX
  8
PLAN_1
  6
CONTINUOUS
 10
2.439232
 20
-3.553740
  0
VERTEX
  8
PLAN_1
  6
CONTINUOUS
 10
2.436028
 20
-3.551909
  0
VERTEX
  8
PLAN_1
  6
CONTINUOUS
 10
2.431906
 20
-3.550535
  0
VERTEX
  8
PLAN_1
  6
CONTINUOUS
 10
2.422744
 20
-3.547787
  0
VERTEX
  8
PLAN_1
  6
CONTINUOUS
 10
2.411291
 20
-3.544579
  0
VERTEX
  8
PLAN_1
  6
CONTINUOUS
 10
2.370524
 20
-3.535417
  0
VERTEX
  8
PLAN_1
  6
CONTINUOUS
 10
2.365028
 20
-3.533587
  0
VERTEX
  8
PLAN_1
  6
CONTINUOUS
 10
2.358614
 20
-3.531295
  0
VERTEX
  8
PLAN_1
  6
CONTINUOUS
 10
2.354949
 20
-3.529921
  0
VERTEX
  8
PLAN_1
  6
CONTINUOUS
 10
2.351283
 20
-3.528091
  0
VERTEX
  8
PLAN_1
  6
CONTINUOUS
 10
2.348079
 20
-3.526256
  0
VERTEX
  8
PLAN_1
  6
CONTINUOUS
 10
2.344413
 20
-3.523508
  0
VERTEX
  8
PLAN_1
  6
CONTINUOUS
 10
2.341209
 20
-3.520760
  0
VERTEX
  8
PLAN_1
  6
CONTINUOUS
 10
2.338000
 20
-3.517555
  0
VERTEX
  8
PLAN_1
  6
CONTINUOUS
 10
2.335252
 20
-3.513890
  0
VERTEX
  8
PLAN_1
  6
CONTINUOUS
 10
2.332965
 20
-3.509768
  0
VERTEX
  8
PLAN_1
  6
CONTINUOUS
 10
2.331130
 20
-3.505185
  0
VERTEX
  8
PLAN_1
  6
CONTINUOUS
 10
2.329299
 20
-3.500150
  0
VERTEX
  8
PLAN_1
  6
CONTINUOUS
 10
2.328382
 20
-3.494650
  0
VERTEX
  8
PLAN_1
  6
CONTINUOUS
 10
2.328382
 20
-3.488236
  0
VERTEX
  8
PLAN_1
  6
CONTINUOUS
 10
2.328382
 20
-3.482740
  0
VERTEX
  8
PLAN_1
  6
CONTINUOUS
 10
2.329299
 20
-3.476787
  0
VERTEX
  8
PLAN_1
  6
CONTINUOUS
 10
2.330213
 20
-3.471291
  0
VERTEX
  8
PLAN_1
  6
CONTINUOUS
 10
2.332047
 20
-3.465791
  0
VERTEX
  8
PLAN_1
  6
CONTINUOUS
 10
2.334339
 20
-3.460295
  0
VERTEX
  8
PLAN_1
  6
CONTINUOUS
 10
2.337087
 20
-3.455256
  0
VERTEX
  8
PLAN_1
  6
CONTINUOUS
 10
2.340291
 20
-3.450220
  0
VERTEX
  8
PLAN_1
  6
CONTINUOUS
 10
2.344413
 20
-3.445638
  0
VERTEX
  8
PLAN_1
  6
CONTINUOUS
 10
2.348996
 20
-3.441516
  0
VERTEX
  8
PLAN_1
  6
CONTINUOUS
 10
2.354031
 20
-3.437850
  0
VERTEX
  8
PLAN_1
  6
CONTINUOUS
 10
2.359531
 20
-3.434646
  0
VERTEX
  8
PLAN_1
  6
CONTINUOUS
 10
2.365484
 20
-3.431898
  0
VERTEX
  8
PLAN_1
  6
CONTINUOUS
 10
2.372354
 20
-3.429606
  0
VERTEX
  8
PLAN_1
  6
CONTINUOUS
 10
2.380142
 20
-3.428232
  0
VERTEX
  8
PLAN_1
  6
CONTINUOUS
 10
2.387929
 20
-3.426858
  0
VERTEX
  8
PLAN_1
  6
CONTINUOUS
 10
2.396634
 20
-3.426858
  0
VERTEX
  8
PLAN_1
  6
CONTINUOUS
 10
2.403047
 20
-3.426858
  0
VERTEX
  8
PLAN_1
  6
CONTINUOUS
 10
2.409000
 20
-3.427315
  0
VERTEX
  8
PLAN_1
  6
CONTINUOUS
 10
2.414496
 20
-3.427776
  0
VERTEX
  8
PLAN_1
  6
CONTINUOUS
 10
2.419992
 20
-3.428689
  0
VERTEX
  8
PLAN_1
  6
CONTINUOUS
 10
2.425031
 20
-3.429606
  0
VERTEX
  8
PLAN_1
  6
CONTINUOUS
 10
2.429614
 20
-3.430524
  0
VERTEX
  8
PLAN_1
  6
CONTINUOUS
 10
2.434193
 20
-3.431898
  0
VERTEX
  8
PLAN_1
  6
CONTINUOUS
 10
2.438315
 20
-3.433728
  0
VERTEX
  8
PLAN_1
  6
CONTINUOUS
 10
2.441980
 20
-3.435102
  0
VERTEX
  8
PLAN_1
  6
CONTINUOUS
 10
2.445189
 20
-3.436937
  0
VERTEX
  8
PLAN_1
  6
CONTINUOUS
 10
2.448850
 20
-3.438768
  0
VERTEX
  8
PLAN_1
  6
CONTINUOUS
 10
2.451598
 20
-3.441059
  0
VERTEX
  8
PLAN_1
  6
CONTINUOUS
 10
2.457098
 20
-3.445638
  0
VERTEX
  8
PLAN_1
  6
CONTINUOUS
 10
2.461220
 20
-3.450220
  0
VERTEX
  8
PLAN_1
  6
CONTINUOUS
 10
2.464886
 20
-3.455256
  0
VERTEX
  8
PLAN_1
  6
CONTINUOUS
 10
2.467634
 20
-3.460756
  0
VERTEX
  8
PLAN_1
  6
CONTINUOUS
 10
2.469921
 20
-3.465791
  0
VERTEX
  8
PLAN_1
  6
CONTINUOUS
 10
2.471756
 20
-3.471291
  0
VERTEX
  8
PLAN_1
  6
CONTINUOUS
 10
2.472669
 20
-3.476327
  0
VERTEX
  8
PLAN_1
  6
CONTINUOUS
 10
2.473587
 20
-3.481366
  0
VERTEX
  8
PLAN_1
  6
CONTINUOUS
 10
2.474043
 20
-3.485949
  0
VERTEX
  8
PLAN_1
  6
CONTINUOUS
 10
2.474504
 20
-3.490071
  0
VERTEX
  8
PLAN_1
  6
CONTINUOUS
 10
2.449311
 20
-3.490071
  0
SEQEND
  8
0
  0
POLYLINE
  8
PLAN_1
  6
CONTINUOUS
 66
     1
 40
0.008244
 41
0.008244
  0
VERTEX
  8
PLAN_1
  6
CONTINUOUS
 10
-0.787343
 20
0.838598
  0
VERTEX
  8
PLAN_1
  6
CONTINUOUS
 10
-0.787343
 20
0.897689
  0
VERTEX
  8
PLAN_1
  6
CONTINUOUS
 10
-1.653079
 20
0.897689
  0
VERTEX
  8
PLAN_1
  6
CONTINUOUS
 10
-1.653079
 20
0.838598
  0
VERTEX
  8
PLAN_1
  6
CONTINUOUS
 10
-0.787343
 20
0.838598
  0
SEQEND
  8
0
  0
POLYLINE
  8
PLAN_1
  6
CONTINUOUS
 66
     1
 40
0.008244
 41
0.008244
  0
VERTEX
  8
PLAN_1
  6
CONTINUOUS
 10
-2.322303
 20
0.897689
  0
VERTEX
  8
PLAN_1
  6
CONTINUOUS
 10
-2.330551
 20
0.898150
  0
VERTEX
  8
PLAN_1
  6
CONTINUOUS
 10
-2.338339
 20
0.899524
  0
VERTEX
  8
PLAN_1
  6
CONTINUOUS
 10
-2.345665
 20
0.901354
  0
VERTEX
  8
PLAN_1
  6
CONTINUOUS
 10
-2.352996
 20
0.904102
  0
VERTEX
  8
PLAN_1
  6
CONTINUOUS
 10
-2.359866
 20
0.907307
  0
VERTEX
  8
PLAN_1
  6
CONTINUOUS
 10
-2.366280
 20
0.911433
  0
VERTEX
  8
PLAN_1
  6
CONTINUOUS
 10
-2.372693
 20
0.916012
  0
VERTEX
  8
PLAN_1
  6
CONTINUOUS
 10
-2.378189
 20
0.921051
  0
VERTEX
  8
PLAN_1
  6
CONTINUOUS
 10
-2.383228
 20
0.926547
  0
VERTEX
  8
PLAN_1
  6
CONTINUOUS
 10
-2.387807
 20
0.932504
  0
VERTEX
  8
PLAN_1
  6
CONTINUOUS
 10
-2.391472
 20
0.938913
  0
VERTEX
  8
PLAN_1
  6
CONTINUOUS
 10
-2.395138
 20
0.945787
  0
VERTEX
  8
PLAN_1
  6
CONTINUOUS
 10
-2.397425
 20
0.953114
  0
VERTEX
  8
PLAN_1
  6
CONTINUOUS
 10
-2.399717
 20
0.960902
  0
VERTEX
  8
PLAN_1
  6
CONTINUOUS
 10
-2.400634
 20
0.968689
  0
VERTEX
  8
PLAN_1
  6
CONTINUOUS
 10
-2.401091
 20
0.976476
  0
SEQEND
  8
0
  0
POLYLINE
  8
PLAN_1
  6
CONTINUOUS
 66
     1
 40
0.008244
 41
0.008244
  0
VERTEX
  8
PLAN_1
  6
CONTINUOUS
 10
-2.401091
 20
0.976476
  0
VERTEX
  8
PLAN_1
  6
CONTINUOUS
 10
-2.401091
 20
3.318539
  0
SEQEND
  8
0
  0
POLYLINE
  8
PLAN_1
  6
CONTINUOUS
 66
     1
 40
0.008244
 41
0.008244
  0
VERTEX
  8
PLAN_1
  6
CONTINUOUS
 10
-2.401091
 20
3.318539
  0
VERTEX
  8
PLAN_1
  6
CONTINUOUS
 10
-2.400634
 20
3.326783
  0
VERTEX
  8
PLAN_1
  6
CONTINUOUS
 10
-2.399717
 20
3.334571
  0
VERTEX
  8
PLAN_1
  6
CONTINUOUS
 10
-2.397425
 20
3.341902
  0
VERTEX
  8
PLAN_1
  6
CONTINUOUS
 10
-2.395138
 20
3.349228
  0
VERTEX
  8
PLAN_1
  6
CONTINUOUS
 10
-2.391472
 20
3.356098
  0
VERTEX
  8
PLAN_1
  6
CONTINUOUS
 10
-2.387807
 20
3.362512
  0
VERTEX
  8
PLAN_1
  6
CONTINUOUS
 10
-2.383228
 20
3.368925
  0
VERTEX
  8
PLAN_1
  6
CONTINUOUS
 10
-2.378189
 20
3.374421
  0
VERTEX
  8
PLAN_1
  6
CONTINUOUS
 10
-2.372693
 20
3.379461
  0
VERTEX
  8
PLAN_1
  6
CONTINUOUS
 10
-2.366280
 20
3.384039
  0
VERTEX
  8
PLAN_1
  6
CONTINUOUS
 10
-2.359866
 20
3.387705
  0
VERTEX
  8
PLAN_1
  6
CONTINUOUS
 10
-2.352996
 20
3.391370
  0
VERTEX
  8
PLAN_1
  6
CONTINUOUS
 10
-2.345665
 20
3.393661
  0
VERTEX
  8
PLAN_1
  6
CONTINUOUS
 10
-2.338339
 20
3.395953
  0
VERTEX
  8
PLAN_1
  6
CONTINUOUS
 10
-2.330551
 20
3.396866
  0
VERTEX
  8
PLAN_1
  6
CONTINUOUS
 10
-2.322303
 20
3.397327
  0
SEQEND
  8
0
  0
POLYLINE
  8
PLAN_1
  6
CONTINUOUS
 66
     1
 40
0.008244
 41
0.008244
  0
VERTEX
  8
PLAN_1
  6
CONTINUOUS
 10
-2.322303
 20
3.397327
  0
VERTEX
  8
PLAN_1
  6
CONTINUOUS
 10
-0.118118
 20
3.397327
  0
SEQEND
  8
0
  0
POLYLINE
  8
PLAN_1
  6
CONTINUOUS
 66
     1
 40
0.008244
 41
0.008244
  0
VERTEX
  8
PLAN_1
  6
CONTINUOUS
 10
-0.118118
 20
3.397327
  0
VERTEX
  8
PLAN_1
  6
CONTINUOUS
 10
-0.110331
 20
3.396866
  0
VERTEX
  8
PLAN_1
  6
CONTINUOUS
 10
-0.102087
 20
3.395953
  0
VERTEX
  8
PLAN_1
  6
CONTINUOUS
 10
-0.094756
 20
3.393661
  0
VERTEX
  8
PLAN_1
  6
CONTINUOUS
 10
-0.087429
 20
3.391370
  0
VERTEX
  8
PLAN_1
  6
CONTINUOUS
 10
-0.080559
 20
3.387705
  0
VERTEX
  8
PLAN_1
  6
CONTINUOUS
 10
-0.074146
 20
3.384039
  0
VERTEX
  8
PLAN_1
  6
CONTINUOUS
 10
-0.068189
 20
3.379461
  0
VERTEX
  8
PLAN_1
  6
CONTINUOUS
 10
-0.062693
 20
3.374421
  0
VERTEX
  8
PLAN_1
  6
CONTINUOUS
 10
-0.057197
 20
3.368925
  0
VERTEX
  8
PLAN_1
  6
CONTINUOUS
 10
-0.053075
 20
3.362512
  0
VERTEX
  8
PLAN_1
  6
CONTINUOUS
 10
-0.048953
 20
3.356098
  0
VERTEX
  8
PLAN_1
  6
CONTINUOUS
 10
-0.045744
 20
3.349228
  0
VERTEX
  8
PLAN_1
  6
CONTINUOUS
 10
-0.042996
 20
3.341902
  0
VERTEX
  8
PLAN_1
  6
CONTINUOUS
 10
-0.041165
 20
3.334571
  0
VERTEX
  8
PLAN_1
  6
CONTINUOUS
 10
-0.039791
 20
3.326783
  0
VERTEX
  8
PLAN_1
  6
CONTINUOUS
 10
-0.039331
 20
3.318539
  0
SEQEND
  8
0
  0
POLYLINE
  8
PLAN_1
  6
CONTINUOUS
 66
     1
 40
0.008244
 41
0.008244
  0
VERTEX
  8
PLAN_1
  6
CONTINUOUS
 10
-0.039331
 20
3.318539
  0
VERTEX
  8
PLAN_1
  6
CONTINUOUS
 10
-0.039331
 20
0.976476
  0
SEQEND
  8
0
  0
POLYLINE
  8
PLAN_1
  6
CONTINUOUS
 66
     1
 40
0.008244
 41
0.008244
  0
VERTEX
  8
PLAN_1
  6
CONTINUOUS
 10
-0.039331
 20
0.976476
  0
VERTEX
  8
PLAN_1
  6
CONTINUOUS
 10
-0.039791
 20
0.968689
  0
VERTEX
  8
PLAN_1
  6
CONTINUOUS
 10
-0.041165
 20
0.960902
  0
VERTEX
  8
PLAN_1
  6
CONTINUOUS
 10
-0.042996
 20
0.953114
  0
VERTEX
  8
PLAN_1
  6
CONTINUOUS
 10
-0.045744
 20
0.945787
  0
VERTEX
  8
PLAN_1
  6
CONTINUOUS
 10
-0.048953
 20
0.938913
  0
VERTEX
  8
PLAN_1
  6
CONTINUOUS
 10
-0.053075
 20
0.932504
  0
VERTEX
  8
PLAN_1
  6
CONTINUOUS
 10
-0.057197
 20
0.926547
  0
VERTEX
  8
PLAN_1
  6
CONTINUOUS
 10
-0.062693
 20
0.921051
  0
VERTEX
  8
PLAN_1
  6
CONTINUOUS
 10
-0.068189
 20
0.916012
  0
VERTEX
  8
PLAN_1
  6
CONTINUOUS
 10
-0.074146
 20
0.911433
  0
VERTEX
  8
PLAN_1
  6
CONTINUOUS
 10
-0.080559
 20
0.907307
  0
VERTEX
  8
PLAN_1
  6
CONTINUOUS
 10
-0.087429
 20
0.904102
  0
VERTEX
  8
PLAN_1
  6
CONTINUOUS
 10
-0.094756
 20
0.901354
  0
VERTEX
  8
PLAN_1
  6
CONTINUOUS
 10
-0.102087
 20
0.899524
  0
VERTEX
  8
PLAN_1
  6
CONTINUOUS
 10
-0.110331
 20
0.898150
  0
VERTEX
  8
PLAN_1
  6
CONTINUOUS
 10
-0.118118
 20
0.897689
  0
SEQEND
  8
0
  0
POLYLINE
  8
PLAN_1
  6
CONTINUOUS
 66
     1
 40
0.008244
 41
0.008244
  0
VERTEX
  8
PLAN_1
  6
CONTINUOUS
 10
-0.118118
 20
0.897689
  0
VERTEX
  8
PLAN_1
  6
CONTINUOUS
 10
-2.322303
 20
0.897689
  0
SEQEND
  8
0
  0
POLYLINE
  8
PLAN_1
  6
CONTINUOUS
 66
     1
 40
0.008244
 41
0.008244
  0
VERTEX
  8
PLAN_1
  6
CONTINUOUS
 10
-2.109764
 20
3.321287
  0
VERTEX
  8
PLAN_1
  6
CONTINUOUS
 10
-2.115720
 20
3.317165
  0
VERTEX
  8
PLAN_1
  6
CONTINUOUS
 10
-2.121673
 20
3.313043
  0
VERTEX
  8
PLAN_1
  6
CONTINUOUS
 10
-2.127169
 20
3.308461
  0
VERTEX
  8
PLAN_1
  6
CONTINUOUS
 10
-2.132209
 20
3.303421
  0
VERTEX
  8
PLAN_1
  6
CONTINUOUS
 10
-2.137248
 20
3.297925
  0
VERTEX
  8
PLAN_1
  6
CONTINUOUS
 10
-2.141831
 20
3.292429
  0
VERTEX
  8
PLAN_1
  6
CONTINUOUS
 10
-2.145953
 20
3.286472
  0
VERTEX
  8
PLAN_1
  6
CONTINUOUS
 10
-2.149614
 20
3.280520
  0
VERTEX
  8
PLAN_1
  6
CONTINUOUS
 10
-2.153280
 20
3.274106
  0
VERTEX
  8
PLAN_1
  6
CONTINUOUS
 10
-2.156028
 20
3.267236
  0
VERTEX
  8
PLAN_1
  6
CONTINUOUS
 10
-2.158776
 20
3.260366
  0
VERTEX
  8
PLAN_1
  6
CONTINUOUS
 10
-2.161067
 20
3.253492
  0
VERTEX
  8
PLAN_1
  6
CONTINUOUS
 10
-2.162441
 20
3.246165
  0
VERTEX
  8
PLAN_1
  6
CONTINUOUS
 10
-2.163815
 20
3.238835
  0
VERTEX
  8
PLAN_1
  6
CONTINUOUS
 10
-2.164732
 20
3.231047
  0
VERTEX
  8
PLAN_1
  6
CONTINUOUS
 10
-2.164732
 20
3.223264
  0
VERTEX
  8
PLAN_1
  6
CONTINUOUS
 10
-2.164732
 20
3.215933
  0
VERTEX
  8
PLAN_1
  6
CONTINUOUS
 10
-2.163815
 20
3.208146
  0
VERTEX
  8
PLAN_1
  6
CONTINUOUS
 10
-2.162441
 20
3.200819
  0
VERTEX
  8
PLAN_1
  6
CONTINUOUS
 10
-2.161067
 20
3.193488
  0
VERTEX
  8
PLAN_1
  6
CONTINUOUS
 10
-2.158776
 20
3.186618
  0
VERTEX
  8
PLAN_1
  6
CONTINUOUS
 10
-2.156028
 20
3.179748
  0
VERTEX
  8
PLAN_1
  6
CONTINUOUS
 10
-2.153280
 20
3.172874
  0
VERTEX
  8
PLAN_1
  6
CONTINUOUS
 10
-2.149614
 20
3.166461
  0
VERTEX
  8
PLAN_1
  6
CONTINUOUS
 10
-2.145953
 20
3.160508
  0
VERTEX
  8
PLAN_1
  6
CONTINUOUS
 10
-2.141831
 20
3.154551
  0
VERTEX
  8
PLAN_1
  6
CONTINUOUS
 10
-2.137248
 20
3.148598
  0
VERTEX
  8
PLAN_1
  6
CONTINUOUS
 10
-2.132209
 20
3.143559
  0
VERTEX
  8
PLAN_1
  6
CONTINUOUS
 10
-2.127169
 20
3.138520
  0
VERTEX
  8
PLAN_1
  6
CONTINUOUS
 10
-2.121673
 20
3.133941
  0
VERTEX
  8
PLAN_1
  6
CONTINUOUS
 10
-2.115720
 20
3.129358
  0
VERTEX
  8
PLAN_1
  6
CONTINUOUS
 10
-2.109764
 20
3.125697
  0
SEQEND
  8
0
  0
POLYLINE
  8
PLAN_1
  6
CONTINUOUS
 66
     1
 40
0.008244
 41
0.008244
  0
VERTEX
  8
PLAN_1
  6
CONTINUOUS
 10
-2.109764
 20
3.125697
  0
VERTEX
  8
PLAN_1
  6
CONTINUOUS
 10
-2.109764
 20
3.125236
  0
VERTEX
  8
PLAN_1
  6
CONTINUOUS
 10
-1.991587
 20
3.125236
  0
VERTEX
  8
PLAN_1
  6
CONTINUOUS
 10
-1.992043
 20
3.125697
  0
SEQEND
  8
0
  0
POLYLINE
  8
PLAN_1
  6
CONTINUOUS
 66
     1
 40
0.008244
 41
0.008244
  0
VERTEX
  8
PLAN_1
  6
CONTINUOUS
 10
-1.992043
 20
3.125697
  0
VERTEX
  8
PLAN_1
  6
CONTINUOUS
 10
-1.985630
 20
3.129358
  0
VERTEX
  8
PLAN_1
  6
CONTINUOUS
 10
-1.980134
 20
3.133941
  0
VERTEX
  8
PLAN_1
  6
CONTINUOUS
 10
-1.974638
 20
3.138520
  0
VERTEX
  8
PLAN_1
  6
CONTINUOUS
 10
-1.969142
 20
3.143559
  0
VERTEX
  8
PLAN_1
  6
CONTINUOUS
 10
-1.964559
 20
3.148598
  0
VERTEX
  8
PLAN_1
  6
CONTINUOUS
 10
-1.959980
 20
3.154551
  0
VERTEX
  8
PLAN_1
  6
CONTINUOUS
 10
-1.955398
 20
3.160508
  0
VERTEX
  8
PLAN_1
  6
CONTINUOUS
 10
-1.951732
 20
3.166461
  0
VERTEX
  8
PLAN_1
  6
CONTINUOUS
 10
-1.948528
 20
3.172874
  0
VERTEX
  8
PLAN_1
  6
CONTINUOUS
 10
-1.945323
 20
3.179748
  0
VERTEX
  8
PLAN_1
  6
CONTINUOUS
 10
-1.942571
 20
3.186618
  0
VERTEX
  8
PLAN_1
  6
CONTINUOUS
 10
-1.940740
 20
3.193488
  0
VERTEX
  8
PLAN_1
  6
CONTINUOUS
 10
-1.938909
 20
3.200819
  0
VERTEX
  8
PLAN_1
  6
CONTINUOUS
 10
-1.937535
 20
3.208146
  0
VERTEX
  8
PLAN_1
  6
CONTINUOUS
 10
-1.936618
 20
3.215933
  0
VERTEX
  8
PLAN_1
  6
CONTINUOUS
 10
-1.936618
 20
3.223264
  0
VERTEX
  8
PLAN_1
  6
CONTINUOUS
 10
-1.936618
 20
3.231047
  0
VERTEX
  8
PLAN_1
  6
CONTINUOUS
 10
-1.937535
 20
3.238835
  0
VERTEX
  8
PLAN_1
  6
CONTINUOUS
 10
-1.938909
 20
3.246165
  0
VERTEX
  8
PLAN_1
  6
CONTINUOUS
 10
-1.940740
 20
3.253492
  0
VERTEX
  8
PLAN_1
  6
CONTINUOUS
 10
-1.942571
 20
3.260366
  0
VERTEX
  8
PLAN_1
  6
CONTINUOUS
 10
-1.945323
 20
3.267236
  0
VERTEX
  8
PLAN_1
  6
CONTINUOUS
 10
-1.948528
 20
3.274106
  0
VERTEX
  8
PLAN_1
  6
CONTINUOUS
 10
-1.951732
 20
3.280520
  0
VERTEX
  8
PLAN_1
  6
CONTINUOUS
 10
-1.955398
 20
3.286472
  0
VERTEX
  8
PLAN_1
  6
CONTINUOUS
 10
-1.959980
 20
3.292429
  0
VERTEX
  8
PLAN_1
  6
CONTINUOUS
 10
-1.964559
 20
3.297925
  0
VERTEX
  8
PLAN_1
  6
CONTINUOUS
 10
-1.969142
 20
3.303421
  0
VERTEX
  8
PLAN_1
  6
CONTINUOUS
 10
-1.974638
 20
3.308461
  0
VERTEX
  8
PLAN_1
  6
CONTINUOUS
 10
-1.980134
 20
3.313043
  0
VERTEX
  8
PLAN_1
  6
CONTINUOUS
 10
-1.985630
 20
3.317165
  0
VERTEX
  8
PLAN_1
  6
CONTINUOUS
 10
-1.992043
 20
3.321287
  0
SEQEND
  8
0
  0
POLYLINE
  8
PLAN_1
  6
CONTINUOUS
 66
     1
 40
0.008244
 41
0.008244
  0
VERTEX
  8
PLAN_1
  6
CONTINUOUS
 10
-1.992043
 20
3.321287
  0
VERTEX
  8
PLAN_1
  6
CONTINUOUS
 10
-1.991587
 20
3.321744
  0
VERTEX
  8
PLAN_1
  6
CONTINUOUS
 10
-2.109764
 20
3.321744
  0
VERTEX
  8
PLAN_1
  6
CONTINUOUS
 10
-2.109764
 20
3.321287
  0
SEQEND
  8
0
  0
POLYLINE
  8
PLAN_1
  6
CONTINUOUS
 66
     1
 40
0.008244
 41
0.008244
  0
VERTEX
  8
PLAN_1
  6
CONTINUOUS
 10
-0.450213
 20
3.321287
  0
VERTEX
  8
PLAN_1
  6
CONTINUOUS
 10
-0.456626
 20
3.317165
  0
VERTEX
  8
PLAN_1
  6
CONTINUOUS
 10
-0.462122
 20
3.313043
  0
VERTEX
  8
PLAN_1
  6
CONTINUOUS
 10
-0.467618
 20
3.308461
  0
VERTEX
  8
PLAN_1
  6
CONTINUOUS
 10
-0.473114
 20
3.303421
  0
VERTEX
  8
PLAN_1
  6
CONTINUOUS
 10
-0.477697
 20
3.297925
  0
VERTEX
  8
PLAN_1
  6
CONTINUOUS
 10
-0.482276
 20
3.292429
  0
VERTEX
  8
PLAN_1
  6
CONTINUOUS
 10
-0.486398
 20
3.286472
  0
VERTEX
  8
PLAN_1
  6
CONTINUOUS
 10
-0.490520
 20
3.280520
  0
VERTEX
  8
PLAN_1
  6
CONTINUOUS
 10
-0.493728
 20
3.274106
  0
VERTEX
  8
PLAN_1
  6
CONTINUOUS
 10
-0.496933
 20
3.267236
  0
VERTEX
  8
PLAN_1
  6
CONTINUOUS
 10
-0.499681
 20
3.260366
  0
VERTEX
  8
PLAN_1
  6
CONTINUOUS
 10
-0.501516
 20
3.253492
  0
VERTEX
  8
PLAN_1
  6
CONTINUOUS
 10
-0.503346
 20
3.246165
  0
VERTEX
  8
PLAN_1
  6
CONTINUOUS
 10
-0.504720
 20
3.238835
  0
VERTEX
  8
PLAN_1
  6
CONTINUOUS
 10
-0.505181
 20
3.231047
  0
VERTEX
  8
PLAN_1
  6
CONTINUOUS
 10
-0.505638
 20
3.223264
  0
VERTEX
  8
PLAN_1
  6
CONTINUOUS
 10
-0.505181
 20
3.215933
  0
VERTEX
  8
PLAN_1
  6
CONTINUOUS
 10
-0.504720
 20
3.208146
  0
VERTEX
  8
PLAN_1
  6
CONTINUOUS
 10
-0.503346
 20
3.200819
  0
VERTEX
  8
PLAN_1
  6
CONTINUOUS
 10
-0.501516
 20
3.193488
  0
VERTEX
  8
PLAN_1
  6
CONTINUOUS
 10
-0.499681
 20
3.186618
  0
VERTEX
  8
PLAN_1
  6
CONTINUOUS
 10
-0.496933
 20
3.179748
  0
VERTEX
  8
PLAN_1
  6
CONTINUOUS
 10
-0.493728
 20
3.172874
  0
VERTEX
  8
PLAN_1
  6
CONTINUOUS
 10
-0.490520
 20
3.166461
  0
VERTEX
  8
PLAN_1
  6
CONTINUOUS
 10
-0.486398
 20
3.160508
  0
VERTEX
  8
PLAN_1
  6
CONTINUOUS
 10
-0.482276
 20
3.154551
  0
VERTEX
  8
PLAN_1
  6
CONTINUOUS
 10
-0.477697
 20
3.148598
  0
VERTEX
  8
PLAN_1
  6
CONTINUOUS
 10
-0.473114
 20
3.143559
  0
VERTEX
  8
PLAN_1
  6
CONTINUOUS
 10
-0.467618
 20
3.138520
  0
VERTEX
  8
PLAN_1
  6
CONTINUOUS
 10
-0.462122
 20
3.133941
  0
VERTEX
  8
PLAN_1
  6
CONTINUOUS
 10
-0.456626
 20
3.129358
  0
VERTEX
  8
PLAN_1
  6
CONTINUOUS
 10
-0.450213
 20
3.125697
  0
SEQEND
  8
0
  0
POLYLINE
  8
PLAN_1
  6
CONTINUOUS
 66
     1
 40
0.008244
 41
0.008244
  0
VERTEX
  8
PLAN_1
  6
CONTINUOUS
 10
-0.450213
 20
3.125697
  0
VERTEX
  8
PLAN_1
  6
CONTINUOUS
 10
-0.450669
 20
3.125236
  0
VERTEX
  8
PLAN_1
  6
CONTINUOUS
 10
-0.332492
 20
3.125236
  0
VERTEX
  8
PLAN_1
  6
CONTINUOUS
 10
-0.332492
 20
3.125697
  0
SEQEND
  8
0
  0
POLYLINE
  8
PLAN_1
  6
CONTINUOUS
 66
     1
 40
0.008244
 41
0.008244
  0
VERTEX
  8
PLAN_1
  6
CONTINUOUS
 10
-0.332492
 20
3.125697
  0
VERTEX
  8
PLAN_1
  6
CONTINUOUS
 10
-0.326535
 20
3.129358
  0
VERTEX
  8
PLAN_1
  6
CONTINUOUS
 10
-0.320583
 20
3.133941
  0
VERTEX
  8
PLAN_1
  6
CONTINUOUS
 10
-0.315083
 20
3.138520
  0
VERTEX
  8
PLAN_1
  6
CONTINUOUS
 10
-0.310047
 20
3.143559
  0
VERTEX
  8
PLAN_1
  6
CONTINUOUS
 10
-0.305008
 20
3.148598
  0
VERTEX
  8
PLAN_1
  6
CONTINUOUS
 10
-0.300425
 20
3.154551
  0
VERTEX
  8
PLAN_1
  6
CONTINUOUS
 10
-0.296303
 20
3.160508
  0
VERTEX
  8
PLAN_1
  6
CONTINUOUS
 10
-0.292638
 20
3.166461
  0
VERTEX
  8
PLAN_1
  6
CONTINUOUS
 10
-0.288976
 20
3.172874
  0
VERTEX
  8
PLAN_1
  6
CONTINUOUS
 10
-0.286228
 20
3.179748
  0
VERTEX
  8
PLAN_1
  6
CONTINUOUS
 10
-0.283476
 20
3.186618
  0
VERTEX
  8
PLAN_1
  6
CONTINUOUS
 10
-0.281189
 20
3.193488
  0
VERTEX
  8
PLAN_1
  6
CONTINUOUS
 10
-0.279815
 20
3.200819
  0
VERTEX
  8
PLAN_1
  6
CONTINUOUS
 10
-0.278441
 20
3.208146
  0
VERTEX
  8
PLAN_1
  6
CONTINUOUS
 10
-0.277524
 20
3.215933
  0
VERTEX
  8
PLAN_1
  6
CONTINUOUS
 10
-0.277524
 20
3.223264
  0
VERTEX
  8
PLAN_1
  6
CONTINUOUS
 10
-0.277524
 20
3.231047
  0
VERTEX
  8
PLAN_1
  6
CONTINUOUS
 10
-0.278441
 20
3.238835
  0
VERTEX
  8
PLAN_1
  6
CONTINUOUS
 10
-0.279815
 20
3.246165
  0
VERTEX
  8
PLAN_1
  6
CONTINUOUS
 10
-0.281189
 20
3.253492
  0
VERTEX
  8
PLAN_1
  6
CONTINUOUS
 10
-0.283476
 20
3.260366
  0
VERTEX
  8
PLAN_1
  6
CONTINUOUS
 10
-0.286228
 20
3.267236
  0
VERTEX
  8
PLAN_1
  6
CONTINUOUS
 10
-0.288976
 20
3.274106
  0
VERTEX
  8
PLAN_1
  6
CONTINUOUS
 10
-0.292638
 20
3.280520
  0
VERTEX
  8
PLAN_1
  6
CONTINUOUS
 10
-0.296303
 20
3.286472
  0
VERTEX
  8
PLAN_1
  6
CONTINUOUS
 10
-0.300425
 20
3.292429
  0
VERTEX
  8
PLAN_1
  6
CONTINUOUS
 10
-0.305008
 20
3.297925
  0
VERTEX
  8
PLAN_1
  6
CONTINUOUS
 10
-0.310047
 20
3.303421
  0
VERTEX
  8
PLAN_1
  6
CONTINUOUS
 10
-0.315083
 20
3.308461
  0
VERTEX
  8
PLAN_1
  6
CONTINUOUS
 10
-0.320583
 20
3.313043
  0
VERTEX
  8
PLAN_1
  6
CONTINUOUS
 10
-0.326535
 20
3.317165
  0
VERTEX
  8
PLAN_1
  6
CONTINUOUS
 10
-0.332492
 20
3.321287
  0
SEQEND
  8
0
  0
POLYLINE
  8
PLAN_1
  6
CONTINUOUS
 66
     1
 40
0.008244
 41
0.008244
  0
VERTEX
  8
PLAN_1
  6
CONTINUOUS
 10
-0.332492
 20
3.321287
  0
VERTEX
  8
PLAN_1
  6
CONTINUOUS
 10
-0.332492
 20
3.321744
  0
VERTEX
  8
PLAN_1
  6
CONTINUOUS
 10
-0.450669
 20
3.321744
  0
VERTEX
  8
PLAN_1
  6
CONTINUOUS
 10
-0.450213
 20
3.321287
  0
SEQEND
  8
0
  0
POLYLINE
  8
PLAN_1
  6
CONTINUOUS
 66
     1
 40
0.008244
 41
0.008244
  0
VERTEX
  8
PLAN_1
  6
CONTINUOUS
 10
-0.687945
 20
2.964917
  0
VERTEX
  8
PLAN_1
  6
CONTINUOUS
 10
-0.687945
 20
3.397783
  0
VERTEX
  8
PLAN_1
  6
CONTINUOUS
 10
-1.750646
 20
3.397783
  0
VERTEX
  8
PLAN_1
  6
CONTINUOUS
 10
-1.750646
 20
2.964917
  0
VERTEX
  8
PLAN_1
  6
CONTINUOUS
 10
-0.687945
 20
2.964917
  0
SEQEND
  8
0
  0
POLYLINE
  8
PLAN_1
  6
CONTINUOUS
 66
     1
 40
0.006870
 41
0.006870
  0
VERTEX
  8
PLAN_1
  6
CONTINUOUS
 10
-0.904606
 20
3.004311
  0
VERTEX
  8
PLAN_1
  6
CONTINUOUS
 10
-0.904606
 20
3.200819
  0
VERTEX
  8
PLAN_1
  6
CONTINUOUS
 10
-1.534441
 20
3.200819
  0
VERTEX
  8
PLAN_1
  6
CONTINUOUS
 10
-1.534441
 20
3.004311
  0
VERTEX
  8
PLAN_1
  6
CONTINUOUS
 10
-0.904606
 20
3.004311
  0
SEQEND
  8
0
  0
POLYLINE
  8
PLAN_1
  6
CONTINUOUS
 66
     1
 40
0.006870
 41
0.006870
  0
VERTEX
  8
PLAN_1
  6
CONTINUOUS
 10
-0.904150
 20
3.102791
  0
VERTEX
  8
PLAN_1
  6
CONTINUOUS
 10
-1.534441
 20
3.102791
  0
SEQEND
  8
0
  0
POLYLINE
  8
PLAN_1
  6
CONTINUOUS
 66
     1
 40
0.006870
 41
0.006870
  0
VERTEX
  8
PLAN_1
  6
CONTINUOUS
 10
-1.429543
 20
3.201276
  0
VERTEX
  8
PLAN_1
  6
CONTINUOUS
 10
-1.429543
 20
3.004311
  0
SEQEND
  8
0
  0
POLYLINE
  8
PLAN_1
  6
CONTINUOUS
 66
     1
 40
0.006870
 41
0.006870
  0
VERTEX
  8
PLAN_1
  6
CONTINUOUS
 10
-1.324650
 20
3.201276
  0
VERTEX
  8
PLAN_1
  6
CONTINUOUS
 10
-1.324650
 20
3.004311
  0
SEQEND
  8
0
  0
POLYLINE
  8
PLAN_1
  6
CONTINUOUS
 66
     1
 40
0.006870
 41
0.006870
  0
VERTEX
  8
PLAN_1
  6
CONTINUOUS
 10
-1.219752
 20
3.201276
  0
VERTEX
  8
PLAN_1
  6
CONTINUOUS
 10
-1.219752
 20
3.004311
  0
SEQEND
  8
0
  0
POLYLINE
  8
PLAN_1
  6
CONTINUOUS
 66
     1
 40
0.006870
 41
0.006870
  0
VERTEX
  8
PLAN_1
  6
CONTINUOUS
 10
-1.114858
 20
3.201276
  0
VERTEX
  8
PLAN_1
  6
CONTINUOUS
 10
-1.114858
 20
3.004311
  0
SEQEND
  8
0
  0
POLYLINE
  8
PLAN_1
  6
CONTINUOUS
 66
     1
 40
0.006870
 41
0.006870
  0
VERTEX
  8
PLAN_1
  6
CONTINUOUS
 10
-1.009504
 20
3.201276
  0
VERTEX
  8
PLAN_1
  6
CONTINUOUS
 10
-1.009504
 20
3.004311
  0
SEQEND
  8
0
  0
POLYLINE
  8
PLAN_1
  6
CONTINUOUS
 66
     1
 40
0.008244
 41
0.008244
  0
VERTEX
  8
PLAN_1
  6
CONTINUOUS
 10
-0.354476
 20
1.311776
  0
VERTEX
  8
PLAN_1
  6
CONTINUOUS
 10
-0.354476
 20
2.571441
  0
VERTEX
  8
PLAN_1
  6
CONTINUOUS
 10
-2.086406
 20
2.571441
  0
VERTEX
  8
PLAN_1
  6
CONTINUOUS
 10
-2.086406
 20
1.311776
  0
VERTEX
  8
PLAN_1
  6
CONTINUOUS
 10
-0.354476
 20
1.311776
  0
SEQEND
  8
0
  0
POLYLINE
  8
PLAN_1
  6
CONTINUOUS
 66
     1
 40
0.008244
 41
0.008244
  0
VERTEX
  8
PLAN_1
  6
CONTINUOUS
 10
-0.433264
 20
1.390563
  0
VERTEX
  8
PLAN_1
  6
CONTINUOUS
 10
-0.433264
 20
2.492657
  0
VERTEX
  8
PLAN_1
  6
CONTINUOUS
 10
-2.007618
 20
2.492657
  0
VERTEX
  8
PLAN_1
  6
CONTINUOUS
 10
-2.007618
 20
1.390563
  0
VERTEX
  8
PLAN_1
  6
CONTINUOUS
 10
-0.433264
 20
1.390563
  0
SEQEND
  8
0
  0
POLYLINE
  8
PLAN_1
  6
CONTINUOUS
 66
     1
 40
0.008244
 41
0.008244
  0
VERTEX
  8
PLAN_1
  6
CONTINUOUS
 10
-2.401091
 20
1.093280
  0
VERTEX
  8
PLAN_1
  6
CONTINUOUS
 10
-2.401091
 20
1.880689
  0
VERTEX
  8
PLAN_1
  6
CONTINUOUS
 10
-2.479878
 20
1.880689
  0
VERTEX
  8
PLAN_1
  6
CONTINUOUS
 10
-2.479878
 20
1.093280
  0
VERTEX
  8
PLAN_1
  6
CONTINUOUS
 10
-2.401091
 20
1.093280
  0
SEQEND
  8
0
  0
POLYLINE
  8
PLAN_1
  6
CONTINUOUS
 66
     1
 40
0.008244
 41
0.008244
  0
VERTEX
  8
PLAN_1
  6
CONTINUOUS
 10
0.039453
 20
1.093280
  0
VERTEX
  8
PLAN_1
  6
CONTINUOUS
 10
0.039453
 20
1.880689
  0
VERTEX
  8
PLAN_1
  6
CONTINUOUS
 10
-0.039331
 20
1.880689
  0
VERTEX
  8
PLAN_1
  6
CONTINUOUS
 10
-0.039331
 20
1.093280
  0
VERTEX
  8
PLAN_1
  6
CONTINUOUS
 10
0.039453
 20
1.093280
  0
SEQEND
  8
0
  0
POLYLINE
  8
PLAN_1
  6
CONTINUOUS
 66
     1
 40
0.006870
 41
0.006870
  0
VERTEX
  8
PLAN_1
  6
CONTINUOUS
 10
-2.201378
 20
2.654811
  0
VERTEX
  8
PLAN_1
  6
CONTINUOUS
 10
-2.195421
 20
2.655268
  0
VERTEX
  8
PLAN_1
  6
CONTINUOUS
 10
-2.189925
 20
2.655268
  0
VERTEX
  8
PLAN_1
  6
CONTINUOUS
 10
-2.184886
 20
2.656185
  0
VERTEX
  8
PLAN_1
  6
CONTINUOUS
 10
-2.179390
 20
2.657098
  0
VERTEX
  8
PLAN_1
  6
CONTINUOUS
 10
-2.173894
 20
2.658472
  0
VERTEX
  8
PLAN_1
  6
CONTINUOUS
 10
-2.168854
 20
2.659846
  0
VERTEX
  8
PLAN_1
  6
CONTINUOUS
 10
-2.163815
 20
2.661681
  0
VERTEX
  8
PLAN_1
  6
CONTINUOUS
 10
-2.159236
 20
2.663512
  0
VERTEX
  8
PLAN_1
  6
CONTINUOUS
 10
-2.154197
 20
2.665803
  0
VERTEX
  8
PLAN_1
  6
CONTINUOUS
 10
-2.149614
 20
2.668094
  0
VERTEX
  8
PLAN_1
  6
CONTINUOUS
 10
-2.145035
 20
2.670382
  0
VERTEX
  8
PLAN_1
  6
CONTINUOUS
 10
-2.140457
 20
2.673591
  0
VERTEX
  8
PLAN_1
  6
CONTINUOUS
 10
-2.136331
 20
2.676339
  0
VERTEX
  8
PLAN_1
  6
CONTINUOUS
 10
-2.132209
 20
2.679543
  0
VERTEX
  8
PLAN_1
  6
CONTINUOUS
 10
-2.128543
 20
2.683209
  0
VERTEX
  8
PLAN_1
  6
CONTINUOUS
 10
-2.124421
 20
2.686413
  0
VERTEX
  8
PLAN_1
  6
CONTINUOUS
 10
-2.121217
 20
2.690539
  0
VERTEX
  8
PLAN_1
  6
CONTINUOUS
 10
-2.117551
 20
2.694201
  0
VERTEX
  8
PLAN_1
  6
CONTINUOUS
 10
-2.114346
 20
2.698327
  0
VERTEX
  8
PLAN_1
  6
CONTINUOUS
 10
-2.111598
 20
2.702449
  0
VERTEX
  8
PLAN_1
  6
CONTINUOUS
 10
-2.108390
 20
2.707028
  0
VERTEX
  8
PLAN_1
  6
CONTINUOUS
 10
-2.106098
 20
2.711610
  0
VERTEX
  8
PLAN_1
  6
CONTINUOUS
 10
-2.103811
 20
2.716189
  0
VERTEX
  8
PLAN_1
  6
CONTINUOUS
 10
-2.101520
 20
2.721228
  0
VERTEX
  8
PLAN_1
  6
CONTINUOUS
 10
-2.099689
 20
2.725807
  0
VERTEX
  8
PLAN_1
  6
CONTINUOUS
 10
-2.097854
 20
2.730846
  0
VERTEX
  8
PLAN_1
  6
CONTINUOUS
 10
-2.096480
 20
2.735886
  0
VERTEX
  8
PLAN_1
  6
CONTINUOUS
 10
-2.095106
 20
2.741382
  0
VERTEX
  8
PLAN_1
  6
CONTINUOUS
 10
-2.094189
 20
2.746878
  0
VERTEX
  8
PLAN_1
  6
CONTINUOUS
 10
-2.093276
 20
2.751917
  0
VERTEX
  8
PLAN_1
  6
CONTINUOUS
 10
-2.093276
 20
2.757413
  0
VERTEX
  8
PLAN_1
  6
CONTINUOUS
 10
-2.092815
 20
2.763370
  0
VERTEX
  8
PLAN_1
  6
CONTINUOUS
 10
-2.093276
 20
2.768866
  0
VERTEX
  8
PLAN_1
  6
CONTINUOUS
 10
-2.093276
 20
2.774362
  0
VERTEX
  8
PLAN_1
  6
CONTINUOUS
 10
-2.094189
 20
2.779858
  0
VERTEX
  8
PLAN_1
  6
CONTINUOUS
 10
-2.095106
 20
2.784898
  0
VERTEX
  8
PLAN_1
  6
CONTINUOUS
 10
-2.096480
 20
2.790394
  0
VERTEX
  8
PLAN_1
  6
CONTINUOUS
 10
-2.097854
 20
2.795433
  0
VERTEX
  8
PLAN_1
  6
CONTINUOUS
 10
-2.099689
 20
2.800472
  0
VERTEX
  8
PLAN_1
  6
CONTINUOUS
 10
-2.101520
 20
2.805512
  0
VERTEX
  8
PLAN_1
  6
CONTINUOUS
 10
-2.103811
 20
2.810091
  0
VERTEX
  8
PLAN_1
  6
CONTINUOUS
 10
-2.106098
 20
2.814673
  0
VERTEX
  8
PLAN_1
  6
CONTINUOUS
 10
-2.108390
 20
2.819252
  0
VERTEX
  8
PLAN_1
  6
CONTINUOUS
 10
-2.111598
 20
2.823835
  0
VERTEX
  8
PLAN_1
  6
CONTINUOUS
 10
-2.114346
 20
2.827957
  0
VERTEX
  8
PLAN_1
  6
CONTINUOUS
 10
-2.117551
 20
2.832079
  0
VERTEX
  8
PLAN_1
  6
CONTINUOUS
 10
-2.121217
 20
2.835744
  0
VERTEX
  8
PLAN_1
  6
CONTINUOUS
 10
-2.124421
 20
2.839866
  0
VERTEX
  8
PLAN_1
  6
CONTINUOUS
 10
-2.128543
 20
2.843071
  0
VERTEX
  8
PLAN_1
  6
CONTINUOUS
 10
-2.132209
 20
2.846736
  0
VERTEX
  8
PLAN_1
  6
CONTINUOUS
 10
-2.136331
 20
2.849941
  0
VERTEX
  8
PLAN_1
  6
CONTINUOUS
 10
-2.140457
 20
2.852693
  0
VERTEX
  8
PLAN_1
  6
CONTINUOUS
 10
-2.145035
 20
2.855898
  0
VERTEX
  8
PLAN_1
  6
CONTINUOUS
 10
-2.149614
 20
2.858189
  0
VERTEX
  8
PLAN_1
  6
CONTINUOUS
 10
-2.154197
 20
2.860937
  0
VERTEX
  8
PLAN_1
  6
CONTINUOUS
 10
-2.159236
 20
2.862768
  0
VERTEX
  8
PLAN_1
  6
CONTINUOUS
 10
-2.163815
 20
2.864602
  0
VERTEX
  8
PLAN_1
  6
CONTINUOUS
 10
-2.168854
 20
2.866433
  0
VERTEX
  8
PLAN_1
  6
CONTINUOUS
 10
-2.173894
 20
2.867807
  0
VERTEX
  8
PLAN_1
  6
CONTINUOUS
 10
-2.179390
 20
2.869181
  0
VERTEX
  8
PLAN_1
  6
CONTINUOUS
 10
-2.184886
 20
2.870098
  0
VERTEX
  8
PLAN_1
  6
CONTINUOUS
 10
-2.189925
 20
2.871012
  0
VERTEX
  8
PLAN_1
  6
CONTINUOUS
 10
-2.195421
 20
2.871472
  0
VERTEX
  8
PLAN_1
  6
CONTINUOUS
 10
-2.201378
 20
2.871472
  0
VERTEX
  8
PLAN_1
  6
CONTINUOUS
 10
-2.206874
 20
2.871472
  0
VERTEX
  8
PLAN_1
  6
CONTINUOUS
 10
-2.212370
 20
2.871012
  0
VERTEX
  8
PLAN_1
  6
CONTINUOUS
 10
-2.217866
 20
2.870098
  0
VERTEX
  8
PLAN_1
  6
CONTINUOUS
 10
-2.222906
 20
2.869181
  0
VERTEX
  8
PLAN_1
  6
CONTINUOUS
 10
-2.228402
 20
2.867807
  0
VERTEX
  8
PLAN_1
  6
CONTINUOUS
 10
-2.233441
 20
2.866433
  0
VERTEX
  8
PLAN_1
  6
CONTINUOUS
 10
-2.238480
 20
2.864602
  0
VERTEX
  8
PLAN_1
  6
CONTINUOUS
 10
-2.243520
 20
2.862768
  0
VERTEX
  8
PLAN_1
  6
CONTINUOUS
 10
-2.248098
 20
2.860937
  0
VERTEX
  8
PLAN_1
  6
CONTINUOUS
 10
-2.252681
 20
2.858189
  0
VERTEX
  8
PLAN_1
  6
CONTINUOUS
 10
-2.257260
 20
2.855898
  0
VERTEX
  8
PLAN_1
  6
CONTINUOUS
 10
-2.261843
 20
2.852693
  0
VERTEX
  8
PLAN_1
  6
CONTINUOUS
 10
-2.265965
 20
2.849941
  0
VERTEX
  8
PLAN_1
  6
CONTINUOUS
 10
-2.270087
 20
2.846736
  0
VERTEX
  8
PLAN_1
  6
CONTINUOUS
 10
-2.273752
 20
2.843071
  0
VERTEX
  8
PLAN_1
  6
CONTINUOUS
 10
-2.277874
 20
2.839866
  0
VERTEX
  8
PLAN_1
  6
CONTINUOUS
 10
-2.281079
 20
2.835744
  0
VERTEX
  8
PLAN_1
  6
CONTINUOUS
 10
-2.284744
 20
2.832079
  0
VERTEX
  8
PLAN_1
  6
CONTINUOUS
 10
-2.287949
 20
2.827957
  0
VERTEX
  8
PLAN_1
  6
CONTINUOUS
 10
-2.290697
 20
2.823835
  0
VERTEX
  8
PLAN_1
  6
CONTINUOUS
 10
-2.293906
 20
2.819252
  0
VERTEX
  8
PLAN_1
  6
CONTINUOUS
 10
-2.296197
 20
2.814673
  0
VERTEX
  8
PLAN_1
  6
CONTINUOUS
 10
-2.298945
 20
2.810091
  0
VERTEX
  8
PLAN_1
  6
CONTINUOUS
 10
-2.300776
 20
2.805512
  0
VERTEX
  8
PLAN_1
  6
CONTINUOUS
 10
-2.302606
 20
2.800472
  0
VERTEX
  8
PLAN_1
  6
CONTINUOUS
 10
-2.304441
 20
2.795433
  0
VERTEX
  8
PLAN_1
  6
CONTINUOUS
 10
-2.305815
 20
2.790394
  0
VERTEX
  8
PLAN_1
  6
CONTINUOUS
 10
-2.307189
 20
2.784898
  0
VERTEX
  8
PLAN_1
  6
CONTINUOUS
 10
-2.308106
 20
2.779858
  0
VERTEX
  8
PLAN_1
  6
CONTINUOUS
 10
-2.309020
 20
2.774362
  0
VERTEX
  8
PLAN_1
  6
CONTINUOUS
 10
-2.309480
 20
2.768866
  0
VERTEX
  8
PLAN_1
  6
CONTINUOUS
 10
-2.309480
 20
2.763370
  0
VERTEX
  8
PLAN_1
  6
CONTINUOUS
 10
-2.309480
 20
2.757413
  0
VERTEX
  8
PLAN_1
  6
CONTINUOUS
 10
-2.309020
 20
2.751917
  0
VERTEX
  8
PLAN_1
  6
CONTINUOUS
 10
-2.308106
 20
2.746878
  0
VERTEX
  8
PLAN_1
  6
CONTINUOUS
 10
-2.307189
 20
2.741382
  0
VERTEX
  8
PLAN_1
  6
CONTINUOUS
 10
-2.305815
 20
2.735886
  0
VERTEX
  8
PLAN_1
  6
CONTINUOUS
 10
-2.304441
 20
2.730846
  0
VERTEX
  8
PLAN_1
  6
CONTINUOUS
 10
-2.302606
 20
2.725807
  0
VERTEX
  8
PLAN_1
  6
CONTINUOUS
 10
-2.300776
 20
2.721228
  0
VERTEX
  8
PLAN_1
  6
CONTINUOUS
 10
-2.298945
 20
2.716189
  0
VERTEX
  8
PLAN_1
  6
CONTINUOUS
 10
-2.296197
 20
2.711610
  0
VERTEX
  8
PLAN_1
  6
CONTINUOUS
 10
-2.293906
 20
2.707028
  0
VERTEX
  8
PLAN_1
  6
CONTINUOUS
 10
-2.290697
 20
2.702449
  0
VERTEX
  8
PLAN_1
  6
CONTINUOUS
 10
-2.287949
 20
2.698327
  0
VERTEX
  8
PLAN_1
  6
CONTINUOUS
 10
-2.284744
 20
2.694201
  0
VERTEX
  8
PLAN_1
  6
CONTINUOUS
 10
-2.281079
 20
2.690539
  0
VERTEX
  8
PLAN_1
  6
CONTINUOUS
 10
-2.277874
 20
2.686413
  0
VERTEX
  8
PLAN_1
  6
CONTINUOUS
 10
-2.273752
 20
2.683209
  0
VERTEX
  8
PLAN_1
  6
CONTINUOUS
 10
-2.270087
 20
2.679543
  0
VERTEX
  8
PLAN_1
  6
CONTINUOUS
 10
-2.265965
 20
2.676339
  0
VERTEX
  8
PLAN_1
  6
CONTINUOUS
 10
-2.261843
 20
2.673591
  0
VERTEX
  8
PLAN_1
  6
CONTINUOUS
 10
-2.257260
 20
2.670382
  0
VERTEX
  8
PLAN_1
  6
CONTINUOUS
 10
-2.252681
 20
2.668094
  0
VERTEX
  8
PLAN_1
  6
CONTINUOUS
 10
-2.248098
 20
2.665803
  0
VERTEX
  8
PLAN_1
  6
CONTINUOUS
 10
-2.243520
 20
2.663512
  0
VERTEX
  8
PLAN_1
  6
CONTINUOUS
 10
-2.238480
 20
2.661681
  0
VERTEX
  8
PLAN_1
  6
CONTINUOUS
 10
-2.233441
 20
2.659846
  0
VERTEX
  8
PLAN_1
  6
CONTINUOUS
 10
-2.228402
 20
2.658472
  0
VERTEX
  8
PLAN_1
  6
CONTINUOUS
 10
-2.222906
 20
2.657098
  0
VERTEX
  8
PLAN_1
  6
CONTINUOUS
 10
-2.217866
 20
2.656185
  0
VERTEX
  8
PLAN_1
  6
CONTINUOUS
 10
-2.212370
 20
2.655268
  0
VERTEX
  8
PLAN_1
  6
CONTINUOUS
 10
-2.206874
 20
2.655268
  0
VERTEX
  8
PLAN_1
  6
CONTINUOUS
 10
-2.201378
 20
2.654811
  0
SEQEND
  8
0
  0
POLYLINE
  8
PLAN_1
  6
CONTINUOUS
 66
     1
 40
0.006870
 41
0.006870
  0
VERTEX
  8
PLAN_1
  6
CONTINUOUS
 10
-2.220614
 20
2.867807
  0
VERTEX
  8
PLAN_1
  6
CONTINUOUS
 10
-2.220614
 20
2.782150
  0
VERTEX
  8
PLAN_1
  6
CONTINUOUS
 10
-2.221075
 20
2.782150
  0
VERTEX
  8
PLAN_1
  6
CONTINUOUS
 10
-2.259091
 20
2.782150
  0
VERTEX
  8
PLAN_1
  6
CONTINUOUS
 10
-2.259091
 20
2.742756
  0
VERTEX
  8
PLAN_1
  6
CONTINUOUS
 10
-2.221075
 20
2.742756
  0
VERTEX
  8
PLAN_1
  6
CONTINUOUS
 10
-2.220614
 20
2.743217
  0
VERTEX
  8
PLAN_1
  6
CONTINUOUS
 10
-2.220614
 20
2.657098
  0
SEQEND
  8
0
  0
POLYLINE
  8
PLAN_1
  6
CONTINUOUS
 66
     1
 40
0.006870
 41
0.006870
  0
VERTEX
  8
PLAN_1
  6
CONTINUOUS
 10
-2.181681
 20
2.867807
  0
VERTEX
  8
PLAN_1
  6
CONTINUOUS
 10
-2.181681
 20
2.782150
  0
VERTEX
  8
PLAN_1
  6
CONTINUOUS
 10
-2.142287
 20
2.782150
  0
VERTEX
  8
PLAN_1
  6
CONTINUOUS
 10
-2.142287
 20
2.742756
  0
VERTEX
  8
PLAN_1
  6
CONTINUOUS
 10
-2.181681
 20
2.742756
  0
VERTEX
  8
PLAN_1
  6
CONTINUOUS
 10
-2.181681
 20
2.743217
  0
VERTEX
  8
PLAN_1
  6
CONTINUOUS
 10
-2.181681
 20
2.657098
  0
SEQEND
  8
0
  0
POLYLINE
  8
PLAN_1
  6
CONTINUOUS
 66
     1
 40
0.006870
 41
0.006870
  0
VERTEX
  8
PLAN_1
  6
CONTINUOUS
 10
-0.236299
 20
2.654811
  0
VERTEX
  8
PLAN_1
  6
CONTINUOUS
 10
-0.230343
 20
2.655268
  0
VERTEX
  8
PLAN_1
  6
CONTINUOUS
 10
-0.224846
 20
2.655268
  0
VERTEX
  8
PLAN_1
  6
CONTINUOUS
 10
-0.219807
 20
2.656185
  0
VERTEX
  8
PLAN_1
  6
CONTINUOUS
 10
-0.214311
 20
2.657098
  0
VERTEX
  8
PLAN_1
  6
CONTINUOUS
 10
-0.209272
 20
2.658472
  0
VERTEX
  8
PLAN_1
  6
CONTINUOUS
 10
-0.203776
 20
2.659846
  0
VERTEX
  8
PLAN_1
  6
CONTINUOUS
 10
-0.198736
 20
2.661681
  0
VERTEX
  8
PLAN_1
  6
CONTINUOUS
 10
-0.194157
 20
2.663512
  0
VERTEX
  8
PLAN_1
  6
CONTINUOUS
 10
-0.189118
 20
2.665803
  0
VERTEX
  8
PLAN_1
  6
CONTINUOUS
 10
-0.184535
 20
2.668094
  0
VERTEX
  8
PLAN_1
  6
CONTINUOUS
 10
-0.179957
 20
2.670382
  0
VERTEX
  8
PLAN_1
  6
CONTINUOUS
 10
-0.175835
 20
2.673591
  0
VERTEX
  8
PLAN_1
  6
CONTINUOUS
 10
-0.171252
 20
2.676339
  0
VERTEX
  8
PLAN_1
  6
CONTINUOUS
 10
-0.167130
 20
2.679543
  0
VERTEX
  8
PLAN_1
  6
CONTINUOUS
 10
-0.163465
 20
2.683209
  0
VERTEX
  8
PLAN_1
  6
CONTINUOUS
 10
-0.159803
 20
2.686413
  0
VERTEX
  8
PLAN_1
  6
CONTINUOUS
 10
-0.156138
 20
2.690539
  0
VERTEX
  8
PLAN_1
  6
CONTINUOUS
 10
-0.152472
 20
2.694201
  0
VERTEX
  8
PLAN_1
  6
CONTINUOUS
 10
-0.149268
 20
2.698327
  0
VERTEX
  8
PLAN_1
  6
CONTINUOUS
 10
-0.146520
 20
2.702449
  0
VERTEX
  8
PLAN_1
  6
CONTINUOUS
 10
-0.143768
 20
2.707028
  0
VERTEX
  8
PLAN_1
  6
CONTINUOUS
 10
-0.141020
 20
2.711610
  0
VERTEX
  8
PLAN_1
  6
CONTINUOUS
 10
-0.138732
 20
2.716189
  0
VERTEX
  8
PLAN_1
  6
CONTINUOUS
 10
-0.136441
 20
2.721228
  0
VERTEX
  8
PLAN_1
  6
CONTINUOUS
 10
-0.134610
 20
2.725807
  0
VERTEX
  8
PLAN_1
  6
CONTINUOUS
 10
-0.132776
 20
2.730846
  0
VERTEX
  8
PLAN_1
  6
CONTINUOUS
 10
-0.131402
 20
2.735886
  0
VERTEX
  8
PLAN_1
  6
CONTINUOUS
 10
-0.130028
 20
2.741382
  0
VERTEX
  8
PLAN_1
  6
CONTINUOUS
 10
-0.129110
 20
2.746878
  0
VERTEX
  8
PLAN_1
  6
CONTINUOUS
 10
-0.128654
 20
2.751917
  0
VERTEX
  8
PLAN_1
  6
CONTINUOUS
 10
-0.128197
 20
2.757413
  0
VERTEX
  8
PLAN_1
  6
CONTINUOUS
 10
-0.127736
 20
2.763370
  0
VERTEX
  8
PLAN_1
  6
CONTINUOUS
 10
-0.128197
 20
2.768866
  0
VERTEX
  8
PLAN_1
  6
CONTINUOUS
 10
-0.128654
 20
2.774362
  0
VERTEX
  8
PLAN_1
  6
CONTINUOUS
 10
-0.129110
 20
2.779858
  0
VERTEX
  8
PLAN_1
  6
CONTINUOUS
 10
-0.130028
 20
2.784898
  0
VERTEX
  8
PLAN_1
  6
CONTINUOUS
 10
-0.131402
 20
2.790394
  0
VERTEX
  8
PLAN_1
  6
CONTINUOUS
 10
-0.132776
 20
2.795433
  0
VERTEX
  8
PLAN_1
  6
CONTINUOUS
 10
-0.134610
 20
2.800472
  0
VERTEX
  8
PLAN_1
  6
CONTINUOUS
 10
-0.136441
 20
2.805512
  0
VERTEX
  8
PLAN_1
  6
CONTINUOUS
 10
-0.138732
 20
2.810091
  0
VERTEX
  8
PLAN_1
  6
CONTINUOUS
 10
-0.141020
 20
2.814673
  0
VERTEX
  8
PLAN_1
  6
CONTINUOUS
 10
-0.143768
 20
2.819252
  0
VERTEX
  8
PLAN_1
  6
CONTINUOUS
 10
-0.146520
 20
2.823835
  0
VERTEX
  8
PLAN_1
  6
CONTINUOUS
 10
-0.149268
 20
2.827957
  0
VERTEX
  8
PLAN_1
  6
CONTINUOUS
 10
-0.152472
 20
2.832079
  0
VERTEX
  8
PLAN_1
  6
CONTINUOUS
 10
-0.156138
 20
2.835744
  0
VERTEX
  8
PLAN_1
  6
CONTINUOUS
 10
-0.159803
 20
2.839866
  0
VERTEX
  8
PLAN_1
  6
CONTINUOUS
 10
-0.163465
 20
2.843071
  0
VERTEX
  8
PLAN_1
  6
CONTINUOUS
 10
-0.167130
 20
2.846736
  0
VERTEX
  8
PLAN_1
  6
CONTINUOUS
 10
-0.171252
 20
2.849941
  0
VERTEX
  8
PLAN_1
  6
CONTINUOUS
 10
-0.175835
 20
2.852693
  0
VERTEX
  8
PLAN_1
  6
CONTINUOUS
 10
-0.179957
 20
2.855898
  0
VERTEX
  8
PLAN_1
  6
CONTINUOUS
 10
-0.184535
 20
2.858189
  0
VERTEX
  8
PLAN_1
  6
CONTINUOUS
 10
-0.189118
 20
2.860937
  0
VERTEX
  8
PLAN_1
  6
CONTINUOUS
 10
-0.194157
 20
2.862768
  0
VERTEX
  8
PLAN_1
  6
CONTINUOUS
 10
-0.198736
 20
2.864602
  0
VERTEX
  8
PLAN_1
  6
CONTINUOUS
 10
-0.203776
 20
2.866433
  0
VERTEX
  8
PLAN_1
  6
CONTINUOUS
 10
-0.209272
 20
2.867807
  0
VERTEX
  8
PLAN_1
  6
CONTINUOUS
 10
-0.214311
 20
2.869181
  0
VERTEX
  8
PLAN_1
  6
CONTINUOUS
 10
-0.219807
 20
2.870098
  0
VERTEX
  8
PLAN_1
  6
CONTINUOUS
 10
-0.224846
 20
2.871012
  0
VERTEX
  8
PLAN_1
  6
CONTINUOUS
 10
-0.230343
 20
2.871472
  0
VERTEX
  8
PLAN_1
  6
CONTINUOUS
 10
-0.236299
 20
2.871472
  0
VERTEX
  8
PLAN_1
  6
CONTINUOUS
 10
-0.241795
 20
2.871472
  0
VERTEX
  8
PLAN_1
  6
CONTINUOUS
 10
-0.247291
 20
2.871012
  0
VERTEX
  8
PLAN_1
  6
CONTINUOUS
 10
-0.252787
 20
2.870098
  0
VERTEX
  8
PLAN_1
  6
CONTINUOUS
 10
-0.257827
 20
2.869181
  0
VERTEX
  8
PLAN_1
  6
CONTINUOUS
 10
-0.263323
 20
2.867807
  0
VERTEX
  8
PLAN_1
  6
CONTINUOUS
 10
-0.268362
 20
2.866433
  0
VERTEX
  8
PLAN_1
  6
CONTINUOUS
 10
-0.273402
 20
2.864602
  0
VERTEX
  8
PLAN_1
  6
CONTINUOUS
 10
-0.278441
 20
2.862768
  0
VERTEX
  8
PLAN_1
  6
CONTINUOUS
 10
-0.283020
 20
2.860937
  0
VERTEX
  8
PLAN_1
  6
CONTINUOUS
 10
-0.287602
 20
2.858189
  0
VERTEX
  8
PLAN_1
  6
CONTINUOUS
 10
-0.292181
 20
2.855898
  0
VERTEX
  8
PLAN_1
  6
CONTINUOUS
 10
-0.296764
 20
2.852693
  0
VERTEX
  8
PLAN_1
  6
CONTINUOUS
 10
-0.300886
 20
2.849941
  0
VERTEX
  8
PLAN_1
  6
CONTINUOUS
 10
-0.305008
 20
2.846736
  0
VERTEX
  8
PLAN_1
  6
CONTINUOUS
 10
-0.309130
 20
2.843071
  0
VERTEX
  8
PLAN_1
  6
CONTINUOUS
 10
-0.312795
 20
2.839866
  0
VERTEX
  8
PLAN_1
  6
CONTINUOUS
 10
-0.316457
 20
2.835744
  0
VERTEX
  8
PLAN_1
  6
CONTINUOUS
 10
-0.319665
 20
2.832079
  0
VERTEX
  8
PLAN_1
  6
CONTINUOUS
 10
-0.322870
 20
2.827957
  0
VERTEX
  8
PLAN_1
  6
CONTINUOUS
 10
-0.326079
 20
2.823835
  0
VERTEX
  8
PLAN_1
  6
CONTINUOUS
 10
-0.328827
 20
2.819252
  0
VERTEX
  8
PLAN_1
  6
CONTINUOUS
 10
-0.331118
 20
2.814673
  0
VERTEX
  8
PLAN_1
  6
CONTINUOUS
 10
-0.333866
 20
2.810091
  0
VERTEX
  8
PLAN_1
  6
CONTINUOUS
 10
-0.335697
 20
2.805512
  0
VERTEX
  8
PLAN_1
  6
CONTINUOUS
 10
-0.337988
 20
2.800472
  0
VERTEX
  8
PLAN_1
  6
CONTINUOUS
 10
-0.339362
 20
2.795433
  0
VERTEX
  8
PLAN_1
  6
CONTINUOUS
 10
-0.341193
 20
2.790394
  0
VERTEX
  8
PLAN_1
  6
CONTINUOUS
 10
-0.342110
 20
2.784898
  0
VERTEX
  8
PLAN_1
  6
CONTINUOUS
 10
-0.343028
 20
2.779858
  0
VERTEX
  8
PLAN_1
  6
CONTINUOUS
 10
-0.343941
 20
2.774362
  0
VERTEX
  8
PLAN_1
  6
CONTINUOUS
 10
-0.344402
 20
2.768866
  0
VERTEX
  8
PLAN_1
  6
CONTINUOUS
 10
-0.344402
 20
2.763370
  0
VERTEX
  8
PLAN_1
  6
CONTINUOUS
 10
-0.344402
 20
2.757413
  0
VERTEX
  8
PLAN_1
  6
CONTINUOUS
 10
-0.343941
 20
2.751917
  0
VERTEX
  8
PLAN_1
  6
CONTINUOUS
 10
-0.343028
 20
2.746878
  0
VERTEX
  8
PLAN_1
  6
CONTINUOUS
 10
-0.342110
 20
2.741382
  0
VERTEX
  8
PLAN_1
  6
CONTINUOUS
 10
-0.341193
 20
2.735886
  0
VERTEX
  8
PLAN_1
  6
CONTINUOUS
 10
-0.339362
 20
2.730846
  0
VERTEX
  8
PLAN_1
  6
CONTINUOUS
 10
-0.337988
 20
2.725807
  0
VERTEX
  8
PLAN_1
  6
CONTINUOUS
 10
-0.335697
 20
2.721228
  0
VERTEX
  8
PLAN_1
  6
CONTINUOUS
 10
-0.333866
 20
2.716189
  0
VERTEX
  8
PLAN_1
  6
CONTINUOUS
 10
-0.331118
 20
2.711610
  0
VERTEX
  8
PLAN_1
  6
CONTINUOUS
 10
-0.328827
 20
2.707028
  0
VERTEX
  8
PLAN_1
  6
CONTINUOUS
 10
-0.326079
 20
2.702449
  0
VERTEX
  8
PLAN_1
  6
CONTINUOUS
 10
-0.322870
 20
2.698327
  0
VERTEX
  8
PLAN_1
  6
CONTINUOUS
 10
-0.319665
 20
2.694201
  0
VERTEX
  8
PLAN_1
  6
CONTINUOUS
 10
-0.316457
 20
2.690539
  0
VERTEX
  8
PLAN_1
  6
CONTINUOUS
 10
-0.312795
 20
2.686413
  0
VERTEX
  8
PLAN_1
  6
CONTINUOUS
 10
-0.309130
 20
2.683209
  0
VERTEX
  8
PLAN_1
  6
CONTINUOUS
 10
-0.305008
 20
2.679543
  0
VERTEX
  8
PLAN_1
  6
CONTINUOUS
 10
-0.300886
 20
2.676339
  0
VERTEX
  8
PLAN_1
  6
CONTINUOUS
 10
-0.296764
 20
2.673591
  0
VERTEX
  8
PLAN_1
  6
CONTINUOUS
 10
-0.292181
 20
2.670382
  0
VERTEX
  8
PLAN_1
  6
CONTINUOUS
 10
-0.287602
 20
2.668094
  0
VERTEX
  8
PLAN_1
  6
CONTINUOUS
 10
-0.283020
 20
2.665803
  0
VERTEX
  8
PLAN_1
  6
CONTINUOUS
 10
-0.278441
 20
2.663512
  0
VERTEX
  8
PLAN_1
  6
CONTINUOUS
 10
-0.273402
 20
2.661681
  0
VERTEX
  8
PLAN_1
  6
CONTINUOUS
 10
-0.268362
 20
2.659846
  0
VERTEX
  8
PLAN_1
  6
CONTINUOUS
 10
-0.263323
 20
2.658472
  0
VERTEX
  8
PLAN_1
  6
CONTINUOUS
 10
-0.257827
 20
2.657098
  0
VERTEX
  8
PLAN_1
  6
CONTINUOUS
 10
-0.252787
 20
2.656185
  0
VERTEX
  8
PLAN_1
  6
CONTINUOUS
 10
-0.247291
 20
2.655268
  0
VERTEX
  8
PLAN_1
  6
CONTINUOUS
 10
-0.241795
 20
2.655268
  0
VERTEX
  8
PLAN_1
  6
CONTINUOUS
 10
-0.236299
 20
2.654811
  0
SEQEND
  8
0
  0
POLYLINE
  8
PLAN_1
  6
CONTINUOUS
 66
     1
 40
0.006870
 41
0.006870
  0
VERTEX
  8
PLAN_1
  6
CONTINUOUS
 10
-0.255996
 20
2.867807
  0
VERTEX
  8
PLAN_1
  6
CONTINUOUS
 10
-0.255996
 20
2.782150
  0
VERTEX
  8
PLAN_1
  6
CONTINUOUS
 10
-0.294012
 20
2.782150
  0
VERTEX
  8
PLAN_1
  6
CONTINUOUS
 10
-0.294012
 20
2.742756
  0
VERTEX
  8
PLAN_1
  6
CONTINUOUS
 10
-0.255996
 20
2.742756
  0
VERTEX
  8
PLAN_1
  6
CONTINUOUS
 10
-0.255996
 20
2.743217
  0
VERTEX
  8
PLAN_1
  6
CONTINUOUS
 10
-0.255996
 20
2.657098
  0
SEQEND
  8
0
  0
POLYLINE
  8
PLAN_1
  6
CONTINUOUS
 66
     1
 40
0.006870
 41
0.006870
  0
VERTEX
  8
PLAN_1
  6
CONTINUOUS
 10
-0.216602
 20
2.867807
  0
VERTEX
  8
PLAN_1
  6
CONTINUOUS
 10
-0.216602
 20
2.782150
  0
VERTEX
  8
PLAN_1
  6
CONTINUOUS
 10
-0.217059
 20
2.782150
  0
VERTEX
  8
PLAN_1
  6
CONTINUOUS
 10
-0.177665
 20
2.782150
  0
VERTEX
  8
PLAN_1
  6
CONTINUOUS
 10
-0.177665
 20
2.742756
  0
VERTEX
  8
PLAN_1
  6
CONTINUOUS
 10
-0.217059
 20
2.742756
  0
VERTEX
  8
PLAN_1
  6
CONTINUOUS
 10
-0.216602
 20
2.743217
  0
VERTEX
  8
PLAN_1
  6
CONTINUOUS
 10
-0.216602
 20
2.657098
  0
SEQEND
  8
0
  0
POLYLINE
  8
PLAN_1
  6
CONTINUOUS
 66
     1
 40
0.004122
 41
0.004122
  0
VERTEX
  8
PLAN_1
  6
CONTINUOUS
 10
-0.192783
 20
3.223720
  0
VERTEX
  8
PLAN_1
  6
CONTINUOUS
 10
-0.612366
 20
3.223720
  0
SEQEND
  8
0
  0
POLYLINE
  8
PLAN_1
  6
CONTINUOUS
 66
     1
 40
0.004122
 41
0.004122
  0
VERTEX
  8
PLAN_1
  6
CONTINUOUS
 10
-1.830346
 20
3.223720
  0
VERTEX
  8
PLAN_1
  6
CONTINUOUS
 10
-2.272378
 20
3.223720
  0
SEQEND
  8
0
  0
POLYLINE
  8
PLAN_1
  6
CONTINUOUS
 66
     1
 40
0.004122
 41
0.004122
  0
VERTEX
  8
PLAN_1
  6
CONTINUOUS
 10
-2.049760
 20
0.838598
  0
VERTEX
  8
PLAN_1
  6
CONTINUOUS
 10
-2.049760
 20
3.363429
  0
SEQEND
  8
0
  0
POLYLINE
  8
PLAN_1
  6
CONTINUOUS
 66
     1
 40
0.008244
 41
0.008244
  0
VERTEX
  8
PLAN_1
  6
CONTINUOUS
 10
-2.224280
 20
1.153744
  0
VERTEX
  8
PLAN_1
  6
CONTINUOUS
 10
-2.305815
 20
1.153744
  0
VERTEX
  8
PLAN_1
  6
CONTINUOUS
 10
-2.401091
 20
1.153744
  0
VERTEX
  8
PLAN_1
  6
CONTINUOUS
 10
-2.401091
 20
2.886587
  0
SEQEND
  8
0
  0
POLYLINE
  8
PLAN_1
  6
CONTINUOUS
 66
     1
 40
0.008244
 41
0.008244
  0
VERTEX
  8
PLAN_1
  6
CONTINUOUS
 10
-2.401091
 20
2.886587
  0
VERTEX
  8
PLAN_1
  6
CONTINUOUS
 10
-2.400634
 20
2.894374
  0
VERTEX
  8
PLAN_1
  6
CONTINUOUS
 10
-2.399717
 20
2.902161
  0
VERTEX
  8
PLAN_1
  6
CONTINUOUS
 10
-2.397425
 20
2.909949
  0
VERTEX
  8
PLAN_1
  6
CONTINUOUS
 10
-2.395138
 20
2.917280
  0
VERTEX
  8
PLAN_1
  6
CONTINUOUS
 10
-2.391472
 20
2.924150
  0
VERTEX
  8
PLAN_1
  6
CONTINUOUS
 10
-2.387807
 20
2.930563
  0
VERTEX
  8
PLAN_1
  6
CONTINUOUS
 10
-2.383228
 20
2.936516
  0
VERTEX
  8
PLAN_1
  6
CONTINUOUS
 10
-2.378189
 20
2.942012
  0
VERTEX
  8
PLAN_1
  6
CONTINUOUS
 10
-2.372693
 20
2.947051
  0
VERTEX
  8
PLAN_1
  6
CONTINUOUS
 10
-2.366280
 20
2.951634
  0
VERTEX
  8
PLAN_1
  6
CONTINUOUS
 10
-2.359866
 20
2.955756
  0
VERTEX
  8
PLAN_1
  6
CONTINUOUS
 10
-2.352996
 20
2.958961
  0
VERTEX
  8
PLAN_1
  6
CONTINUOUS
 10
-2.345665
 20
2.961709
  0
VERTEX
  8
PLAN_1
  6
CONTINUOUS
 10
-2.338339
 20
2.963543
  0
VERTEX
  8
PLAN_1
  6
CONTINUOUS
 10
-2.330551
 20
2.964917
  0
VERTEX
  8
PLAN_1
  6
CONTINUOUS
 10
-2.322303
 20
2.965374
  0
SEQEND
  8
0
  0
POLYLINE
  8
PLAN_1
  6
CONTINUOUS
 66
     1
 40
0.008244
 41
0.008244
  0
VERTEX
  8
PLAN_1
  6
CONTINUOUS
 10
-2.322303
 20
2.965374
  0
VERTEX
  8
PLAN_1
  6
CONTINUOUS
 10
-0.118118
 20
2.965374
  0
SEQEND
  8
0
  0
POLYLINE
  8
PLAN_1
  6
CONTINUOUS
 66
     1
 40
0.008244
 41
0.008244
  0
VERTEX
  8
PLAN_1
  6
CONTINUOUS
 10
-0.118118
 20
2.965374
  0
VERTEX
  8
PLAN_1
  6
CONTINUOUS
 10
-0.110331
 20
2.964917
  0
VERTEX
  8
PLAN_1
  6
CONTINUOUS
 10
-0.102087
 20
2.963543
  0
VERTEX
  8
PLAN_1
  6
CONTINUOUS
 10
-0.094756
 20
2.961709
  0
VERTEX
  8
PLAN_1
  6
CONTINUOUS
 10
-0.087429
 20
2.958961
  0
VERTEX
  8
PLAN_1
  6
CONTINUOUS
 10
-0.080559
 20
2.955756
  0
VERTEX
  8
PLAN_1
  6
CONTINUOUS
 10
-0.074146
 20
2.951634
  0
VERTEX
  8
PLAN_1
  6
CONTINUOUS
 10
-0.068189
 20
2.947051
  0
VERTEX
  8
PLAN_1
  6
CONTINUOUS
 10
-0.062693
 20
2.942012
  0
VERTEX
  8
PLAN_1
  6
CONTINUOUS
 10
-0.057197
 20
2.936516
  0
VERTEX
  8
PLAN_1
  6
CONTINUOUS
 10
-0.053075
 20
2.930563
  0
VERTEX
  8
PLAN_1
  6
CONTINUOUS
 10
-0.048953
 20
2.924150
  0
VERTEX
  8
PLAN_1
  6
CONTINUOUS
 10
-0.045744
 20
2.917280
  0
VERTEX
  8
PLAN_1
  6
CONTINUOUS
 10
-0.042996
 20
2.909949
  0
VERTEX
  8
PLAN_1
  6
CONTINUOUS
 10
-0.041165
 20
2.902161
  0
VERTEX
  8
PLAN_1
  6
CONTINUOUS
 10
-0.039791
 20
2.894374
  0
VERTEX
  8
PLAN_1
  6
CONTINUOUS
 10
-0.039331
 20
2.886587
  0
SEQEND
  8
0
  0
POLYLINE
  8
PLAN_1
  6
CONTINUOUS
 66
     1
 40
0.008244
 41
0.008244
  0
VERTEX
  8
PLAN_1
  6
CONTINUOUS
 10
-0.039331
 20
2.886587
  0
VERTEX
  8
PLAN_1
  6
CONTINUOUS
 10
-0.039331
 20
1.288413
  0
VERTEX
  8
PLAN_1
  6
CONTINUOUS
 10
-0.039331
 20
1.153744
  0
VERTEX
  8
PLAN_1
  6
CONTINUOUS
 10
-0.159803
 20
1.153744
  0
VERTEX
  8
PLAN_1
  6
CONTINUOUS
 10
-0.216142
 20
1.153744
  0
VERTEX
  8
PLAN_1
  6
CONTINUOUS
 10
-0.216142
 20
1.016327
  0
VERTEX
  8
PLAN_1
  6
CONTINUOUS
 10
-0.629315
 20
1.016327
  0
VERTEX
  8
PLAN_1
  6
CONTINUOUS
 10
-0.629315
 20
1.088701
  0
VERTEX
  8
PLAN_1
  6
CONTINUOUS
 10
-0.629315
 20
1.153744
  0
VERTEX
  8
PLAN_1
  6
CONTINUOUS
 10
-1.626969
 20
1.153744
  0
VERTEX
  8
PLAN_1
  6
CONTINUOUS
 10
-1.811110
 20
1.153744
  0
VERTEX
  8
PLAN_1
  6
CONTINUOUS
 10
-1.811110
 20
1.016327
  0
VERTEX
  8
PLAN_1
  6
CONTINUOUS
 10
-2.224280
 20
1.016327
  0
VERTEX
  8
PLAN_1
  6
CONTINUOUS
 10
-2.224280
 20
1.153744
  0
SEQEND
  8
0
  0
POLYLINE
  8
PLAN_1
 62
     5
  6
CONTINUOUS
 66
     1
 40
0.003000
 41
0.003000
  0
VERTEX
  8
PLAN_1
 62
     5
  6
CONTINUOUS
 10
-0.388831
 20
0.867917
  0
VERTEX
  8
PLAN_1
 62
     5
  6
CONTINUOUS
 10
-0.388831
 20
0.876161
  0
SEQEND
  8
0
  0
POLYLINE
  8
PLAN_1
 62
     5
  6
CONTINUOUS
 66
     1
 40
0.003000
 41
0.003000
  0
VERTEX
  8
PLAN_1
 62
     5
  6
CONTINUOUS
 10
-0.388831
 20
0.884406
  0
VERTEX
  8
PLAN_1
 62
     5
  6
CONTINUOUS
 10
-0.388831
 20
0.892650
  0
SEQEND
  8
0
  0
POLYLINE
  8
PLAN_1
 62
     5
  6
CONTINUOUS
 66
     1
 40
0.003000
 41
0.003000
  0
VERTEX
  8
PLAN_1
 62
     5
  6
CONTINUOUS
 10
-0.388831
 20
0.900898
  0
VERTEX
  8
PLAN_1
 62
     5
  6
CONTINUOUS
 10
-0.388831
 20
0.909598
  0
SEQEND
  8
0
  0
POLYLINE
  8
PLAN_1
 62
     5
  6
CONTINUOUS
 66
     1
 40
0.003000
 41
0.003000
  0
VERTEX
  8
PLAN_1
 62
     5
  6
CONTINUOUS
 10
-0.388831
 20
0.917843
  0
VERTEX
  8
PLAN_1
 62
     5
  6
CONTINUOUS
 10
-0.388831
 20
0.926091
  0
SEQEND
  8
0
  0
POLYLINE
  8
PLAN_1
 62
     5
  6
CONTINUOUS
 66
     1
 40
0.003000
 41
0.003000
  0
VERTEX
  8
PLAN_1
 62
     5
  6
CONTINUOUS
 10
-0.388831
 20
0.934335
  0
VERTEX
  8
PLAN_1
 62
     5
  6
CONTINUOUS
 10
-0.388831
 20
0.942579
  0
SEQEND
  8
0
  0
POLYLINE
  8
PLAN_1
 62
     5
  6
CONTINUOUS
 66
     1
 40
0.003000
 41
0.003000
  0
VERTEX
  8
PLAN_1
 62
     5
  6
CONTINUOUS
 10
-0.388831
 20
0.951283
  0
VERTEX
  8
PLAN_1
 62
     5
  6
CONTINUOUS
 10
-0.388831
 20
0.959528
  0
SEQEND
  8
0
  0
POLYLINE
  8
PLAN_1
 62
     5
  6
CONTINUOUS
 66
     1
 40
0.003000
 41
0.003000
  0
VERTEX
  8
PLAN_1
 62
     5
  6
CONTINUOUS
 10
-0.388831
 20
0.967772
  0
VERTEX
  8
PLAN_1
 62
     5
  6
CONTINUOUS
 10
-0.388831
 20
0.976020
  0
SEQEND
  8
0
  0
POLYLINE
  8
PLAN_1
 62
     5
  6
CONTINUOUS
 66
     1
 40
0.003000
 41
0.003000
  0
VERTEX
  8
PLAN_1
 62
     5
  6
CONTINUOUS
 10
-0.388831
 20
0.984264
  0
VERTEX
  8
PLAN_1
 62
     5
  6
CONTINUOUS
 10
-0.388831
 20
0.992508
  0
SEQEND
  8
0
  0
POLYLINE
  8
PLAN_1
 62
     5
  6
CONTINUOUS
 66
     1
 40
0.003000
 41
0.003000
  0
VERTEX
  8
PLAN_1
 62
     5
  6
CONTINUOUS
 10
-0.388831
 20
1.001213
  0
VERTEX
  8
PLAN_1
 62
     5
  6
CONTINUOUS
 10
-0.388831
 20
1.009457
  0
SEQEND
  8
0
  0
POLYLINE
  8
PLAN_1
 62
     5
  6
CONTINUOUS
 66
     1
 40
0.003000
 41
0.003000
  0
VERTEX
  8
PLAN_1
 62
     5
  6
CONTINUOUS
 10
-0.388831
 20
1.017701
  0
VERTEX
  8
PLAN_1
 62
     5
  6
CONTINUOUS
 10
-0.388831
 20
1.025945
  0
SEQEND
  8
0
  0
POLYLINE
  8
PLAN_1
 62
     5
  6
CONTINUOUS
 66
     1
 40
0.003000
 41
0.003000
  0
VERTEX
  8
PLAN_1
 62
     5
  6
CONTINUOUS
 10
-0.388831
 20
1.034193
  0
VERTEX
  8
PLAN_1
 62
     5
  6
CONTINUOUS
 10
-0.388831
 20
1.042894
  0
SEQEND
  8
0
  0
POLYLINE
  8
PLAN_1
 62
     5
  6
CONTINUOUS
 66
     1
 40
0.003000
 41
0.003000
  0
VERTEX
  8
PLAN_1
 62
     5
  6
CONTINUOUS
 10
-0.388831
 20
1.051142
  0
VERTEX
  8
PLAN_1
 62
     5
  6
CONTINUOUS
 10
-0.388831
 20
1.059386
  0
SEQEND
  8
0
  0
POLYLINE
  8
PLAN_1
 62
     5
  6
CONTINUOUS
 66
     1
 40
0.003000
 41
0.003000
  0
VERTEX
  8
PLAN_1
 62
     5
  6
CONTINUOUS
 10
-0.388831
 20
1.067630
  0
VERTEX
  8
PLAN_1
 62
     5
  6
CONTINUOUS
 10
-0.388831
 20
1.075874
  0
SEQEND
  8
0
  0
POLYLINE
  8
PLAN_1
 62
     5
  6
CONTINUOUS
 66
     1
 40
0.003000
 41
0.003000
  0
VERTEX
  8
PLAN_1
 62
     5
  6
CONTINUOUS
 10
-0.388831
 20
1.084122
  0
VERTEX
  8
PLAN_1
 62
     5
  6
CONTINUOUS
 10
-0.388831
 20
1.092823
  0
SEQEND
  8
0
  0
POLYLINE
  8
PLAN_1
 62
     5
  6
CONTINUOUS
 66
     1
 40
0.003000
 41
0.003000
  0
VERTEX
  8
PLAN_1
 62
     5
  6
CONTINUOUS
 10
-0.388831
 20
1.101067
  0
VERTEX
  8
PLAN_1
 62
     5
  6
CONTINUOUS
 10
-0.388831
 20
1.109315
  0
SEQEND
  8
0
  0
POLYLINE
  8
PLAN_1
 62
     5
  6
CONTINUOUS
 66
     1
 40
0.003000
 41
0.003000
  0
VERTEX
  8
PLAN_1
 62
     5
  6
CONTINUOUS
 10
-0.388831
 20
1.117559
  0
VERTEX
  8
PLAN_1
 62
     5
  6
CONTINUOUS
 10
-0.388831
 20
1.125803
  0
SEQEND
  8
0
  0
POLYLINE
  8
PLAN_1
 62
     5
  6
CONTINUOUS
 66
     1
 40
0.003000
 41
0.003000
  0
VERTEX
  8
PLAN_1
 62
     5
  6
CONTINUOUS
 10
-0.388831
 20
1.134508
  0
VERTEX
  8
PLAN_1
 62
     5
  6
CONTINUOUS
 10
-0.388831
 20
1.142752
  0
SEQEND
  8
0
  0
POLYLINE
  8
PLAN_1
 62
     5
  6
CONTINUOUS
 66
     1
 40
0.003000
 41
0.003000
  0
VERTEX
  8
PLAN_1
 62
     5
  6
CONTINUOUS
 10
-0.388831
 20
1.150996
  0
VERTEX
  8
PLAN_1
 62
     5
  6
CONTINUOUS
 10
-0.388831
 20
1.159244
  0
SEQEND
  8
0
  0
POLYLINE
  8
PLAN_1
 62
     5
  6
CONTINUOUS
 66
     1
 40
0.003000
 41
0.003000
  0
VERTEX
  8
PLAN_1
 62
     5
  6
CONTINUOUS
 10
-0.388831
 20
1.167488
  0
VERTEX
  8
PLAN_1
 62
     5
  6
CONTINUOUS
 10
-0.388831
 20
1.176189
  0
SEQEND
  8
0
  0
POLYLINE
  8
PLAN_1
 62
     5
  6
CONTINUOUS
 66
     1
 40
0.003000
 41
0.003000
  0
VERTEX
  8
PLAN_1
 62
     5
  6
CONTINUOUS
 10
-0.388831
 20
1.184437
  0
VERTEX
  8
PLAN_1
 62
     5
  6
CONTINUOUS
 10
-0.388831
 20
1.192681
  0
SEQEND
  8
0
  0
POLYLINE
  8
PLAN_1
 62
     5
  6
CONTINUOUS
 66
     1
 40
0.003000
 41
0.003000
  0
VERTEX
  8
PLAN_1
 62
     5
  6
CONTINUOUS
 10
-0.388831
 20
1.200925
  0
VERTEX
  8
PLAN_1
 62
     5
  6
CONTINUOUS
 10
-0.388831
 20
1.209169
  0
SEQEND
  8
0
  0
POLYLINE
  8
PLAN_1
 62
     5
  6
CONTINUOUS
 66
     1
 40
0.003000
 41
0.003000
  0
VERTEX
  8
PLAN_1
 62
     5
  6
CONTINUOUS
 10
-0.388831
 20
1.217417
  0
VERTEX
  8
PLAN_1
 62
     5
  6
CONTINUOUS
 10
-0.388831
 20
1.226118
  0
SEQEND
  8
0
  0
POLYLINE
  8
PLAN_1
 62
     5
  6
CONTINUOUS
 66
     1
 40
0.003000
 41
0.003000
  0
VERTEX
  8
PLAN_1
 62
     5
  6
CONTINUOUS
 10
-0.388831
 20
1.234362
  0
VERTEX
  8
PLAN_1
 62
     5
  6
CONTINUOUS
 10
-0.388831
 20
1.242610
  0
SEQEND
  8
0
  0
POLYLINE
  8
PLAN_1
 62
     5
  6
CONTINUOUS
 66
     1
 40
0.003000
 41
0.003000
  0
VERTEX
  8
PLAN_1
 62
     5
  6
CONTINUOUS
 10
-0.388831
 20
1.250854
  0
VERTEX
  8
PLAN_1
 62
     5
  6
CONTINUOUS
 10
-0.388831
 20
1.259098
  0
SEQEND
  8
0
  0
POLYLINE
  8
PLAN_1
 62
     5
  6
CONTINUOUS
 66
     1
 40
0.003000
 41
0.003000
  0
VERTEX
  8
PLAN_1
 62
     5
  6
CONTINUOUS
 10
-0.388831
 20
1.267803
  0
VERTEX
  8
PLAN_1
 62
     5
  6
CONTINUOUS
 10
-0.388831
 20
1.276047
  0
SEQEND
  8
0
  0
POLYLINE
  8
PLAN_1
 62
     5
  6
CONTINUOUS
 66
     1
 40
0.003000
 41
0.003000
  0
VERTEX
  8
PLAN_1
 62
     5
  6
CONTINUOUS
 10
-0.388831
 20
1.284291
  0
VERTEX
  8
PLAN_1
 62
     5
  6
CONTINUOUS
 10
-0.388831
 20
1.292539
  0
SEQEND
  8
0
  0
POLYLINE
  8
PLAN_1
 62
     5
  6
CONTINUOUS
 66
     1
 40
0.003000
 41
0.003000
  0
VERTEX
  8
PLAN_1
 62
     5
  6
CONTINUOUS
 10
-0.388831
 20
1.300783
  0
VERTEX
  8
PLAN_1
 62
     5
  6
CONTINUOUS
 10
-0.388831
 20
1.309028
  0
SEQEND
  8
0
  0
POLYLINE
  8
PLAN_1
 62
     5
  6
CONTINUOUS
 66
     1
 40
0.003000
 41
0.003000
  0
VERTEX
  8
PLAN_1
 62
     5
  6
CONTINUOUS
 10
-0.388831
 20
1.317732
  0
VERTEX
  8
PLAN_1
 62
     5
  6
CONTINUOUS
 10
-0.388831
 20
1.325976
  0
SEQEND
  8
0
  0
POLYLINE
  8
PLAN_1
 62
     5
  6
CONTINUOUS
 66
     1
 40
0.003000
 41
0.003000
  0
VERTEX
  8
PLAN_1
 62
     5
  6
CONTINUOUS
 10
-0.388831
 20
1.334220
  0
VERTEX
  8
PLAN_1
 62
     5
  6
CONTINUOUS
 10
-0.388831
 20
1.342465
  0
SEQEND
  8
0
  0
POLYLINE
  8
PLAN_1
 62
     5
  6
CONTINUOUS
 66
     1
 40
0.003000
 41
0.003000
  0
VERTEX
  8
PLAN_1
 62
     5
  6
CONTINUOUS
 10
-0.388831
 20
1.350713
  0
VERTEX
  8
PLAN_1
 62
     5
  6
CONTINUOUS
 10
-0.388831
 20
1.359413
  0
SEQEND
  8
0
  0
POLYLINE
  8
PLAN_1
 62
     5
  6
CONTINUOUS
 66
     1
 40
0.003000
 41
0.003000
  0
VERTEX
  8
PLAN_1
 62
     5
  6
CONTINUOUS
 10
-0.388831
 20
1.367661
  0
VERTEX
  8
PLAN_1
 62
     5
  6
CONTINUOUS
 10
-0.388831
 20
1.375906
  0
SEQEND
  8
0
  0
POLYLINE
  8
PLAN_1
 62
     5
  6
CONTINUOUS
 66
     1
 40
0.003000
 41
0.003000
  0
VERTEX
  8
PLAN_1
 62
     5
  6
CONTINUOUS
 10
-0.388831
 20
1.384150
  0
VERTEX
  8
PLAN_1
 62
     5
  6
CONTINUOUS
 10
-0.388831
 20
1.392394
  0
SEQEND
  8
0
  0
POLYLINE
  8
PLAN_1
 62
     5
  6
CONTINUOUS
 66
     1
 40
0.003000
 41
0.003000
  0
VERTEX
  8
PLAN_1
 62
     5
  6
CONTINUOUS
 10
-0.388831
 20
1.400642
  0
VERTEX
  8
PLAN_1
 62
     5
  6
CONTINUOUS
 10
-0.388831
 20
1.409343
  0
SEQEND
  8
0
  0
POLYLINE
  8
PLAN_1
 62
     5
  6
CONTINUOUS
 66
     1
 40
0.003000
 41
0.003000
  0
VERTEX
  8
PLAN_1
 62
     5
  6
CONTINUOUS
 10
-0.388831
 20
1.417587
  0
VERTEX
  8
PLAN_1
 62
     5
  6
CONTINUOUS
 10
-0.388831
 20
1.425835
  0
SEQEND
  8
0
  0
POLYLINE
  8
PLAN_1
 62
     5
  6
CONTINUOUS
 66
     1
 40
0.003000
 41
0.003000
  0
VERTEX
  8
PLAN_1
 62
     5
  6
CONTINUOUS
 10
-0.388831
 20
1.434079
  0
VERTEX
  8
PLAN_1
 62
     5
  6
CONTINUOUS
 10
-0.388831
 20
1.442323
  0
SEQEND
  8
0
  0
POLYLINE
  8
PLAN_1
 62
     5
  6
CONTINUOUS
 66
     1
 40
0.003000
 41
0.003000
  0
VERTEX
  8
PLAN_1
 62
     5
  6
CONTINUOUS
 10
-0.388831
 20
1.451028
  0
VERTEX
  8
PLAN_1
 62
     5
  6
CONTINUOUS
 10
-0.388831
 20
1.459272
  0
SEQEND
  8
0
  0
POLYLINE
  8
PLAN_1
 62
     5
  6
CONTINUOUS
 66
     1
 40
0.003000
 41
0.003000
  0
VERTEX
  8
PLAN_1
 62
     5
  6
CONTINUOUS
 10
-0.388831
 20
1.467516
  0
VERTEX
  8
PLAN_1
 62
     5
  6
CONTINUOUS
 10
-0.388831
 20
1.475764
  0
SEQEND
  8
0
  0
POLYLINE
  8
PLAN_1
 62
     5
  6
CONTINUOUS
 66
     1
 40
0.003000
 41
0.003000
  0
VERTEX
  8
PLAN_1
 62
     5
  6
CONTINUOUS
 10
-0.388831
 20
1.484008
  0
VERTEX
  8
PLAN_1
 62
     5
  6
CONTINUOUS
 10
-0.388831
 20
1.492252
  0
SEQEND
  8
0
  0
POLYLINE
  8
PLAN_1
 62
     5
  6
CONTINUOUS
 66
     1
 40
0.003000
 41
0.003000
  0
VERTEX
  8
PLAN_1
 62
     5
  6
CONTINUOUS
 10
-0.388831
 20
1.500957
  0
VERTEX
  8
PLAN_1
 62
     5
  6
CONTINUOUS
 10
-0.388831
 20
1.509201
  0
SEQEND
  8
0
  0
POLYLINE
  8
PLAN_1
 62
     5
  6
CONTINUOUS
 66
     1
 40
0.003000
 41
0.003000
  0
VERTEX
  8
PLAN_1
 62
     5
  6
CONTINUOUS
 10
-0.388831
 20
1.517445
  0
VERTEX
  8
PLAN_1
 62
     5
  6
CONTINUOUS
 10
-0.388831
 20
1.525689
  0
SEQEND
  8
0
  0
POLYLINE
  8
PLAN_1
 62
     5
  6
CONTINUOUS
 66
     1
 40
0.003000
 41
0.003000
  0
VERTEX
  8
PLAN_1
 62
     5
  6
CONTINUOUS
 10
-0.388831
 20
1.533937
  0
VERTEX
  8
PLAN_1
 62
     5
  6
CONTINUOUS
 10
-0.388831
 20
1.542638
  0
SEQEND
  8
0
  0
POLYLINE
  8
PLAN_1
 62
     5
  6
CONTINUOUS
 66
     1
 40
0.003000
 41
0.003000
  0
VERTEX
  8
PLAN_1
 62
     5
  6
CONTINUOUS
 10
-0.388831
 20
1.550882
  0
VERTEX
  8
PLAN_1
 62
     5
  6
CONTINUOUS
 10
-0.388831
 20
1.559130
  0
SEQEND
  8
0
  0
POLYLINE
  8
PLAN_1
 62
     5
  6
CONTINUOUS
 66
     1
 40
0.003000
 41
0.003000
  0
VERTEX
  8
PLAN_1
 62
     5
  6
CONTINUOUS
 10
-0.388831
 20
1.567374
  0
VERTEX
  8
PLAN_1
 62
     5
  6
CONTINUOUS
 10
-0.388831
 20
1.575618
  0
SEQEND
  8
0
  0
POLYLINE
  8
PLAN_1
 62
     5
  6
CONTINUOUS
 66
     1
 40
0.003000
 41
0.003000
  0
VERTEX
  8
PLAN_1
 62
     5
  6
CONTINUOUS
 10
-0.388831
 20
1.583862
  0
VERTEX
  8
PLAN_1
 62
     5
  6
CONTINUOUS
 10
-0.388831
 20
1.592567
  0
SEQEND
  8
0
  0
POLYLINE
  8
PLAN_1
 62
     5
  6
CONTINUOUS
 66
     1
 40
0.003000
 41
0.003000
  0
VERTEX
  8
PLAN_1
 62
     5
  6
CONTINUOUS
 10
-0.388831
 20
1.600811
  0
VERTEX
  8
PLAN_1
 62
     5
  6
CONTINUOUS
 10
-0.388831
 20
1.609059
  0
SEQEND
  8
0
  0
POLYLINE
  8
PLAN_1
 62
     5
  6
CONTINUOUS
 66
     1
 40
0.003000
 41
0.003000
  0
VERTEX
  8
PLAN_1
 62
     5
  6
CONTINUOUS
 10
-0.388831
 20
1.617303
  0
VERTEX
  8
PLAN_1
 62
     5
  6
CONTINUOUS
 10
-0.388831
 20
1.625547
  0
SEQEND
  8
0
  0
POLYLINE
  8
PLAN_1
 62
     5
  6
CONTINUOUS
 66
     1
 40
0.003000
 41
0.003000
  0
VERTEX
  8
PLAN_1
 62
     5
  6
CONTINUOUS
 10
-0.388831
 20
1.634252
  0
VERTEX
  8
PLAN_1
 62
     5
  6
CONTINUOUS
 10
-0.388831
 20
1.642496
  0
SEQEND
  8
0
  0
POLYLINE
  8
PLAN_1
 62
     5
  6
CONTINUOUS
 66
     1
 40
0.003000
 41
0.003000
  0
VERTEX
  8
PLAN_1
 62
     5
  6
CONTINUOUS
 10
-0.388831
 20
1.650740
  0
VERTEX
  8
PLAN_1
 62
     5
  6
CONTINUOUS
 10
-0.388831
 20
1.658984
  0
SEQEND
  8
0
  0
POLYLINE
  8
PLAN_1
 62
     5
  6
CONTINUOUS
 66
     1
 40
0.003000
 41
0.003000
  0
VERTEX
  8
PLAN_1
 62
     5
  6
CONTINUOUS
 10
-0.388831
 20
1.667232
  0
VERTEX
  8
PLAN_1
 62
     5
  6
CONTINUOUS
 10
-0.388831
 20
1.675476
  0
SEQEND
  8
0
  0
POLYLINE
  8
PLAN_1
 62
     5
  6
CONTINUOUS
 66
     1
 40
0.003000
 41
0.003000
  0
VERTEX
  8
PLAN_1
 62
     5
  6
CONTINUOUS
 10
-0.388831
 20
1.684181
  0
VERTEX
  8
PLAN_1
 62
     5
  6
CONTINUOUS
 10
-0.388831
 20
1.692425
  0
SEQEND
  8
0
  0
POLYLINE
  8
PLAN_1
 62
     5
  6
CONTINUOUS
 66
     1
 40
0.003000
 41
0.003000
  0
VERTEX
  8
PLAN_1
 62
     5
  6
CONTINUOUS
 10
-0.388831
 20
1.700669
  0
VERTEX
  8
PLAN_1
 62
     5
  6
CONTINUOUS
 10
-0.388831
 20
1.708913
  0
SEQEND
  8
0
  0
POLYLINE
  8
PLAN_1
 62
     5
  6
CONTINUOUS
 66
     1
 40
0.003000
 41
0.003000
  0
VERTEX
  8
PLAN_1
 62
     5
  6
CONTINUOUS
 10
-0.388831
 20
1.717161
  0
VERTEX
  8
PLAN_1
 62
     5
  6
CONTINUOUS
 10
-0.388831
 20
1.725862
  0
SEQEND
  8
0
  0
POLYLINE
  8
PLAN_1
 62
     5
  6
CONTINUOUS
 66
     1
 40
0.003000
 41
0.003000
  0
VERTEX
  8
PLAN_1
 62
     5
  6
CONTINUOUS
 10
-0.388831
 20
1.734106
  0
VERTEX
  8
PLAN_1
 62
     5
  6
CONTINUOUS
 10
-0.388831
 20
1.742354
  0
SEQEND
  8
0
  0
POLYLINE
  8
PLAN_1
 62
     5
  6
CONTINUOUS
 66
     1
 40
0.003000
 41
0.003000
  0
VERTEX
  8
PLAN_1
 62
     5
  6
CONTINUOUS
 10
-0.388831
 20
1.750598
  0
VERTEX
  8
PLAN_1
 62
     5
  6
CONTINUOUS
 10
-0.388831
 20
1.758843
  0
SEQEND
  8
0
  0
POLYLINE
  8
PLAN_1
 62
     5
  6
CONTINUOUS
 66
     1
 40
0.003000
 41
0.003000
  0
VERTEX
  8
PLAN_1
 62
     5
  6
CONTINUOUS
 10
-0.388831
 20
1.767087
  0
VERTEX
  8
PLAN_1
 62
     5
  6
CONTINUOUS
 10
-0.388831
 20
1.775791
  0
SEQEND
  8
0
  0
POLYLINE
  8
PLAN_1
 62
     5
  6
CONTINUOUS
 66
     1
 40
0.003000
 41
0.003000
  0
VERTEX
  8
PLAN_1
 62
     5
  6
CONTINUOUS
 10
-0.388831
 20
1.784035
  0
VERTEX
  8
PLAN_1
 62
     5
  6
CONTINUOUS
 10
-0.388831
 20
1.792283
  0
SEQEND
  8
0
  0
POLYLINE
  8
PLAN_1
 62
     5
  6
CONTINUOUS
 66
     1
 40
0.003000
 41
0.003000
  0
VERTEX
  8
PLAN_1
 62
     5
  6
CONTINUOUS
 10
-0.388831
 20
1.800528
  0
VERTEX
  8
PLAN_1
 62
     5
  6
CONTINUOUS
 10
-0.388831
 20
1.808772
  0
SEQEND
  8
0
  0
POLYLINE
  8
PLAN_1
 62
     5
  6
CONTINUOUS
 66
     1
 40
0.003000
 41
0.003000
  0
VERTEX
  8
PLAN_1
 62
     5
  6
CONTINUOUS
 10
-0.388831
 20
1.817476
  0
VERTEX
  8
PLAN_1
 62
     5
  6
CONTINUOUS
 10
-0.388831
 20
1.825720
  0
SEQEND
  8
0
  0
POLYLINE
  8
PLAN_1
 62
     5
  6
CONTINUOUS
 66
     1
 40
0.003000
 41
0.003000
  0
VERTEX
  8
PLAN_1
 62
     5
  6
CONTINUOUS
 10
-0.388831
 20
1.833965
  0
VERTEX
  8
PLAN_1
 62
     5
  6
CONTINUOUS
 10
-0.388831
 20
1.842209
  0
SEQEND
  8
0
  0
POLYLINE
  8
PLAN_1
 62
     5
  6
CONTINUOUS
 66
     1
 40
0.003000
 41
0.003000
  0
VERTEX
  8
PLAN_1
 62
     5
  6
CONTINUOUS
 10
-0.388831
 20
1.850457
  0
VERTEX
  8
PLAN_1
 62
     5
  6
CONTINUOUS
 10
-0.388831
 20
1.858701
  0
SEQEND
  8
0
  0
POLYLINE
  8
PLAN_1
 62
     5
  6
CONTINUOUS
 66
     1
 40
0.003000
 41
0.003000
  0
VERTEX
  8
PLAN_1
 62
     5
  6
CONTINUOUS
 10
-0.388831
 20
1.867402
  0
VERTEX
  8
PLAN_1
 62
     5
  6
CONTINUOUS
 10
-0.388831
 20
1.875650
  0
SEQEND
  8
0
  0
POLYLINE
  8
PLAN_1
 62
     5
  6
CONTINUOUS
 66
     1
 40
0.003000
 41
0.003000
  0
VERTEX
  8
PLAN_1
 62
     5
  6
CONTINUOUS
 10
-0.388831
 20
1.883894
  0
VERTEX
  8
PLAN_1
 62
     5
  6
CONTINUOUS
 10
-0.388831
 20
1.892138
  0
SEQEND
  8
0
  0
POLYLINE
  8
PLAN_1
 62
     5
  6
CONTINUOUS
 66
     1
 40
0.003000
 41
0.003000
  0
VERTEX
  8
PLAN_1
 62
     5
  6
CONTINUOUS
 10
-0.388831
 20
1.900382
  0
VERTEX
  8
PLAN_1
 62
     5
  6
CONTINUOUS
 10
-0.388831
 20
1.909087
  0
SEQEND
  8
0
  0
POLYLINE
  8
PLAN_1
 62
     5
  6
CONTINUOUS
 66
     1
 40
0.003000
 41
0.003000
  0
VERTEX
  8
PLAN_1
 62
     5
  6
CONTINUOUS
 10
-0.388831
 20
1.917331
  0
VERTEX
  8
PLAN_1
 62
     5
  6
CONTINUOUS
 10
-0.388831
 20
1.925579
  0
SEQEND
  8
0
  0
POLYLINE
  8
PLAN_1
 62
     5
  6
CONTINUOUS
 66
     1
 40
0.003000
 41
0.003000
  0
VERTEX
  8
PLAN_1
 62
     5
  6
CONTINUOUS
 10
-0.388831
 20
1.933823
  0
VERTEX
  8
PLAN_1
 62
     5
  6
CONTINUOUS
 10
-0.388831
 20
1.942067
  0
SEQEND
  8
0
  0
POLYLINE
  8
PLAN_1
 62
     5
  6
CONTINUOUS
 66
     1
 40
0.003000
 41
0.003000
  0
VERTEX
  8
PLAN_1
 62
     5
  6
CONTINUOUS
 10
-0.388831
 20
1.950772
  0
VERTEX
  8
PLAN_1
 62
     5
  6
CONTINUOUS
 10
-0.388831
 20
1.959016
  0
SEQEND
  8
0
  0
POLYLINE
  8
PLAN_1
 62
     5
  6
CONTINUOUS
 66
     1
 40
0.003000
 41
0.003000
  0
VERTEX
  8
PLAN_1
 62
     5
  6
CONTINUOUS
 10
-0.388831
 20
1.967260
  0
VERTEX
  8
PLAN_1
 62
     5
  6
CONTINUOUS
 10
-0.388831
 20
1.975504
  0
SEQEND
  8
0
  0
POLYLINE
  8
PLAN_1
 62
     5
  6
CONTINUOUS
 66
     1
 40
0.003000
 41
0.003000
  0
VERTEX
  8
PLAN_1
 62
     5
  6
CONTINUOUS
 10
-0.388831
 20
1.983752
  0
VERTEX
  8
PLAN_1
 62
     5
  6
CONTINUOUS
 10
-0.388831
 20
1.991996
  0
SEQEND
  8
0
  0
POLYLINE
  8
PLAN_1
 62
     5
  6
CONTINUOUS
 66
     1
 40
0.003000
 41
0.003000
  0
VERTEX
  8
PLAN_1
 62
     5
  6
CONTINUOUS
 10
-0.388831
 20
2.000701
  0
VERTEX
  8
PLAN_1
 62
     5
  6
CONTINUOUS
 10
-0.388831
 20
2.008945
  0
SEQEND
  8
0
  0
POLYLINE
  8
PLAN_1
 62
     5
  6
CONTINUOUS
 66
     1
 40
0.003000
 41
0.003000
  0
VERTEX
  8
PLAN_1
 62
     5
  6
CONTINUOUS
 10
-0.388831
 20
2.017189
  0
VERTEX
  8
PLAN_1
 62
     5
  6
CONTINUOUS
 10
-0.388831
 20
2.025433
  0
SEQEND
  8
0
  0
POLYLINE
  8
PLAN_1
 62
     5
  6
CONTINUOUS
 66
     1
 40
0.003000
 41
0.003000
  0
VERTEX
  8
PLAN_1
 62
     5
  6
CONTINUOUS
 10
-0.388831
 20
2.033681
  0
VERTEX
  8
PLAN_1
 62
     5
  6
CONTINUOUS
 10
-0.388831
 20
2.042382
  0
SEQEND
  8
0
  0
POLYLINE
  8
PLAN_1
 62
     5
  6
CONTINUOUS
 66
     1
 40
0.003000
 41
0.003000
  0
VERTEX
  8
PLAN_1
 62
     5
  6
CONTINUOUS
 10
-0.388831
 20
2.050626
  0
VERTEX
  8
PLAN_1
 62
     5
  6
CONTINUOUS
 10
-0.388831
 20
2.058874
  0
SEQEND
  8
0
  0
POLYLINE
  8
PLAN_1
 62
     5
  6
CONTINUOUS
 66
     1
 40
0.003000
 41
0.003000
  0
VERTEX
  8
PLAN_1
 62
     5
  6
CONTINUOUS
 10
-0.388831
 20
2.067118
  0
VERTEX
  8
PLAN_1
 62
     5
  6
CONTINUOUS
 10
-0.388831
 20
2.075362
  0
SEQEND
  8
0
  0
POLYLINE
  8
PLAN_1
 62
     5
  6
CONTINUOUS
 66
     1
 40
0.003000
 41
0.003000
  0
VERTEX
  8
PLAN_1
 62
     5
  6
CONTINUOUS
 10
-0.388831
 20
2.083606
  0
VERTEX
  8
PLAN_1
 62
     5
  6
CONTINUOUS
 10
-0.388831
 20
2.092311
  0
SEQEND
  8
0
  0
POLYLINE
  8
PLAN_1
 62
     5
  6
CONTINUOUS
 66
     1
 40
0.003000
 41
0.003000
  0
VERTEX
  8
PLAN_1
 62
     5
  6
CONTINUOUS
 10
-0.388831
 20
2.100555
  0
VERTEX
  8
PLAN_1
 62
     5
  6
CONTINUOUS
 10
-0.388831
 20
2.108803
  0
SEQEND
  8
0
  0
POLYLINE
  8
PLAN_1
 62
     5
  6
CONTINUOUS
 66
     1
 40
0.003000
 41
0.003000
  0
VERTEX
  8
PLAN_1
 62
     5
  6
CONTINUOUS
 10
-0.388831
 20
2.117047
  0
VERTEX
  8
PLAN_1
 62
     5
  6
CONTINUOUS
 10
-0.388831
 20
2.125291
  0
SEQEND
  8
0
  0
POLYLINE
  8
PLAN_1
 62
     5
  6
CONTINUOUS
 66
     1
 40
0.003000
 41
0.003000
  0
VERTEX
  8
PLAN_1
 62
     5
  6
CONTINUOUS
 10
-0.388831
 20
2.133996
  0
VERTEX
  8
PLAN_1
 62
     5
  6
CONTINUOUS
 10
-0.388831
 20
2.142240
  0
SEQEND
  8
0
  0
POLYLINE
  8
PLAN_1
 62
     5
  6
CONTINUOUS
 66
     1
 40
0.003000
 41
0.003000
  0
VERTEX
  8
PLAN_1
 62
     5
  6
CONTINUOUS
 10
-0.388831
 20
2.150484
  0
VERTEX
  8
PLAN_1
 62
     5
  6
CONTINUOUS
 10
-0.388831
 20
2.158728
  0
SEQEND
  8
0
  0
POLYLINE
  8
PLAN_1
 62
     5
  6
CONTINUOUS
 66
     1
 40
0.003000
 41
0.003000
  0
VERTEX
  8
PLAN_1
 62
     5
  6
CONTINUOUS
 10
-0.388831
 20
2.166976
  0
VERTEX
  8
PLAN_1
 62
     5
  6
CONTINUOUS
 10
-0.388831
 20
2.175220
  0
SEQEND
  8
0
  0
POLYLINE
  8
PLAN_1
 62
     5
  6
CONTINUOUS
 66
     1
 40
0.003000
 41
0.003000
  0
VERTEX
  8
PLAN_1
 62
     5
  6
CONTINUOUS
 10
-0.388831
 20
2.183921
  0
VERTEX
  8
PLAN_1
 62
     5
  6
CONTINUOUS
 10
-0.388831
 20
2.192169
  0
SEQEND
  8
0
  0
POLYLINE
  8
PLAN_1
 62
     5
  6
CONTINUOUS
 66
     1
 40
0.003000
 41
0.003000
  0
VERTEX
  8
PLAN_1
 62
     5
  6
CONTINUOUS
 10
-0.388831
 20
2.200413
  0
VERTEX
  8
PLAN_1
 62
     5
  6
CONTINUOUS
 10
-0.388831
 20
2.208657
  0
SEQEND
  8
0
  0
POLYLINE
  8
PLAN_1
 62
     5
  6
CONTINUOUS
 66
     1
 40
0.003000
 41
0.003000
  0
VERTEX
  8
PLAN_1
 62
     5
  6
CONTINUOUS
 10
-0.388831
 20
2.216902
  0
VERTEX
  8
PLAN_1
 62
     5
  6
CONTINUOUS
 10
-0.388831
 20
2.225606
  0
SEQEND
  8
0
  0
POLYLINE
  8
PLAN_1
 62
     5
  6
CONTINUOUS
 66
     1
 40
0.003000
 41
0.003000
  0
VERTEX
  8
PLAN_1
 62
     5
  6
CONTINUOUS
 10
-0.388831
 20
2.233850
  0
VERTEX
  8
PLAN_1
 62
     5
  6
CONTINUOUS
 10
-0.388831
 20
2.242098
  0
SEQEND
  8
0
  0
POLYLINE
  8
PLAN_1
 62
     5
  6
CONTINUOUS
 66
     1
 40
0.003000
 41
0.003000
  0
VERTEX
  8
PLAN_1
 62
     5
  6
CONTINUOUS
 10
-0.388831
 20
2.250343
  0
VERTEX
  8
PLAN_1
 62
     5
  6
CONTINUOUS
 10
-0.388831
 20
2.258587
  0
SEQEND
  8
0
  0
POLYLINE
  8
PLAN_1
 62
     5
  6
CONTINUOUS
 66
     1
 40
0.003000
 41
0.003000
  0
VERTEX
  8
PLAN_1
 62
     5
  6
CONTINUOUS
 10
-0.388831
 20
2.266831
  0
VERTEX
  8
PLAN_1
 62
     5
  6
CONTINUOUS
 10
-0.388831
 20
2.275535
  0
SEQEND
  8
0
  0
POLYLINE
  8
PLAN_1
 62
     5
  6
CONTINUOUS
 66
     1
 40
0.003000
 41
0.003000
  0
VERTEX
  8
PLAN_1
 62
     5
  6
CONTINUOUS
 10
-0.388831
 20
2.283780
  0
VERTEX
  8
PLAN_1
 62
     5
  6
CONTINUOUS
 10
-0.388831
 20
2.292024
  0
SEQEND
  8
0
  0
POLYLINE
  8
PLAN_1
 62
     5
  6
CONTINUOUS
 66
     1
 40
0.003000
 41
0.003000
  0
VERTEX
  8
PLAN_1
 62
     5
  6
CONTINUOUS
 10
-0.388831
 20
2.300272
  0
VERTEX
  8
PLAN_1
 62
     5
  6
CONTINUOUS
 10
-0.388831
 20
2.308516
  0
SEQEND
  8
0
  0
POLYLINE
  8
PLAN_1
 62
     5
  6
CONTINUOUS
 66
     1
 40
0.003000
 41
0.003000
  0
VERTEX
  8
PLAN_1
 62
     5
  6
CONTINUOUS
 10
-0.388831
 20
2.317220
  0
VERTEX
  8
PLAN_1
 62
     5
  6
CONTINUOUS
 10
-0.388831
 20
2.325465
  0
SEQEND
  8
0
  0
POLYLINE
  8
PLAN_1
 62
     5
  6
CONTINUOUS
 66
     1
 40
0.003000
 41
0.003000
  0
VERTEX
  8
PLAN_1
 62
     5
  6
CONTINUOUS
 10
-0.388831
 20
2.333709
  0
VERTEX
  8
PLAN_1
 62
     5
  6
CONTINUOUS
 10
-0.388831
 20
2.341953
  0
SEQEND
  8
0
  0
POLYLINE
  8
PLAN_1
 62
     5
  6
CONTINUOUS
 66
     1
 40
0.003000
 41
0.003000
  0
VERTEX
  8
PLAN_1
 62
     5
  6
CONTINUOUS
 10
-0.388831
 20
2.350201
  0
VERTEX
  8
PLAN_1
 62
     5
  6
CONTINUOUS
 10
-0.388831
 20
2.358445
  0
SEQEND
  8
0
  0
POLYLINE
  8
PLAN_1
 62
     5
  6
CONTINUOUS
 66
     1
 40
0.003000
 41
0.003000
  0
VERTEX
  8
PLAN_1
 62
     5
  6
CONTINUOUS
 10
-0.388831
 20
2.367146
  0
VERTEX
  8
PLAN_1
 62
     5
  6
CONTINUOUS
 10
-0.388831
 20
2.375394
  0
SEQEND
  8
0
  0
POLYLINE
  8
PLAN_1
 62
     5
  6
CONTINUOUS
 66
     1
 40
0.003000
 41
0.003000
  0
VERTEX
  8
PLAN_1
 62
     5
  6
CONTINUOUS
 10
-0.388831
 20
2.383638
  0
VERTEX
  8
PLAN_1
 62
     5
  6
CONTINUOUS
 10
-0.388831
 20
2.391882
  0
SEQEND
  8
0
  0
POLYLINE
  8
PLAN_1
 62
     5
  6
CONTINUOUS
 66
     1
 40
0.003000
 41
0.003000
  0
VERTEX
  8
PLAN_1
 62
     5
  6
CONTINUOUS
 10
-0.388831
 20
2.400126
  0
VERTEX
  8
PLAN_1
 62
     5
  6
CONTINUOUS
 10
-0.388831
 20
2.408831
  0
SEQEND
  8
0
  0
POLYLINE
  8
PLAN_1
 62
     5
  6
CONTINUOUS
 66
     1
 40
0.003000
 41
0.003000
  0
VERTEX
  8
PLAN_1
 62
     5
  6
CONTINUOUS
 10
-0.388831
 20
2.417075
  0
VERTEX
  8
PLAN_1
 62
     5
  6
CONTINUOUS
 10
-0.388831
 20
2.425323
  0
SEQEND
  8
0
  0
POLYLINE
  8
PLAN_1
 62
     5
  6
CONTINUOUS
 66
     1
 40
0.003000
 41
0.003000
  0
VERTEX
  8
PLAN_1
 62
     5
  6
CONTINUOUS
 10
-0.388831
 20
2.433567
  0
VERTEX
  8
PLAN_1
 62
     5
  6
CONTINUOUS
 10
-0.388831
 20
2.441811
  0
SEQEND
  8
0
  0
POLYLINE
  8
PLAN_1
 62
     5
  6
CONTINUOUS
 66
     1
 40
0.003000
 41
0.003000
  0
VERTEX
  8
PLAN_1
 62
     5
  6
CONTINUOUS
 10
-0.388831
 20
2.450055
  0
VERTEX
  8
PLAN_1
 62
     5
  6
CONTINUOUS
 10
-0.388831
 20
2.458760
  0
SEQEND
  8
0
  0
POLYLINE
  8
PLAN_1
 62
     5
  6
CONTINUOUS
 66
     1
 40
0.003000
 41
0.003000
  0
VERTEX
  8
PLAN_1
 62
     5
  6
CONTINUOUS
 10
-0.388831
 20
2.467004
  0
VERTEX
  8
PLAN_1
 62
     5
  6
CONTINUOUS
 10
-0.388831
 20
2.475248
  0
SEQEND
  8
0
  0
POLYLINE
  8
PLAN_1
 62
     5
  6
CONTINUOUS
 66
     1
 40
0.003000
 41
0.003000
  0
VERTEX
  8
PLAN_1
 62
     5
  6
CONTINUOUS
 10
-0.388831
 20
2.483496
  0
VERTEX
  8
PLAN_1
 62
     5
  6
CONTINUOUS
 10
-0.388831
 20
2.491740
  0
SEQEND
  8
0
  0
POLYLINE
  8
PLAN_1
 62
     5
  6
CONTINUOUS
 66
     1
 40
0.003000
 41
0.003000
  0
VERTEX
  8
PLAN_1
 62
     5
  6
CONTINUOUS
 10
-0.388831
 20
2.500441
  0
VERTEX
  8
PLAN_1
 62
     5
  6
CONTINUOUS
 10
-0.388831
 20
2.508689
  0
SEQEND
  8
0
  0
POLYLINE
  8
PLAN_1
 62
     5
  6
CONTINUOUS
 66
     1
 40
0.003000
 41
0.003000
  0
VERTEX
  8
PLAN_1
 62
     5
  6
CONTINUOUS
 10
-0.388831
 20
2.516933
  0
VERTEX
  8
PLAN_1
 62
     5
  6
CONTINUOUS
 10
-0.388831
 20
2.525177
  0
SEQEND
  8
0
  0
POLYLINE
  8
PLAN_1
 62
     5
  6
CONTINUOUS
 66
     1
 40
0.003000
 41
0.003000
  0
VERTEX
  8
PLAN_1
 62
     5
  6
CONTINUOUS
 10
-0.388831
 20
2.533421
  0
VERTEX
  8
PLAN_1
 62
     5
  6
CONTINUOUS
 10
-0.388831
 20
2.541669
  0
SEQEND
  8
0
  0
POLYLINE
  8
PLAN_1
 62
     5
  6
CONTINUOUS
 66
     1
 40
0.003000
 41
0.003000
  0
VERTEX
  8
PLAN_1
 62
     5
  6
CONTINUOUS
 10
-0.388831
 20
2.550370
  0
VERTEX
  8
PLAN_1
 62
     5
  6
CONTINUOUS
 10
-0.388831
 20
2.558618
  0
SEQEND
  8
0
  0
POLYLINE
  8
PLAN_1
 62
     5
  6
CONTINUOUS
 66
     1
 40
0.003000
 41
0.003000
  0
VERTEX
  8
PLAN_1
 62
     5
  6
CONTINUOUS
 10
-0.388831
 20
2.566862
  0
VERTEX
  8
PLAN_1
 62
     5
  6
CONTINUOUS
 10
-0.388831
 20
2.575106
  0
SEQEND
  8
0
  0
POLYLINE
  8
PLAN_1
 62
     5
  6
CONTINUOUS
 66
     1
 40
0.003000
 41
0.003000
  0
VERTEX
  8
PLAN_1
 62
     5
  6
CONTINUOUS
 10
-0.388831
 20
2.583350
  0
VERTEX
  8
PLAN_1
 62
     5
  6
CONTINUOUS
 10
-0.388831
 20
2.592055
  0
SEQEND
  8
0
  0
POLYLINE
  8
PLAN_1
 62
     5
  6
CONTINUOUS
 66
     1
 40
0.003000
 41
0.003000
  0
VERTEX
  8
PLAN_1
 62
     5
  6
CONTINUOUS
 10
-0.388831
 20
2.600299
  0
VERTEX
  8
PLAN_1
 62
     5
  6
CONTINUOUS
 10
-0.388831
 20
2.608543
  0
SEQEND
  8
0
  0
POLYLINE
  8
PLAN_1
 62
     5
  6
CONTINUOUS
 66
     1
 40
0.003000
 41
0.003000
  0
VERTEX
  8
PLAN_1
 62
     5
  6
CONTINUOUS
 10
-0.388831
 20
2.616791
  0
VERTEX
  8
PLAN_1
 62
     5
  6
CONTINUOUS
 10
-0.388831
 20
2.625035
  0
SEQEND
  8
0
  0
POLYLINE
  8
PLAN_1
 62
     5
  6
CONTINUOUS
 66
     1
 40
0.003000
 41
0.003000
  0
VERTEX
  8
PLAN_1
 62
     5
  6
CONTINUOUS
 10
-0.388831
 20
2.633280
  0
VERTEX
  8
PLAN_1
 62
     5
  6
CONTINUOUS
 10
-0.388831
 20
2.641984
  0
SEQEND
  8
0
  0
POLYLINE
  8
PLAN_1
 62
     5
  6
CONTINUOUS
 66
     1
 40
0.003000
 41
0.003000
  0
VERTEX
  8
PLAN_1
 62
     5
  6
CONTINUOUS
 10
-0.388831
 20
2.650228
  0
VERTEX
  8
PLAN_1
 62
     5
  6
CONTINUOUS
 10
-0.388831
 20
2.658472
  0
SEQEND
  8
0
  0
POLYLINE
  8
PLAN_1
 62
     5
  6
CONTINUOUS
 66
     1
 40
0.003000
 41
0.003000
  0
VERTEX
  8
PLAN_1
 62
     5
  6
CONTINUOUS
 10
-0.388831
 20
2.666720
  0
VERTEX
  8
PLAN_1
 62
     5
  6
CONTINUOUS
 10
-0.388831
 20
2.674965
  0
SEQEND
  8
0
  0
POLYLINE
  8
PLAN_1
 62
     5
  6
CONTINUOUS
 66
     1
 40
0.003000
 41
0.003000
  0
VERTEX
  8
PLAN_1
 62
     5
  6
CONTINUOUS
 10
-0.388831
 20
2.683665
  0
VERTEX
  8
PLAN_1
 62
     5
  6
CONTINUOUS
 10
-0.388831
 20
2.691913
  0
SEQEND
  8
0
  0
POLYLINE
  8
PLAN_1
 62
     5
  6
CONTINUOUS
 66
     1
 40
0.003000
 41
0.003000
  0
VERTEX
  8
PLAN_1
 62
     5
  6
CONTINUOUS
 10
-0.388831
 20
2.700157
  0
VERTEX
  8
PLAN_1
 62
     5
  6
CONTINUOUS
 10
-0.388831
 20
2.708402
  0
SEQEND
  8
0
  0
POLYLINE
  8
PLAN_1
 62
     5
  6
CONTINUOUS
 66
     1
 40
0.003000
 41
0.003000
  0
VERTEX
  8
PLAN_1
 62
     5
  6
CONTINUOUS
 10
-0.388831
 20
2.716646
  0
VERTEX
  8
PLAN_1
 62
     5
  6
CONTINUOUS
 10
-0.388831
 20
2.725350
  0
SEQEND
  8
0
  0
POLYLINE
  8
PLAN_1
 62
     5
  6
CONTINUOUS
 66
     1
 40
0.003000
 41
0.003000
  0
VERTEX
  8
PLAN_1
 62
     5
  6
CONTINUOUS
 10
-0.388831
 20
2.733594
  0
VERTEX
  8
PLAN_1
 62
     5
  6
CONTINUOUS
 10
-0.388831
 20
2.741843
  0
SEQEND
  8
0
  0
POLYLINE
  8
PLAN_1
 62
     5
  6
CONTINUOUS
 66
     1
 40
0.003000
 41
0.003000
  0
VERTEX
  8
PLAN_1
 62
     5
  6
CONTINUOUS
 10
-0.388831
 20
2.750087
  0
VERTEX
  8
PLAN_1
 62
     5
  6
CONTINUOUS
 10
-0.388831
 20
2.758331
  0
SEQEND
  8
0
  0
POLYLINE
  8
PLAN_1
 62
     5
  6
CONTINUOUS
 66
     1
 40
0.003000
 41
0.003000
  0
VERTEX
  8
PLAN_1
 62
     5
  6
CONTINUOUS
 10
-0.388831
 20
2.766575
  0
VERTEX
  8
PLAN_1
 62
     5
  6
CONTINUOUS
 10
-0.388831
 20
2.775280
  0
SEQEND
  8
0
  0
POLYLINE
  8
PLAN_1
 62
     5
  6
CONTINUOUS
 66
     1
 40
0.003000
 41
0.003000
  0
VERTEX
  8
PLAN_1
 62
     5
  6
CONTINUOUS
 10
-0.388831
 20
2.783524
  0
VERTEX
  8
PLAN_1
 62
     5
  6
CONTINUOUS
 10
-0.388831
 20
2.791768
  0
SEQEND
  8
0
  0
POLYLINE
  8
PLAN_1
 62
     5
  6
CONTINUOUS
 66
     1
 40
0.003000
 41
0.003000
  0
VERTEX
  8
PLAN_1
 62
     5
  6
CONTINUOUS
 10
-0.388831
 20
2.800016
  0
VERTEX
  8
PLAN_1
 62
     5
  6
CONTINUOUS
 10
-0.388831
 20
2.808260
  0
SEQEND
  8
0
  0
POLYLINE
  8
PLAN_1
 62
     5
  6
CONTINUOUS
 66
     1
 40
0.003000
 41
0.003000
  0
VERTEX
  8
PLAN_1
 62
     5
  6
CONTINUOUS
 10
-0.388831
 20
2.816961
  0
VERTEX
  8
PLAN_1
 62
     5
  6
CONTINUOUS
 10
-0.388831
 20
2.825209
  0
SEQEND
  8
0
  0
POLYLINE
  8
PLAN_1
 62
     5
  6
CONTINUOUS
 66
     1
 40
0.003000
 41
0.003000
  0
VERTEX
  8
PLAN_1
 62
     5
  6
CONTINUOUS
 10
-0.388831
 20
2.833453
  0
VERTEX
  8
PLAN_1
 62
     5
  6
CONTINUOUS
 10
-0.388831
 20
2.841697
  0
SEQEND
  8
0
  0
POLYLINE
  8
PLAN_1
 62
     5
  6
CONTINUOUS
 66
     1
 40
0.003000
 41
0.003000
  0
VERTEX
  8
PLAN_1
 62
     5
  6
CONTINUOUS
 10
-0.388831
 20
2.849941
  0
VERTEX
  8
PLAN_1
 62
     5
  6
CONTINUOUS
 10
-0.388831
 20
2.858189
  0
SEQEND
  8
0
  0
POLYLINE
  8
PLAN_1
 62
     5
  6
CONTINUOUS
 66
     1
 40
0.003000
 41
0.003000
  0
VERTEX
  8
PLAN_1
 62
     5
  6
CONTINUOUS
 10
-0.388831
 20
2.866890
  0
VERTEX
  8
PLAN_1
 62
     5
  6
CONTINUOUS
 10
-0.388831
 20
2.875138
  0
SEQEND
  8
0
  0
POLYLINE
  8
PLAN_1
 62
     5
  6
CONTINUOUS
 66
     1
 40
0.003000
 41
0.003000
  0
VERTEX
  8
PLAN_1
 62
     5
  6
CONTINUOUS
 10
-0.388831
 20
2.883382
  0
VERTEX
  8
PLAN_1
 62
     5
  6
CONTINUOUS
 10
-0.388831
 20
2.891626
  0
SEQEND
  8
0
  0
POLYLINE
  8
PLAN_1
 62
     5
  6
CONTINUOUS
 66
     1
 40
0.003000
 41
0.003000
  0
VERTEX
  8
PLAN_1
 62
     5
  6
CONTINUOUS
 10
-0.388831
 20
2.899870
  0
VERTEX
  8
PLAN_1
 62
     5
  6
CONTINUOUS
 10
-0.388831
 20
2.908575
  0
SEQEND
  8
0
  0
POLYLINE
  8
PLAN_1
 62
     5
  6
CONTINUOUS
 66
     1
 40
0.003000
 41
0.003000
  0
VERTEX
  8
PLAN_1
 62
     5
  6
CONTINUOUS
 10
-0.388831
 20
2.916819
  0
VERTEX
  8
PLAN_1
 62
     5
  6
CONTINUOUS
 10
-0.388831
 20
2.925063
  0
SEQEND
  8
0
  0
POLYLINE
  8
PLAN_1
 62
     5
  6
CONTINUOUS
 66
     1
 40
0.003000
 41
0.003000
  0
VERTEX
  8
PLAN_1
 62
     5
  6
CONTINUOUS
 10
-0.388831
 20
2.933311
  0
VERTEX
  8
PLAN_1
 62
     5
  6
CONTINUOUS
 10
-0.388831
 20
2.941555
  0
SEQEND
  8
0
  0
POLYLINE
  8
PLAN_1
 62
     5
  6
CONTINUOUS
 66
     1
 40
0.003000
 41
0.003000
  0
VERTEX
  8
PLAN_1
 62
     5
  6
CONTINUOUS
 10
-0.388831
 20
2.949799
  0
VERTEX
  8
PLAN_1
 62
     5
  6
CONTINUOUS
 10
-0.388831
 20
2.958504
  0
SEQEND
  8
0
  0
POLYLINE
  8
PLAN_1
 62
     5
  6
CONTINUOUS
 66
     1
 40
0.003000
 41
0.003000
  0
VERTEX
  8
PLAN_1
 62
     5
  6
CONTINUOUS
 10
-0.388831
 20
2.966748
  0
VERTEX
  8
PLAN_1
 62
     5
  6
CONTINUOUS
 10
-0.388831
 20
2.974992
  0
SEQEND
  8
0
  0
POLYLINE
  8
PLAN_1
 62
     5
  6
CONTINUOUS
 66
     1
 40
0.003000
 41
0.003000
  0
VERTEX
  8
PLAN_1
 62
     5
  6
CONTINUOUS
 10
-0.388831
 20
2.983240
  0
VERTEX
  8
PLAN_1
 62
     5
  6
CONTINUOUS
 10
-0.388831
 20
2.991484
  0
SEQEND
  8
0
  0
POLYLINE
  8
PLAN_1
 62
     5
  6
CONTINUOUS
 66
     1
 40
0.003000
 41
0.003000
  0
VERTEX
  8
PLAN_1
 62
     5
  6
CONTINUOUS
 10
-0.388831
 20
3.000185
  0
VERTEX
  8
PLAN_1
 62
     5
  6
CONTINUOUS
 10
-0.388831
 20
3.008433
  0
SEQEND
  8
0
  0
POLYLINE
  8
PLAN_1
 62
     5
  6
CONTINUOUS
 66
     1
 40
0.003000
 41
0.003000
  0
VERTEX
  8
PLAN_1
 62
     5
  6
CONTINUOUS
 10
-0.388831
 20
3.016677
  0
VERTEX
  8
PLAN_1
 62
     5
  6
CONTINUOUS
 10
-0.388831
 20
3.024921
  0
SEQEND
  8
0
  0
POLYLINE
  8
PLAN_1
 62
     5
  6
CONTINUOUS
 66
     1
 40
0.003000
 41
0.003000
  0
VERTEX
  8
PLAN_1
 62
     5
  6
CONTINUOUS
 10
-0.388831
 20
3.033165
  0
VERTEX
  8
PLAN_1
 62
     5
  6
CONTINUOUS
 10
-0.388831
 20
3.041413
  0
SEQEND
  8
0
  0
POLYLINE
  8
PLAN_1
 62
     5
  6
CONTINUOUS
 66
     1
 40
0.003000
 41
0.003000
  0
VERTEX
  8
PLAN_1
 62
     5
  6
CONTINUOUS
 10
-0.388831
 20
3.050114
  0
VERTEX
  8
PLAN_1
 62
     5
  6
CONTINUOUS
 10
-0.388831
 20
3.058362
  0
SEQEND
  8
0
  0
POLYLINE
  8
PLAN_1
 62
     5
  6
CONTINUOUS
 66
     1
 40
0.003000
 41
0.003000
  0
VERTEX
  8
PLAN_1
 62
     5
  6
CONTINUOUS
 10
-0.388831
 20
3.066606
  0
VERTEX
  8
PLAN_1
 62
     5
  6
CONTINUOUS
 10
-0.388831
 20
3.074850
  0
SEQEND
  8
0
  0
POLYLINE
  8
PLAN_1
 62
     5
  6
CONTINUOUS
 66
     1
 40
0.003000
 41
0.003000
  0
VERTEX
  8
PLAN_1
 62
     5
  6
CONTINUOUS
 10
-0.388831
 20
3.083094
  0
VERTEX
  8
PLAN_1
 62
     5
  6
CONTINUOUS
 10
-0.388831
 20
3.091799
  0
SEQEND
  8
0
  0
POLYLINE
  8
PLAN_1
 62
     5
  6
CONTINUOUS
 66
     1
 40
0.003000
 41
0.003000
  0
VERTEX
  8
PLAN_1
 62
     5
  6
CONTINUOUS
 10
-0.388831
 20
3.100043
  0
VERTEX
  8
PLAN_1
 62
     5
  6
CONTINUOUS
 10
-0.388831
 20
3.108287
  0
SEQEND
  8
0
  0
POLYLINE
  8
PLAN_1
 62
     5
  6
CONTINUOUS
 66
     1
 40
0.003000
 41
0.003000
  0
VERTEX
  8
PLAN_1
 62
     5
  6
CONTINUOUS
 10
-0.388831
 20
3.116535
  0
VERTEX
  8
PLAN_1
 62
     5
  6
CONTINUOUS
 10
-0.388831
 20
3.124780
  0
SEQEND
  8
0
  0
POLYLINE
  8
PLAN_1
 62
     5
  6
CONTINUOUS
 66
     1
 40
0.003000
 41
0.003000
  0
VERTEX
  8
PLAN_1
 62
     5
  6
CONTINUOUS
 10
-0.388831
 20
3.133024
  0
VERTEX
  8
PLAN_1
 62
     5
  6
CONTINUOUS
 10
-0.388831
 20
3.141728
  0
SEQEND
  8
0
  0
POLYLINE
  8
PLAN_1
 62
     5
  6
CONTINUOUS
 66
     1
 40
0.003000
 41
0.003000
  0
VERTEX
  8
PLAN_1
 62
     5
  6
CONTINUOUS
 10
-0.388831
 20
3.149972
  0
VERTEX
  8
PLAN_1
 62
     5
  6
CONTINUOUS
 10
-0.388831
 20
3.158217
  0
SEQEND
  8
0
  0
POLYLINE
  8
PLAN_1
 62
     5
  6
CONTINUOUS
 66
     1
 40
0.003000
 41
0.003000
  0
VERTEX
  8
PLAN_1
 62
     5
  6
CONTINUOUS
 10
-0.388831
 20
3.166461
  0
VERTEX
  8
PLAN_1
 62
     5
  6
CONTINUOUS
 10
-0.388831
 20
3.174709
  0
SEQEND
  8
0
  0
POLYLINE
  8
PLAN_1
 62
     5
  6
CONTINUOUS
 66
     1
 40
0.003000
 41
0.003000
  0
VERTEX
  8
PLAN_1
 62
     5
  6
CONTINUOUS
 10
-0.388831
 20
3.183409
  0
VERTEX
  8
PLAN_1
 62
     5
  6
CONTINUOUS
 10
-0.388831
 20
3.191657
  0
SEQEND
  8
0
  0
POLYLINE
  8
PLAN_1
 62
     5
  6
CONTINUOUS
 66
     1
 40
0.003000
 41
0.003000
  0
VERTEX
  8
PLAN_1
 62
     5
  6
CONTINUOUS
 10
-0.388831
 20
3.199902
  0
VERTEX
  8
PLAN_1
 62
     5
  6
CONTINUOUS
 10
-0.388831
 20
3.208146
  0
SEQEND
  8
0
  0
POLYLINE
  8
PLAN_1
 62
     5
  6
CONTINUOUS
 66
     1
 40
0.003000
 41
0.003000
  0
VERTEX
  8
PLAN_1
 62
     5
  6
CONTINUOUS
 10
-0.388831
 20
3.216390
  0
VERTEX
  8
PLAN_1
 62
     5
  6
CONTINUOUS
 10
-0.388831
 20
3.224638
  0
SEQEND
  8
0
  0
POLYLINE
  8
PLAN_1
 62
     5
  6
CONTINUOUS
 66
     1
 40
0.003000
 41
0.003000
  0
VERTEX
  8
PLAN_1
 62
     5
  6
CONTINUOUS
 10
-0.388831
 20
3.233339
  0
VERTEX
  8
PLAN_1
 62
     5
  6
CONTINUOUS
 10
-0.388831
 20
3.241583
  0
SEQEND
  8
0
  0
POLYLINE
  8
PLAN_1
 62
     5
  6
CONTINUOUS
 66
     1
 40
0.003000
 41
0.003000
  0
VERTEX
  8
PLAN_1
 62
     5
  6
CONTINUOUS
 10
-0.388831
 20
3.249831
  0
VERTEX
  8
PLAN_1
 62
     5
  6
CONTINUOUS
 10
-0.388831
 20
3.258075
  0
SEQEND
  8
0
  0
POLYLINE
  8
PLAN_1
 62
     5
  6
CONTINUOUS
 66
     1
 40
0.003000
 41
0.003000
  0
VERTEX
  8
PLAN_1
 62
     5
  6
CONTINUOUS
 10
-0.388831
 20
3.266319
  0
VERTEX
  8
PLAN_1
 62
     5
  6
CONTINUOUS
 10
-0.388831
 20
3.275024
  0
SEQEND
  8
0
  0
POLYLINE
  8
PLAN_1
 62
     5
  6
CONTINUOUS
 66
     1
 40
0.003000
 41
0.003000
  0
VERTEX
  8
PLAN_1
 62
     5
  6
CONTINUOUS
 10
-0.388831
 20
3.283268
  0
VERTEX
  8
PLAN_1
 62
     5
  6
CONTINUOUS
 10
-0.388831
 20
3.291512
  0
SEQEND
  8
0
  0
POLYLINE
  8
PLAN_1
 62
     5
  6
CONTINUOUS
 66
     1
 40
0.003000
 41
0.003000
  0
VERTEX
  8
PLAN_1
 62
     5
  6
CONTINUOUS
 10
-0.388831
 20
3.299760
  0
VERTEX
  8
PLAN_1
 62
     5
  6
CONTINUOUS
 10
-0.388831
 20
3.308004
  0
SEQEND
  8
0
  0
POLYLINE
  8
PLAN_1
 62
     5
  6
CONTINUOUS
 66
     1
 40
0.003000
 41
0.003000
  0
VERTEX
  8
PLAN_1
 62
     5
  6
CONTINUOUS
 10
-0.388831
 20
3.316248
  0
VERTEX
  8
PLAN_1
 62
     5
  6
CONTINUOUS
 10
-0.388831
 20
3.324953
  0
SEQEND
  8
0
  0
POLYLINE
  8
PLAN_1
 62
     5
  6
CONTINUOUS
 66
     1
 40
0.003000
 41
0.003000
  0
VERTEX
  8
PLAN_1
 62
     5
  6
CONTINUOUS
 10
-0.388831
 20
3.333197
  0
VERTEX
  8
PLAN_1
 62
     5
  6
CONTINUOUS
 10
-0.388831
 20
3.341441
  0
SEQEND
  8
0
  0
POLYLINE
  8
PLAN_1
 62
     5
  6
CONTINUOUS
 66
     1
 40
0.003000
 41
0.003000
  0
VERTEX
  8
PLAN_1
 62
     5
  6
CONTINUOUS
 10
-0.388831
 20
3.349685
  0
VERTEX
  8
PLAN_1
 62
     5
  6
CONTINUOUS
 10
-0.388831
 20
3.357933
  0
SEQEND
  8
0
  0
POLYLINE
  8
PLAN_1
 62
     2
  6
CONTINUOUS
 66
     1
 40
0.004122
 41
0.004122
  0
VERTEX
  8
PLAN_1
 62
     2
  6
CONTINUOUS
 10
-2.450102
 20
0.526661
  0
VERTEX
  8
PLAN_1
 62
     2
  6
CONTINUOUS
 10
0.009681
 20
0.526661
  0
SEQEND
  8
0
  0
SOLID
  8
PLAN_1
 62
     2
 10
0.039453
 20
0.526661
 11
-0.019634
 21
0.542236
 12
0.039453
 22
0.526661
 13
-0.019634
 23
0.510630
  0
POLYLINE
  8
PLAN_1
 62
     2
  6
CONTINUOUS
 66
     1
 40
0.003000
 41
0.003000
  0
VERTEX
  8
PLAN_1
 62
     2
  6
CONTINUOUS
 10
0.039453
 20
0.526661
  0
VERTEX
  8
PLAN_1
 62
     2
  6
CONTINUOUS
 10
-0.019634
 20
0.542236
  0
VERTEX
  8
PLAN_1
 62
     2
  6
CONTINUOUS
 10
-0.019634
 20
0.510630
  0
VERTEX
  8
PLAN_1
 62
     2
  6
CONTINUOUS
 10
0.039453
 20
0.526661
  0
SEQEND
  8
0
  0
SOLID
  8
PLAN_1
 62
     2
 10
-2.479421
 20
0.526661
 11
-2.420331
 21
0.542236
 12
-2.479421
 22
0.526661
 13
-2.420331
 23
0.510630
  0
POLYLINE
  8
PLAN_1
 62
     2
  6
CONTINUOUS
 66
     1
 40
0.003000
 41
0.003000
  0
VERTEX
  8
PLAN_1
 62
     2
  6
CONTINUOUS
 10
-2.479421
 20
0.526661
  0
VERTEX
  8
PLAN_1
 62
     2
  6
CONTINUOUS
 10
-2.420331
 20
0.542236
  0
VERTEX
  8
PLAN_1
 62
     2
  6
CONTINUOUS
 10
-2.420331
 20
0.510630
  0
VERTEX
  8
PLAN_1
 62
     2
  6
CONTINUOUS
 10
-2.479421
 20
0.526661
  0
SEQEND
  8
0
  0
POLYLINE
  8
PLAN_1
 62
     2
  6
CONTINUOUS
 66
     1
 40
0.004122
 41
0.004122
  0
VERTEX
  8
PLAN_1
 62
     2
  6
CONTINUOUS
 10
-2.479878
 20
0.683776
  0
VERTEX
  8
PLAN_1
 62
     2
  6
CONTINUOUS
 10
0.009224
 20
0.683776
  0
SEQEND
  8
0
  0
SOLID
  8
PLAN_1
 62
     2
 10
-0.388831
 20
0.683776
 11
-0.447921
 21
0.699807
 12
-0.388831
 22
0.683776
 13
-0.447921
 23
0.668201
  0
POLYLINE
  8
PLAN_1
 62
     2
  6
CONTINUOUS
 66
     1
 40
0.003000
 41
0.003000
  0
VERTEX
  8
PLAN_1
 62
     2
  6
CONTINUOUS
 10
-0.388831
 20
0.683776
  0
VERTEX
  8
PLAN_1
 62
     2
  6
CONTINUOUS
 10
-0.447921
 20
0.699807
  0
VERTEX
  8
PLAN_1
 62
     2
  6
CONTINUOUS
 10
-0.447921
 20
0.668201
  0
VERTEX
  8
PLAN_1
 62
     2
  6
CONTINUOUS
 10
-0.388831
 20
0.683776
  0
SEQEND
  8
0
  0
SOLID
  8
PLAN_1
 62
     2
 10
0.038539
 20
0.683776
 11
-0.020551
 21
0.699807
 12
0.038539
 22
0.683776
 13
-0.020551
 23
0.668201
  0
POLYLINE
  8
PLAN_1
 62
     2
  6
CONTINUOUS
 66
     1
 40
0.003000
 41
0.003000
  0
VERTEX
  8
PLAN_1
 62
     2
  6
CONTINUOUS
 10
0.038539
 20
0.683776
  0
VERTEX
  8
PLAN_1
 62
     2
  6
CONTINUOUS
 10
-0.020551
 20
0.699807
  0
VERTEX
  8
PLAN_1
 62
     2
  6
CONTINUOUS
 10
-0.020551
 20
0.668201
  0
VERTEX
  8
PLAN_1
 62
     2
  6
CONTINUOUS
 10
0.038539
 20
0.683776
  0
SEQEND
  8
0
  0
SOLID
  8
PLAN_1
 62
     2
 10
-2.049760
 20
0.683776
 11
-2.108850
 21
0.699807
 12
-2.049760
 22
0.683776
 13
-2.108850
 23
0.668201
  0
POLYLINE
  8
PLAN_1
 62
     2
  6
CONTINUOUS
 66
     1
 40
0.003000
 41
0.003000
  0
VERTEX
  8
PLAN_1
 62
     2
  6
CONTINUOUS
 10
-2.049760
 20
0.683776
  0
VERTEX
  8
PLAN_1
 62
     2
  6
CONTINUOUS
 10
-2.108850
 20
0.699807
  0
VERTEX
  8
PLAN_1
 62
     2
  6
CONTINUOUS
 10
-2.108850
 20
0.668201
  0
VERTEX
  8
PLAN_1
 62
     2
  6
CONTINUOUS
 10
-2.049760
 20
0.683776
  0
SEQEND
  8
0
  0
SOLID
  8
PLAN_1
 62
     2
 10
-2.049760
 20
0.683776
 11
-1.991126
 21
0.699807
 12
-2.049760
 22
0.683776
 13
-1.991126
 23
0.668201
  0
POLYLINE
  8
PLAN_1
 62
     2
  6
CONTINUOUS
 66
     1
 40
0.003000
 41
0.003000
  0
VERTEX
  8
PLAN_1
 62
     2
  6
CONTINUOUS
 10
-2.049760
 20
0.683776
  0
VERTEX
  8
PLAN_1
 62
     2
  6
CONTINUOUS
 10
-1.991126
 20
0.699807
  0
VERTEX
  8
PLAN_1
 62
     2
  6
CONTINUOUS
 10
-1.991126
 20
0.668201
  0
VERTEX
  8
PLAN_1
 62
     2
  6
CONTINUOUS
 10
-2.049760
 20
0.683776
  0
SEQEND
  8
0
  0
SOLID
  8
PLAN_1
 62
     2
 10
-2.479878
 20
0.683776
 11
-2.420787
 21
0.699807
 12
-2.479878
 22
0.683776
 13
-2.420787
 23
0.668201
  0
POLYLINE
  8
PLAN_1
 62
     2
  6
CONTINUOUS
 66
     1
 40
0.003000
 41
0.003000
  0
VERTEX
  8
PLAN_1
 62
     2
  6
CONTINUOUS
 10
-2.479878
 20
0.683776
  0
VERTEX
  8
PLAN_1
 62
     2
  6
CONTINUOUS
 10
-2.420787
 20
0.699807
  0
VERTEX
  8
PLAN_1
 62
     2
  6
CONTINUOUS
 10
-2.420787
 20
0.668201
  0
VERTEX
  8
PLAN_1
 62
     2
  6
CONTINUOUS
 10
-2.479878
 20
0.683776
  0
SEQEND
  8
0
  0
SOLID
  8
PLAN_1
 62
     2
 10
-0.388831
 20
0.683776
 11
-0.329744
 21
0.699807
 12
-0.388831
 22
0.683776
 13
-0.329744
 23
0.668201
  0
POLYLINE
  8
PLAN_1
 62
     2
  6
CONTINUOUS
 66
     1
 40
0.003000
 41
0.003000
  0
VERTEX
  8
PLAN_1
 62
     2
  6
CONTINUOUS
 10
-0.388831
 20
0.683776
  0
VERTEX
  8
PLAN_1
 62
     2
  6
CONTINUOUS
 10
-0.329744
 20
0.699807
  0
VERTEX
  8
PLAN_1
 62
     2
  6
CONTINUOUS
 10
-0.329744
 20
0.668201
  0
VERTEX
  8
PLAN_1
 62
     2
  6
CONTINUOUS
 10
-0.388831
 20
0.683776
  0
SEQEND
  8
0
  0
POLYLINE
  8
PLAN_1
 62
     2
  6
CONTINUOUS
 66
     1
 40
0.003000
 41
0.003000
  0
VERTEX
  8
PLAN_1
 62
     2
  6
CONTINUOUS
 10
-1.191354
 20
0.725461
  0
VERTEX
  8
PLAN_1
 62
     2
  6
CONTINUOUS
 10
-1.191354
 20
0.707594
  0
VERTEX
  8
PLAN_1
 62
     2
  6
CONTINUOUS
 10
-1.200516
 20
0.707594
  0
VERTEX
  8
PLAN_1
 62
     2
  6
CONTINUOUS
 10
-1.200516
 20
0.725461
  0
VERTEX
  8
PLAN_1
 62
     2
  6
CONTINUOUS
 10
-1.232579
 20
0.725461
  0
VERTEX
  8
PLAN_1
 62
     2
  6
CONTINUOUS
 10
-1.232579
 20
0.734161
  0
VERTEX
  8
PLAN_1
 62
     2
  6
CONTINUOUS
 10
-1.198681
 20
0.780886
  0
VERTEX
  8
PLAN_1
 62
     2
  6
CONTINUOUS
 10
-1.191354
 20
0.780886
  0
VERTEX
  8
PLAN_1
 62
     2
  6
CONTINUOUS
 10
-1.191354
 20
0.733244
  0
VERTEX
  8
PLAN_1
 62
     2
  6
CONTINUOUS
 10
-1.180362
 20
0.733244
  0
VERTEX
  8
PLAN_1
 62
     2
  6
CONTINUOUS
 10
-1.180362
 20
0.725461
  0
VERTEX
  8
PLAN_1
 62
     2
  6
CONTINUOUS
 10
-1.191354
 20
0.725461
  0
SEQEND
  8
0
  0
SOLID
  8
PLAN_1
 62
     2
 10
-1.223874
 20
0.733244
 11
-1.200516
 21
0.733244
 12
-1.223874
 22
0.733244
 13
-1.200516
 23
0.766224
  0
POLYLINE
  8
PLAN_1
 62
     2
  6
CONTINUOUS
 66
     1
 40
0.003000
 41
0.003000
  0
VERTEX
  8
PLAN_1
 62
     2
  6
CONTINUOUS
 10
-1.223874
 20
0.733244
  0
VERTEX
  8
PLAN_1
 62
     2
  6
CONTINUOUS
 10
-1.200516
 20
0.733244
  0
VERTEX
  8
PLAN_1
 62
     2
  6
CONTINUOUS
 10
-1.200516
 20
0.766224
  0
VERTEX
  8
PLAN_1
 62
     2
  6
CONTINUOUS
 10
-1.223874
 20
0.733244
  0
SEQEND
  8
0
  0
POLYLINE
  8
PLAN_1
 62
     2
  6
CONTINUOUS
 66
     1
 40
0.003000
 41
0.003000
  0
VERTEX
  8
PLAN_1
 62
     2
  6
CONTINUOUS
 10
-1.139594
 20
0.707594
  0
VERTEX
  8
PLAN_1
 62
     2
  6
CONTINUOUS
 10
-1.149669
 20
0.707594
  0
VERTEX
  8
PLAN_1
 62
     2
  6
CONTINUOUS
 10
-1.149669
 20
0.759354
  0
VERTEX
  8
PLAN_1
 62
     2
  6
CONTINUOUS
 10
-1.166618
 20
0.759354
  0
VERTEX
  8
PLAN_1
 62
     2
  6
CONTINUOUS
 10
-1.166618
 20
0.766685
  0
VERTEX
  8
PLAN_1
 62
     2
  6
CONTINUOUS
 10
-1.162496
 20
0.767142
  0
VERTEX
  8
PLAN_1
 62
     2
  6
CONTINUOUS
 10
-1.158831
 20
0.767602
  0
VERTEX
  8
PLAN_1
 62
     2
  6
CONTINUOUS
 10
-1.156083
 20
0.768516
  0
VERTEX
  8
PLAN_1
 62
     2
  6
CONTINUOUS
 10
-1.153335
 20
0.769433
  0
VERTEX
  8
PLAN_1
 62
     2
  6
CONTINUOUS
 10
-1.151504
 20
0.771264
  0
VERTEX
  8
PLAN_1
 62
     2
  6
CONTINUOUS
 10
-1.149669
 20
0.773555
  0
VERTEX
  8
PLAN_1
 62
     2
  6
CONTINUOUS
 10
-1.148295
 20
0.776760
  0
VERTEX
  8
PLAN_1
 62
     2
  6
CONTINUOUS
 10
-1.146921
 20
0.780886
  0
VERTEX
  8
PLAN_1
 62
     2
  6
CONTINUOUS
 10
-1.139594
 20
0.780886
  0
VERTEX
  8
PLAN_1
 62
     2
  6
CONTINUOUS
 10
-1.139594
 20
0.707594
  0
SEQEND
  8
0
  0
SOLID
  8
PLAN_1
 62
     2
 10
-0.154764
 20
0.740575
 11
-0.207441
 21
0.740575
 12
-0.154764
 22
0.748362
 13
-0.207441
 23
0.748362
  0
POLYLINE
  8
PLAN_1
 62
     2
  6
CONTINUOUS
 66
     1
 40
0.003000
 41
0.003000
  0
VERTEX
  8
PLAN_1
 62
     2
  6
CONTINUOUS
 10
-0.154764
 20
0.740575
  0
VERTEX
  8
PLAN_1
 62
     2
  6
CONTINUOUS
 10
-0.207441
 20
0.740575
  0
VERTEX
  8
PLAN_1
 62
     2
  6
CONTINUOUS
 10
-0.207441
 20
0.748362
  0
VERTEX
  8
PLAN_1
 62
     2
  6
CONTINUOUS
 10
-0.154764
 20
0.748362
  0
VERTEX
  8
PLAN_1
 62
     2
  6
CONTINUOUS
 10
-0.154764
 20
0.740575
  0
SEQEND
  8
0
  0
SOLID
  8
PLAN_1
 62
     2
 10
-0.154764
 20
0.719504
 11
-0.207441
 21
0.719504
 12
-0.154764
 22
0.727291
 13
-0.207441
 23
0.727291
  0
POLYLINE
  8
PLAN_1
 62
     2
  6
CONTINUOUS
 66
     1
 40
0.003000
 41
0.003000
  0
VERTEX
  8
PLAN_1
 62
     2
  6
CONTINUOUS
 10
-0.154764
 20
0.719504
  0
VERTEX
  8
PLAN_1
 62
     2
  6
CONTINUOUS
 10
-0.207441
 20
0.719504
  0
VERTEX
  8
PLAN_1
 62
     2
  6
CONTINUOUS
 10
-0.207441
 20
0.727291
  0
VERTEX
  8
PLAN_1
 62
     2
  6
CONTINUOUS
 10
-0.154764
 20
0.727291
  0
VERTEX
  8
PLAN_1
 62
     2
  6
CONTINUOUS
 10
-0.154764
 20
0.719504
  0
SEQEND
  8
0
  0
SOLID
  8
PLAN_1
 62
     2
 10
-2.246268
 20
0.740575
 11
-2.298945
 21
0.740575
 12
-2.246268
 22
0.748362
 13
-2.298945
 23
0.748362
  0
POLYLINE
  8
PLAN_1
 62
     2
  6
CONTINUOUS
 66
     1
 40
0.003000
 41
0.003000
  0
VERTEX
  8
PLAN_1
 62
     2
  6
CONTINUOUS
 10
-2.246268
 20
0.740575
  0
VERTEX
  8
PLAN_1
 62
     2
  6
CONTINUOUS
 10
-2.298945
 20
0.740575
  0
VERTEX
  8
PLAN_1
 62
     2
  6
CONTINUOUS
 10
-2.298945
 20
0.748362
  0
VERTEX
  8
PLAN_1
 62
     2
  6
CONTINUOUS
 10
-2.246268
 20
0.748362
  0
VERTEX
  8
PLAN_1
 62
     2
  6
CONTINUOUS
 10
-2.246268
 20
0.740575
  0
SEQEND
  8
0
  0
SOLID
  8
PLAN_1
 62
     2
 10
-2.246268
 20
0.719504
 11
-2.298945
 21
0.719504
 12
-2.246268
 22
0.727291
 13
-2.298945
 23
0.727291
  0
POLYLINE
  8
PLAN_1
 62
     2
  6
CONTINUOUS
 66
     1
 40
0.003000
 41
0.003000
  0
VERTEX
  8
PLAN_1
 62
     2
  6
CONTINUOUS
 10
-2.246268
 20
0.719504
  0
VERTEX
  8
PLAN_1
 62
     2
  6
CONTINUOUS
 10
-2.298945
 20
0.719504
  0
VERTEX
  8
PLAN_1
 62
     2
  6
CONTINUOUS
 10
-2.298945
 20
0.727291
  0
VERTEX
  8
PLAN_1
 62
     2
  6
CONTINUOUS
 10
-2.246268
 20
0.727291
  0
VERTEX
  8
PLAN_1
 62
     2
  6
CONTINUOUS
 10
-2.246268
 20
0.719504
  0
SEQEND
  8
0
  0
POLYLINE
  8
PLAN_1
 62
     2
  6
CONTINUOUS
 66
     1
 40
0.004122
 41
0.004122
  0
VERTEX
  8
PLAN_1
 62
     2
  6
CONTINUOUS
 10
0.195654
 20
0.869291
  0
VERTEX
  8
PLAN_1
 62
     2
  6
CONTINUOUS
 10
0.195654
 20
3.194406
  0
SEQEND
  8
0
  0
SOLID
  8
PLAN_1
 62
     2
 10
0.195654
 20
3.223720
 11
0.180079
 21
3.164630
 12
0.195654
 22
3.223720
 13
0.211228
 23
3.164630
  0
POLYLINE
  8
PLAN_1
 62
     2
  6
CONTINUOUS
 66
     1
 40
0.003000
 41
0.003000
  0
VERTEX
  8
PLAN_1
 62
     2
  6
CONTINUOUS
 10
0.195654
 20
3.223720
  0
VERTEX
  8
PLAN_1
 62
     2
  6
CONTINUOUS
 10
0.180079
 20
3.164630
  0
VERTEX
  8
PLAN_1
 62
     2
  6
CONTINUOUS
 10
0.211228
 20
3.164630
  0
VERTEX
  8
PLAN_1
 62
     2
  6
CONTINUOUS
 10
0.195654
 20
3.223720
  0
SEQEND
  8
0
  0
SOLID
  8
PLAN_1
 62
     2
 10
0.195654
 20
0.839972
 11
0.180079
 21
0.899063
 12
0.195654
 22
0.839972
 13
0.211228
 23
0.899063
  0
POLYLINE
  8
PLAN_1
 62
     2
  6
CONTINUOUS
 66
     1
 40
0.003000
 41
0.003000
  0
VERTEX
  8
PLAN_1
 62
     2
  6
CONTINUOUS
 10
0.195654
 20
0.839972
  0
VERTEX
  8
PLAN_1
 62
     2
  6
CONTINUOUS
 10
0.180079
 20
0.899063
  0
VERTEX
  8
PLAN_1
 62
     2
  6
CONTINUOUS
 10
0.211228
 20
0.899063
  0
VERTEX
  8
PLAN_1
 62
     2
  6
CONTINUOUS
 10
0.195654
 20
0.839972
  0
SEQEND
  8
0
  0
POLYLINE
  8
PLAN_1
 62
     2
  6
CONTINUOUS
 66
     1
 40
0.003000
 41
0.003000
  0
VERTEX
  8
PLAN_1
 62
     2
  6
CONTINUOUS
 10
-1.706673
 20
3.635059
  0
VERTEX
  8
PLAN_1
 62
     2
  6
CONTINUOUS
 10
-1.706673
 20
3.639638
  0
VERTEX
  8
PLAN_1
 62
     2
  6
CONTINUOUS
 10
-1.706213
 20
3.643303
  0
VERTEX
  8
PLAN_1
 62
     2
  6
CONTINUOUS
 10
-1.705299
 20
3.646508
  0
VERTEX
  8
PLAN_1
 62
     2
  6
CONTINUOUS
 10
-1.703921
 20
3.649260
  0
VERTEX
  8
PLAN_1
 62
     2
  6
CONTINUOUS
 10
-1.702547
 20
3.652008
  0
VERTEX
  8
PLAN_1
 62
     2
  6
CONTINUOUS
 10
-1.700717
 20
3.653839
  0
VERTEX
  8
PLAN_1
 62
     2
  6
CONTINUOUS
 10
-1.698886
 20
3.655669
  0
VERTEX
  8
PLAN_1
 62
     2
  6
CONTINUOUS
 10
-1.697051
 20
3.657043
  0
VERTEX
  8
PLAN_1
 62
     2
  6
CONTINUOUS
 10
-1.692929
 20
3.659335
  0
VERTEX
  8
PLAN_1
 62
     2
  6
CONTINUOUS
 10
-1.688807
 20
3.660709
  0
VERTEX
  8
PLAN_1
 62
     2
  6
CONTINUOUS
 10
-1.684685
 20
3.661169
  0
VERTEX
  8
PLAN_1
 62
     2
  6
CONTINUOUS
 10
-1.681476
 20
3.661626
  0
VERTEX
  8
PLAN_1
 62
     2
  6
CONTINUOUS
 10
-1.676898
 20
3.661169
  0
VERTEX
  8
PLAN_1
 62
     2
  6
CONTINUOUS
 10
-1.672776
 20
3.659795
  0
VERTEX
  8
PLAN_1
 62
     2
  6
CONTINUOUS
 10
-1.668654
 20
3.657961
  0
VERTEX
  8
PLAN_1
 62
     2
  6
CONTINUOUS
 10
-1.665445
 20
3.655669
  0
VERTEX
  8
PLAN_1
 62
     2
  6
CONTINUOUS
 10
-1.662697
 20
3.652465
  0
VERTEX
  8
PLAN_1
 62
     2
  6
CONTINUOUS
 10
-1.660409
 20
3.648799
  0
VERTEX
  8
PLAN_1
 62
     2
  6
CONTINUOUS
 10
-1.659492
 20
3.646508
  0
VERTEX
  8
PLAN_1
 62
     2
  6
CONTINUOUS
 10
-1.659031
 20
3.644220
  0
VERTEX
  8
PLAN_1
 62
     2
  6
CONTINUOUS
 10
-1.658575
 20
3.641929
  0
VERTEX
  8
PLAN_1
 62
     2
  6
CONTINUOUS
 10
-1.658575
 20
3.639638
  0
VERTEX
  8
PLAN_1
 62
     2
  6
CONTINUOUS
 10
-1.659031
 20
3.635059
  0
VERTEX
  8
PLAN_1
 62
     2
  6
CONTINUOUS
 10
-1.659949
 20
3.630937
  0
VERTEX
  8
PLAN_1
 62
     2
  6
CONTINUOUS
 10
-1.661783
 20
3.627728
  0
VERTEX
  8
PLAN_1
 62
     2
  6
CONTINUOUS
 10
-1.664071
 20
3.624524
  0
VERTEX
  8
PLAN_1
 62
     2
  6
CONTINUOUS
 10
-1.667280
 20
3.621776
  0
VERTEX
  8
PLAN_1
 62
     2
  6
CONTINUOUS
 10
-1.670484
 20
3.619484
  0
VERTEX
  8
PLAN_1
 62
     2
  6
CONTINUOUS
 10
-1.674150
 20
3.617193
  0
VERTEX
  8
PLAN_1
 62
     2
  6
CONTINUOUS
 10
-1.678272
 20
3.615362
  0
VERTEX
  8
PLAN_1
 62
     2
  6
CONTINUOUS
 10
-1.685602
 20
3.610780
  0
VERTEX
  8
PLAN_1
 62
     2
  6
CONTINUOUS
 10
-1.689264
 20
3.608949
  0
VERTEX
  8
PLAN_1
 62
     2
  6
CONTINUOUS
 10
-1.692012
 20
3.606657
  0
VERTEX
  8
PLAN_1
 62
     2
  6
CONTINUOUS
 10
-1.693846
 20
3.604827
  0
VERTEX
  8
PLAN_1
 62
     2
  6
CONTINUOUS
 10
-1.695677
 20
3.602992
  0
VERTEX
  8
PLAN_1
 62
     2
  6
CONTINUOUS
 10
-1.697051
 20
3.601161
  0
VERTEX
  8
PLAN_1
 62
     2
  6
CONTINUOUS
 10
-1.697512
 20
3.599331
  0
VERTEX
  8
PLAN_1
 62
     2
  6
CONTINUOUS
 10
-1.697969
 20
3.597957
  0
VERTEX
  8
PLAN_1
 62
     2
  6
CONTINUOUS
 10
-1.698425
 20
3.597039
  0
VERTEX
  8
PLAN_1
 62
     2
  6
CONTINUOUS
 10
-1.658575
 20
3.597039
  0
VERTEX
  8
PLAN_1
 62
     2
  6
CONTINUOUS
 10
-1.658575
 20
3.588335
  0
VERTEX
  8
PLAN_1
 62
     2
  6
CONTINUOUS
 10
-1.708504
 20
3.588335
  0
VERTEX
  8
PLAN_1
 62
     2
  6
CONTINUOUS
 10
-1.708047
 20
3.593835
  0
VERTEX
  8
PLAN_1
 62
     2
  6
CONTINUOUS
 10
-1.707130
 20
3.598413
  0
VERTEX
  8
PLAN_1
 62
     2
  6
CONTINUOUS
 10
-1.705756
 20
3.602535
  0
VERTEX
  8
PLAN_1
 62
     2
  6
CONTINUOUS
 10
-1.703465
 20
3.606201
  0
VERTEX
  8
PLAN_1
 62
     2
  6
CONTINUOUS
 10
-1.701173
 20
3.609406
  0
VERTEX
  8
PLAN_1
 62
     2
  6
CONTINUOUS
 10
-1.698425
 20
3.612614
  0
VERTEX
  8
PLAN_1
 62
     2
  6
CONTINUOUS
 10
-1.695220
 20
3.614906
  0
VERTEX
  8
PLAN_1
 62
     2
  6
CONTINUOUS
 10
-1.691555
 20
3.617193
  0
VERTEX
  8
PLAN_1
 62
     2
  6
CONTINUOUS
 10
-1.681937
 20
3.623150
  0
VERTEX
  8
PLAN_1
 62
     2
  6
CONTINUOUS
 10
-1.679189
 20
3.624524
  0
VERTEX
  8
PLAN_1
 62
     2
  6
CONTINUOUS
 10
-1.676441
 20
3.626354
  0
VERTEX
  8
PLAN_1
 62
     2
  6
CONTINUOUS
 10
-1.674150
 20
3.627728
  0
VERTEX
  8
PLAN_1
 62
     2
  6
CONTINUOUS
 10
-1.672319
 20
3.629563
  0
VERTEX
  8
PLAN_1
 62
     2
  6
CONTINUOUS
 10
-1.670484
 20
3.631394
  0
VERTEX
  8
PLAN_1
 62
     2
  6
CONTINUOUS
 10
-1.669567
 20
3.634142
  0
VERTEX
  8
PLAN_1
 62
     2
  6
CONTINUOUS
 10
-1.668654
 20
3.636890
  0
VERTEX
  8
PLAN_1
 62
     2
  6
CONTINUOUS
 10
-1.668193
 20
3.640098
  0
VERTEX
  8
PLAN_1
 62
     2
  6
CONTINUOUS
 10
-1.668654
 20
3.642386
  0
VERTEX
  8
PLAN_1
 62
     2
  6
CONTINUOUS
 10
-1.669110
 20
3.644677
  0
VERTEX
  8
PLAN_1
 62
     2
  6
CONTINUOUS
 10
-1.670028
 20
3.646969
  0
VERTEX
  8
PLAN_1
 62
     2
  6
CONTINUOUS
 10
-1.671402
 20
3.648799
  0
VERTEX
  8
PLAN_1
 62
     2
  6
CONTINUOUS
 10
-1.673693
 20
3.650634
  0
VERTEX
  8
PLAN_1
 62
     2
  6
CONTINUOUS
 10
-1.675980
 20
3.652008
  0
VERTEX
  8
PLAN_1
 62
     2
  6
CONTINUOUS
 10
-1.679189
 20
3.652921
  0
VERTEX
  8
PLAN_1
 62
     2
  6
CONTINUOUS
 10
-1.682854
 20
3.653382
  0
VERTEX
  8
PLAN_1
 62
     2
  6
CONTINUOUS
 10
-1.685142
 20
3.652921
  0
VERTEX
  8
PLAN_1
 62
     2
  6
CONTINUOUS
 10
-1.687433
 20
3.652465
  0
VERTEX
  8
PLAN_1
 62
     2
  6
CONTINUOUS
 10
-1.689264
 20
3.652008
  0
VERTEX
  8
PLAN_1
 62
     2
  6
CONTINUOUS
 10
-1.691098
 20
3.651091
  0
VERTEX
  8
PLAN_1
 62
     2
  6
CONTINUOUS
 10
-1.693390
 20
3.648799
  0
VERTEX
  8
PLAN_1
 62
     2
  6
CONTINUOUS
 10
-1.695220
 20
3.646051
  0
VERTEX
  8
PLAN_1
 62
     2
  6
CONTINUOUS
 10
-1.696594
 20
3.643303
  0
VERTEX
  8
PLAN_1
 62
     2
  6
CONTINUOUS
 10
-1.697051
 20
3.640098
  0
VERTEX
  8
PLAN_1
 62
     2
  6
CONTINUOUS
 10
-1.697512
 20
3.637350
  0
VERTEX
  8
PLAN_1
 62
     2
  6
CONTINUOUS
 10
-1.697512
 20
3.635059
  0
VERTEX
  8
PLAN_1
 62
     2
  6
CONTINUOUS
 10
-1.706673
 20
3.635059
  0
SEQEND
  8
0
  0
POLYLINE
  8
PLAN_1
 62
     2
  6
CONTINUOUS
 66
     1
 40
0.003000
 41
0.003000
  0
VERTEX
  8
PLAN_1
 62
     2
  6
CONTINUOUS
 10
-1.606358
 20
3.635059
  0
VERTEX
  8
PLAN_1
 62
     2
  6
CONTINUOUS
 10
-1.606358
 20
3.599787
  0
VERTEX
  8
PLAN_1
 62
     2
  6
CONTINUOUS
 10
-1.606358
 20
3.598413
  0
VERTEX
  8
PLAN_1
 62
     2
  6
CONTINUOUS
 10
-1.605898
 20
3.597496
  0
VERTEX
  8
PLAN_1
 62
     2
  6
CONTINUOUS
 10
-1.605441
 20
3.596583
  0
VERTEX
  8
PLAN_1
 62
     2
  6
CONTINUOUS
 10
-1.604524
 20
3.596122
  0
VERTEX
  8
PLAN_1
 62
     2
  6
CONTINUOUS
 10
-1.603606
 20
3.595665
  0
VERTEX
  8
PLAN_1
 62
     2
  6
CONTINUOUS
 10
-1.602693
 20
3.595665
  0
VERTEX
  8
PLAN_1
 62
     2
  6
CONTINUOUS
 10
-1.601776
 20
3.595665
  0
VERTEX
  8
PLAN_1
 62
     2
  6
CONTINUOUS
 10
-1.600858
 20
3.595665
  0
VERTEX
  8
PLAN_1
 62
     2
  6
CONTINUOUS
 10
-1.597654
 20
3.595665
  0
VERTEX
  8
PLAN_1
 62
     2
  6
CONTINUOUS
 10
-1.597654
 20
3.588335
  0
VERTEX
  8
PLAN_1
 62
     2
  6
CONTINUOUS
 10
-1.599028
 20
3.588335
  0
VERTEX
  8
PLAN_1
 62
     2
  6
CONTINUOUS
 10
-1.599945
 20
3.587878
  0
VERTEX
  8
PLAN_1
 62
     2
  6
CONTINUOUS
 10
-1.601319
 20
3.587878
  0
VERTEX
  8
PLAN_1
 62
     2
  6
CONTINUOUS
 10
-1.602232
 20
3.587878
  0
VERTEX
  8
PLAN_1
 62
     2
  6
CONTINUOUS
 10
-1.603150
 20
3.587878
  0
VERTEX
  8
PLAN_1
 62
     2
  6
CONTINUOUS
 10
-1.603606
 20
3.587421
  0
VERTEX
  8
PLAN_1
 62
     2
  6
CONTINUOUS
 10
-1.604067
 20
3.587421
  0
VERTEX
  8
PLAN_1
 62
     2
  6
CONTINUOUS
 10
-1.604524
 20
3.587421
  0
VERTEX
  8
PLAN_1
 62
     2
  6
CONTINUOUS
 10
-1.607732
 20
3.587878
  0
VERTEX
  8
PLAN_1
 62
     2
  6
CONTINUOUS
 10
-1.610020
 20
3.588335
  0
VERTEX
  8
PLAN_1
 62
     2
  6
CONTINUOUS
 10
-1.612311
 20
3.589709
  0
VERTEX
  8
PLAN_1
 62
     2
  6
CONTINUOUS
 10
-1.613685
 20
3.591083
  0
VERTEX
  8
PLAN_1
 62
     2
  6
CONTINUOUS
 10
-1.614602
 20
3.592461
  0
VERTEX
  8
PLAN_1
 62
     2
  6
CONTINUOUS
 10
-1.615059
 20
3.594748
  0
VERTEX
  8
PLAN_1
 62
     2
  6
CONTINUOUS
 10
-1.615516
 20
3.597039
  0
VERTEX
  8
PLAN_1
 62
     2
  6
CONTINUOUS
 10
-1.615516
 20
3.599331
  0
VERTEX
  8
PLAN_1
 62
     2
  6
CONTINUOUS
 10
-1.615516
 20
3.635059
  0
VERTEX
  8
PLAN_1
 62
     2
  6
CONTINUOUS
 10
-1.622846
 20
3.635059
  0
VERTEX
  8
PLAN_1
 62
     2
  6
CONTINUOUS
 10
-1.622846
 20
3.642846
  0
VERTEX
  8
PLAN_1
 62
     2
  6
CONTINUOUS
 10
-1.615516
 20
3.642846
  0
VERTEX
  8
PLAN_1
 62
     2
  6
CONTINUOUS
 10
-1.615516
 20
3.657961
  0
VERTEX
  8
PLAN_1
 62
     2
  6
CONTINUOUS
 10
-1.606358
 20
3.657961
  0
VERTEX
  8
PLAN_1
 62
     2
  6
CONTINUOUS
 10
-1.606358
 20
3.642846
  0
VERTEX
  8
PLAN_1
 62
     2
  6
CONTINUOUS
 10
-1.597654
 20
3.642846
  0
VERTEX
  8
PLAN_1
 62
     2
  6
CONTINUOUS
 10
-1.597654
 20
3.635059
  0
VERTEX
  8
PLAN_1
 62
     2
  6
CONTINUOUS
 10
-1.606358
 20
3.635059
  0
SEQEND
  8
0
  0
POLYLINE
  8
PLAN_1
 62
     2
  6
CONTINUOUS
 66
     1
 40
0.003000
 41
0.003000
  0
VERTEX
  8
PLAN_1
 62
     2
  6
CONTINUOUS
 10
-1.578413
 20
3.588335
  0
VERTEX
  8
PLAN_1
 62
     2
  6
CONTINUOUS
 10
-1.587575
 20
3.588335
  0
VERTEX
  8
PLAN_1
 62
     2
  6
CONTINUOUS
 10
-1.587575
 20
3.642846
  0
VERTEX
  8
PLAN_1
 62
     2
  6
CONTINUOUS
 10
-1.578874
 20
3.642846
  0
VERTEX
  8
PLAN_1
 62
     2
  6
CONTINUOUS
 10
-1.578874
 20
3.633685
  0
VERTEX
  8
PLAN_1
 62
     2
  6
CONTINUOUS
 10
-1.577500
 20
3.635976
  0
VERTEX
  8
PLAN_1
 62
     2
  6
CONTINUOUS
 10
-1.575665
 20
3.637807
  0
VERTEX
  8
PLAN_1
 62
     2
  6
CONTINUOUS
 10
-1.574291
 20
3.639638
  0
VERTEX
  8
PLAN_1
 62
     2
  6
CONTINUOUS
 10
-1.572461
 20
3.641472
  0
VERTEX
  8
PLAN_1
 62
     2
  6
CONTINUOUS
 10
-1.570169
 20
3.642386
  0
VERTEX
  8
PLAN_1
 62
     2
  6
CONTINUOUS
 10
-1.568339
 20
3.643303
  0
VERTEX
  8
PLAN_1
 62
     2
  6
CONTINUOUS
 10
-1.566047
 20
3.644220
  0
VERTEX
  8
PLAN_1
 62
     2
  6
CONTINUOUS
 10
-1.563299
 20
3.644220
  0
VERTEX
  8
PLAN_1
 62
     2
  6
CONTINUOUS
 10
-1.562843
 20
3.644220
  0
VERTEX
  8
PLAN_1
 62
     2
  6
CONTINUOUS
 10
-1.562382
 20
3.644220
  0
VERTEX
  8
PLAN_1
 62
     2
  6
CONTINUOUS
 10
-1.561925
 20
3.644220
  0
VERTEX
  8
PLAN_1
 62
     2
  6
CONTINUOUS
 10
-1.561465
 20
3.644220
  0
VERTEX
  8
PLAN_1
 62
     2
  6
CONTINUOUS
 10
-1.561008
 20
3.643760
  0
VERTEX
  8
PLAN_1
 62
     2
  6
CONTINUOUS
 10
-1.561008
 20
3.634598
  0
VERTEX
  8
PLAN_1
 62
     2
  6
CONTINUOUS
 10
-1.564673
 20
3.634598
  0
VERTEX
  8
PLAN_1
 62
     2
  6
CONTINUOUS
 10
-1.567421
 20
3.634142
  0
VERTEX
  8
PLAN_1
 62
     2
  6
CONTINUOUS
 10
-1.570169
 20
3.633224
  0
VERTEX
  8
PLAN_1
 62
     2
  6
CONTINUOUS
 10
-1.572461
 20
3.631850
  0
VERTEX
  8
PLAN_1
 62
     2
  6
CONTINUOUS
 10
-1.574752
 20
3.630020
  0
VERTEX
  8
PLAN_1
 62
     2
  6
CONTINUOUS
 10
-1.576126
 20
3.628189
  0
VERTEX
  8
PLAN_1
 62
     2
  6
CONTINUOUS
 10
-1.577500
 20
3.625441
  0
VERTEX
  8
PLAN_1
 62
     2
  6
CONTINUOUS
 10
-1.577957
 20
3.622689
  0
VERTEX
  8
PLAN_1
 62
     2
  6
CONTINUOUS
 10
-1.578413
 20
3.619941
  0
VERTEX
  8
PLAN_1
 62
     2
  6
CONTINUOUS
 10
-1.578413
 20
3.588335
  0
SEQEND
  8
0
  0
POLYLINE
  8
PLAN_1
 62
     2
  6
CONTINUOUS
 66
     1
 40
0.003000
 41
0.003000
  0
VERTEX
  8
PLAN_1
 62
     2
  6
CONTINUOUS
 10
-1.532150
 20
3.644220
  0
VERTEX
  8
PLAN_1
 62
     2
  6
CONTINUOUS
 10
-1.528945
 20
3.644220
  0
VERTEX
  8
PLAN_1
 62
     2
  6
CONTINUOUS
 10
-1.525736
 20
3.643760
  0
VERTEX
  8
PLAN_1
 62
     2
  6
CONTINUOUS
 10
-1.523449
 20
3.642846
  0
VERTEX
  8
PLAN_1
 62
     2
  6
CONTINUOUS
 10
-1.520701
 20
3.641929
  0
VERTEX
  8
PLAN_1
 62
     2
  6
CONTINUOUS
 10
-1.518409
 20
3.640555
  0
VERTEX
  8
PLAN_1
 62
     2
  6
CONTINUOUS
 10
-1.516575
 20
3.638724
  0
VERTEX
  8
PLAN_1
 62
     2
  6
CONTINUOUS
 10
-1.514744
 20
3.637350
  0
VERTEX
  8
PLAN_1
 62
     2
  6
CONTINUOUS
 10
-1.512913
 20
3.635059
  0
VERTEX
  8
PLAN_1
 62
     2
  6
CONTINUOUS
 10
-1.511539
 20
3.633224
  0
VERTEX
  8
PLAN_1
 62
     2
  6
CONTINUOUS
 10
-1.510165
 20
3.630937
  0
VERTEX
  8
PLAN_1
 62
     2
  6
CONTINUOUS
 10
-1.509248
 20
3.628646
  0
VERTEX
  8
PLAN_1
 62
     2
  6
CONTINUOUS
 10
-1.508331
 20
3.625898
  0
VERTEX
  8
PLAN_1
 62
     2
  6
CONTINUOUS
 10
-1.506957
 20
3.620858
  0
VERTEX
  8
PLAN_1
 62
     2
  6
CONTINUOUS
 10
-1.506957
 20
3.615362
  0
VERTEX
  8
PLAN_1
 62
     2
  6
CONTINUOUS
 10
-1.506957
 20
3.610323
  0
VERTEX
  8
PLAN_1
 62
     2
  6
CONTINUOUS
 10
-1.508331
 20
3.605283
  0
VERTEX
  8
PLAN_1
 62
     2
  6
CONTINUOUS
 10
-1.509248
 20
3.602535
  0
VERTEX
  8
PLAN_1
 62
     2
  6
CONTINUOUS
 10
-1.510165
 20
3.600244
  0
VERTEX
  8
PLAN_1
 62
     2
  6
CONTINUOUS
 10
-1.511539
 20
3.597957
  0
VERTEX
  8
PLAN_1
 62
     2
  6
CONTINUOUS
 10
-1.512913
 20
3.596122
  0
VERTEX
  8
PLAN_1
 62
     2
  6
CONTINUOUS
 10
-1.514744
 20
3.593835
  0
VERTEX
  8
PLAN_1
 62
     2
  6
CONTINUOUS
 10
-1.516575
 20
3.592000
  0
VERTEX
  8
PLAN_1
 62
     2
  6
CONTINUOUS
 10
-1.518409
 20
3.590626
  0
VERTEX
  8
PLAN_1
 62
     2
  6
CONTINUOUS
 10
-1.520701
 20
3.589252
  0
VERTEX
  8
PLAN_1
 62
     2
  6
CONTINUOUS
 10
-1.523449
 20
3.588335
  0
VERTEX
  8
PLAN_1
 62
     2
  6
CONTINUOUS
 10
-1.525736
 20
3.587421
  0
VERTEX
  8
PLAN_1
 62
     2
  6
CONTINUOUS
 10
-1.528945
 20
3.586961
  0
VERTEX
  8
PLAN_1
 62
     2
  6
CONTINUOUS
 10
-1.532150
 20
3.586961
  0
VERTEX
  8
PLAN_1
 62
     2
  6
CONTINUOUS
 10
-1.535358
 20
3.586961
  0
VERTEX
  8
PLAN_1
 62
     2
  6
CONTINUOUS
 10
-1.538106
 20
3.587421
  0
VERTEX
  8
PLAN_1
 62
     2
  6
CONTINUOUS
 10
-1.540854
 20
3.588335
  0
VERTEX
  8
PLAN_1
 62
     2
  6
CONTINUOUS
 10
-1.543146
 20
3.589252
  0
VERTEX
  8
PLAN_1
 62
     2
  6
CONTINUOUS
 10
-1.545433
 20
3.590626
  0
VERTEX
  8
PLAN_1
 62
     2
  6
CONTINUOUS
 10
-1.547724
 20
3.592000
  0
VERTEX
  8
PLAN_1
 62
     2
  6
CONTINUOUS
 10
-1.549555
 20
3.593835
  0
VERTEX
  8
PLAN_1
 62
     2
  6
CONTINUOUS
 10
-1.551390
 20
3.596122
  0
VERTEX
  8
PLAN_1
 62
     2
  6
CONTINUOUS
 10
-1.552764
 20
3.597957
  0
VERTEX
  8
PLAN_1
 62
     2
  6
CONTINUOUS
 10
-1.553681
 20
3.600244
  0
VERTEX
  8
PLAN_1
 62
     2
  6
CONTINUOUS
 10
-1.555055
 20
3.602535
  0
VERTEX
  8
PLAN_1
 62
     2
  6
CONTINUOUS
 10
-1.555969
 20
3.605283
  0
VERTEX
  8
PLAN_1
 62
     2
  6
CONTINUOUS
 10
-1.556886
 20
3.610323
  0
VERTEX
  8
PLAN_1
 62
     2
  6
CONTINUOUS
 10
-1.557343
 20
3.615362
  0
VERTEX
  8
PLAN_1
 62
     2
  6
CONTINUOUS
 10
-1.556886
 20
3.620858
  0
VERTEX
  8
PLAN_1
 62
     2
  6
CONTINUOUS
 10
-1.555969
 20
3.625898
  0
VERTEX
  8
PLAN_1
 62
     2
  6
CONTINUOUS
 10
-1.555055
 20
3.628646
  0
VERTEX
  8
PLAN_1
 62
     2
  6
CONTINUOUS
 10
-1.553681
 20
3.630937
  0
VERTEX
  8
PLAN_1
 62
     2
  6
CONTINUOUS
 10
-1.552764
 20
3.633224
  0
VERTEX
  8
PLAN_1
 62
     2
  6
CONTINUOUS
 10
-1.551390
 20
3.635059
  0
VERTEX
  8
PLAN_1
 62
     2
  6
CONTINUOUS
 10
-1.549555
 20
3.637350
  0
VERTEX
  8
PLAN_1
 62
     2
  6
CONTINUOUS
 10
-1.547724
 20
3.638724
  0
VERTEX
  8
PLAN_1
 62
     2
  6
CONTINUOUS
 10
-1.545433
 20
3.640555
  0
VERTEX
  8
PLAN_1
 62
     2
  6
CONTINUOUS
 10
-1.543146
 20
3.641929
  0
VERTEX
  8
PLAN_1
 62
     2
  6
CONTINUOUS
 10
-1.540854
 20
3.642846
  0
VERTEX
  8
PLAN_1
 62
     2
  6
CONTINUOUS
 10
-1.538106
 20
3.643760
  0
VERTEX
  8
PLAN_1
 62
     2
  6
CONTINUOUS
 10
-1.535358
 20
3.644220
  0
VERTEX
  8
PLAN_1
 62
     2
  6
CONTINUOUS
 10
-1.532150
 20
3.644220
  0
SEQEND
  8
0
  0
POLYLINE
  8
PLAN_1
 62
     2
  6
CONTINUOUS
 66
     1
 40
0.003000
 41
0.003000
  0
VERTEX
  8
PLAN_1
 62
     2
  6
CONTINUOUS
 10
-1.532150
 20
3.594748
  0
VERTEX
  8
PLAN_1
 62
     2
  6
CONTINUOUS
 10
-1.529862
 20
3.594748
  0
VERTEX
  8
PLAN_1
 62
     2
  6
CONTINUOUS
 10
-1.527571
 20
3.595209
  0
VERTEX
  8
PLAN_1
 62
     2
  6
CONTINUOUS
 10
-1.525736
 20
3.596122
  0
VERTEX
  8
PLAN_1
 62
     2
  6
CONTINUOUS
 10
-1.523906
 20
3.597039
  0
VERTEX
  8
PLAN_1
 62
     2
  6
CONTINUOUS
 10
-1.521157
 20
3.599331
  0
VERTEX
  8
PLAN_1
 62
     2
  6
CONTINUOUS
 10
-1.519327
 20
3.602535
  0
VERTEX
  8
PLAN_1
 62
     2
  6
CONTINUOUS
 10
-1.517949
 20
3.605744
  0
VERTEX
  8
PLAN_1
 62
     2
  6
CONTINUOUS
 10
-1.517035
 20
3.609406
  0
VERTEX
  8
PLAN_1
 62
     2
  6
CONTINUOUS
 10
-1.516575
 20
3.612614
  0
VERTEX
  8
PLAN_1
 62
     2
  6
CONTINUOUS
 10
-1.516118
 20
3.615362
  0
VERTEX
  8
PLAN_1
 62
     2
  6
CONTINUOUS
 10
-1.516575
 20
3.618567
  0
VERTEX
  8
PLAN_1
 62
     2
  6
CONTINUOUS
 10
-1.517035
 20
3.621776
  0
VERTEX
  8
PLAN_1
 62
     2
  6
CONTINUOUS
 10
-1.517949
 20
3.625441
  0
VERTEX
  8
PLAN_1
 62
     2
  6
CONTINUOUS
 10
-1.519327
 20
3.628646
  0
VERTEX
  8
PLAN_1
 62
     2
  6
CONTINUOUS
 10
-1.521157
 20
3.631850
  0
VERTEX
  8
PLAN_1
 62
     2
  6
CONTINUOUS
 10
-1.523906
 20
3.634142
  0
VERTEX
  8
PLAN_1
 62
     2
  6
CONTINUOUS
 10
-1.525736
 20
3.635059
  0
VERTEX
  8
PLAN_1
 62
     2
  6
CONTINUOUS
 10
-1.527571
 20
3.635976
  0
VERTEX
  8
PLAN_1
 62
     2
  6
CONTINUOUS
 10
-1.529862
 20
3.636433
  0
VERTEX
  8
PLAN_1
 62
     2
  6
CONTINUOUS
 10
-1.532150
 20
3.636433
  0
VERTEX
  8
PLAN_1
 62
     2
  6
CONTINUOUS
 10
-1.534441
 20
3.636433
  0
VERTEX
  8
PLAN_1
 62
     2
  6
CONTINUOUS
 10
-1.536272
 20
3.635976
  0
VERTEX
  8
PLAN_1
 62
     2
  6
CONTINUOUS
 10
-1.538563
 20
3.635059
  0
VERTEX
  8
PLAN_1
 62
     2
  6
CONTINUOUS
 10
-1.539937
 20
3.634142
  0
VERTEX
  8
PLAN_1
 62
     2
  6
CONTINUOUS
 10
-1.542685
 20
3.631850
  0
VERTEX
  8
PLAN_1
 62
     2
  6
CONTINUOUS
 10
-1.544976
 20
3.628646
  0
VERTEX
  8
PLAN_1
 62
     2
  6
CONTINUOUS
 10
-1.546350
 20
3.625441
  0
VERTEX
  8
PLAN_1
 62
     2
  6
CONTINUOUS
 10
-1.547268
 20
3.621776
  0
VERTEX
  8
PLAN_1
 62
     2
  6
CONTINUOUS
 10
-1.547724
 20
3.618567
  0
VERTEX
  8
PLAN_1
 62
     2
  6
CONTINUOUS
 10
-1.547724
 20
3.615362
  0
VERTEX
  8
PLAN_1
 62
     2
  6
CONTINUOUS
 10
-1.547724
 20
3.612614
  0
VERTEX
  8
PLAN_1
 62
     2
  6
CONTINUOUS
 10
-1.547268
 20
3.609406
  0
VERTEX
  8
PLAN_1
 62
     2
  6
CONTINUOUS
 10
-1.546350
 20
3.605744
  0
VERTEX
  8
PLAN_1
 62
     2
  6
CONTINUOUS
 10
-1.544976
 20
3.602535
  0
VERTEX
  8
PLAN_1
 62
     2
  6
CONTINUOUS
 10
-1.544059
 20
3.600705
  0
VERTEX
  8
PLAN_1
 62
     2
  6
CONTINUOUS
 10
-1.542685
 20
3.599331
  0
VERTEX
  8
PLAN_1
 62
     2
  6
CONTINUOUS
 10
-1.541311
 20
3.597957
  0
VERTEX
  8
PLAN_1
 62
     2
  6
CONTINUOUS
 10
-1.539937
 20
3.597039
  0
VERTEX
  8
PLAN_1
 62
     2
  6
CONTINUOUS
 10
-1.538563
 20
3.596122
  0
VERTEX
  8
PLAN_1
 62
     2
  6
CONTINUOUS
 10
-1.536272
 20
3.595209
  0
VERTEX
  8
PLAN_1
 62
     2
  6
CONTINUOUS
 10
-1.534441
 20
3.594748
  0
VERTEX
  8
PLAN_1
 62
     2
  6
CONTINUOUS
 10
-1.532150
 20
3.594748
  0
SEQEND
  8
0
  0
POLYLINE
  8
PLAN_1
 62
     2
  6
CONTINUOUS
 66
     1
 40
0.003000
 41
0.003000
  0
VERTEX
  8
PLAN_1
 62
     2
  6
CONTINUOUS
 10
-1.460693
 20
3.588335
  0
VERTEX
  8
PLAN_1
 62
     2
  6
CONTINUOUS
 10
-1.460693
 20
3.596122
  0
VERTEX
  8
PLAN_1
 62
     2
  6
CONTINUOUS
 10
-1.461150
 20
3.596583
  0
VERTEX
  8
PLAN_1
 62
     2
  6
CONTINUOUS
 10
-1.462524
 20
3.594291
  0
VERTEX
  8
PLAN_1
 62
     2
  6
CONTINUOUS
 10
-1.463898
 20
3.592000
  0
VERTEX
  8
PLAN_1
 62
     2
  6
CONTINUOUS
 10
-1.465732
 20
3.590626
  0
VERTEX
  8
PLAN_1
 62
     2
  6
CONTINUOUS
 10
-1.468024
 20
3.589252
  0
VERTEX
  8
PLAN_1
 62
     2
  6
CONTINUOUS
 10
-1.469854
 20
3.588335
  0
VERTEX
  8
PLAN_1
 62
     2
  6
CONTINUOUS
 10
-1.472602
 20
3.587421
  0
VERTEX
  8
PLAN_1
 62
     2
  6
CONTINUOUS
 10
-1.475350
 20
3.586961
  0
VERTEX
  8
PLAN_1
 62
     2
  6
CONTINUOUS
 10
-1.478098
 20
3.586961
  0
VERTEX
  8
PLAN_1
 62
     2
  6
CONTINUOUS
 10
-1.481307
 20
3.586961
  0
VERTEX
  8
PLAN_1
 62
     2
  6
CONTINUOUS
 10
-1.484512
 20
3.587421
  0
VERTEX
  8
PLAN_1
 62
     2
  6
CONTINUOUS
 10
-1.487260
 20
3.588795
  0
VERTEX
  8
PLAN_1
 62
     2
  6
CONTINUOUS
 10
-1.490008
 20
3.590169
  0
VERTEX
  8
PLAN_1
 62
     2
  6
CONTINUOUS
 10
-1.492299
 20
3.592461
  0
VERTEX
  8
PLAN_1
 62
     2
  6
CONTINUOUS
 10
-1.494130
 20
3.595665
  0
VERTEX
  8
PLAN_1
 62
     2
  6
CONTINUOUS
 10
-1.495047
 20
3.597039
  0
VERTEX
  8
PLAN_1
 62
     2
  6
CONTINUOUS
 10
-1.495504
 20
3.599331
  0
VERTEX
  8
PLAN_1
 62
     2
  6
CONTINUOUS
 10
-1.495965
 20
3.601161
  0
VERTEX
  8
PLAN_1
 62
     2
  6
CONTINUOUS
 10
-1.495965
 20
3.603453
  0
VERTEX
  8
PLAN_1
 62
     2
  6
CONTINUOUS
 10
-1.495965
 20
3.642846
  0
VERTEX
  8
PLAN_1
 62
     2
  6
CONTINUOUS
 10
-1.486803
 20
3.642846
  0
VERTEX
  8
PLAN_1
 62
     2
  6
CONTINUOUS
 10
-1.486803
 20
3.606657
  0
VERTEX
  8
PLAN_1
 62
     2
  6
CONTINUOUS
 10
-1.486803
 20
3.603453
  0
VERTEX
  8
PLAN_1
 62
     2
  6
CONTINUOUS
 10
-1.485886
 20
3.601161
  0
VERTEX
  8
PLAN_1
 62
     2
  6
CONTINUOUS
 10
-1.484969
 20
3.598870
  0
VERTEX
  8
PLAN_1
 62
     2
  6
CONTINUOUS
 10
-1.483594
 20
3.597496
  0
VERTEX
  8
PLAN_1
 62
     2
  6
CONTINUOUS
 10
-1.482220
 20
3.596122
  0
VERTEX
  8
PLAN_1
 62
     2
  6
CONTINUOUS
 10
-1.480390
 20
3.595209
  0
VERTEX
  8
PLAN_1
 62
     2
  6
CONTINUOUS
 10
-1.478559
 20
3.594748
  0
VERTEX
  8
PLAN_1
 62
     2
  6
CONTINUOUS
 10
-1.476268
 20
3.594748
  0
VERTEX
  8
PLAN_1
 62
     2
  6
CONTINUOUS
 10
-1.474433
 20
3.594748
  0
VERTEX
  8
PLAN_1
 62
     2
  6
CONTINUOUS
 10
-1.472146
 20
3.595209
  0
VERTEX
  8
PLAN_1
 62
     2
  6
CONTINUOUS
 10
-1.470772
 20
3.595665
  0
VERTEX
  8
PLAN_1
 62
     2
  6
CONTINUOUS
 10
-1.468937
 20
3.596583
  0
VERTEX
  8
PLAN_1
 62
     2
  6
CONTINUOUS
 10
-1.466650
 20
3.598413
  0
VERTEX
  8
PLAN_1
 62
     2
  6
CONTINUOUS
 10
-1.464358
 20
3.600705
  0
VERTEX
  8
PLAN_1
 62
     2
  6
CONTINUOUS
 10
-1.462984
 20
3.603453
  0
VERTEX
  8
PLAN_1
 62
     2
  6
CONTINUOUS
 10
-1.462067
 20
3.606657
  0
VERTEX
  8
PLAN_1
 62
     2
  6
CONTINUOUS
 10
-1.461610
 20
3.609866
  0
VERTEX
  8
PLAN_1
 62
     2
  6
CONTINUOUS
 10
-1.461150
 20
3.612614
  0
VERTEX
  8
PLAN_1
 62
     2
  6
CONTINUOUS
 10
-1.461150
 20
3.642846
  0
VERTEX
  8
PLAN_1
 62
     2
  6
CONTINUOUS
 10
-1.451988
 20
3.642846
  0
VERTEX
  8
PLAN_1
 62
     2
  6
CONTINUOUS
 10
-1.451988
 20
3.588335
  0
VERTEX
  8
PLAN_1
 62
     2
  6
CONTINUOUS
 10
-1.460693
 20
3.588335
  0
SEQEND
  8
0
  0
POLYLINE
  8
PLAN_1
 62
     2
  6
CONTINUOUS
 66
     1
 40
0.003000
 41
0.003000
  0
VERTEX
  8
PLAN_1
 62
     2
  6
CONTINUOUS
 10
-1.407559
 20
3.627272
  0
VERTEX
  8
PLAN_1
 62
     2
  6
CONTINUOUS
 10
-1.407559
 20
3.628646
  0
VERTEX
  8
PLAN_1
 62
     2
  6
CONTINUOUS
 10
-1.408016
 20
3.630020
  0
VERTEX
  8
PLAN_1
 62
     2
  6
CONTINUOUS
 10
-1.408472
 20
3.631394
  0
VERTEX
  8
PLAN_1
 62
     2
  6
CONTINUOUS
 10
-1.409850
 20
3.633224
  0
VERTEX
  8
PLAN_1
 62
     2
  6
CONTINUOUS
 10
-1.411224
 20
3.634142
  0
VERTEX
  8
PLAN_1
 62
     2
  6
CONTINUOUS
 10
-1.413512
 20
3.635516
  0
VERTEX
  8
PLAN_1
 62
     2
  6
CONTINUOUS
 10
-1.416720
 20
3.635976
  0
VERTEX
  8
PLAN_1
 62
     2
  6
CONTINUOUS
 10
-1.420386
 20
3.636433
  0
VERTEX
  8
PLAN_1
 62
     2
  6
CONTINUOUS
 10
-1.421760
 20
3.636433
  0
VERTEX
  8
PLAN_1
 62
     2
  6
CONTINUOUS
 10
-1.423134
 20
3.635976
  0
VERTEX
  8
PLAN_1
 62
     2
  6
CONTINUOUS
 10
-1.424965
 20
3.635516
  0
VERTEX
  8
PLAN_1
 62
     2
  6
CONTINUOUS
 10
-1.426795
 20
3.635059
  0
VERTEX
  8
PLAN_1
 62
     2
  6
CONTINUOUS
 10
-1.428630
 20
3.634142
  0
VERTEX
  8
PLAN_1
 62
     2
  6
CONTINUOUS
 10
-1.430004
 20
3.632768
  0
VERTEX
  8
PLAN_1
 62
     2
  6
CONTINUOUS
 10
-1.430917
 20
3.630937
  0
VERTEX
  8
PLAN_1
 62
     2
  6
CONTINUOUS
 10
-1.431378
 20
3.628646
  0
VERTEX
  8
PLAN_1
 62
     2
  6
CONTINUOUS
 10
-1.430917
 20
3.627272
  0
VERTEX
  8
PLAN_1
 62
     2
  6
CONTINUOUS
 10
-1.430461
 20
3.625898
  0
VERTEX
  8
PLAN_1
 62
     2
  6
CONTINUOUS
 10
-1.430004
 20
3.624980
  0
VERTEX
  8
PLAN_1
 62
     2
  6
CONTINUOUS
 10
-1.429087
 20
3.624063
  0
VERTEX
  8
PLAN_1
 62
     2
  6
CONTINUOUS
 10
-1.427713
 20
3.623150
  0
VERTEX
  8
PLAN_1
 62
     2
  6
CONTINUOUS
 10
-1.425882
 20
3.622689
  0
VERTEX
  8
PLAN_1
 62
     2
  6
CONTINUOUS
 10
-1.423591
 20
3.622232
  0
VERTEX
  8
PLAN_1
 62
     2
  6
CONTINUOUS
 10
-1.421299
 20
3.621315
  0
VERTEX
  8
PLAN_1
 62
     2
  6
CONTINUOUS
 10
-1.412138
 20
3.619028
  0
VERTEX
  8
PLAN_1
 62
     2
  6
CONTINUOUS
 10
-1.408472
 20
3.618110
  0
VERTEX
  8
PLAN_1
 62
     2
  6
CONTINUOUS
 10
-1.404811
 20
3.616736
  0
VERTEX
  8
PLAN_1
 62
     2
  6
CONTINUOUS
 10
-1.402520
 20
3.615362
  0
VERTEX
  8
PLAN_1
 62
     2
  6
CONTINUOUS
 10
-1.400228
 20
3.613528
  0
VERTEX
  8
PLAN_1
 62
     2
  6
CONTINUOUS
 10
-1.398854
 20
3.611697
  0
VERTEX
  8
PLAN_1
 62
     2
  6
CONTINUOUS
 10
-1.397480
 20
3.609866
  0
VERTEX
  8
PLAN_1
 62
     2
  6
CONTINUOUS
 10
-1.397024
 20
3.607575
  0
VERTEX
  8
PLAN_1
 62
     2
  6
CONTINUOUS
 10
-1.397024
 20
3.604827
  0
VERTEX
  8
PLAN_1
 62
     2
  6
CONTINUOUS
 10
-1.397480
 20
3.600705
  0
VERTEX
  8
PLAN_1
 62
     2
  6
CONTINUOUS
 10
-1.398398
 20
3.597039
  0
VERTEX
  8
PLAN_1
 62
     2
  6
CONTINUOUS
 10
-1.400689
 20
3.594291
  0
VERTEX
  8
PLAN_1
 62
     2
  6
CONTINUOUS
 10
-1.402976
 20
3.591543
  0
VERTEX
  8
PLAN_1
 62
     2
  6
CONTINUOUS
 10
-1.406185
 20
3.589252
  0
VERTEX
  8
PLAN_1
 62
     2
  6
CONTINUOUS
 10
-1.409850
 20
3.587878
  0
VERTEX
  8
PLAN_1
 62
     2
  6
CONTINUOUS
 10
-1.413972
 20
3.586961
  0
VERTEX
  8
PLAN_1
 62
     2
  6
CONTINUOUS
 10
-1.418551
 20
3.586961
  0
VERTEX
  8
PLAN_1
 62
     2
  6
CONTINUOUS
 10
-1.422217
 20
3.586961
  0
VERTEX
  8
PLAN_1
 62
     2
  6
CONTINUOUS
 10
-1.425421
 20
3.587421
  0
VERTEX
  8
PLAN_1
 62
     2
  6
CONTINUOUS
 10
-1.428630
 20
3.587878
  0
VERTEX
  8
PLAN_1
 62
     2
  6
CONTINUOUS
 10
-1.430917
 20
3.588795
  0
VERTEX
  8
PLAN_1
 62
     2
  6
CONTINUOUS
 10
-1.433209
 20
3.589709
  0
VERTEX
  8
PLAN_1
 62
     2
  6
CONTINUOUS
 10
-1.435043
 20
3.591083
  0
VERTEX
  8
PLAN_1
 62
     2
  6
CONTINUOUS
 10
-1.436874
 20
3.592461
  0
VERTEX
  8
PLAN_1
 62
     2
  6
CONTINUOUS
 10
-1.438248
 20
3.593835
  0
VERTEX
  8
PLAN_1
 62
     2
  6
CONTINUOUS
 10
-1.440079
 20
3.597039
  0
VERTEX
  8
PLAN_1
 62
     2
  6
CONTINUOUS
 10
-1.440996
 20
3.600244
  0
VERTEX
  8
PLAN_1
 62
     2
  6
CONTINUOUS
 10
-1.441453
 20
3.602992
  0
VERTEX
  8
PLAN_1
 62
     2
  6
CONTINUOUS
 10
-1.441913
 20
3.605744
  0
VERTEX
  8
PLAN_1
 62
     2
  6
CONTINUOUS
 10
-1.433209
 20
3.605744
  0
VERTEX
  8
PLAN_1
 62
     2
  6
CONTINUOUS
 10
-1.432752
 20
3.603909
  0
VERTEX
  8
PLAN_1
 62
     2
  6
CONTINUOUS
 10
-1.432295
 20
3.602079
  0
VERTEX
  8
PLAN_1
 62
     2
  6
CONTINUOUS
 10
-1.431835
 20
3.600244
  0
VERTEX
  8
PLAN_1
 62
     2
  6
CONTINUOUS
 10
-1.430461
 20
3.598413
  0
VERTEX
  8
PLAN_1
 62
     2
  6
CONTINUOUS
 10
-1.428630
 20
3.597039
  0
VERTEX
  8
PLAN_1
 62
     2
  6
CONTINUOUS
 10
-1.426339
 20
3.595665
  0
VERTEX
  8
PLAN_1
 62
     2
  6
CONTINUOUS
 10
-1.422673
 20
3.594748
  0
VERTEX
  8
PLAN_1
 62
     2
  6
CONTINUOUS
 10
-1.418551
 20
3.594748
  0
VERTEX
  8
PLAN_1
 62
     2
  6
CONTINUOUS
 10
-1.416260
 20
3.594748
  0
VERTEX
  8
PLAN_1
 62
     2
  6
CONTINUOUS
 10
-1.413972
 20
3.595209
  0
VERTEX
  8
PLAN_1
 62
     2
  6
CONTINUOUS
 10
-1.411681
 20
3.595665
  0
VERTEX
  8
PLAN_1
 62
     2
  6
CONTINUOUS
 10
-1.409850
 20
3.596583
  0
VERTEX
  8
PLAN_1
 62
     2
  6
CONTINUOUS
 10
-1.408472
 20
3.597957
  0
VERTEX
  8
PLAN_1
 62
     2
  6
CONTINUOUS
 10
-1.407098
 20
3.599331
  0
VERTEX
  8
PLAN_1
 62
     2
  6
CONTINUOUS
 10
-1.406185
 20
3.601161
  0
VERTEX
  8
PLAN_1
 62
     2
  6
CONTINUOUS
 10
-1.406185
 20
3.603453
  0
VERTEX
  8
PLAN_1
 62
     2
  6
CONTINUOUS
 10
-1.406185
 20
3.604827
  0
VERTEX
  8
PLAN_1
 62
     2
  6
CONTINUOUS
 10
-1.406642
 20
3.606201
  0
VERTEX
  8
PLAN_1
 62
     2
  6
CONTINUOUS
 10
-1.407559
 20
3.607118
  0
VERTEX
  8
PLAN_1
 62
     2
  6
CONTINUOUS
 10
-1.408472
 20
3.608031
  0
VERTEX
  8
PLAN_1
 62
     2
  6
CONTINUOUS
 10
-1.409850
 20
3.608949
  0
VERTEX
  8
PLAN_1
 62
     2
  6
CONTINUOUS
 10
-1.411681
 20
3.609866
  0
VERTEX
  8
PLAN_1
 62
     2
  6
CONTINUOUS
 10
-1.413972
 20
3.610323
  0
VERTEX
  8
PLAN_1
 62
     2
  6
CONTINUOUS
 10
-1.416720
 20
3.611240
  0
VERTEX
  8
PLAN_1
 62
     2
  6
CONTINUOUS
 10
-1.427256
 20
3.613528
  0
VERTEX
  8
PLAN_1
 62
     2
  6
CONTINUOUS
 10
-1.430004
 20
3.614445
  0
VERTEX
  8
PLAN_1
 62
     2
  6
CONTINUOUS
 10
-1.432752
 20
3.615362
  0
VERTEX
  8
PLAN_1
 62
     2
  6
CONTINUOUS
 10
-1.434583
 20
3.616736
  0
VERTEX
  8
PLAN_1
 62
     2
  6
CONTINUOUS
 10
-1.436417
 20
3.618110
  0
VERTEX
  8
PLAN_1
 62
     2
  6
CONTINUOUS
 10
-1.438248
 20
3.619941
  0
VERTEX
  8
PLAN_1
 62
     2
  6
CONTINUOUS
 10
-1.439165
 20
3.621776
  0
VERTEX
  8
PLAN_1
 62
     2
  6
CONTINUOUS
 10
-1.439622
 20
3.624063
  0
VERTEX
  8
PLAN_1
 62
     2
  6
CONTINUOUS
 10
-1.440079
 20
3.626815
  0
VERTEX
  8
PLAN_1
 62
     2
  6
CONTINUOUS
 10
-1.440079
 20
3.629102
  0
VERTEX
  8
PLAN_1
 62
     2
  6
CONTINUOUS
 10
-1.439622
 20
3.630937
  0
VERTEX
  8
PLAN_1
 62
     2
  6
CONTINUOUS
 10
-1.439165
 20
3.632768
  0
VERTEX
  8
PLAN_1
 62
     2
  6
CONTINUOUS
 10
-1.438248
 20
3.634598
  0
VERTEX
  8
PLAN_1
 62
     2
  6
CONTINUOUS
 10
-1.436417
 20
3.637807
  0
VERTEX
  8
PLAN_1
 62
     2
  6
CONTINUOUS
 10
-1.433669
 20
3.640098
  0
VERTEX
  8
PLAN_1
 62
     2
  6
CONTINUOUS
 10
-1.430917
 20
3.641929
  0
VERTEX
  8
PLAN_1
 62
     2
  6
CONTINUOUS
 10
-1.427256
 20
3.643303
  0
VERTEX
  8
PLAN_1
 62
     2
  6
CONTINUOUS
 10
-1.423591
 20
3.644220
  0
VERTEX
  8
PLAN_1
 62
     2
  6
CONTINUOUS
 10
-1.419469
 20
3.644220
  0
VERTEX
  8
PLAN_1
 62
     2
  6
CONTINUOUS
 10
-1.415803
 20
3.644220
  0
VERTEX
  8
PLAN_1
 62
     2
  6
CONTINUOUS
 10
-1.413055
 20
3.643760
  0
VERTEX
  8
PLAN_1
 62
     2
  6
CONTINUOUS
 10
-1.410307
 20
3.642846
  0
VERTEX
  8
PLAN_1
 62
     2
  6
CONTINUOUS
 10
-1.408016
 20
3.641929
  0
VERTEX
  8
PLAN_1
 62
     2
  6
CONTINUOUS
 10
-1.406185
 20
3.641012
  0
VERTEX
  8
PLAN_1
 62
     2
  6
CONTINUOUS
 10
-1.404350
 20
3.639638
  0
VERTEX
  8
PLAN_1
 62
     2
  6
CONTINUOUS
 10
-1.402976
 20
3.638264
  0
VERTEX
  8
PLAN_1
 62
     2
  6
CONTINUOUS
 10
-1.401602
 20
3.636890
  0
VERTEX
  8
PLAN_1
 62
     2
  6
CONTINUOUS
 10
-1.400228
 20
3.633685
  0
VERTEX
  8
PLAN_1
 62
     2
  6
CONTINUOUS
 10
-1.399315
 20
3.630937
  0
VERTEX
  8
PLAN_1
 62
     2
  6
CONTINUOUS
 10
-1.398854
 20
3.628646
  0
VERTEX
  8
PLAN_1
 62
     2
  6
CONTINUOUS
 10
-1.398854
 20
3.627272
  0
VERTEX
  8
PLAN_1
 62
     2
  6
CONTINUOUS
 10
-1.407559
 20
3.627272
  0
SEQEND
  8
0
  0
POLYLINE
  8
PLAN_1
 62
     2
  6
CONTINUOUS
 66
     1
 40
0.003000
 41
0.003000
  0
VERTEX
  8
PLAN_1
 62
     2
  6
CONTINUOUS
 10
-1.335185
 20
3.644220
  0
VERTEX
  8
PLAN_1
 62
     2
  6
CONTINUOUS
 10
-1.331976
 20
3.644220
  0
VERTEX
  8
PLAN_1
 62
     2
  6
CONTINUOUS
 10
-1.329228
 20
3.643760
  0
VERTEX
  8
PLAN_1
 62
     2
  6
CONTINUOUS
 10
-1.326480
 20
3.642846
  0
VERTEX
  8
PLAN_1
 62
     2
  6
CONTINUOUS
 10
-1.324193
 20
3.641929
  0
VERTEX
  8
PLAN_1
 62
     2
  6
CONTINUOUS
 10
-1.321902
 20
3.640555
  0
VERTEX
  8
PLAN_1
 62
     2
  6
CONTINUOUS
 10
-1.319610
 20
3.638724
  0
VERTEX
  8
PLAN_1
 62
     2
  6
CONTINUOUS
 10
-1.317780
 20
3.637350
  0
VERTEX
  8
PLAN_1
 62
     2
  6
CONTINUOUS
 10
-1.315945
 20
3.635059
  0
VERTEX
  8
PLAN_1
 62
     2
  6
CONTINUOUS
 10
-1.314571
 20
3.633224
  0
VERTEX
  8
PLAN_1
 62
     2
  6
CONTINUOUS
 10
-1.313197
 20
3.630937
  0
VERTEX
  8
PLAN_1
 62
     2
  6
CONTINUOUS
 10
-1.312283
 20
3.628646
  0
VERTEX
  8
PLAN_1
 62
     2
  6
CONTINUOUS
 10
-1.311366
 20
3.625898
  0
VERTEX
  8
PLAN_1
 62
     2
  6
CONTINUOUS
 10
-1.310449
 20
3.620858
  0
VERTEX
  8
PLAN_1
 62
     2
  6
CONTINUOUS
 10
-1.309992
 20
3.615362
  0
VERTEX
  8
PLAN_1
 62
     2
  6
CONTINUOUS
 10
-1.310449
 20
3.610323
  0
VERTEX
  8
PLAN_1
 62
     2
  6
CONTINUOUS
 10
-1.311366
 20
3.605283
  0
VERTEX
  8
PLAN_1
 62
     2
  6
CONTINUOUS
 10
-1.312283
 20
3.602535
  0
VERTEX
  8
PLAN_1
 62
     2
  6
CONTINUOUS
 10
-1.313197
 20
3.600244
  0
VERTEX
  8
PLAN_1
 62
     2
  6
CONTINUOUS
 10
-1.314571
 20
3.597957
  0
VERTEX
  8
PLAN_1
 62
     2
  6
CONTINUOUS
 10
-1.315945
 20
3.596122
  0
VERTEX
  8
PLAN_1
 62
     2
  6
CONTINUOUS
 10
-1.317780
 20
3.593835
  0
VERTEX
  8
PLAN_1
 62
     2
  6
CONTINUOUS
 10
-1.319610
 20
3.592000
  0
VERTEX
  8
PLAN_1
 62
     2
  6
CONTINUOUS
 10
-1.321902
 20
3.590626
  0
VERTEX
  8
PLAN_1
 62
     2
  6
CONTINUOUS
 10
-1.324193
 20
3.589252
  0
VERTEX
  8
PLAN_1
 62
     2
  6
CONTINUOUS
 10
-1.326480
 20
3.588335
  0
VERTEX
  8
PLAN_1
 62
     2
  6
CONTINUOUS
 10
-1.329228
 20
3.587421
  0
VERTEX
  8
PLAN_1
 62
     2
  6
CONTINUOUS
 10
-1.331976
 20
3.586961
  0
VERTEX
  8
PLAN_1
 62
     2
  6
CONTINUOUS
 10
-1.335185
 20
3.586961
  0
VERTEX
  8
PLAN_1
 62
     2
  6
CONTINUOUS
 10
-1.338390
 20
3.586961
  0
VERTEX
  8
PLAN_1
 62
     2
  6
CONTINUOUS
 10
-1.341138
 20
3.587421
  0
VERTEX
  8
PLAN_1
 62
     2
  6
CONTINUOUS
 10
-1.343886
 20
3.588335
  0
VERTEX
  8
PLAN_1
 62
     2
  6
CONTINUOUS
 10
-1.346638
 20
3.589252
  0
VERTEX
  8
PLAN_1
 62
     2
  6
CONTINUOUS
 10
-1.348925
 20
3.590626
  0
VERTEX
  8
PLAN_1
 62
     2
  6
CONTINUOUS
 10
-1.350760
 20
3.592000
  0
VERTEX
  8
PLAN_1
 62
     2
  6
CONTINUOUS
 10
-1.352591
 20
3.593835
  0
VERTEX
  8
PLAN_1
 62
     2
  6
CONTINUOUS
 10
-1.354421
 20
3.596122
  0
VERTEX
  8
PLAN_1
 62
     2
  6
CONTINUOUS
 10
-1.355799
 20
3.597957
  0
VERTEX
  8
PLAN_1
 62
     2
  6
CONTINUOUS
 10
-1.357173
 20
3.600244
  0
VERTEX
  8
PLAN_1
 62
     2
  6
CONTINUOUS
 10
-1.358087
 20
3.602535
  0
VERTEX
  8
PLAN_1
 62
     2
  6
CONTINUOUS
 10
-1.359004
 20
3.605283
  0
VERTEX
  8
PLAN_1
 62
     2
  6
CONTINUOUS
 10
-1.359921
 20
3.610323
  0
VERTEX
  8
PLAN_1
 62
     2
  6
CONTINUOUS
 10
-1.360378
 20
3.615362
  0
VERTEX
  8
PLAN_1
 62
     2
  6
CONTINUOUS
 10
-1.359921
 20
3.620858
  0
VERTEX
  8
PLAN_1
 62
     2
  6
CONTINUOUS
 10
-1.359004
 20
3.625898
  0
VERTEX
  8
PLAN_1
 62
     2
  6
CONTINUOUS
 10
-1.358087
 20
3.628646
  0
VERTEX
  8
PLAN_1
 62
     2
  6
CONTINUOUS
 10
-1.357173
 20
3.630937
  0
VERTEX
  8
PLAN_1
 62
     2
  6
CONTINUOUS
 10
-1.355799
 20
3.633224
  0
VERTEX
  8
PLAN_1
 62
     2
  6
CONTINUOUS
 10
-1.354421
 20
3.635059
  0
VERTEX
  8
PLAN_1
 62
     2
  6
CONTINUOUS
 10
-1.352591
 20
3.637350
  0
VERTEX
  8
PLAN_1
 62
     2
  6
CONTINUOUS
 10
-1.350760
 20
3.638724
  0
VERTEX
  8
PLAN_1
 62
     2
  6
CONTINUOUS
 10
-1.348925
 20
3.640555
  0
VERTEX
  8
PLAN_1
 62
     2
  6
CONTINUOUS
 10
-1.346638
 20
3.641929
  0
VERTEX
  8
PLAN_1
 62
     2
  6
CONTINUOUS
 10
-1.343886
 20
3.642846
  0
VERTEX
  8
PLAN_1
 62
     2
  6
CONTINUOUS
 10
-1.341138
 20
3.643760
  0
VERTEX
  8
PLAN_1
 62
     2
  6
CONTINUOUS
 10
-1.338390
 20
3.644220
  0
VERTEX
  8
PLAN_1
 62
     2
  6
CONTINUOUS
 10
-1.335185
 20
3.644220
  0
SEQEND
  8
0
  0
POLYLINE
  8
PLAN_1
 62
     2
  6
CONTINUOUS
 66
     1
 40
0.003000
 41
0.003000
  0
VERTEX
  8
PLAN_1
 62
     2
  6
CONTINUOUS
 10
-1.335185
 20
3.594748
  0
VERTEX
  8
PLAN_1
 62
     2
  6
CONTINUOUS
 10
-1.332894
 20
3.594748
  0
VERTEX
  8
PLAN_1
 62
     2
  6
CONTINUOUS
 10
-1.330602
 20
3.595209
  0
VERTEX
  8
PLAN_1
 62
     2
  6
CONTINUOUS
 10
-1.328772
 20
3.596122
  0
VERTEX
  8
PLAN_1
 62
     2
  6
CONTINUOUS
 10
-1.327398
 20
3.597039
  0
VERTEX
  8
PLAN_1
 62
     2
  6
CONTINUOUS
 10
-1.324650
 20
3.599331
  0
VERTEX
  8
PLAN_1
 62
     2
  6
CONTINUOUS
 10
-1.322358
 20
3.602535
  0
VERTEX
  8
PLAN_1
 62
     2
  6
CONTINUOUS
 10
-1.320984
 20
3.605744
  0
VERTEX
  8
PLAN_1
 62
     2
  6
CONTINUOUS
 10
-1.320067
 20
3.609406
  0
VERTEX
  8
PLAN_1
 62
     2
  6
CONTINUOUS
 10
-1.319610
 20
3.612614
  0
VERTEX
  8
PLAN_1
 62
     2
  6
CONTINUOUS
 10
-1.319610
 20
3.615362
  0
VERTEX
  8
PLAN_1
 62
     2
  6
CONTINUOUS
 10
-1.319610
 20
3.618567
  0
VERTEX
  8
PLAN_1
 62
     2
  6
CONTINUOUS
 10
-1.320067
 20
3.621776
  0
VERTEX
  8
PLAN_1
 62
     2
  6
CONTINUOUS
 10
-1.320984
 20
3.625441
  0
VERTEX
  8
PLAN_1
 62
     2
  6
CONTINUOUS
 10
-1.322358
 20
3.628646
  0
VERTEX
  8
PLAN_1
 62
     2
  6
CONTINUOUS
 10
-1.324650
 20
3.631850
  0
VERTEX
  8
PLAN_1
 62
     2
  6
CONTINUOUS
 10
-1.327398
 20
3.634142
  0
VERTEX
  8
PLAN_1
 62
     2
  6
CONTINUOUS
 10
-1.328772
 20
3.635059
  0
VERTEX
  8
PLAN_1
 62
     2
  6
CONTINUOUS
 10
-1.330602
 20
3.635976
  0
VERTEX
  8
PLAN_1
 62
     2
  6
CONTINUOUS
 10
-1.332894
 20
3.636433
  0
VERTEX
  8
PLAN_1
 62
     2
  6
CONTINUOUS
 10
-1.335185
 20
3.636433
  0
VERTEX
  8
PLAN_1
 62
     2
  6
CONTINUOUS
 10
-1.337476
 20
3.636433
  0
VERTEX
  8
PLAN_1
 62
     2
  6
CONTINUOUS
 10
-1.339764
 20
3.635976
  0
VERTEX
  8
PLAN_1
 62
     2
  6
CONTINUOUS
 10
-1.341598
 20
3.635059
  0
VERTEX
  8
PLAN_1
 62
     2
  6
CONTINUOUS
 10
-1.343429
 20
3.634142
  0
VERTEX
  8
PLAN_1
 62
     2
  6
CONTINUOUS
 10
-1.346177
 20
3.631850
  0
VERTEX
  8
PLAN_1
 62
     2
  6
CONTINUOUS
 10
-1.348012
 20
3.628646
  0
VERTEX
  8
PLAN_1
 62
     2
  6
CONTINUOUS
 10
-1.349386
 20
3.625441
  0
VERTEX
  8
PLAN_1
 62
     2
  6
CONTINUOUS
 10
-1.350299
 20
3.621776
  0
VERTEX
  8
PLAN_1
 62
     2
  6
CONTINUOUS
 10
-1.350760
 20
3.618567
  0
VERTEX
  8
PLAN_1
 62
     2
  6
CONTINUOUS
 10
-1.351217
 20
3.615362
  0
VERTEX
  8
PLAN_1
 62
     2
  6
CONTINUOUS
 10
-1.350760
 20
3.612614
  0
VERTEX
  8
PLAN_1
 62
     2
  6
CONTINUOUS
 10
-1.350299
 20
3.609406
  0
VERTEX
  8
PLAN_1
 62
     2
  6
CONTINUOUS
 10
-1.349386
 20
3.605744
  0
VERTEX
  8
PLAN_1
 62
     2
  6
CONTINUOUS
 10
-1.348012
 20
3.602535
  0
VERTEX
  8
PLAN_1
 62
     2
  6
CONTINUOUS
 10
-1.347094
 20
3.600705
  0
VERTEX
  8
PLAN_1
 62
     2
  6
CONTINUOUS
 10
-1.346177
 20
3.599331
  0
VERTEX
  8
PLAN_1
 62
     2
  6
CONTINUOUS
 10
-1.344803
 20
3.597957
  0
VERTEX
  8
PLAN_1
 62
     2
  6
CONTINUOUS
 10
-1.343429
 20
3.597039
  0
VERTEX
  8
PLAN_1
 62
     2
  6
CONTINUOUS
 10
-1.341598
 20
3.596122
  0
VERTEX
  8
PLAN_1
 62
     2
  6
CONTINUOUS
 10
-1.339764
 20
3.595209
  0
VERTEX
  8
PLAN_1
 62
     2
  6
CONTINUOUS
 10
-1.337476
 20
3.594748
  0
VERTEX
  8
PLAN_1
 62
     2
  6
CONTINUOUS
 10
-1.335185
 20
3.594748
  0
SEQEND
  8
0
  0
POLYLINE
  8
PLAN_1
 62
     2
  6
CONTINUOUS
 66
     1
 40
0.003000
 41
0.003000
  0
VERTEX
  8
PLAN_1
 62
     2
  6
CONTINUOUS
 10
-1.300374
 20
3.588335
  0
VERTEX
  8
PLAN_1
 62
     2
  6
CONTINUOUS
 10
-1.300374
 20
3.663000
  0
VERTEX
  8
PLAN_1
 62
     2
  6
CONTINUOUS
 10
-1.291213
 20
3.663000
  0
VERTEX
  8
PLAN_1
 62
     2
  6
CONTINUOUS
 10
-1.291213
 20
3.635976
  0
VERTEX
  8
PLAN_1
 62
     2
  6
CONTINUOUS
 10
-1.290752
 20
3.635976
  0
VERTEX
  8
PLAN_1
 62
     2
  6
CONTINUOUS
 10
-1.289378
 20
3.637807
  0
VERTEX
  8
PLAN_1
 62
     2
  6
CONTINUOUS
 10
-1.287547
 20
3.639638
  0
VERTEX
  8
PLAN_1
 62
     2
  6
CONTINUOUS
 10
-1.285713
 20
3.641012
  0
VERTEX
  8
PLAN_1
 62
     2
  6
CONTINUOUS
 10
-1.283882
 20
3.642386
  0
VERTEX
  8
PLAN_1
 62
     2
  6
CONTINUOUS
 10
-1.282051
 20
3.642846
  0
VERTEX
  8
PLAN_1
 62
     2
  6
CONTINUOUS
 10
-1.279760
 20
3.643760
  0
VERTEX
  8
PLAN_1
 62
     2
  6
CONTINUOUS
 10
-1.277469
 20
3.644220
  0
VERTEX
  8
PLAN_1
 62
     2
  6
CONTINUOUS
 10
-1.275177
 20
3.644220
  0
VERTEX
  8
PLAN_1
 62
     2
  6
CONTINUOUS
 10
-1.272429
 20
3.644220
  0
VERTEX
  8
PLAN_1
 62
     2
  6
CONTINUOUS
 10
-1.270142
 20
3.643760
  0
VERTEX
  8
PLAN_1
 62
     2
  6
CONTINUOUS
 10
-1.267850
 20
3.643303
  0
VERTEX
  8
PLAN_1
 62
     2
  6
CONTINUOUS
 10
-1.265559
 20
3.642386
  0
VERTEX
  8
PLAN_1
 62
     2
  6
CONTINUOUS
 10
-1.263728
 20
3.641012
  0
VERTEX
  8
PLAN_1
 62
     2
  6
CONTINUOUS
 10
-1.261437
 20
3.639638
  0
VERTEX
  8
PLAN_1
 62
     2
  6
CONTINUOUS
 10
-1.260063
 20
3.638264
  0
VERTEX
  8
PLAN_1
 62
     2
  6
CONTINUOUS
 10
-1.258232
 20
3.636433
  0
VERTEX
  8
PLAN_1
 62
     2
  6
CONTINUOUS
 10
-1.255941
 20
3.632311
  0
VERTEX
  8
PLAN_1
 62
     2
  6
CONTINUOUS
 10
-1.254106
 20
3.627728
  0
VERTEX
  8
PLAN_1
 62
     2
  6
CONTINUOUS
 10
-1.252732
 20
3.622689
  0
VERTEX
  8
PLAN_1
 62
     2
  6
CONTINUOUS
 10
-1.252276
 20
3.617193
  0
VERTEX
  8
PLAN_1
 62
     2
  6
CONTINUOUS
 10
-1.252732
 20
3.612154
  0
VERTEX
  8
PLAN_1
 62
     2
  6
CONTINUOUS
 10
-1.253650
 20
3.606657
  0
VERTEX
  8
PLAN_1
 62
     2
  6
CONTINUOUS
 10
-1.255024
 20
3.601618
  0
VERTEX
  8
PLAN_1
 62
     2
  6
CONTINUOUS
 10
-1.257315
 20
3.597039
  0
VERTEX
  8
PLAN_1
 62
     2
  6
CONTINUOUS
 10
-1.259146
 20
3.594748
  0
VERTEX
  8
PLAN_1
 62
     2
  6
CONTINUOUS
 10
-1.260520
 20
3.592917
  0
VERTEX
  8
PLAN_1
 62
     2
  6
CONTINUOUS
 10
-1.262811
 20
3.591083
  0
VERTEX
  8
PLAN_1
 62
     2
  6
CONTINUOUS
 10
-1.264642
 20
3.589709
  0
VERTEX
  8
PLAN_1
 62
     2
  6
CONTINUOUS
 10
-1.267390
 20
3.588335
  0
VERTEX
  8
PLAN_1
 62
     2
  6
CONTINUOUS
 10
-1.270142
 20
3.587421
  0
VERTEX
  8
PLAN_1
 62
     2
  6
CONTINUOUS
 10
-1.272890
 20
3.586961
  0
VERTEX
  8
PLAN_1
 62
     2
  6
CONTINUOUS
 10
-1.276551
 20
3.586961
  0
VERTEX
  8
PLAN_1
 62
     2
  6
CONTINUOUS
 10
-1.279760
 20
3.586961
  0
VERTEX
  8
PLAN_1
 62
     2
  6
CONTINUOUS
 10
-1.282508
 20
3.587421
  0
VERTEX
  8
PLAN_1
 62
     2
  6
CONTINUOUS
 10
-1.284799
 20
3.588795
  0
VERTEX
  8
PLAN_1
 62
     2
  6
CONTINUOUS
 10
-1.286630
 20
3.589709
  0
VERTEX
  8
PLAN_1
 62
     2
  6
CONTINUOUS
 10
-1.288461
 20
3.591083
  0
VERTEX
  8
PLAN_1
 62
     2
  6
CONTINUOUS
 10
-1.289378
 20
3.592461
  0
VERTEX
  8
PLAN_1
 62
     2
  6
CONTINUOUS
 10
-1.290752
 20
3.593835
  0
VERTEX
  8
PLAN_1
 62
     2
  6
CONTINUOUS
 10
-1.291213
 20
3.595209
  0
VERTEX
  8
PLAN_1
 62
     2
  6
CONTINUOUS
 10
-1.291669
 20
3.595209
  0
VERTEX
  8
PLAN_1
 62
     2
  6
CONTINUOUS
 10
-1.291669
 20
3.588335
  0
VERTEX
  8
PLAN_1
 62
     2
  6
CONTINUOUS
 10
-1.300374
 20
3.588335
  0
SEQEND
  8
0
  0
POLYLINE
  8
PLAN_1
 62
     2
  6
CONTINUOUS
 66
     1
 40
0.003000
 41
0.003000
  0
VERTEX
  8
PLAN_1
 62
     2
  6
CONTINUOUS
 10
-1.277012
 20
3.635976
  0
VERTEX
  8
PLAN_1
 62
     2
  6
CONTINUOUS
 10
-1.279303
 20
3.635976
  0
VERTEX
  8
PLAN_1
 62
     2
  6
CONTINUOUS
 10
-1.281134
 20
3.635516
  0
VERTEX
  8
PLAN_1
 62
     2
  6
CONTINUOUS
 10
-1.282965
 20
3.634598
  0
VERTEX
  8
PLAN_1
 62
     2
  6
CONTINUOUS
 10
-1.284799
 20
3.633685
  0
VERTEX
  8
PLAN_1
 62
     2
  6
CONTINUOUS
 10
-1.286173
 20
3.632311
  0
VERTEX
  8
PLAN_1
 62
     2
  6
CONTINUOUS
 10
-1.287087
 20
3.630937
  0
VERTEX
  8
PLAN_1
 62
     2
  6
CONTINUOUS
 10
-1.288461
 20
3.629563
  0
VERTEX
  8
PLAN_1
 62
     2
  6
CONTINUOUS
 10
-1.288921
 20
3.627728
  0
VERTEX
  8
PLAN_1
 62
     2
  6
CONTINUOUS
 10
-1.290295
 20
3.624063
  0
VERTEX
  8
PLAN_1
 62
     2
  6
CONTINUOUS
 10
-1.291213
 20
3.620402
  0
VERTEX
  8
PLAN_1
 62
     2
  6
CONTINUOUS
 10
-1.291213
 20
3.616280
  0
VERTEX
  8
PLAN_1
 62
     2
  6
CONTINUOUS
 10
-1.291669
 20
3.613071
  0
VERTEX
  8
PLAN_1
 62
     2
  6
CONTINUOUS
 10
-1.291213
 20
3.608031
  0
VERTEX
  8
PLAN_1
 62
     2
  6
CONTINUOUS
 10
-1.289839
 20
3.603909
  0
VERTEX
  8
PLAN_1
 62
     2
  6
CONTINUOUS
 10
-1.288461
 20
3.600705
  0
VERTEX
  8
PLAN_1
 62
     2
  6
CONTINUOUS
 10
-1.286173
 20
3.598413
  0
VERTEX
  8
PLAN_1
 62
     2
  6
CONTINUOUS
 10
-1.283882
 20
3.596583
  0
VERTEX
  8
PLAN_1
 62
     2
  6
CONTINUOUS
 10
-1.281591
 20
3.595665
  0
VERTEX
  8
PLAN_1
 62
     2
  6
CONTINUOUS
 10
-1.278843
 20
3.594748
  0
VERTEX
  8
PLAN_1
 62
     2
  6
CONTINUOUS
 10
-1.276551
 20
3.594748
  0
VERTEX
  8
PLAN_1
 62
     2
  6
CONTINUOUS
 10
-1.273346
 20
3.595209
  0
VERTEX
  8
PLAN_1
 62
     2
  6
CONTINUOUS
 10
-1.270142
 20
3.596122
  0
VERTEX
  8
PLAN_1
 62
     2
  6
CONTINUOUS
 10
-1.267390
 20
3.597957
  0
VERTEX
  8
PLAN_1
 62
     2
  6
CONTINUOUS
 10
-1.265559
 20
3.600705
  0
VERTEX
  8
PLAN_1
 62
     2
  6
CONTINUOUS
 10
-1.264185
 20
3.603909
  0
VERTEX
  8
PLAN_1
 62
     2
  6
CONTINUOUS
 10
-1.262811
 20
3.607118
  0
VERTEX
  8
PLAN_1
 62
     2
  6
CONTINUOUS
 10
-1.262354
 20
3.611240
  0
VERTEX
  8
PLAN_1
 62
     2
  6
CONTINUOUS
 10
-1.261894
 20
3.615819
  0
VERTEX
  8
PLAN_1
 62
     2
  6
CONTINUOUS
 10
-1.261894
 20
3.618567
  0
VERTEX
  8
PLAN_1
 62
     2
  6
CONTINUOUS
 10
-1.262354
 20
3.621776
  0
VERTEX
  8
PLAN_1
 62
     2
  6
CONTINUOUS
 10
-1.262811
 20
3.624980
  0
VERTEX
  8
PLAN_1
 62
     2
  6
CONTINUOUS
 10
-1.264185
 20
3.628646
  0
VERTEX
  8
PLAN_1
 62
     2
  6
CONTINUOUS
 10
-1.265102
 20
3.630020
  0
VERTEX
  8
PLAN_1
 62
     2
  6
CONTINUOUS
 10
-1.266016
 20
3.631394
  0
VERTEX
  8
PLAN_1
 62
     2
  6
CONTINUOUS
 10
-1.266933
 20
3.632768
  0
VERTEX
  8
PLAN_1
 62
     2
  6
CONTINUOUS
 10
-1.268768
 20
3.633685
  0
VERTEX
  8
PLAN_1
 62
     2
  6
CONTINUOUS
 10
-1.270142
 20
3.634598
  0
VERTEX
  8
PLAN_1
 62
     2
  6
CONTINUOUS
 10
-1.271972
 20
3.635516
  0
VERTEX
  8
PLAN_1
 62
     2
  6
CONTINUOUS
 10
-1.274264
 20
3.635976
  0
VERTEX
  8
PLAN_1
 62
     2
  6
CONTINUOUS
 10
-1.277012
 20
3.635976
  0
SEQEND
  8
0
  0
SOLID
  8
PLAN_1
 62
     2
 10
-1.234409
 20
3.588335
 11
-1.243571
 21
3.588335
 12
-1.234409
 22
3.663000
 13
-1.243571
 23
3.663000
  0
POLYLINE
  8
PLAN_1
 62
     2
  6
CONTINUOUS
 66
     1
 40
0.003000
 41
0.003000
  0
VERTEX
  8
PLAN_1
 62
     2
  6
CONTINUOUS
 10
-1.234409
 20
3.588335
  0
VERTEX
  8
PLAN_1
 62
     2
  6
CONTINUOUS
 10
-1.243571
 20
3.588335
  0
VERTEX
  8
PLAN_1
 62
     2
  6
CONTINUOUS
 10
-1.243571
 20
3.663000
  0
VERTEX
  8
PLAN_1
 62
     2
  6
CONTINUOUS
 10
-1.234409
 20
3.663000
  0
VERTEX
  8
PLAN_1
 62
     2
  6
CONTINUOUS
 10
-1.234409
 20
3.588335
  0
SEQEND
  8
0
  0
POLYLINE
  8
PLAN_1
 62
     2
  6
CONTINUOUS
 66
     1
 40
0.003000
 41
0.003000
  0
VERTEX
  8
PLAN_1
 62
     2
  6
CONTINUOUS
 10
-1.198224
 20
3.644220
  0
VERTEX
  8
PLAN_1
 62
     2
  6
CONTINUOUS
 10
-1.195476
 20
3.644220
  0
VERTEX
  8
PLAN_1
 62
     2
  6
CONTINUOUS
 10
-1.192272
 20
3.643760
  0
VERTEX
  8
PLAN_1
 62
     2
  6
CONTINUOUS
 10
-1.189520
 20
3.642846
  0
VERTEX
  8
PLAN_1
 62
     2
  6
CONTINUOUS
 10
-1.187232
 20
3.641929
  0
VERTEX
  8
PLAN_1
 62
     2
  6
CONTINUOUS
 10
-1.184941
 20
3.640555
  0
VERTEX
  8
PLAN_1
 62
     2
  6
CONTINUOUS
 10
-1.182650
 20
3.638724
  0
VERTEX
  8
PLAN_1
 62
     2
  6
CONTINUOUS
 10
-1.180819
 20
3.637350
  0
VERTEX
  8
PLAN_1
 62
     2
  6
CONTINUOUS
 10
-1.179445
 20
3.635059
  0
VERTEX
  8
PLAN_1
 62
     2
  6
CONTINUOUS
 10
-1.177610
 20
3.633224
  0
VERTEX
  8
PLAN_1
 62
     2
  6
CONTINUOUS
 10
-1.176697
 20
3.630937
  0
VERTEX
  8
PLAN_1
 62
     2
  6
CONTINUOUS
 10
-1.175323
 20
3.628646
  0
VERTEX
  8
PLAN_1
 62
     2
  6
CONTINUOUS
 10
-1.174406
 20
3.625898
  0
VERTEX
  8
PLAN_1
 62
     2
  6
CONTINUOUS
 10
-1.173488
 20
3.620858
  0
VERTEX
  8
PLAN_1
 62
     2
  6
CONTINUOUS
 10
-1.173031
 20
3.615362
  0
VERTEX
  8
PLAN_1
 62
     2
  6
CONTINUOUS
 10
-1.173488
 20
3.610323
  0
VERTEX
  8
PLAN_1
 62
     2
  6
CONTINUOUS
 10
-1.174406
 20
3.605283
  0
VERTEX
  8
PLAN_1
 62
     2
  6
CONTINUOUS
 10
-1.175323
 20
3.602535
  0
VERTEX
  8
PLAN_1
 62
     2
  6
CONTINUOUS
 10
-1.176697
 20
3.600244
  0
VERTEX
  8
PLAN_1
 62
     2
  6
CONTINUOUS
 10
-1.177610
 20
3.597957
  0
VERTEX
  8
PLAN_1
 62
     2
  6
CONTINUOUS
 10
-1.179445
 20
3.596122
  0
VERTEX
  8
PLAN_1
 62
     2
  6
CONTINUOUS
 10
-1.180819
 20
3.593835
  0
VERTEX
  8
PLAN_1
 62
     2
  6
CONTINUOUS
 10
-1.182650
 20
3.592000
  0
VERTEX
  8
PLAN_1
 62
     2
  6
CONTINUOUS
 10
-1.184941
 20
3.590626
  0
VERTEX
  8
PLAN_1
 62
     2
  6
CONTINUOUS
 10
-1.187232
 20
3.589252
  0
VERTEX
  8
PLAN_1
 62
     2
  6
CONTINUOUS
 10
-1.189520
 20
3.588335
  0
VERTEX
  8
PLAN_1
 62
     2
  6
CONTINUOUS
 10
-1.192272
 20
3.587421
  0
VERTEX
  8
PLAN_1
 62
     2
  6
CONTINUOUS
 10
-1.195476
 20
3.586961
  0
VERTEX
  8
PLAN_1
 62
     2
  6
CONTINUOUS
 10
-1.198224
 20
3.586961
  0
VERTEX
  8
PLAN_1
 62
     2
  6
CONTINUOUS
 10
-1.201429
 20
3.586961
  0
VERTEX
  8
PLAN_1
 62
     2
  6
CONTINUOUS
 10
-1.204638
 20
3.587421
  0
VERTEX
  8
PLAN_1
 62
     2
  6
CONTINUOUS
 10
-1.207386
 20
3.588335
  0
VERTEX
  8
PLAN_1
 62
     2
  6
CONTINUOUS
 10
-1.209677
 20
3.589252
  0
VERTEX
  8
PLAN_1
 62
     2
  6
CONTINUOUS
 10
-1.211965
 20
3.590626
  0
VERTEX
  8
PLAN_1
 62
     2
  6
CONTINUOUS
 10
-1.214256
 20
3.592000
  0
VERTEX
  8
PLAN_1
 62
     2
  6
CONTINUOUS
 10
-1.216091
 20
3.593835
  0
VERTEX
  8
PLAN_1
 62
     2
  6
CONTINUOUS
 10
-1.217465
 20
3.596122
  0
VERTEX
  8
PLAN_1
 62
     2
  6
CONTINUOUS
 10
-1.218839
 20
3.597957
  0
VERTEX
  8
PLAN_1
 62
     2
  6
CONTINUOUS
 10
-1.220213
 20
3.600244
  0
VERTEX
  8
PLAN_1
 62
     2
  6
CONTINUOUS
 10
-1.221126
 20
3.602535
  0
VERTEX
  8
PLAN_1
 62
     2
  6
CONTINUOUS
 10
-1.222043
 20
3.605283
  0
VERTEX
  8
PLAN_1
 62
     2
  6
CONTINUOUS
 10
-1.223417
 20
3.610323
  0
VERTEX
  8
PLAN_1
 62
     2
  6
CONTINUOUS
 10
-1.223874
 20
3.615362
  0
VERTEX
  8
PLAN_1
 62
     2
  6
CONTINUOUS
 10
-1.223417
 20
3.620858
  0
VERTEX
  8
PLAN_1
 62
     2
  6
CONTINUOUS
 10
-1.222043
 20
3.625898
  0
VERTEX
  8
PLAN_1
 62
     2
  6
CONTINUOUS
 10
-1.221126
 20
3.628646
  0
VERTEX
  8
PLAN_1
 62
     2
  6
CONTINUOUS
 10
-1.220213
 20
3.630937
  0
VERTEX
  8
PLAN_1
 62
     2
  6
CONTINUOUS
 10
-1.218839
 20
3.633224
  0
VERTEX
  8
PLAN_1
 62
     2
  6
CONTINUOUS
 10
-1.217465
 20
3.635059
  0
VERTEX
  8
PLAN_1
 62
     2
  6
CONTINUOUS
 10
-1.216091
 20
3.637350
  0
VERTEX
  8
PLAN_1
 62
     2
  6
CONTINUOUS
 10
-1.214256
 20
3.638724
  0
VERTEX
  8
PLAN_1
 62
     2
  6
CONTINUOUS
 10
-1.211965
 20
3.640555
  0
VERTEX
  8
PLAN_1
 62
     2
  6
CONTINUOUS
 10
-1.209677
 20
3.641929
  0
VERTEX
  8
PLAN_1
 62
     2
  6
CONTINUOUS
 10
-1.207386
 20
3.642846
  0
VERTEX
  8
PLAN_1
 62
     2
  6
CONTINUOUS
 10
-1.204638
 20
3.643760
  0
VERTEX
  8
PLAN_1
 62
     2
  6
CONTINUOUS
 10
-1.201429
 20
3.644220
  0
VERTEX
  8
PLAN_1
 62
     2
  6
CONTINUOUS
 10
-1.198224
 20
3.644220
  0
SEQEND
  8
0
  0
POLYLINE
  8
PLAN_1
 62
     2
  6
CONTINUOUS
 66
     1
 40
0.003000
 41
0.003000
  0
VERTEX
  8
PLAN_1
 62
     2
  6
CONTINUOUS
 10
-1.198224
 20
3.594748
  0
VERTEX
  8
PLAN_1
 62
     2
  6
CONTINUOUS
 10
-1.195933
 20
3.594748
  0
VERTEX
  8
PLAN_1
 62
     2
  6
CONTINUOUS
 10
-1.194102
 20
3.595209
  0
VERTEX
  8
PLAN_1
 62
     2
  6
CONTINUOUS
 10
-1.192272
 20
3.596122
  0
VERTEX
  8
PLAN_1
 62
     2
  6
CONTINUOUS
 10
-1.190437
 20
3.597039
  0
VERTEX
  8
PLAN_1
 62
     2
  6
CONTINUOUS
 10
-1.187689
 20
3.599331
  0
VERTEX
  8
PLAN_1
 62
     2
  6
CONTINUOUS
 10
-1.185398
 20
3.602535
  0
VERTEX
  8
PLAN_1
 62
     2
  6
CONTINUOUS
 10
-1.184024
 20
3.605744
  0
VERTEX
  8
PLAN_1
 62
     2
  6
CONTINUOUS
 10
-1.183110
 20
3.609406
  0
VERTEX
  8
PLAN_1
 62
     2
  6
CONTINUOUS
 10
-1.182650
 20
3.612614
  0
VERTEX
  8
PLAN_1
 62
     2
  6
CONTINUOUS
 10
-1.182650
 20
3.615362
  0
VERTEX
  8
PLAN_1
 62
     2
  6
CONTINUOUS
 10
-1.182650
 20
3.618567
  0
VERTEX
  8
PLAN_1
 62
     2
  6
CONTINUOUS
 10
-1.183110
 20
3.621776
  0
VERTEX
  8
PLAN_1
 62
     2
  6
CONTINUOUS
 10
-1.184024
 20
3.625441
  0
VERTEX
  8
PLAN_1
 62
     2
  6
CONTINUOUS
 10
-1.185398
 20
3.628646
  0
VERTEX
  8
PLAN_1
 62
     2
  6
CONTINUOUS
 10
-1.187689
 20
3.631850
  0
VERTEX
  8
PLAN_1
 62
     2
  6
CONTINUOUS
 10
-1.190437
 20
3.634142
  0
VERTEX
  8
PLAN_1
 62
     2
  6
CONTINUOUS
 10
-1.192272
 20
3.635059
  0
VERTEX
  8
PLAN_1
 62
     2
  6
CONTINUOUS
 10
-1.194102
 20
3.635976
  0
VERTEX
  8
PLAN_1
 62
     2
  6
CONTINUOUS
 10
-1.195933
 20
3.636433
  0
VERTEX
  8
PLAN_1
 62
     2
  6
CONTINUOUS
 10
-1.198224
 20
3.636433
  0
VERTEX
  8
PLAN_1
 62
     2
  6
CONTINUOUS
 10
-1.200972
 20
3.636433
  0
VERTEX
  8
PLAN_1
 62
     2
  6
CONTINUOUS
 10
-1.202807
 20
3.635976
  0
VERTEX
  8
PLAN_1
 62
     2
  6
CONTINUOUS
 10
-1.204638
 20
3.635059
  0
VERTEX
  8
PLAN_1
 62
     2
  6
CONTINUOUS
 10
-1.206469
 20
3.634142
  0
VERTEX
  8
PLAN_1
 62
     2
  6
CONTINUOUS
 10
-1.209217
 20
3.631850
  0
VERTEX
  8
PLAN_1
 62
     2
  6
CONTINUOUS
 10
-1.211051
 20
3.628646
  0
VERTEX
  8
PLAN_1
 62
     2
  6
CONTINUOUS
 10
-1.212882
 20
3.625441
  0
VERTEX
  8
PLAN_1
 62
     2
  6
CONTINUOUS
 10
-1.213799
 20
3.621776
  0
VERTEX
  8
PLAN_1
 62
     2
  6
CONTINUOUS
 10
-1.214256
 20
3.618567
  0
VERTEX
  8
PLAN_1
 62
     2
  6
CONTINUOUS
 10
-1.214256
 20
3.615362
  0
VERTEX
  8
PLAN_1
 62
     2
  6
CONTINUOUS
 10
-1.214256
 20
3.612614
  0
VERTEX
  8
PLAN_1
 62
     2
  6
CONTINUOUS
 10
-1.213799
 20
3.609406
  0
VERTEX
  8
PLAN_1
 62
     2
  6
CONTINUOUS
 10
-1.212882
 20
3.605744
  0
VERTEX
  8
PLAN_1
 62
     2
  6
CONTINUOUS
 10
-1.211051
 20
3.602535
  0
VERTEX
  8
PLAN_1
 62
     2
  6
CONTINUOUS
 10
-1.209217
 20
3.599331
  0
VERTEX
  8
PLAN_1
 62
     2
  6
CONTINUOUS
 10
-1.206469
 20
3.597039
  0
VERTEX
  8
PLAN_1
 62
     2
  6
CONTINUOUS
 10
-1.204638
 20
3.596122
  0
VERTEX
  8
PLAN_1
 62
     2
  6
CONTINUOUS
 10
-1.202807
 20
3.595209
  0
VERTEX
  8
PLAN_1
 62
     2
  6
CONTINUOUS
 10
-1.200972
 20
3.594748
  0
VERTEX
  8
PLAN_1
 62
     2
  6
CONTINUOUS
 10
-1.198224
 20
3.594748
  0
SEQEND
  8
0
  0
POLYLINE
  8
PLAN_1
 62
     2
  6
CONTINUOUS
 66
     1
 40
0.003000
 41
0.003000
  0
VERTEX
  8
PLAN_1
 62
     2
  6
CONTINUOUS
 10
-1.118524
 20
3.588335
  0
VERTEX
  8
PLAN_1
 62
     2
  6
CONTINUOUS
 10
-1.127685
 20
3.588335
  0
VERTEX
  8
PLAN_1
 62
     2
  6
CONTINUOUS
 10
-1.127685
 20
3.621776
  0
VERTEX
  8
PLAN_1
 62
     2
  6
CONTINUOUS
 10
-1.127685
 20
3.624980
  0
VERTEX
  8
PLAN_1
 62
     2
  6
CONTINUOUS
 10
-1.128142
 20
3.628189
  0
VERTEX
  8
PLAN_1
 62
     2
  6
CONTINUOUS
 10
-1.129059
 20
3.630476
  0
VERTEX
  8
PLAN_1
 62
     2
  6
CONTINUOUS
 10
-1.129972
 20
3.632311
  0
VERTEX
  8
PLAN_1
 62
     2
  6
CONTINUOUS
 10
-1.131346
 20
3.634142
  0
VERTEX
  8
PLAN_1
 62
     2
  6
CONTINUOUS
 10
-1.133638
 20
3.635059
  0
VERTEX
  8
PLAN_1
 62
     2
  6
CONTINUOUS
 10
-1.135929
 20
3.635976
  0
VERTEX
  8
PLAN_1
 62
     2
  6
CONTINUOUS
 10
-1.139134
 20
3.635976
  0
VERTEX
  8
PLAN_1
 62
     2
  6
CONTINUOUS
 10
-1.141425
 20
3.635976
  0
VERTEX
  8
PLAN_1
 62
     2
  6
CONTINUOUS
 10
-1.143717
 20
3.635516
  0
VERTEX
  8
PLAN_1
 62
     2
  6
CONTINUOUS
 10
-1.146004
 20
3.634142
  0
VERTEX
  8
PLAN_1
 62
     2
  6
CONTINUOUS
 10
-1.148295
 20
3.632768
  0
VERTEX
  8
PLAN_1
 62
     2
  6
CONTINUOUS
 10
-1.150130
 20
3.630020
  0
VERTEX
  8
PLAN_1
 62
     2
  6
CONTINUOUS
 10
-1.151961
 20
3.626815
  0
VERTEX
  8
PLAN_1
 62
     2
  6
CONTINUOUS
 10
-1.153335
 20
3.623150
  0
VERTEX
  8
PLAN_1
 62
     2
  6
CONTINUOUS
 10
-1.153335
 20
3.618110
  0
VERTEX
  8
PLAN_1
 62
     2
  6
CONTINUOUS
 10
-1.153335
 20
3.588335
  0
VERTEX
  8
PLAN_1
 62
     2
  6
CONTINUOUS
 10
-1.162496
 20
3.588335
  0
VERTEX
  8
PLAN_1
 62
     2
  6
CONTINUOUS
 10
-1.162496
 20
3.642846
  0
VERTEX
  8
PLAN_1
 62
     2
  6
CONTINUOUS
 10
-1.154252
 20
3.642846
  0
VERTEX
  8
PLAN_1
 62
     2
  6
CONTINUOUS
 10
-1.154252
 20
3.635059
  0
VERTEX
  8
PLAN_1
 62
     2
  6
CONTINUOUS
 10
-1.153791
 20
3.635059
  0
VERTEX
  8
PLAN_1
 62
     2
  6
CONTINUOUS
 10
-1.152878
 20
3.636433
  0
VERTEX
  8
PLAN_1
 62
     2
  6
CONTINUOUS
 10
-1.151961
 20
3.637807
  0
VERTEX
  8
PLAN_1
 62
     2
  6
CONTINUOUS
 10
-1.150130
 20
3.639181
  0
VERTEX
  8
PLAN_1
 62
     2
  6
CONTINUOUS
 10
-1.148295
 20
3.640555
  0
VERTEX
  8
PLAN_1
 62
     2
  6
CONTINUOUS
 10
-1.146004
 20
3.641929
  0
VERTEX
  8
PLAN_1
 62
     2
  6
CONTINUOUS
 10
-1.143717
 20
3.643303
  0
VERTEX
  8
PLAN_1
 62
     2
  6
CONTINUOUS
 10
-1.140508
 20
3.644220
  0
VERTEX
  8
PLAN_1
 62
     2
  6
CONTINUOUS
 10
-1.137303
 20
3.644220
  0
VERTEX
  8
PLAN_1
 62
     2
  6
CONTINUOUS
 10
-1.134094
 20
3.644220
  0
VERTEX
  8
PLAN_1
 62
     2
  6
CONTINUOUS
 10
-1.130890
 20
3.643303
  0
VERTEX
  8
PLAN_1
 62
     2
  6
CONTINUOUS
 10
-1.127685
 20
3.642386
  0
VERTEX
  8
PLAN_1
 62
     2
  6
CONTINUOUS
 10
-1.124933
 20
3.640555
  0
VERTEX
  8
PLAN_1
 62
     2
  6
CONTINUOUS
 10
-1.123559
 20
3.639638
  0
VERTEX
  8
PLAN_1
 62
     2
  6
CONTINUOUS
 10
-1.122185
 20
3.638264
  0
VERTEX
  8
PLAN_1
 62
     2
  6
CONTINUOUS
 10
-1.121272
 20
3.636433
  0
VERTEX
  8
PLAN_1
 62
     2
  6
CONTINUOUS
 10
-1.120354
 20
3.635059
  0
VERTEX
  8
PLAN_1
 62
     2
  6
CONTINUOUS
 10
-1.119437
 20
3.632768
  0
VERTEX
  8
PLAN_1
 62
     2
  6
CONTINUOUS
 10
-1.118980
 20
3.630476
  0
VERTEX
  8
PLAN_1
 62
     2
  6
CONTINUOUS
 10
-1.118524
 20
3.628189
  0
VERTEX
  8
PLAN_1
 62
     2
  6
CONTINUOUS
 10
-1.118524
 20
3.625441
  0
VERTEX
  8
PLAN_1
 62
     2
  6
CONTINUOUS
 10
-1.118524
 20
3.588335
  0
SEQEND
  8
0
  0
POLYLINE
  8
PLAN_1
 62
     2
  6
CONTINUOUS
 66
     1
 40
0.003000
 41
0.003000
  0
VERTEX
  8
PLAN_1
 62
     2
  6
CONTINUOUS
 10
-1.059433
 20
3.592917
  0
VERTEX
  8
PLAN_1
 62
     2
  6
CONTINUOUS
 10
-1.059890
 20
3.589252
  0
VERTEX
  8
PLAN_1
 62
     2
  6
CONTINUOUS
 10
-1.059890
 20
3.585130
  0
VERTEX
  8
PLAN_1
 62
     2
  6
CONTINUOUS
 10
-1.060807
 20
3.580547
  0
VERTEX
  8
PLAN_1
 62
     2
  6
CONTINUOUS
 10
-1.062638
 20
3.575969
  0
VERTEX
  8
PLAN_1
 62
     2
  6
CONTINUOUS
 10
-1.064012
 20
3.574138
  0
VERTEX
  8
PLAN_1
 62
     2
  6
CONTINUOUS
 10
-1.065846
 20
3.571846
  0
VERTEX
  8
PLAN_1
 62
     2
  6
CONTINUOUS
 10
-1.067677
 20
3.570012
  0
VERTEX
  8
PLAN_1
 62
     2
  6
CONTINUOUS
 10
-1.070425
 20
3.568638
  0
VERTEX
  8
PLAN_1
 62
     2
  6
CONTINUOUS
 10
-1.073173
 20
3.567264
  0
VERTEX
  8
PLAN_1
 62
     2
  6
CONTINUOUS
 10
-1.076382
 20
3.566350
  0
VERTEX
  8
PLAN_1
 62
     2
  6
CONTINUOUS
 10
-1.080504
 20
3.565433
  0
VERTEX
  8
PLAN_1
 62
     2
  6
CONTINUOUS
 10
-1.085083
 20
3.565433
  0
VERTEX
  8
PLAN_1
 62
     2
  6
CONTINUOUS
 10
-1.087374
 20
3.565433
  0
VERTEX
  8
PLAN_1
 62
     2
  6
CONTINUOUS
 10
-1.090579
 20
3.565890
  0
VERTEX
  8
PLAN_1
 62
     2
  6
CONTINUOUS
 10
-1.093787
 20
3.566807
  0
VERTEX
  8
PLAN_1
 62
     2
  6
CONTINUOUS
 10
-1.096992
 20
3.568181
  0
VERTEX
  8
PLAN_1
 62
     2
  6
CONTINUOUS
 10
-1.100201
 20
3.570012
  0
VERTEX
  8
PLAN_1
 62
     2
  6
CONTINUOUS
 10
-1.102488
 20
3.573220
  0
VERTEX
  8
PLAN_1
 62
     2
  6
CONTINUOUS
 10
-1.103862
 20
3.574594
  0
VERTEX
  8
PLAN_1
 62
     2
  6
CONTINUOUS
 10
-1.104780
 20
3.576886
  0
VERTEX
  8
PLAN_1
 62
     2
  6
CONTINUOUS
 10
-1.105240
 20
3.579173
  0
VERTEX
  8
PLAN_1
 62
     2
  6
CONTINUOUS
 10
-1.105697
 20
3.581465
  0
VERTEX
  8
PLAN_1
 62
     2
  6
CONTINUOUS
 10
-1.096535
 20
3.581465
  0
VERTEX
  8
PLAN_1
 62
     2
  6
CONTINUOUS
 10
-1.095618
 20
3.578717
  0
VERTEX
  8
PLAN_1
 62
     2
  6
CONTINUOUS
 10
-1.094244
 20
3.576425
  0
VERTEX
  8
PLAN_1
 62
     2
  6
CONTINUOUS
 10
-1.092413
 20
3.575051
  0
VERTEX
  8
PLAN_1
 62
     2
  6
CONTINUOUS
 10
-1.090579
 20
3.574138
  0
VERTEX
  8
PLAN_1
 62
     2
  6
CONTINUOUS
 10
-1.088748
 20
3.573677
  0
VERTEX
  8
PLAN_1
 62
     2
  6
CONTINUOUS
 10
-1.086917
 20
3.573220
  0
VERTEX
  8
PLAN_1
 62
     2
  6
CONTINUOUS
 10
-1.085543
 20
3.573220
  0
VERTEX
  8
PLAN_1
 62
     2
  6
CONTINUOUS
 10
-1.084169
 20
3.573220
  0
VERTEX
  8
PLAN_1
 62
     2
  6
CONTINUOUS
 10
-1.081417
 20
3.573220
  0
VERTEX
  8
PLAN_1
 62
     2
  6
CONTINUOUS
 10
-1.079130
 20
3.573677
  0
VERTEX
  8
PLAN_1
 62
     2
  6
CONTINUOUS
 10
-1.076839
 20
3.574138
  0
VERTEX
  8
PLAN_1
 62
     2
  6
CONTINUOUS
 10
-1.075008
 20
3.575051
  0
VERTEX
  8
PLAN_1
 62
     2
  6
CONTINUOUS
 10
-1.073634
 20
3.575969
  0
VERTEX
  8
PLAN_1
 62
     2
  6
CONTINUOUS
 10
-1.072260
 20
3.577343
  0
VERTEX
  8
PLAN_1
 62
     2
  6
CONTINUOUS
 10
-1.071343
 20
3.578717
  0
VERTEX
  8
PLAN_1
 62
     2
  6
CONTINUOUS
 10
-1.070425
 20
3.580091
  0
VERTEX
  8
PLAN_1
 62
     2
  6
CONTINUOUS
 10
-1.069508
 20
3.583299
  0
VERTEX
  8
PLAN_1
 62
     2
  6
CONTINUOUS
 10
-1.069051
 20
3.586504
  0
VERTEX
  8
PLAN_1
 62
     2
  6
CONTINUOUS
 10
-1.068594
 20
3.589252
  0
VERTEX
  8
PLAN_1
 62
     2
  6
CONTINUOUS
 10
-1.068594
 20
3.592000
  0
VERTEX
  8
PLAN_1
 62
     2
  6
CONTINUOUS
 10
-1.068594
 20
3.594291
  0
VERTEX
  8
PLAN_1
 62
     2
  6
CONTINUOUS
 10
-1.069051
 20
3.594291
  0
VERTEX
  8
PLAN_1
 62
     2
  6
CONTINUOUS
 10
-1.069051
 20
3.593835
  0
VERTEX
  8
PLAN_1
 62
     2
  6
CONTINUOUS
 10
-1.069969
 20
3.592461
  0
VERTEX
  8
PLAN_1
 62
     2
  6
CONTINUOUS
 10
-1.071343
 20
3.591083
  0
VERTEX
  8
PLAN_1
 62
     2
  6
CONTINUOUS
 10
-1.072717
 20
3.590169
  0
VERTEX
  8
PLAN_1
 62
     2
  6
CONTINUOUS
 10
-1.074547
 20
3.588795
  0
VERTEX
  8
PLAN_1
 62
     2
  6
CONTINUOUS
 10
-1.076382
 20
3.587878
  0
VERTEX
  8
PLAN_1
 62
     2
  6
CONTINUOUS
 10
-1.078669
 20
3.587421
  0
VERTEX
  8
PLAN_1
 62
     2
  6
CONTINUOUS
 10
-1.080961
 20
3.586961
  0
VERTEX
  8
PLAN_1
 62
     2
  6
CONTINUOUS
 10
-1.083252
 20
3.586961
  0
VERTEX
  8
PLAN_1
 62
     2
  6
CONTINUOUS
 10
-1.086917
 20
3.586961
  0
VERTEX
  8
PLAN_1
 62
     2
  6
CONTINUOUS
 10
-1.089665
 20
3.587421
  0
VERTEX
  8
PLAN_1
 62
     2
  6
CONTINUOUS
 10
-1.092413
 20
3.588335
  0
VERTEX
  8
PLAN_1
 62
     2
  6
CONTINUOUS
 10
-1.095161
 20
3.589709
  0
VERTEX
  8
PLAN_1
 62
     2
  6
CONTINUOUS
 10
-1.096992
 20
3.591083
  0
VERTEX
  8
PLAN_1
 62
     2
  6
CONTINUOUS
 10
-1.099283
 20
3.592917
  0
VERTEX
  8
PLAN_1
 62
     2
  6
CONTINUOUS
 10
-1.100657
 20
3.594748
  0
VERTEX
  8
PLAN_1
 62
     2
  6
CONTINUOUS
 10
-1.102488
 20
3.597039
  0
VERTEX
  8
PLAN_1
 62
     2
  6
CONTINUOUS
 10
-1.104780
 20
3.601618
  0
VERTEX
  8
PLAN_1
 62
     2
  6
CONTINUOUS
 10
-1.106154
 20
3.606657
  0
VERTEX
  8
PLAN_1
 62
     2
  6
CONTINUOUS
 10
-1.107071
 20
3.612154
  0
VERTEX
  8
PLAN_1
 62
     2
  6
CONTINUOUS
 10
-1.107528
 20
3.617193
  0
VERTEX
  8
PLAN_1
 62
     2
  6
CONTINUOUS
 10
-1.107071
 20
3.622689
  0
VERTEX
  8
PLAN_1
 62
     2
  6
CONTINUOUS
 10
-1.105697
 20
3.627728
  0
VERTEX
  8
PLAN_1
 62
     2
  6
CONTINUOUS
 10
-1.103862
 20
3.632311
  0
VERTEX
  8
PLAN_1
 62
     2
  6
CONTINUOUS
 10
-1.101575
 20
3.636433
  0
VERTEX
  8
PLAN_1
 62
     2
  6
CONTINUOUS
 10
-1.099740
 20
3.638264
  0
VERTEX
  8
PLAN_1
 62
     2
  6
CONTINUOUS
 10
-1.098366
 20
3.639638
  0
VERTEX
  8
PLAN_1
 62
     2
  6
CONTINUOUS
 10
-1.096535
 20
3.641012
  0
VERTEX
  8
PLAN_1
 62
     2
  6
CONTINUOUS
 10
-1.094244
 20
3.642386
  0
VERTEX
  8
PLAN_1
 62
     2
  6
CONTINUOUS
 10
-1.091953
 20
3.643303
  0
VERTEX
  8
PLAN_1
 62
     2
  6
CONTINUOUS
 10
-1.089665
 20
3.643760
  0
VERTEX
  8
PLAN_1
 62
     2
  6
CONTINUOUS
 10
-1.087374
 20
3.644220
  0
VERTEX
  8
PLAN_1
 62
     2
  6
CONTINUOUS
 10
-1.084626
 20
3.644220
  0
VERTEX
  8
PLAN_1
 62
     2
  6
CONTINUOUS
 10
-1.081417
 20
3.644220
  0
VERTEX
  8
PLAN_1
 62
     2
  6
CONTINUOUS
 10
-1.078213
 20
3.643303
  0
VERTEX
  8
PLAN_1
 62
     2
  6
CONTINUOUS
 10
-1.075921
 20
3.642386
  0
VERTEX
  8
PLAN_1
 62
     2
  6
CONTINUOUS
 10
-1.073634
 20
3.641012
  0
VERTEX
  8
PLAN_1
 62
     2
  6
CONTINUOUS
 10
-1.071799
 20
3.639181
  0
VERTEX
  8
PLAN_1
 62
     2
  6
CONTINUOUS
 10
-1.070425
 20
3.637807
  0
VERTEX
  8
PLAN_1
 62
     2
  6
CONTINUOUS
 10
-1.069508
 20
3.636433
  0
VERTEX
  8
PLAN_1
 62
     2
  6
CONTINUOUS
 10
-1.068594
 20
3.635059
  0
VERTEX
  8
PLAN_1
 62
     2
  6
CONTINUOUS
 10
-1.068134
 20
3.635059
  0
VERTEX
  8
PLAN_1
 62
     2
  6
CONTINUOUS
 10
-1.068134
 20
3.642846
  0
VERTEX
  8
PLAN_1
 62
     2
  6
CONTINUOUS
 10
-1.059433
 20
3.642846
  0
VERTEX
  8
PLAN_1
 62
     2
  6
CONTINUOUS
 10
-1.059433
 20
3.592917
  0
SEQEND
  8
0
  0
POLYLINE
  8
PLAN_1
 62
     2
  6
CONTINUOUS
 66
     1
 40
0.003000
 41
0.003000
  0
VERTEX
  8
PLAN_1
 62
     2
  6
CONTINUOUS
 10
-1.083252
 20
3.594748
  0
VERTEX
  8
PLAN_1
 62
     2
  6
CONTINUOUS
 10
-1.080961
 20
3.594748
  0
VERTEX
  8
PLAN_1
 62
     2
  6
CONTINUOUS
 10
-1.078669
 20
3.595665
  0
VERTEX
  8
PLAN_1
 62
     2
  6
CONTINUOUS
 10
-1.075921
 20
3.596583
  0
VERTEX
  8
PLAN_1
 62
     2
  6
CONTINUOUS
 10
-1.073634
 20
3.598413
  0
VERTEX
  8
PLAN_1
 62
     2
  6
CONTINUOUS
 10
-1.071343
 20
3.600705
  0
VERTEX
  8
PLAN_1
 62
     2
  6
CONTINUOUS
 10
-1.069969
 20
3.603909
  0
VERTEX
  8
PLAN_1
 62
     2
  6
CONTINUOUS
 10
-1.068594
 20
3.608031
  0
VERTEX
  8
PLAN_1
 62
     2
  6
CONTINUOUS
 10
-1.068594
 20
3.613071
  0
VERTEX
  8
PLAN_1
 62
     2
  6
CONTINUOUS
 10
-1.068594
 20
3.616280
  0
VERTEX
  8
PLAN_1
 62
     2
  6
CONTINUOUS
 10
-1.068594
 20
3.620402
  0
VERTEX
  8
PLAN_1
 62
     2
  6
CONTINUOUS
 10
-1.069508
 20
3.624063
  0
VERTEX
  8
PLAN_1
 62
     2
  6
CONTINUOUS
 10
-1.070882
 20
3.627728
  0
VERTEX
  8
PLAN_1
 62
     2
  6
CONTINUOUS
 10
-1.071799
 20
3.629563
  0
VERTEX
  8
PLAN_1
 62
     2
  6
CONTINUOUS
 10
-1.072717
 20
3.630937
  0
VERTEX
  8
PLAN_1
 62
     2
  6
CONTINUOUS
 10
-1.073634
 20
3.632311
  0
VERTEX
  8
PLAN_1
 62
     2
  6
CONTINUOUS
 10
-1.075008
 20
3.633685
  0
VERTEX
  8
PLAN_1
 62
     2
  6
CONTINUOUS
 10
-1.076839
 20
3.634598
  0
VERTEX
  8
PLAN_1
 62
     2
  6
CONTINUOUS
 10
-1.078669
 20
3.635516
  0
VERTEX
  8
PLAN_1
 62
     2
  6
CONTINUOUS
 10
-1.080504
 20
3.635976
  0
VERTEX
  8
PLAN_1
 62
     2
  6
CONTINUOUS
 10
-1.083252
 20
3.635976
  0
VERTEX
  8
PLAN_1
 62
     2
  6
CONTINUOUS
 10
-1.085543
 20
3.635976
  0
VERTEX
  8
PLAN_1
 62
     2
  6
CONTINUOUS
 10
-1.087831
 20
3.635516
  0
VERTEX
  8
PLAN_1
 62
     2
  6
CONTINUOUS
 10
-1.089665
 20
3.634598
  0
VERTEX
  8
PLAN_1
 62
     2
  6
CONTINUOUS
 10
-1.091496
 20
3.633685
  0
VERTEX
  8
PLAN_1
 62
     2
  6
CONTINUOUS
 10
-1.092870
 20
3.632768
  0
VERTEX
  8
PLAN_1
 62
     2
  6
CONTINUOUS
 10
-1.093787
 20
3.631394
  0
VERTEX
  8
PLAN_1
 62
     2
  6
CONTINUOUS
 10
-1.095161
 20
3.630020
  0
VERTEX
  8
PLAN_1
 62
     2
  6
CONTINUOUS
 10
-1.095618
 20
3.628646
  0
VERTEX
  8
PLAN_1
 62
     2
  6
CONTINUOUS
 10
-1.096992
 20
3.624980
  0
VERTEX
  8
PLAN_1
 62
     2
  6
CONTINUOUS
 10
-1.097453
 20
3.621776
  0
VERTEX
  8
PLAN_1
 62
     2
  6
CONTINUOUS
 10
-1.097909
 20
3.618567
  0
VERTEX
  8
PLAN_1
 62
     2
  6
CONTINUOUS
 10
-1.097909
 20
3.615819
  0
VERTEX
  8
PLAN_1
 62
     2
  6
CONTINUOUS
 10
-1.097909
 20
3.611240
  0
VERTEX
  8
PLAN_1
 62
     2
  6
CONTINUOUS
 10
-1.096992
 20
3.607118
  0
VERTEX
  8
PLAN_1
 62
     2
  6
CONTINUOUS
 10
-1.096079
 20
3.603909
  0
VERTEX
  8
PLAN_1
 62
     2
  6
CONTINUOUS
 10
-1.094244
 20
3.600705
  0
VERTEX
  8
PLAN_1
 62
     2
  6
CONTINUOUS
 10
-1.092413
 20
3.597957
  0
VERTEX
  8
PLAN_1
 62
     2
  6
CONTINUOUS
 10
-1.089665
 20
3.596122
  0
VERTEX
  8
PLAN_1
 62
     2
  6
CONTINUOUS
 10
-1.086917
 20
3.595209
  0
VERTEX
  8
PLAN_1
 62
     2
  6
CONTINUOUS
 10
-1.083252
 20
3.594748
  0
SEQEND
  8
0
  0
POLYLINE
  8
PLAN_1
 62
     2
  6
CONTINUOUS
 66
     1
 40
0.003000
 41
0.003000
  0
VERTEX
  8
PLAN_1
 62
     2
  6
CONTINUOUS
 10
-1.015917
 20
3.627272
  0
VERTEX
  8
PLAN_1
 62
     2
  6
CONTINUOUS
 10
-1.015917
 20
3.628646
  0
VERTEX
  8
PLAN_1
 62
     2
  6
CONTINUOUS
 10
-1.016374
 20
3.630020
  0
VERTEX
  8
PLAN_1
 62
     2
  6
CONTINUOUS
 10
-1.017291
 20
3.631394
  0
VERTEX
  8
PLAN_1
 62
     2
  6
CONTINUOUS
 10
-1.018209
 20
3.633224
  0
VERTEX
  8
PLAN_1
 62
     2
  6
CONTINUOUS
 10
-1.019583
 20
3.634142
  0
VERTEX
  8
PLAN_1
 62
     2
  6
CONTINUOUS
 10
-1.021870
 20
3.635516
  0
VERTEX
  8
PLAN_1
 62
     2
  6
CONTINUOUS
 10
-1.025079
 20
3.635976
  0
VERTEX
  8
PLAN_1
 62
     2
  6
CONTINUOUS
 10
-1.028744
 20
3.636433
  0
VERTEX
  8
PLAN_1
 62
     2
  6
CONTINUOUS
 10
-1.030118
 20
3.636433
  0
VERTEX
  8
PLAN_1
 62
     2
  6
CONTINUOUS
 10
-1.031949
 20
3.635976
  0
VERTEX
  8
PLAN_1
 62
     2
  6
CONTINUOUS
 10
-1.033780
 20
3.635516
  0
VERTEX
  8
PLAN_1
 62
     2
  6
CONTINUOUS
 10
-1.035154
 20
3.635059
  0
VERTEX
  8
PLAN_1
 62
     2
  6
CONTINUOUS
 10
-1.036988
 20
3.634142
  0
VERTEX
  8
PLAN_1
 62
     2
  6
CONTINUOUS
 10
-1.038362
 20
3.632768
  0
VERTEX
  8
PLAN_1
 62
     2
  6
CONTINUOUS
 10
-1.039280
 20
3.630937
  0
VERTEX
  8
PLAN_1
 62
     2
  6
CONTINUOUS
 10
-1.039736
 20
3.628646
  0
VERTEX
  8
PLAN_1
 62
     2
  6
CONTINUOUS
 10
-1.039736
 20
3.627272
  0
VERTEX
  8
PLAN_1
 62
     2
  6
CONTINUOUS
 10
-1.039280
 20
3.625898
  0
VERTEX
  8
PLAN_1
 62
     2
  6
CONTINUOUS
 10
-1.038362
 20
3.624980
  0
VERTEX
  8
PLAN_1
 62
     2
  6
CONTINUOUS
 10
-1.037445
 20
3.624063
  0
VERTEX
  8
PLAN_1
 62
     2
  6
CONTINUOUS
 10
-1.036071
 20
3.623150
  0
VERTEX
  8
PLAN_1
 62
     2
  6
CONTINUOUS
 10
-1.034240
 20
3.622689
  0
VERTEX
  8
PLAN_1
 62
     2
  6
CONTINUOUS
 10
-1.032406
 20
3.622232
  0
VERTEX
  8
PLAN_1
 62
     2
  6
CONTINUOUS
 10
-1.029657
 20
3.621315
  0
VERTEX
  8
PLAN_1
 62
     2
  6
CONTINUOUS
 10
-1.020496
 20
3.619028
  0
VERTEX
  8
PLAN_1
 62
     2
  6
CONTINUOUS
 10
-1.016835
 20
3.618110
  0
VERTEX
  8
PLAN_1
 62
     2
  6
CONTINUOUS
 10
-1.013626
 20
3.616736
  0
VERTEX
  8
PLAN_1
 62
     2
  6
CONTINUOUS
 10
-1.010878
 20
3.615362
  0
VERTEX
  8
PLAN_1
 62
     2
  6
CONTINUOUS
 10
-1.008587
 20
3.613528
  0
VERTEX
  8
PLAN_1
 62
     2
  6
CONTINUOUS
 10
-1.007213
 20
3.611697
  0
VERTEX
  8
PLAN_1
 62
     2
  6
CONTINUOUS
 10
-1.006299
 20
3.609866
  0
VERTEX
  8
PLAN_1
 62
     2
  6
CONTINUOUS
 10
-1.005382
 20
3.607575
  0
VERTEX
  8
PLAN_1
 62
     2
  6
CONTINUOUS
 10
-1.005382
 20
3.604827
  0
VERTEX
  8
PLAN_1
 62
     2
  6
CONTINUOUS
 10
-1.005839
 20
3.600705
  0
VERTEX
  8
PLAN_1
 62
     2
  6
CONTINUOUS
 10
-1.007213
 20
3.597039
  0
VERTEX
  8
PLAN_1
 62
     2
  6
CONTINUOUS
 10
-1.009047
 20
3.594291
  0
VERTEX
  8
PLAN_1
 62
     2
  6
CONTINUOUS
 10
-1.011335
 20
3.591543
  0
VERTEX
  8
PLAN_1
 62
     2
  6
CONTINUOUS
 10
-1.014543
 20
3.589252
  0
VERTEX
  8
PLAN_1
 62
     2
  6
CONTINUOUS
 10
-1.018209
 20
3.587878
  0
VERTEX
  8
PLAN_1
 62
     2
  6
CONTINUOUS
 10
-1.022331
 20
3.586961
  0
VERTEX
  8
PLAN_1
 62
     2
  6
CONTINUOUS
 10
-1.026909
 20
3.586961
  0
VERTEX
  8
PLAN_1
 62
     2
  6
CONTINUOUS
 10
-1.030575
 20
3.586961
  0
VERTEX
  8
PLAN_1
 62
     2
  6
CONTINUOUS
 10
-1.034240
 20
3.587421
  0
VERTEX
  8
PLAN_1
 62
     2
  6
CONTINUOUS
 10
-1.036988
 20
3.587878
  0
VERTEX
  8
PLAN_1
 62
     2
  6
CONTINUOUS
 10
-1.039736
 20
3.588795
  0
VERTEX
  8
PLAN_1
 62
     2
  6
CONTINUOUS
 10
-1.042028
 20
3.589709
  0
VERTEX
  8
PLAN_1
 62
     2
  6
CONTINUOUS
 10
-1.043858
 20
3.591083
  0
VERTEX
  8
PLAN_1
 62
     2
  6
CONTINUOUS
 10
-1.045232
 20
3.592461
  0
VERTEX
  8
PLAN_1
 62
     2
  6
CONTINUOUS
 10
-1.046606
 20
3.593835
  0
VERTEX
  8
PLAN_1
 62
     2
  6
CONTINUOUS
 10
-1.048437
 20
3.597039
  0
VERTEX
  8
PLAN_1
 62
     2
  6
CONTINUOUS
 10
-1.049354
 20
3.600244
  0
VERTEX
  8
PLAN_1
 62
     2
  6
CONTINUOUS
 10
-1.050272
 20
3.602992
  0
VERTEX
  8
PLAN_1
 62
     2
  6
CONTINUOUS
 10
-1.050272
 20
3.605744
  0
VERTEX
  8
PLAN_1
 62
     2
  6
CONTINUOUS
 10
-1.041567
 20
3.605744
  0
VERTEX
  8
PLAN_1
 62
     2
  6
CONTINUOUS
 10
-1.041110
 20
3.603909
  0
VERTEX
  8
PLAN_1
 62
     2
  6
CONTINUOUS
 10
-1.041110
 20
3.602079
  0
VERTEX
  8
PLAN_1
 62
     2
  6
CONTINUOUS
 10
-1.040193
 20
3.600244
  0
VERTEX
  8
PLAN_1
 62
     2
  6
CONTINUOUS
 10
-1.038819
 20
3.598413
  0
VERTEX
  8
PLAN_1
 62
     2
  6
CONTINUOUS
 10
-1.036988
 20
3.597039
  0
VERTEX
  8
PLAN_1
 62
     2
  6
CONTINUOUS
 10
-1.034697
 20
3.595665
  0
VERTEX
  8
PLAN_1
 62
     2
  6
CONTINUOUS
 10
-1.031492
 20
3.594748
  0
VERTEX
  8
PLAN_1
 62
     2
  6
CONTINUOUS
 10
-1.026909
 20
3.594748
  0
VERTEX
  8
PLAN_1
 62
     2
  6
CONTINUOUS
 10
-1.024618
 20
3.594748
  0
VERTEX
  8
PLAN_1
 62
     2
  6
CONTINUOUS
 10
-1.022331
 20
3.595209
  0
VERTEX
  8
PLAN_1
 62
     2
  6
CONTINUOUS
 10
-1.020039
 20
3.595665
  0
VERTEX
  8
PLAN_1
 62
     2
  6
CONTINUOUS
 10
-1.018209
 20
3.596583
  0
VERTEX
  8
PLAN_1
 62
     2
  6
CONTINUOUS
 10
-1.016835
 20
3.597957
  0
VERTEX
  8
PLAN_1
 62
     2
  6
CONTINUOUS
 10
-1.015457
 20
3.599331
  0
VERTEX
  8
PLAN_1
 62
     2
  6
CONTINUOUS
 10
-1.015000
 20
3.601161
  0
VERTEX
  8
PLAN_1
 62
     2
  6
CONTINUOUS
 10
-1.014543
 20
3.603453
  0
VERTEX
  8
PLAN_1
 62
     2
  6
CONTINUOUS
 10
-1.014543
 20
3.604827
  0
VERTEX
  8
PLAN_1
 62
     2
  6
CONTINUOUS
 10
-1.015000
 20
3.606201
  0
VERTEX
  8
PLAN_1
 62
     2
  6
CONTINUOUS
 10
-1.015917
 20
3.607118
  0
VERTEX
  8
PLAN_1
 62
     2
  6
CONTINUOUS
 10
-1.016835
 20
3.608031
  0
VERTEX
  8
PLAN_1
 62
     2
  6
CONTINUOUS
 10
-1.018665
 20
3.608949
  0
VERTEX
  8
PLAN_1
 62
     2
  6
CONTINUOUS
 10
-1.020496
 20
3.609866
  0
VERTEX
  8
PLAN_1
 62
     2
  6
CONTINUOUS
 10
-1.022787
 20
3.610323
  0
VERTEX
  8
PLAN_1
 62
     2
  6
CONTINUOUS
 10
-1.025535
 20
3.611240
  0
VERTEX
  8
PLAN_1
 62
     2
  6
CONTINUOUS
 10
-1.036071
 20
3.613528
  0
VERTEX
  8
PLAN_1
 62
     2
  6
CONTINUOUS
 10
-1.038819
 20
3.614445
  0
VERTEX
  8
PLAN_1
 62
     2
  6
CONTINUOUS
 10
-1.041110
 20
3.615362
  0
VERTEX
  8
PLAN_1
 62
     2
  6
CONTINUOUS
 10
-1.043402
 20
3.616736
  0
VERTEX
  8
PLAN_1
 62
     2
  6
CONTINUOUS
 10
-1.045232
 20
3.618110
  0
VERTEX
  8
PLAN_1
 62
     2
  6
CONTINUOUS
 10
-1.046606
 20
3.619941
  0
VERTEX
  8
PLAN_1
 62
     2
  6
CONTINUOUS
 10
-1.047524
 20
3.621776
  0
VERTEX
  8
PLAN_1
 62
     2
  6
CONTINUOUS
 10
-1.048437
 20
3.624063
  0
VERTEX
  8
PLAN_1
 62
     2
  6
CONTINUOUS
 10
-1.048437
 20
3.626815
  0
VERTEX
  8
PLAN_1
 62
     2
  6
CONTINUOUS
 10
-1.048437
 20
3.629102
  0
VERTEX
  8
PLAN_1
 62
     2
  6
CONTINUOUS
 10
-1.047980
 20
3.630937
  0
VERTEX
  8
PLAN_1
 62
     2
  6
CONTINUOUS
 10
-1.047524
 20
3.632768
  0
VERTEX
  8
PLAN_1
 62
     2
  6
CONTINUOUS
 10
-1.047063
 20
3.634598
  0
VERTEX
  8
PLAN_1
 62
     2
  6
CONTINUOUS
 10
-1.044776
 20
3.637807
  0
VERTEX
  8
PLAN_1
 62
     2
  6
CONTINUOUS
 10
-1.042484
 20
3.640098
  0
VERTEX
  8
PLAN_1
 62
     2
  6
CONTINUOUS
 10
-1.039280
 20
3.641929
  0
VERTEX
  8
PLAN_1
 62
     2
  6
CONTINUOUS
 10
-1.035614
 20
3.643303
  0
VERTEX
  8
PLAN_1
 62
     2
  6
CONTINUOUS
 10
-1.031949
 20
3.644220
  0
VERTEX
  8
PLAN_1
 62
     2
  6
CONTINUOUS
 10
-1.027827
 20
3.644220
  0
VERTEX
  8
PLAN_1
 62
     2
  6
CONTINUOUS
 10
-1.024618
 20
3.644220
  0
VERTEX
  8
PLAN_1
 62
     2
  6
CONTINUOUS
 10
-1.021413
 20
3.643760
  0
VERTEX
  8
PLAN_1
 62
     2
  6
CONTINUOUS
 10
-1.018665
 20
3.642846
  0
VERTEX
  8
PLAN_1
 62
     2
  6
CONTINUOUS
 10
-1.016374
 20
3.641929
  0
VERTEX
  8
PLAN_1
 62
     2
  6
CONTINUOUS
 10
-1.014543
 20
3.641012
  0
VERTEX
  8
PLAN_1
 62
     2
  6
CONTINUOUS
 10
-1.012709
 20
3.639638
  0
VERTEX
  8
PLAN_1
 62
     2
  6
CONTINUOUS
 10
-1.011335
 20
3.638264
  0
VERTEX
  8
PLAN_1
 62
     2
  6
CONTINUOUS
 10
-1.010421
 20
3.636890
  0
VERTEX
  8
PLAN_1
 62
     2
  6
CONTINUOUS
 10
-1.008587
 20
3.633685
  0
VERTEX
  8
PLAN_1
 62
     2
  6
CONTINUOUS
 10
-1.007673
 20
3.630937
  0
VERTEX
  8
PLAN_1
 62
     2
  6
CONTINUOUS
 10
-1.007213
 20
3.628646
  0
VERTEX
  8
PLAN_1
 62
     2
  6
CONTINUOUS
 10
-1.007213
 20
3.627272
  0
VERTEX
  8
PLAN_1
 62
     2
  6
CONTINUOUS
 10
-1.015917
 20
3.627272
  0
SEQEND
  8
0
  0
POLYLINE
  8
PLAN_1
 62
     2
  6
CONTINUOUS
 66
     1
 40
0.003000
 41
0.003000
  0
VERTEX
  8
PLAN_1
 62
     2
  6
CONTINUOUS
 10
-1.643000
 20
3.527413
  0
VERTEX
  8
PLAN_1
 62
     2
  6
CONTINUOUS
 10
-1.640713
 20
3.524209
  0
VERTEX
  8
PLAN_1
 62
     2
  6
CONTINUOUS
 10
-1.638878
 20
3.521000
  0
VERTEX
  8
PLAN_1
 62
     2
  6
CONTINUOUS
 10
-1.637504
 20
3.517795
  0
VERTEX
  8
PLAN_1
 62
     2
  6
CONTINUOUS
 10
-1.636587
 20
3.514130
  0
VERTEX
  8
PLAN_1
 62
     2
  6
CONTINUOUS
 10
-1.635673
 20
3.510925
  0
VERTEX
  8
PLAN_1
 62
     2
  6
CONTINUOUS
 10
-1.634756
 20
3.507260
  0
VERTEX
  8
PLAN_1
 62
     2
  6
CONTINUOUS
 10
-1.634756
 20
3.504051
  0
VERTEX
  8
PLAN_1
 62
     2
  6
CONTINUOUS
 10
-1.634299
 20
3.500846
  0
VERTEX
  8
PLAN_1
 62
     2
  6
CONTINUOUS
 10
-1.634756
 20
3.494433
  0
VERTEX
  8
PLAN_1
 62
     2
  6
CONTINUOUS
 10
-1.636130
 20
3.487563
  0
VERTEX
  8
PLAN_1
 62
     2
  6
CONTINUOUS
 10
-1.637504
 20
3.484358
  0
VERTEX
  8
PLAN_1
 62
     2
  6
CONTINUOUS
 10
-1.638878
 20
3.481150
  0
VERTEX
  8
PLAN_1
 62
     2
  6
CONTINUOUS
 10
-1.640252
 20
3.477945
  0
VERTEX
  8
PLAN_1
 62
     2
  6
CONTINUOUS
 10
-1.642087
 20
3.475197
  0
VERTEX
  8
PLAN_1
 62
     2
  6
CONTINUOUS
 10
-1.644374
 20
3.471988
  0
VERTEX
  8
PLAN_1
 62
     2
  6
CONTINUOUS
 10
-1.647122
 20
3.469697
  0
VERTEX
  8
PLAN_1
 62
     2
  6
CONTINUOUS
 10
-1.649874
 20
3.467409
  0
VERTEX
  8
PLAN_1
 62
     2
  6
CONTINUOUS
 10
-1.653535
 20
3.465118
  0
VERTEX
  8
PLAN_1
 62
     2
  6
CONTINUOUS
 10
-1.657201
 20
3.463744
  0
VERTEX
  8
PLAN_1
 62
     2
  6
CONTINUOUS
 10
-1.661323
 20
3.462370
  0
VERTEX
  8
PLAN_1
 62
     2
  6
CONTINUOUS
 10
-1.665906
 20
3.461453
  0
VERTEX
  8
PLAN_1
 62
     2
  6
CONTINUOUS
 10
-1.670941
 20
3.461453
  0
VERTEX
  8
PLAN_1
 62
     2
  6
CONTINUOUS
 10
-1.675067
 20
3.461453
  0
VERTEX
  8
PLAN_1
 62
     2
  6
CONTINUOUS
 10
-1.678728
 20
3.461913
  0
VERTEX
  8
PLAN_1
 62
     2
  6
CONTINUOUS
 10
-1.681937
 20
3.462827
  0
VERTEX
  8
PLAN_1
 62
     2
  6
CONTINUOUS
 10
-1.685142
 20
3.463744
  0
VERTEX
  8
PLAN_1
 62
     2
  6
CONTINUOUS
 10
-1.687890
 20
3.465118
  0
VERTEX
  8
PLAN_1
 62
     2
  6
CONTINUOUS
 10
-1.690638
 20
3.466492
  0
VERTEX
  8
PLAN_1
 62
     2
  6
CONTINUOUS
 10
-1.693390
 20
3.468323
  0
VERTEX
  8
PLAN_1
 62
     2
  6
CONTINUOUS
 10
-1.695220
 20
3.470614
  0
VERTEX
  8
PLAN_1
 62
     2
  6
CONTINUOUS
 10
-1.703921
 20
3.461453
  0
VERTEX
  8
PLAN_1
 62
     2
  6
CONTINUOUS
 10
-1.707130
 20
3.464201
  0
VERTEX
  8
PLAN_1
 62
     2
  6
CONTINUOUS
 10
-1.698425
 20
3.473823
  0
VERTEX
  8
PLAN_1
 62
     2
  6
CONTINUOUS
 10
-1.700717
 20
3.476571
  0
VERTEX
  8
PLAN_1
 62
     2
  6
CONTINUOUS
 10
-1.702547
 20
3.480232
  0
VERTEX
  8
PLAN_1
 62
     2
  6
CONTINUOUS
 10
-1.703921
 20
3.483441
  0
VERTEX
  8
PLAN_1
 62
     2
  6
CONTINUOUS
 10
-1.705299
 20
3.487106
  0
VERTEX
  8
PLAN_1
 62
     2
  6
CONTINUOUS
 10
-1.706213
 20
3.490311
  0
VERTEX
  8
PLAN_1
 62
     2
  6
CONTINUOUS
 10
-1.706673
 20
3.493976
  0
VERTEX
  8
PLAN_1
 62
     2
  6
CONTINUOUS
 10
-1.707130
 20
3.497181
  0
VERTEX
  8
PLAN_1
 62
     2
  6
CONTINUOUS
 10
-1.707130
 20
3.500846
  0
VERTEX
  8
PLAN_1
 62
     2
  6
CONTINUOUS
 10
-1.706673
 20
3.506803
  0
VERTEX
  8
PLAN_1
 62
     2
  6
CONTINUOUS
 10
-1.705756
 20
3.513673
  0
VERTEX
  8
PLAN_1
 62
     2
  6
CONTINUOUS
 10
-1.704382
 20
3.516878
  0
VERTEX
  8
PLAN_1
 62
     2
  6
CONTINUOUS
 10
-1.703008
 20
3.520087
  0
VERTEX
  8
PLAN_1
 62
     2
  6
CONTINUOUS
 10
-1.701634
 20
3.523291
  0
VERTEX
  8
PLAN_1
 62
     2
  6
CONTINUOUS
 10
-1.699343
 20
3.526496
  0
VERTEX
  8
PLAN_1
 62
     2
  6
CONTINUOUS
 10
-1.697051
 20
3.529248
  0
VERTEX
  8
PLAN_1
 62
     2
  6
CONTINUOUS
 10
-1.694764
 20
3.531996
  0
VERTEX
  8
PLAN_1
 62
     2
  6
CONTINUOUS
 10
-1.691555
 20
3.534283
  0
VERTEX
  8
PLAN_1
 62
     2
  6
CONTINUOUS
 10
-1.688350
 20
3.536118
  0
VERTEX
  8
PLAN_1
 62
     2
  6
CONTINUOUS
 10
-1.684685
 20
3.537949
  0
VERTEX
  8
PLAN_1
 62
     2
  6
CONTINUOUS
 10
-1.680563
 20
3.538866
  0
VERTEX
  8
PLAN_1
 62
     2
  6
CONTINUOUS
 10
-1.675980
 20
3.539783
  0
VERTEX
  8
PLAN_1
 62
     2
  6
CONTINUOUS
 10
-1.670941
 20
3.539783
  0
VERTEX
  8
PLAN_1
 62
     2
  6
CONTINUOUS
 10
-1.666819
 20
3.539783
  0
VERTEX
  8
PLAN_1
 62
     2
  6
CONTINUOUS
 10
-1.663157
 20
3.539323
  0
VERTEX
  8
PLAN_1
 62
     2
  6
CONTINUOUS
 10
-1.659492
 20
3.538409
  0
VERTEX
  8
PLAN_1
 62
     2
  6
CONTINUOUS
 10
-1.656283
 20
3.537492
  0
VERTEX
  8
PLAN_1
 62
     2
  6
CONTINUOUS
 10
-1.653535
 20
3.536118
  0
VERTEX
  8
PLAN_1
 62
     2
  6
CONTINUOUS
 10
-1.650787
 20
3.534744
  0
VERTEX
  8
PLAN_1
 62
     2
  6
CONTINUOUS
 10
-1.648039
 20
3.532909
  0
VERTEX
  8
PLAN_1
 62
     2
  6
CONTINUOUS
 10
-1.646209
 20
3.530622
  0
VERTEX
  8
PLAN_1
 62
     2
  6
CONTINUOUS
 10
-1.637504
 20
3.539783
  0
VERTEX
  8
PLAN_1
 62
     2
  6
CONTINUOUS
 10
-1.634299
 20
3.537031
  0
VERTEX
  8
PLAN_1
 62
     2
  6
CONTINUOUS
 10
-1.643000
 20
3.527413
  0
SEQEND
  8
0
  0
POLYLINE
  8
PLAN_1
 62
     2
  6
CONTINUOUS
 66
     1
 40
0.003000
 41
0.003000
  0
VERTEX
  8
PLAN_1
 62
     2
  6
CONTINUOUS
 10
-1.688807
 20
3.477484
  0
VERTEX
  8
PLAN_1
 62
     2
  6
CONTINUOUS
 10
-1.686976
 20
3.476110
  0
VERTEX
  8
PLAN_1
 62
     2
  6
CONTINUOUS
 10
-1.685142
 20
3.474736
  0
VERTEX
  8
PLAN_1
 62
     2
  6
CONTINUOUS
 10
-1.683311
 20
3.473362
  0
VERTEX
  8
PLAN_1
 62
     2
  6
CONTINUOUS
 10
-1.681020
 20
3.472449
  0
VERTEX
  8
PLAN_1
 62
     2
  6
CONTINUOUS
 10
-1.678728
 20
3.471531
  0
VERTEX
  8
PLAN_1
 62
     2
  6
CONTINUOUS
 10
-1.676441
 20
3.470614
  0
VERTEX
  8
PLAN_1
 62
     2
  6
CONTINUOUS
 10
-1.673693
 20
3.470614
  0
VERTEX
  8
PLAN_1
 62
     2
  6
CONTINUOUS
 10
-1.670941
 20
3.470157
  0
VERTEX
  8
PLAN_1
 62
     2
  6
CONTINUOUS
 10
-1.667736
 20
3.470614
  0
VERTEX
  8
PLAN_1
 62
     2
  6
CONTINUOUS
 10
-1.664988
 20
3.471071
  0
VERTEX
  8
PLAN_1
 62
     2
  6
CONTINUOUS
 10
-1.662697
 20
3.471531
  0
VERTEX
  8
PLAN_1
 62
     2
  6
CONTINUOUS
 10
-1.659949
 20
3.472449
  0
VERTEX
  8
PLAN_1
 62
     2
  6
CONTINUOUS
 10
-1.657657
 20
3.473823
  0
VERTEX
  8
PLAN_1
 62
     2
  6
CONTINUOUS
 10
-1.655370
 20
3.475197
  0
VERTEX
  8
PLAN_1
 62
     2
  6
CONTINUOUS
 10
-1.653535
 20
3.477028
  0
VERTEX
  8
PLAN_1
 62
     2
  6
CONTINUOUS
 10
-1.651705
 20
3.478858
  0
VERTEX
  8
PLAN_1
 62
     2
  6
CONTINUOUS
 10
-1.650331
 20
3.481150
  0
VERTEX
  8
PLAN_1
 62
     2
  6
CONTINUOUS
 10
-1.648957
 20
3.483441
  0
VERTEX
  8
PLAN_1
 62
     2
  6
CONTINUOUS
 10
-1.647583
 20
3.485732
  0
VERTEX
  8
PLAN_1
 62
     2
  6
CONTINUOUS
 10
-1.646665
 20
3.488480
  0
VERTEX
  8
PLAN_1
 62
     2
  6
CONTINUOUS
 10
-1.645748
 20
3.491228
  0
VERTEX
  8
PLAN_1
 62
     2
  6
CONTINUOUS
 10
-1.645291
 20
3.494433
  0
VERTEX
  8
PLAN_1
 62
     2
  6
CONTINUOUS
 10
-1.644835
 20
3.497642
  0
VERTEX
  8
PLAN_1
 62
     2
  6
CONTINUOUS
 10
-1.644835
 20
3.500846
  0
VERTEX
  8
PLAN_1
 62
     2
  6
CONTINUOUS
 10
-1.644835
 20
3.503594
  0
VERTEX
  8
PLAN_1
 62
     2
  6
CONTINUOUS
 10
-1.645291
 20
3.506343
  0
VERTEX
  8
PLAN_1
 62
     2
  6
CONTINUOUS
 10
-1.645748
 20
3.508634
  0
VERTEX
  8
PLAN_1
 62
     2
  6
CONTINUOUS
 10
-1.646209
 20
3.511382
  0
VERTEX
  8
PLAN_1
 62
     2
  6
CONTINUOUS
 10
-1.647122
 20
3.513673
  0
VERTEX
  8
PLAN_1
 62
     2
  6
CONTINUOUS
 10
-1.647583
 20
3.515965
  0
VERTEX
  8
PLAN_1
 62
     2
  6
CONTINUOUS
 10
-1.648957
 20
3.517795
  0
VERTEX
  8
PLAN_1
 62
     2
  6
CONTINUOUS
 10
-1.649874
 20
3.519626
  0
VERTEX
  8
PLAN_1
 62
     2
  6
CONTINUOUS
 10
-1.688807
 20
3.477484
  0
SEQEND
  8
0
  0
POLYLINE
  8
PLAN_1
 62
     2
  6
CONTINUOUS
 66
     1
 40
0.003000
 41
0.003000
  0
VERTEX
  8
PLAN_1
 62
     2
  6
CONTINUOUS
 10
-1.652622
 20
3.523291
  0
VERTEX
  8
PLAN_1
 62
     2
  6
CONTINUOUS
 10
-1.654453
 20
3.525122
  0
VERTEX
  8
PLAN_1
 62
     2
  6
CONTINUOUS
 10
-1.656283
 20
3.526496
  0
VERTEX
  8
PLAN_1
 62
     2
  6
CONTINUOUS
 10
-1.658575
 20
3.527874
  0
VERTEX
  8
PLAN_1
 62
     2
  6
CONTINUOUS
 10
-1.660409
 20
3.529248
  0
VERTEX
  8
PLAN_1
 62
     2
  6
CONTINUOUS
 10
-1.663157
 20
3.529705
  0
VERTEX
  8
PLAN_1
 62
     2
  6
CONTINUOUS
 10
-1.665445
 20
3.530622
  0
VERTEX
  8
PLAN_1
 62
     2
  6
CONTINUOUS
 10
-1.668193
 20
3.531079
  0
VERTEX
  8
PLAN_1
 62
     2
  6
CONTINUOUS
 10
-1.670941
 20
3.531079
  0
VERTEX
  8
PLAN_1
 62
     2
  6
CONTINUOUS
 10
-1.673693
 20
3.531079
  0
VERTEX
  8
PLAN_1
 62
     2
  6
CONTINUOUS
 10
-1.676441
 20
3.530622
  0
VERTEX
  8
PLAN_1
 62
     2
  6
CONTINUOUS
 10
-1.679189
 20
3.529705
  0
VERTEX
  8
PLAN_1
 62
     2
  6
CONTINUOUS
 10
-1.681937
 20
3.528787
  0
VERTEX
  8
PLAN_1
 62
     2
  6
CONTINUOUS
 10
-1.684228
 20
3.527413
  0
VERTEX
  8
PLAN_1
 62
     2
  6
CONTINUOUS
 10
-1.686059
 20
3.526039
  0
VERTEX
  8
PLAN_1
 62
     2
  6
CONTINUOUS
 10
-1.688350
 20
3.524209
  0
VERTEX
  8
PLAN_1
 62
     2
  6
CONTINUOUS
 10
-1.690181
 20
3.522374
  0
VERTEX
  8
PLAN_1
 62
     2
  6
CONTINUOUS
 10
-1.691555
 20
3.520543
  0
VERTEX
  8
PLAN_1
 62
     2
  6
CONTINUOUS
 10
-1.692929
 20
3.517795
  0
VERTEX
  8
PLAN_1
 62
     2
  6
CONTINUOUS
 10
-1.694303
 20
3.515504
  0
VERTEX
  8
PLAN_1
 62
     2
  6
CONTINUOUS
 10
-1.695220
 20
3.512756
  0
VERTEX
  8
PLAN_1
 62
     2
  6
CONTINUOUS
 10
-1.695677
 20
3.510008
  0
VERTEX
  8
PLAN_1
 62
     2
  6
CONTINUOUS
 10
-1.696594
 20
3.507260
  0
VERTEX
  8
PLAN_1
 62
     2
  6
CONTINUOUS
 10
-1.696594
 20
3.504051
  0
VERTEX
  8
PLAN_1
 62
     2
  6
CONTINUOUS
 10
-1.697051
 20
3.500846
  0
VERTEX
  8
PLAN_1
 62
     2
  6
CONTINUOUS
 10
-1.696594
 20
3.498098
  0
VERTEX
  8
PLAN_1
 62
     2
  6
CONTINUOUS
 10
-1.696594
 20
3.495350
  0
VERTEX
  8
PLAN_1
 62
     2
  6
CONTINUOUS
 10
-1.696138
 20
3.492602
  0
VERTEX
  8
PLAN_1
 62
     2
  6
CONTINUOUS
 10
-1.695677
 20
3.489854
  0
VERTEX
  8
PLAN_1
 62
     2
  6
CONTINUOUS
 10
-1.694764
 20
3.487563
  0
VERTEX
  8
PLAN_1
 62
     2
  6
CONTINUOUS
 10
-1.693846
 20
3.485272
  0
VERTEX
  8
PLAN_1
 62
     2
  6
CONTINUOUS
 10
-1.692929
 20
3.482980
  0
VERTEX
  8
PLAN_1
 62
     2
  6
CONTINUOUS
 10
-1.691555
 20
3.481150
  0
VERTEX
  8
PLAN_1
 62
     2
  6
CONTINUOUS
 10
-1.652622
 20
3.523291
  0
SEQEND
  8
0
  0
POLYLINE
  8
PLAN_1
 62
     2
  6
CONTINUOUS
 66
     1
 40
0.003000
 41
0.003000
  0
VERTEX
  8
PLAN_1
 62
     2
  6
CONTINUOUS
 10
-1.615059
 20
3.505886
  0
VERTEX
  8
PLAN_1
 62
     2
  6
CONTINUOUS
 10
-1.613685
 20
3.506803
  0
VERTEX
  8
PLAN_1
 62
     2
  6
CONTINUOUS
 10
-1.612311
 20
3.507717
  0
VERTEX
  8
PLAN_1
 62
     2
  6
CONTINUOUS
 10
-1.610937
 20
3.508177
  0
VERTEX
  8
PLAN_1
 62
     2
  6
CONTINUOUS
 10
-1.609106
 20
3.509091
  0
VERTEX
  8
PLAN_1
 62
     2
  6
CONTINUOUS
 10
-1.607272
 20
3.509551
  0
VERTEX
  8
PLAN_1
 62
     2
  6
CONTINUOUS
 10
-1.605441
 20
3.510008
  0
VERTEX
  8
PLAN_1
 62
     2
  6
CONTINUOUS
 10
-1.603150
 20
3.510465
  0
VERTEX
  8
PLAN_1
 62
     2
  6
CONTINUOUS
 10
-1.600858
 20
3.510465
  0
VERTEX
  8
PLAN_1
 62
     2
  6
CONTINUOUS
 10
-1.596280
 20
3.510008
  0
VERTEX
  8
PLAN_1
 62
     2
  6
CONTINUOUS
 10
-1.592157
 20
3.509091
  0
VERTEX
  8
PLAN_1
 62
     2
  6
CONTINUOUS
 10
-1.588035
 20
3.506803
  0
VERTEX
  8
PLAN_1
 62
     2
  6
CONTINUOUS
 10
-1.584370
 20
3.504512
  0
VERTEX
  8
PLAN_1
 62
     2
  6
CONTINUOUS
 10
-1.582996
 20
3.502677
  0
VERTEX
  8
PLAN_1
 62
     2
  6
CONTINUOUS
 10
-1.581161
 20
3.501303
  0
VERTEX
  8
PLAN_1
 62
     2
  6
CONTINUOUS
 10
-1.580248
 20
3.499016
  0
VERTEX
  8
PLAN_1
 62
     2
  6
CONTINUOUS
 10
-1.578874
 20
3.497181
  0
VERTEX
  8
PLAN_1
 62
     2
  6
CONTINUOUS
 10
-1.577957
 20
3.494894
  0
VERTEX
  8
PLAN_1
 62
     2
  6
CONTINUOUS
 10
-1.577500
 20
3.492602
  0
VERTEX
  8
PLAN_1
 62
     2
  6
CONTINUOUS
 10
-1.577039
 20
3.489854
  0
VERTEX
  8
PLAN_1
 62
     2
  6
CONTINUOUS
 10
-1.577039
 20
3.487106
  0
VERTEX
  8
PLAN_1
 62
     2
  6
CONTINUOUS
 10
-1.577039
 20
3.483441
  0
VERTEX
  8
PLAN_1
 62
     2
  6
CONTINUOUS
 10
-1.577957
 20
3.479776
  0
VERTEX
  8
PLAN_1
 62
     2
  6
CONTINUOUS
 10
-1.579331
 20
3.475197
  0
VERTEX
  8
PLAN_1
 62
     2
  6
CONTINUOUS
 10
-1.581622
 20
3.471071
  0
VERTEX
  8
PLAN_1
 62
     2
  6
CONTINUOUS
 10
-1.582996
 20
3.469240
  0
VERTEX
  8
PLAN_1
 62
     2
  6
CONTINUOUS
 10
-1.584827
 20
3.467409
  0
VERTEX
  8
PLAN_1
 62
     2
  6
CONTINUOUS
 10
-1.587118
 20
3.465575
  0
VERTEX
  8
PLAN_1
 62
     2
  6
CONTINUOUS
 10
-1.589409
 20
3.464201
  0
VERTEX
  8
PLAN_1
 62
     2
  6
CONTINUOUS
 10
-1.592614
 20
3.462827
  0
VERTEX
  8
PLAN_1
 62
     2
  6
CONTINUOUS
 10
-1.595823
 20
3.461913
  0
VERTEX
  8
PLAN_1
 62
     2
  6
CONTINUOUS
 10
-1.599484
 20
3.461453
  0
VERTEX
  8
PLAN_1
 62
     2
  6
CONTINUOUS
 10
-1.603606
 20
3.461453
  0
VERTEX
  8
PLAN_1
 62
     2
  6
CONTINUOUS
 10
-1.607272
 20
3.461453
  0
VERTEX
  8
PLAN_1
 62
     2
  6
CONTINUOUS
 10
-1.610937
 20
3.462370
  0
VERTEX
  8
PLAN_1
 62
     2
  6
CONTINUOUS
 10
-1.614602
 20
3.463287
  0
VERTEX
  8
PLAN_1
 62
     2
  6
CONTINUOUS
 10
-1.618268
 20
3.465118
  0
VERTEX
  8
PLAN_1
 62
     2
  6
CONTINUOUS
 10
-1.619642
 20
3.466492
  0
VERTEX
  8
PLAN_1
 62
     2
  6
CONTINUOUS
 10
-1.621472
 20
3.467866
  0
VERTEX
  8
PLAN_1
 62
     2
  6
CONTINUOUS
 10
-1.622846
 20
3.469697
  0
VERTEX
  8
PLAN_1
 62
     2
  6
CONTINUOUS
 10
-1.623764
 20
3.471531
  0
VERTEX
  8
PLAN_1
 62
     2
  6
CONTINUOUS
 10
-1.625138
 20
3.473823
  0
VERTEX
  8
PLAN_1
 62
     2
  6
CONTINUOUS
 10
-1.626051
 20
3.476110
  0
VERTEX
  8
PLAN_1
 62
     2
  6
CONTINUOUS
 10
-1.626512
 20
3.478402
  0
VERTEX
  8
PLAN_1
 62
     2
  6
CONTINUOUS
 10
-1.626969
 20
3.481606
  0
VERTEX
  8
PLAN_1
 62
     2
  6
CONTINUOUS
 10
-1.617350
 20
3.481606
  0
VERTEX
  8
PLAN_1
 62
     2
  6
CONTINUOUS
 10
-1.616894
 20
3.478402
  0
VERTEX
  8
PLAN_1
 62
     2
  6
CONTINUOUS
 10
-1.615976
 20
3.476110
  0
VERTEX
  8
PLAN_1
 62
     2
  6
CONTINUOUS
 10
-1.614602
 20
3.473823
  0
VERTEX
  8
PLAN_1
 62
     2
  6
CONTINUOUS
 10
-1.612768
 20
3.471988
  0
VERTEX
  8
PLAN_1
 62
     2
  6
CONTINUOUS
 10
-1.610480
 20
3.471071
  0
VERTEX
  8
PLAN_1
 62
     2
  6
CONTINUOUS
 10
-1.607732
 20
3.470157
  0
VERTEX
  8
PLAN_1
 62
     2
  6
CONTINUOUS
 10
-1.604980
 20
3.469240
  0
VERTEX
  8
PLAN_1
 62
     2
  6
CONTINUOUS
 10
-1.602232
 20
3.469240
  0
VERTEX
  8
PLAN_1
 62
     2
  6
CONTINUOUS
 10
-1.598571
 20
3.469697
  0
VERTEX
  8
PLAN_1
 62
     2
  6
CONTINUOUS
 10
-1.595823
 20
3.470614
  0
VERTEX
  8
PLAN_1
 62
     2
  6
CONTINUOUS
 10
-1.593071
 20
3.471988
  0
VERTEX
  8
PLAN_1
 62
     2
  6
CONTINUOUS
 10
-1.590783
 20
3.474280
  0
VERTEX
  8
PLAN_1
 62
     2
  6
CONTINUOUS
 10
-1.588949
 20
3.476571
  0
VERTEX
  8
PLAN_1
 62
     2
  6
CONTINUOUS
 10
-1.587575
 20
3.479319
  0
VERTEX
  8
PLAN_1
 62
     2
  6
CONTINUOUS
 10
-1.587118
 20
3.482524
  0
VERTEX
  8
PLAN_1
 62
     2
  6
CONTINUOUS
 10
-1.586661
 20
3.486189
  0
VERTEX
  8
PLAN_1
 62
     2
  6
CONTINUOUS
 10
-1.587118
 20
3.489854
  0
VERTEX
  8
PLAN_1
 62
     2
  6
CONTINUOUS
 10
-1.588035
 20
3.493059
  0
VERTEX
  8
PLAN_1
 62
     2
  6
CONTINUOUS
 10
-1.589409
 20
3.495807
  0
VERTEX
  8
PLAN_1
 62
     2
  6
CONTINUOUS
 10
-1.591240
 20
3.498098
  0
VERTEX
  8
PLAN_1
 62
     2
  6
CONTINUOUS
 10
-1.593988
 20
3.499929
  0
VERTEX
  8
PLAN_1
 62
     2
  6
CONTINUOUS
 10
-1.596736
 20
3.501303
  0
VERTEX
  8
PLAN_1
 62
     2
  6
CONTINUOUS
 10
-1.599484
 20
3.501764
  0
VERTEX
  8
PLAN_1
 62
     2
  6
CONTINUOUS
 10
-1.602693
 20
3.502220
  0
VERTEX
  8
PLAN_1
 62
     2
  6
CONTINUOUS
 10
-1.604980
 20
3.502220
  0
VERTEX
  8
PLAN_1
 62
     2
  6
CONTINUOUS
 10
-1.606815
 20
3.501764
  0
VERTEX
  8
PLAN_1
 62
     2
  6
CONTINUOUS
 10
-1.608646
 20
3.501303
  0
VERTEX
  8
PLAN_1
 62
     2
  6
CONTINUOUS
 10
-1.610480
 20
3.500390
  0
VERTEX
  8
PLAN_1
 62
     2
  6
CONTINUOUS
 10
-1.611854
 20
3.499472
  0
VERTEX
  8
PLAN_1
 62
     2
  6
CONTINUOUS
 10
-1.613685
 20
3.498098
  0
VERTEX
  8
PLAN_1
 62
     2
  6
CONTINUOUS
 10
-1.615059
 20
3.496724
  0
VERTEX
  8
PLAN_1
 62
     2
  6
CONTINUOUS
 10
-1.616433
 20
3.495350
  0
VERTEX
  8
PLAN_1
 62
     2
  6
CONTINUOUS
 10
-1.624220
 20
3.495807
  0
VERTEX
  8
PLAN_1
 62
     2
  6
CONTINUOUS
 10
-1.618724
 20
3.534744
  0
VERTEX
  8
PLAN_1
 62
     2
  6
CONTINUOUS
 10
-1.581161
 20
3.534744
  0
VERTEX
  8
PLAN_1
 62
     2
  6
CONTINUOUS
 10
-1.581161
 20
3.526039
  0
VERTEX
  8
PLAN_1
 62
     2
  6
CONTINUOUS
 10
-1.611854
 20
3.526039
  0
VERTEX
  8
PLAN_1
 62
     2
  6
CONTINUOUS
 10
-1.615059
 20
3.505886
  0
SEQEND
  8
0
  0
POLYLINE
  8
PLAN_1
 62
     2
  6
CONTINUOUS
 66
     1
 40
0.003000
 41
0.003000
  0
VERTEX
  8
PLAN_1
 62
     2
  6
CONTINUOUS
 10
-1.563299
 20
3.474280
  0
VERTEX
  8
PLAN_1
 62
     2
  6
CONTINUOUS
 10
-1.552764
 20
3.474280
  0
VERTEX
  8
PLAN_1
 62
     2
  6
CONTINUOUS
 10
-1.552764
 20
3.464201
  0
VERTEX
  8
PLAN_1
 62
     2
  6
CONTINUOUS
 10
-1.552764
 20
3.459622
  0
VERTEX
  8
PLAN_1
 62
     2
  6
CONTINUOUS
 10
-1.554138
 20
3.455500
  0
VERTEX
  8
PLAN_1
 62
     2
  6
CONTINUOUS
 10
-1.555512
 20
3.452752
  0
VERTEX
  8
PLAN_1
 62
     2
  6
CONTINUOUS
 10
-1.557343
 20
3.450917
  0
VERTEX
  8
PLAN_1
 62
     2
  6
CONTINUOUS
 10
-1.559177
 20
3.449543
  0
VERTEX
  8
PLAN_1
 62
     2
  6
CONTINUOUS
 10
-1.561008
 20
3.448626
  0
VERTEX
  8
PLAN_1
 62
     2
  6
CONTINUOUS
 10
-1.562382
 20
3.448169
  0
VERTEX
  8
PLAN_1
 62
     2
  6
CONTINUOUS
 10
-1.563299
 20
3.448169
  0
VERTEX
  8
PLAN_1
 62
     2
  6
CONTINUOUS
 10
-1.563299
 20
3.452752
  0
VERTEX
  8
PLAN_1
 62
     2
  6
CONTINUOUS
 10
-1.561925
 20
3.453209
  0
VERTEX
  8
PLAN_1
 62
     2
  6
CONTINUOUS
 10
-1.560551
 20
3.454126
  0
VERTEX
  8
PLAN_1
 62
     2
  6
CONTINUOUS
 10
-1.559634
 20
3.455039
  0
VERTEX
  8
PLAN_1
 62
     2
  6
CONTINUOUS
 10
-1.559177
 20
3.456413
  0
VERTEX
  8
PLAN_1
 62
     2
  6
CONTINUOUS
 10
-1.558717
 20
3.457787
  0
VERTEX
  8
PLAN_1
 62
     2
  6
CONTINUOUS
 10
-1.558260
 20
3.459622
  0
VERTEX
  8
PLAN_1
 62
     2
  6
CONTINUOUS
 10
-1.557803
 20
3.461453
  0
VERTEX
  8
PLAN_1
 62
     2
  6
CONTINUOUS
 10
-1.557803
 20
3.463287
  0
VERTEX
  8
PLAN_1
 62
     2
  6
CONTINUOUS
 10
-1.563299
 20
3.463287
  0
VERTEX
  8
PLAN_1
 62
     2
  6
CONTINUOUS
 10
-1.563299
 20
3.474280
  0
SEQEND
  8
0
  0
POLYLINE
  8
PLAN_1
 62
     2
  6
CONTINUOUS
 66
     1
 40
0.003000
 41
0.003000
  0
VERTEX
  8
PLAN_1
 62
     2
  6
CONTINUOUS
 10
-1.539020
 20
3.510465
  0
VERTEX
  8
PLAN_1
 62
     2
  6
CONTINUOUS
 10
-1.538563
 20
3.514587
  0
VERTEX
  8
PLAN_1
 62
     2
  6
CONTINUOUS
 10
-1.538106
 20
3.518252
  0
VERTEX
  8
PLAN_1
 62
     2
  6
CONTINUOUS
 10
-1.537189
 20
3.521461
  0
VERTEX
  8
PLAN_1
 62
     2
  6
CONTINUOUS
 10
-1.536272
 20
3.524209
  0
VERTEX
  8
PLAN_1
 62
     2
  6
CONTINUOUS
 10
-1.534898
 20
3.526957
  0
VERTEX
  8
PLAN_1
 62
     2
  6
CONTINUOUS
 10
-1.533067
 20
3.528787
  0
VERTEX
  8
PLAN_1
 62
     2
  6
CONTINUOUS
 10
-1.531236
 20
3.530622
  0
VERTEX
  8
PLAN_1
 62
     2
  6
CONTINUOUS
 10
-1.529402
 20
3.532453
  0
VERTEX
  8
PLAN_1
 62
     2
  6
CONTINUOUS
 10
-1.525280
 20
3.534283
  0
VERTEX
  8
PLAN_1
 62
     2
  6
CONTINUOUS
 10
-1.521157
 20
3.535657
  0
VERTEX
  8
PLAN_1
 62
     2
  6
CONTINUOUS
 10
-1.517035
 20
3.536118
  0
VERTEX
  8
PLAN_1
 62
     2
  6
CONTINUOUS
 10
-1.513827
 20
3.536575
  0
VERTEX
  8
PLAN_1
 62
     2
  6
CONTINUOUS
 10
-1.509248
 20
3.536118
  0
VERTEX
  8
PLAN_1
 62
     2
  6
CONTINUOUS
 10
-1.504665
 20
3.534744
  0
VERTEX
  8
PLAN_1
 62
     2
  6
CONTINUOUS
 10
-1.501004
 20
3.533370
  0
VERTEX
  8
PLAN_1
 62
     2
  6
CONTINUOUS
 10
-1.497339
 20
3.530622
  0
VERTEX
  8
PLAN_1
 62
     2
  6
CONTINUOUS
 10
-1.494591
 20
3.527413
  0
VERTEX
  8
PLAN_1
 62
     2
  6
CONTINUOUS
 10
-1.492756
 20
3.523748
  0
VERTEX
  8
PLAN_1
 62
     2
  6
CONTINUOUS
 10
-1.491843
 20
3.521917
  0
VERTEX
  8
PLAN_1
 62
     2
  6
CONTINUOUS
 10
-1.491382
 20
3.519626
  0
VERTEX
  8
PLAN_1
 62
     2
  6
CONTINUOUS
 10
-1.490925
 20
3.517339
  0
VERTEX
  8
PLAN_1
 62
     2
  6
CONTINUOUS
 10
-1.490925
 20
3.514587
  0
VERTEX
  8
PLAN_1
 62
     2
  6
CONTINUOUS
 10
-1.491382
 20
3.510008
  0
VERTEX
  8
PLAN_1
 62
     2
  6
CONTINUOUS
 10
-1.492299
 20
3.505886
  0
VERTEX
  8
PLAN_1
 62
     2
  6
CONTINUOUS
 10
-1.494130
 20
3.502677
  0
VERTEX
  8
PLAN_1
 62
     2
  6
CONTINUOUS
 10
-1.496421
 20
3.499472
  0
VERTEX
  8
PLAN_1
 62
     2
  6
CONTINUOUS
 10
-1.499169
 20
3.497181
  0
VERTEX
  8
PLAN_1
 62
     2
  6
CONTINUOUS
 10
-1.502835
 20
3.494433
  0
VERTEX
  8
PLAN_1
 62
     2
  6
CONTINUOUS
 10
-1.506500
 20
3.492142
  0
VERTEX
  8
PLAN_1
 62
     2
  6
CONTINUOUS
 10
-1.510165
 20
3.490311
  0
VERTEX
  8
PLAN_1
 62
     2
  6
CONTINUOUS
 10
-1.517949
 20
3.486189
  0
VERTEX
  8
PLAN_1
 62
     2
  6
CONTINUOUS
 10
-1.521157
 20
3.483898
  0
VERTEX
  8
PLAN_1
 62
     2
  6
CONTINUOUS
 10
-1.523906
 20
3.482067
  0
VERTEX
  8
PLAN_1
 62
     2
  6
CONTINUOUS
 10
-1.526197
 20
3.479776
  0
VERTEX
  8
PLAN_1
 62
     2
  6
CONTINUOUS
 10
-1.528028
 20
3.477945
  0
VERTEX
  8
PLAN_1
 62
     2
  6
CONTINUOUS
 10
-1.528945
 20
3.476110
  0
VERTEX
  8
PLAN_1
 62
     2
  6
CONTINUOUS
 10
-1.529862
 20
3.474736
  0
VERTEX
  8
PLAN_1
 62
     2
  6
CONTINUOUS
 10
-1.530319
 20
3.473362
  0
VERTEX
  8
PLAN_1
 62
     2
  6
CONTINUOUS
 10
-1.530319
 20
3.471988
  0
VERTEX
  8
PLAN_1
 62
     2
  6
CONTINUOUS
 10
-1.490925
 20
3.471988
  0
VERTEX
  8
PLAN_1
 62
     2
  6
CONTINUOUS
 10
-1.490925
 20
3.463287
  0
VERTEX
  8
PLAN_1
 62
     2
  6
CONTINUOUS
 10
-1.540854
 20
3.463287
  0
VERTEX
  8
PLAN_1
 62
     2
  6
CONTINUOUS
 10
-1.540398
 20
3.468783
  0
VERTEX
  8
PLAN_1
 62
     2
  6
CONTINUOUS
 10
-1.539480
 20
3.473362
  0
VERTEX
  8
PLAN_1
 62
     2
  6
CONTINUOUS
 10
-1.537646
 20
3.477484
  0
VERTEX
  8
PLAN_1
 62
     2
  6
CONTINUOUS
 10
-1.535815
 20
3.481606
  0
VERTEX
  8
PLAN_1
 62
     2
  6
CONTINUOUS
 10
-1.533067
 20
3.484815
  0
VERTEX
  8
PLAN_1
 62
     2
  6
CONTINUOUS
 10
-1.530319
 20
3.487563
  0
VERTEX
  8
PLAN_1
 62
     2
  6
CONTINUOUS
 10
-1.527110
 20
3.490311
  0
VERTEX
  8
PLAN_1
 62
     2
  6
CONTINUOUS
 10
-1.523449
 20
3.492142
  0
VERTEX
  8
PLAN_1
 62
     2
  6
CONTINUOUS
 10
-1.513827
 20
3.498098
  0
VERTEX
  8
PLAN_1
 62
     2
  6
CONTINUOUS
 10
-1.511079
 20
3.499472
  0
VERTEX
  8
PLAN_1
 62
     2
  6
CONTINUOUS
 10
-1.508791
 20
3.501303
  0
VERTEX
  8
PLAN_1
 62
     2
  6
CONTINUOUS
 10
-1.506500
 20
3.502677
  0
VERTEX
  8
PLAN_1
 62
     2
  6
CONTINUOUS
 10
-1.504209
 20
3.504512
  0
VERTEX
  8
PLAN_1
 62
     2
  6
CONTINUOUS
 10
-1.502835
 20
3.506803
  0
VERTEX
  8
PLAN_1
 62
     2
  6
CONTINUOUS
 10
-1.501461
 20
3.509091
  0
VERTEX
  8
PLAN_1
 62
     2
  6
CONTINUOUS
 10
-1.501004
 20
3.511839
  0
VERTEX
  8
PLAN_1
 62
     2
  6
CONTINUOUS
 10
-1.500543
 20
3.515047
  0
VERTEX
  8
PLAN_1
 62
     2
  6
CONTINUOUS
 10
-1.500543
 20
3.517339
  0
VERTEX
  8
PLAN_1
 62
     2
  6
CONTINUOUS
 10
-1.501461
 20
3.519626
  0
VERTEX
  8
PLAN_1
 62
     2
  6
CONTINUOUS
 10
-1.502378
 20
3.521917
  0
VERTEX
  8
PLAN_1
 62
     2
  6
CONTINUOUS
 10
-1.503752
 20
3.523748
  0
VERTEX
  8
PLAN_1
 62
     2
  6
CONTINUOUS
 10
-1.505583
 20
3.525583
  0
VERTEX
  8
PLAN_1
 62
     2
  6
CONTINUOUS
 10
-1.508331
 20
3.526957
  0
VERTEX
  8
PLAN_1
 62
     2
  6
CONTINUOUS
 10
-1.511539
 20
3.527874
  0
VERTEX
  8
PLAN_1
 62
     2
  6
CONTINUOUS
 10
-1.515201
 20
3.528331
  0
VERTEX
  8
PLAN_1
 62
     2
  6
CONTINUOUS
 10
-1.517492
 20
3.528331
  0
VERTEX
  8
PLAN_1
 62
     2
  6
CONTINUOUS
 10
-1.519783
 20
3.527874
  0
VERTEX
  8
PLAN_1
 62
     2
  6
CONTINUOUS
 10
-1.521614
 20
3.526957
  0
VERTEX
  8
PLAN_1
 62
     2
  6
CONTINUOUS
 10
-1.522988
 20
3.526039
  0
VERTEX
  8
PLAN_1
 62
     2
  6
CONTINUOUS
 10
-1.525736
 20
3.523748
  0
VERTEX
  8
PLAN_1
 62
     2
  6
CONTINUOUS
 10
-1.527571
 20
3.521000
  0
VERTEX
  8
PLAN_1
 62
     2
  6
CONTINUOUS
 10
-1.528484
 20
3.518252
  0
VERTEX
  8
PLAN_1
 62
     2
  6
CONTINUOUS
 10
-1.529402
 20
3.515047
  0
VERTEX
  8
PLAN_1
 62
     2
  6
CONTINUOUS
 10
-1.529862
 20
3.512299
  0
VERTEX
  8
PLAN_1
 62
     2
  6
CONTINUOUS
 10
-1.529862
 20
3.510465
  0
VERTEX
  8
PLAN_1
 62
     2
  6
CONTINUOUS
 10
-1.539020
 20
3.510465
  0
SEQEND
  8
0
  0
POLYLINE
  8
PLAN_1
 62
     2
  6
CONTINUOUS
 66
     1
 40
0.003000
 41
0.003000
  0
VERTEX
  8
PLAN_1
 62
     2
  6
CONTINUOUS
 10
-1.405724
 20
3.463287
  0
VERTEX
  8
PLAN_1
 62
     2
  6
CONTINUOUS
 10
-1.417177
 20
3.463287
  0
VERTEX
  8
PLAN_1
 62
     2
  6
CONTINUOUS
 10
-1.430917
 20
3.483898
  0
VERTEX
  8
PLAN_1
 62
     2
  6
CONTINUOUS
 10
-1.444205
 20
3.463287
  0
VERTEX
  8
PLAN_1
 62
     2
  6
CONTINUOUS
 10
-1.455654
 20
3.463287
  0
VERTEX
  8
PLAN_1
 62
     2
  6
CONTINUOUS
 10
-1.436417
 20
3.491228
  0
VERTEX
  8
PLAN_1
 62
     2
  6
CONTINUOUS
 10
-1.454740
 20
3.517795
  0
VERTEX
  8
PLAN_1
 62
     2
  6
CONTINUOUS
 10
-1.442831
 20
3.517795
  0
VERTEX
  8
PLAN_1
 62
     2
  6
CONTINUOUS
 10
-1.430461
 20
3.498555
  0
VERTEX
  8
PLAN_1
 62
     2
  6
CONTINUOUS
 10
-1.417634
 20
3.517795
  0
VERTEX
  8
PLAN_1
 62
     2
  6
CONTINUOUS
 10
-1.406642
 20
3.517795
  0
VERTEX
  8
PLAN_1
 62
     2
  6
CONTINUOUS
 10
-1.424965
 20
3.491228
  0
VERTEX
  8
PLAN_1
 62
     2
  6
CONTINUOUS
 10
-1.405724
 20
3.463287
  0
SEQEND
  8
0
  0
POLYLINE
  8
PLAN_1
 62
     2
  6
CONTINUOUS
 66
     1
 40
0.003000
 41
0.003000
  0
VERTEX
  8
PLAN_1
 62
     2
  6
CONTINUOUS
 10
-1.332437
 20
3.516878
  0
VERTEX
  8
PLAN_1
 62
     2
  6
CONTINUOUS
 10
-1.332894
 20
3.519169
  0
VERTEX
  8
PLAN_1
 62
     2
  6
CONTINUOUS
 10
-1.333811
 20
3.521461
  0
VERTEX
  8
PLAN_1
 62
     2
  6
CONTINUOUS
 10
-1.334728
 20
3.523291
  0
VERTEX
  8
PLAN_1
 62
     2
  6
CONTINUOUS
 10
-1.336102
 20
3.525122
  0
VERTEX
  8
PLAN_1
 62
     2
  6
CONTINUOUS
 10
-1.337933
 20
3.526496
  0
VERTEX
  8
PLAN_1
 62
     2
  6
CONTINUOUS
 10
-1.339764
 20
3.527413
  0
VERTEX
  8
PLAN_1
 62
     2
  6
CONTINUOUS
 10
-1.342055
 20
3.527874
  0
VERTEX
  8
PLAN_1
 62
     2
  6
CONTINUOUS
 10
-1.344803
 20
3.528331
  0
VERTEX
  8
PLAN_1
 62
     2
  6
CONTINUOUS
 10
-1.347551
 20
3.527874
  0
VERTEX
  8
PLAN_1
 62
     2
  6
CONTINUOUS
 10
-1.349843
 20
3.527413
  0
VERTEX
  8
PLAN_1
 62
     2
  6
CONTINUOUS
 10
-1.351673
 20
3.526496
  0
VERTEX
  8
PLAN_1
 62
     2
  6
CONTINUOUS
 10
-1.353508
 20
3.525122
  0
VERTEX
  8
PLAN_1
 62
     2
  6
CONTINUOUS
 10
-1.355339
 20
3.523291
  0
VERTEX
  8
PLAN_1
 62
     2
  6
CONTINUOUS
 10
-1.356713
 20
3.521917
  0
VERTEX
  8
PLAN_1
 62
     2
  6
CONTINUOUS
 10
-1.358087
 20
3.519626
  0
VERTEX
  8
PLAN_1
 62
     2
  6
CONTINUOUS
 10
-1.359004
 20
3.517795
  0
VERTEX
  8
PLAN_1
 62
     2
  6
CONTINUOUS
 10
-1.360378
 20
3.513213
  0
VERTEX
  8
PLAN_1
 62
     2
  6
CONTINUOUS
 10
-1.361752
 20
3.508634
  0
VERTEX
  8
PLAN_1
 62
     2
  6
CONTINUOUS
 10
-1.362209
 20
3.504512
  0
VERTEX
  8
PLAN_1
 62
     2
  6
CONTINUOUS
 10
-1.362209
 20
3.501303
  0
VERTEX
  8
PLAN_1
 62
     2
  6
CONTINUOUS
 10
-1.362209
 20
3.500846
  0
VERTEX
  8
PLAN_1
 62
     2
  6
CONTINUOUS
 10
-1.361295
 20
3.502677
  0
VERTEX
  8
PLAN_1
 62
     2
  6
CONTINUOUS
 10
-1.359921
 20
3.504051
  0
VERTEX
  8
PLAN_1
 62
     2
  6
CONTINUOUS
 10
-1.358087
 20
3.505429
  0
VERTEX
  8
PLAN_1
 62
     2
  6
CONTINUOUS
 10
-1.356256
 20
3.506803
  0
VERTEX
  8
PLAN_1
 62
     2
  6
CONTINUOUS
 10
-1.353965
 20
3.508177
  0
VERTEX
  8
PLAN_1
 62
     2
  6
CONTINUOUS
 10
-1.351217
 20
3.509091
  0
VERTEX
  8
PLAN_1
 62
     2
  6
CONTINUOUS
 10
-1.348012
 20
3.509551
  0
VERTEX
  8
PLAN_1
 62
     2
  6
CONTINUOUS
 10
-1.344803
 20
3.510008
  0
VERTEX
  8
PLAN_1
 62
     2
  6
CONTINUOUS
 10
-1.341138
 20
3.509551
  0
VERTEX
  8
PLAN_1
 62
     2
  6
CONTINUOUS
 10
-1.337476
 20
3.508634
  0
VERTEX
  8
PLAN_1
 62
     2
  6
CONTINUOUS
 10
-1.333354
 20
3.507260
  0
VERTEX
  8
PLAN_1
 62
     2
  6
CONTINUOUS
 10
-1.329689
 20
3.504969
  0
VERTEX
  8
PLAN_1
 62
     2
  6
CONTINUOUS
 10
-1.328315
 20
3.503594
  0
VERTEX
  8
PLAN_1
 62
     2
  6
CONTINUOUS
 10
-1.326480
 20
3.501764
  0
VERTEX
  8
PLAN_1
 62
     2
  6
CONTINUOUS
 10
-1.325106
 20
3.499929
  0
VERTEX
  8
PLAN_1
 62
     2
  6
CONTINUOUS
 10
-1.324193
 20
3.497642
  0
VERTEX
  8
PLAN_1
 62
     2
  6
CONTINUOUS
 10
-1.323276
 20
3.495350
  0
VERTEX
  8
PLAN_1
 62
     2
  6
CONTINUOUS
 10
-1.322358
 20
3.492602
  0
VERTEX
  8
PLAN_1
 62
     2
  6
CONTINUOUS
 10
-1.321902
 20
3.489854
  0
VERTEX
  8
PLAN_1
 62
     2
  6
CONTINUOUS
 10
-1.321902
 20
3.486646
  0
VERTEX
  8
PLAN_1
 62
     2
  6
CONTINUOUS
 10
-1.321902
 20
3.483898
  0
VERTEX
  8
PLAN_1
 62
     2
  6
CONTINUOUS
 10
-1.322358
 20
3.481606
  0
VERTEX
  8
PLAN_1
 62
     2
  6
CONTINUOUS
 10
-1.322819
 20
3.478858
  0
VERTEX
  8
PLAN_1
 62
     2
  6
CONTINUOUS
 10
-1.323276
 20
3.477028
  0
VERTEX
  8
PLAN_1
 62
     2
  6
CONTINUOUS
 10
-1.324193
 20
3.474736
  0
VERTEX
  8
PLAN_1
 62
     2
  6
CONTINUOUS
 10
-1.325567
 20
3.472449
  0
VERTEX
  8
PLAN_1
 62
     2
  6
CONTINUOUS
 10
-1.326941
 20
3.470614
  0
VERTEX
  8
PLAN_1
 62
     2
  6
CONTINUOUS
 10
-1.328772
 20
3.468323
  0
VERTEX
  8
PLAN_1
 62
     2
  6
CONTINUOUS
 10
-1.330146
 20
3.466949
  0
VERTEX
  8
PLAN_1
 62
     2
  6
CONTINUOUS
 10
-1.331976
 20
3.465575
  0
VERTEX
  8
PLAN_1
 62
     2
  6
CONTINUOUS
 10
-1.333811
 20
3.464201
  0
VERTEX
  8
PLAN_1
 62
     2
  6
CONTINUOUS
 10
-1.335642
 20
3.463287
  0
VERTEX
  8
PLAN_1
 62
     2
  6
CONTINUOUS
 10
-1.337933
 20
3.462370
  0
VERTEX
  8
PLAN_1
 62
     2
  6
CONTINUOUS
 10
-1.340681
 20
3.461913
  0
VERTEX
  8
PLAN_1
 62
     2
  6
CONTINUOUS
 10
-1.343886
 20
3.461453
  0
VERTEX
  8
PLAN_1
 62
     2
  6
CONTINUOUS
 10
-1.347094
 20
3.461453
  0
VERTEX
  8
PLAN_1
 62
     2
  6
CONTINUOUS
 10
-1.349386
 20
3.461453
  0
VERTEX
  8
PLAN_1
 62
     2
  6
CONTINUOUS
 10
-1.351673
 20
3.461913
  0
VERTEX
  8
PLAN_1
 62
     2
  6
CONTINUOUS
 10
-1.354421
 20
3.462370
  0
VERTEX
  8
PLAN_1
 62
     2
  6
CONTINUOUS
 10
-1.356713
 20
3.463744
  0
VERTEX
  8
PLAN_1
 62
     2
  6
CONTINUOUS
 10
-1.359461
 20
3.465118
  0
VERTEX
  8
PLAN_1
 62
     2
  6
CONTINUOUS
 10
-1.361752
 20
3.466949
  0
VERTEX
  8
PLAN_1
 62
     2
  6
CONTINUOUS
 10
-1.364043
 20
3.469240
  0
VERTEX
  8
PLAN_1
 62
     2
  6
CONTINUOUS
 10
-1.366335
 20
3.471988
  0
VERTEX
  8
PLAN_1
 62
     2
  6
CONTINUOUS
 10
-1.367709
 20
3.474736
  0
VERTEX
  8
PLAN_1
 62
     2
  6
CONTINUOUS
 10
-1.369083
 20
3.477484
  0
VERTEX
  8
PLAN_1
 62
     2
  6
CONTINUOUS
 10
-1.369996
 20
3.480693
  0
VERTEX
  8
PLAN_1
 62
     2
  6
CONTINUOUS
 10
-1.370457
 20
3.483441
  0
VERTEX
  8
PLAN_1
 62
     2
  6
CONTINUOUS
 10
-1.370913
 20
3.487106
  0
VERTEX
  8
PLAN_1
 62
     2
  6
CONTINUOUS
 10
-1.371370
 20
3.490311
  0
VERTEX
  8
PLAN_1
 62
     2
  6
CONTINUOUS
 10
-1.371831
 20
3.493976
  0
VERTEX
  8
PLAN_1
 62
     2
  6
CONTINUOUS
 10
-1.371831
 20
3.497181
  0
VERTEX
  8
PLAN_1
 62
     2
  6
CONTINUOUS
 10
-1.371370
 20
3.503594
  0
VERTEX
  8
PLAN_1
 62
     2
  6
CONTINUOUS
 10
-1.370457
 20
3.510008
  0
VERTEX
  8
PLAN_1
 62
     2
  6
CONTINUOUS
 10
-1.369996
 20
3.513673
  0
VERTEX
  8
PLAN_1
 62
     2
  6
CONTINUOUS
 10
-1.369083
 20
3.516878
  0
VERTEX
  8
PLAN_1
 62
     2
  6
CONTINUOUS
 10
-1.367709
 20
3.520087
  0
VERTEX
  8
PLAN_1
 62
     2
  6
CONTINUOUS
 10
-1.366335
 20
3.522835
  0
VERTEX
  8
PLAN_1
 62
     2
  6
CONTINUOUS
 10
-1.364957
 20
3.525583
  0
VERTEX
  8
PLAN_1
 62
     2
  6
CONTINUOUS
 10
-1.362669
 20
3.528331
  0
VERTEX
  8
PLAN_1
 62
     2
  6
CONTINUOUS
 10
-1.360835
 20
3.530622
  0
VERTEX
  8
PLAN_1
 62
     2
  6
CONTINUOUS
 10
-1.358087
 20
3.532453
  0
VERTEX
  8
PLAN_1
 62
     2
  6
CONTINUOUS
 10
-1.355339
 20
3.534283
  0
VERTEX
  8
PLAN_1
 62
     2
  6
CONTINUOUS
 10
-1.352134
 20
3.535657
  0
VERTEX
  8
PLAN_1
 62
     2
  6
CONTINUOUS
 10
-1.348469
 20
3.536118
  0
VERTEX
  8
PLAN_1
 62
     2
  6
CONTINUOUS
 10
-1.344803
 20
3.536575
  0
VERTEX
  8
PLAN_1
 62
     2
  6
CONTINUOUS
 10
-1.341598
 20
3.536118
  0
VERTEX
  8
PLAN_1
 62
     2
  6
CONTINUOUS
 10
-1.337933
 20
3.535657
  0
VERTEX
  8
PLAN_1
 62
     2
  6
CONTINUOUS
 10
-1.334728
 20
3.534283
  0
VERTEX
  8
PLAN_1
 62
     2
  6
CONTINUOUS
 10
-1.331063
 20
3.532453
  0
VERTEX
  8
PLAN_1
 62
     2
  6
CONTINUOUS
 10
-1.328315
 20
3.529705
  0
VERTEX
  8
PLAN_1
 62
     2
  6
CONTINUOUS
 10
-1.326024
 20
3.526496
  0
VERTEX
  8
PLAN_1
 62
     2
  6
CONTINUOUS
 10
-1.325106
 20
3.524209
  0
VERTEX
  8
PLAN_1
 62
     2
  6
CONTINUOUS
 10
-1.324193
 20
3.521917
  0
VERTEX
  8
PLAN_1
 62
     2
  6
CONTINUOUS
 10
-1.323732
 20
3.519626
  0
VERTEX
  8
PLAN_1
 62
     2
  6
CONTINUOUS
 10
-1.323276
 20
3.516878
  0
VERTEX
  8
PLAN_1
 62
     2
  6
CONTINUOUS
 10
-1.332437
 20
3.516878
  0
SEQEND
  8
0
  0
POLYLINE
  8
PLAN_1
 62
     2
  6
CONTINUOUS
 66
     1
 40
0.003000
 41
0.003000
  0
VERTEX
  8
PLAN_1
 62
     2
  6
CONTINUOUS
 10
-1.345720
 20
3.469697
  0
VERTEX
  8
PLAN_1
 62
     2
  6
CONTINUOUS
 10
-1.342512
 20
3.469697
  0
VERTEX
  8
PLAN_1
 62
     2
  6
CONTINUOUS
 10
-1.339764
 20
3.470614
  0
VERTEX
  8
PLAN_1
 62
     2
  6
CONTINUOUS
 10
-1.337476
 20
3.472449
  0
VERTEX
  8
PLAN_1
 62
     2
  6
CONTINUOUS
 10
-1.335185
 20
3.474280
  0
VERTEX
  8
PLAN_1
 62
     2
  6
CONTINUOUS
 10
-1.333354
 20
3.476571
  0
VERTEX
  8
PLAN_1
 62
     2
  6
CONTINUOUS
 10
-1.332437
 20
3.479319
  0
VERTEX
  8
PLAN_1
 62
     2
  6
CONTINUOUS
 10
-1.331520
 20
3.482980
  0
VERTEX
  8
PLAN_1
 62
     2
  6
CONTINUOUS
 10
-1.331063
 20
3.486189
  0
VERTEX
  8
PLAN_1
 62
     2
  6
CONTINUOUS
 10
-1.331520
 20
3.488937
  0
VERTEX
  8
PLAN_1
 62
     2
  6
CONTINUOUS
 10
-1.331976
 20
3.491228
  0
VERTEX
  8
PLAN_1
 62
     2
  6
CONTINUOUS
 10
-1.332894
 20
3.493976
  0
VERTEX
  8
PLAN_1
 62
     2
  6
CONTINUOUS
 10
-1.334268
 20
3.496268
  0
VERTEX
  8
PLAN_1
 62
     2
  6
CONTINUOUS
 10
-1.336559
 20
3.498555
  0
VERTEX
  8
PLAN_1
 62
     2
  6
CONTINUOUS
 10
-1.338850
 20
3.500390
  0
VERTEX
  8
PLAN_1
 62
     2
  6
CONTINUOUS
 10
-1.342055
 20
3.501303
  0
VERTEX
  8
PLAN_1
 62
     2
  6
CONTINUOUS
 10
-1.346177
 20
3.501764
  0
VERTEX
  8
PLAN_1
 62
     2
  6
CONTINUOUS
 10
-1.349386
 20
3.501303
  0
VERTEX
  8
PLAN_1
 62
     2
  6
CONTINUOUS
 10
-1.352591
 20
3.500390
  0
VERTEX
  8
PLAN_1
 62
     2
  6
CONTINUOUS
 10
-1.355339
 20
3.499016
  0
VERTEX
  8
PLAN_1
 62
     2
  6
CONTINUOUS
 10
-1.357173
 20
3.497181
  0
VERTEX
  8
PLAN_1
 62
     2
  6
CONTINUOUS
 10
-1.359004
 20
3.494433
  0
VERTEX
  8
PLAN_1
 62
     2
  6
CONTINUOUS
 10
-1.359921
 20
3.492142
  0
VERTEX
  8
PLAN_1
 62
     2
  6
CONTINUOUS
 10
-1.360835
 20
3.488937
  0
VERTEX
  8
PLAN_1
 62
     2
  6
CONTINUOUS
 10
-1.360835
 20
3.485732
  0
VERTEX
  8
PLAN_1
 62
     2
  6
CONTINUOUS
 10
-1.360835
 20
3.482980
  0
VERTEX
  8
PLAN_1
 62
     2
  6
CONTINUOUS
 10
-1.359921
 20
3.479776
  0
VERTEX
  8
PLAN_1
 62
     2
  6
CONTINUOUS
 10
-1.359004
 20
3.477028
  0
VERTEX
  8
PLAN_1
 62
     2
  6
CONTINUOUS
 10
-1.357173
 20
3.474736
  0
VERTEX
  8
PLAN_1
 62
     2
  6
CONTINUOUS
 10
-1.355339
 20
3.472449
  0
VERTEX
  8
PLAN_1
 62
     2
  6
CONTINUOUS
 10
-1.352591
 20
3.471071
  0
VERTEX
  8
PLAN_1
 62
     2
  6
CONTINUOUS
 10
-1.349386
 20
3.470157
  0
VERTEX
  8
PLAN_1
 62
     2
  6
CONTINUOUS
 10
-1.345720
 20
3.469697
  0
SEQEND
  8
0
  0
POLYLINE
  8
PLAN_1
 62
     2
  6
CONTINUOUS
 66
     1
 40
0.003000
 41
0.003000
  0
VERTEX
  8
PLAN_1
 62
     2
  6
CONTINUOUS
 10
-1.308618
 20
3.463287
  0
VERTEX
  8
PLAN_1
 62
     2
  6
CONTINUOUS
 10
-1.303122
 20
3.463287
  0
VERTEX
  8
PLAN_1
 62
     2
  6
CONTINUOUS
 10
-1.303122
 20
3.461453
  0
VERTEX
  8
PLAN_1
 62
     2
  6
CONTINUOUS
 10
-1.303579
 20
3.459622
  0
VERTEX
  8
PLAN_1
 62
     2
  6
CONTINUOUS
 10
-1.304035
 20
3.457787
  0
VERTEX
  8
PLAN_1
 62
     2
  6
CONTINUOUS
 10
-1.304496
 20
3.456413
  0
VERTEX
  8
PLAN_1
 62
     2
  6
CONTINUOUS
 10
-1.304953
 20
3.455039
  0
VERTEX
  8
PLAN_1
 62
     2
  6
CONTINUOUS
 10
-1.305870
 20
3.454126
  0
VERTEX
  8
PLAN_1
 62
     2
  6
CONTINUOUS
 10
-1.307244
 20
3.453209
  0
VERTEX
  8
PLAN_1
 62
     2
  6
CONTINUOUS
 10
-1.308618
 20
3.452752
  0
VERTEX
  8
PLAN_1
 62
     2
  6
CONTINUOUS
 10
-1.308618
 20
3.448169
  0
VERTEX
  8
PLAN_1
 62
     2
  6
CONTINUOUS
 10
-1.307701
 20
3.448169
  0
VERTEX
  8
PLAN_1
 62
     2
  6
CONTINUOUS
 10
-1.306327
 20
3.448626
  0
VERTEX
  8
PLAN_1
 62
     2
  6
CONTINUOUS
 10
-1.304496
 20
3.449543
  0
VERTEX
  8
PLAN_1
 62
     2
  6
CONTINUOUS
 10
-1.302661
 20
3.450917
  0
VERTEX
  8
PLAN_1
 62
     2
  6
CONTINUOUS
 10
-1.300831
 20
3.452752
  0
VERTEX
  8
PLAN_1
 62
     2
  6
CONTINUOUS
 10
-1.299457
 20
3.455500
  0
VERTEX
  8
PLAN_1
 62
     2
  6
CONTINUOUS
 10
-1.298539
 20
3.459622
  0
VERTEX
  8
PLAN_1
 62
     2
  6
CONTINUOUS
 10
-1.298083
 20
3.464201
  0
VERTEX
  8
PLAN_1
 62
     2
  6
CONTINUOUS
 10
-1.298083
 20
3.474280
  0
VERTEX
  8
PLAN_1
 62
     2
  6
CONTINUOUS
 10
-1.308618
 20
3.474280
  0
VERTEX
  8
PLAN_1
 62
     2
  6
CONTINUOUS
 10
-1.308618
 20
3.463287
  0
SEQEND
  8
0
  0
POLYLINE
  8
PLAN_1
 62
     2
  6
CONTINUOUS
 66
     1
 40
0.003000
 41
0.003000
  0
VERTEX
  8
PLAN_1
 62
     2
  6
CONTINUOUS
 10
-1.284339
 20
3.510465
  0
VERTEX
  8
PLAN_1
 62
     2
  6
CONTINUOUS
 10
-1.283882
 20
3.514587
  0
VERTEX
  8
PLAN_1
 62
     2
  6
CONTINUOUS
 10
-1.283425
 20
3.518252
  0
VERTEX
  8
PLAN_1
 62
     2
  6
CONTINUOUS
 10
-1.282508
 20
3.521461
  0
VERTEX
  8
PLAN_1
 62
     2
  6
CONTINUOUS
 10
-1.281591
 20
3.524209
  0
VERTEX
  8
PLAN_1
 62
     2
  6
CONTINUOUS
 10
-1.280217
 20
3.526957
  0
VERTEX
  8
PLAN_1
 62
     2
  6
CONTINUOUS
 10
-1.278386
 20
3.528787
  0
VERTEX
  8
PLAN_1
 62
     2
  6
CONTINUOUS
 10
-1.276551
 20
3.530622
  0
VERTEX
  8
PLAN_1
 62
     2
  6
CONTINUOUS
 10
-1.274720
 20
3.532453
  0
VERTEX
  8
PLAN_1
 62
     2
  6
CONTINUOUS
 10
-1.270598
 20
3.534283
  0
VERTEX
  8
PLAN_1
 62
     2
  6
CONTINUOUS
 10
-1.266476
 20
3.535657
  0
VERTEX
  8
PLAN_1
 62
     2
  6
CONTINUOUS
 10
-1.262354
 20
3.536118
  0
VERTEX
  8
PLAN_1
 62
     2
  6
CONTINUOUS
 10
-1.259146
 20
3.536575
  0
VERTEX
  8
PLAN_1
 62
     2
  6
CONTINUOUS
 10
-1.254567
 20
3.536118
  0
VERTEX
  8
PLAN_1
 62
     2
  6
CONTINUOUS
 10
-1.249984
 20
3.534744
  0
VERTEX
  8
PLAN_1
 62
     2
  6
CONTINUOUS
 10
-1.246323
 20
3.533370
  0
VERTEX
  8
PLAN_1
 62
     2
  6
CONTINUOUS
 10
-1.242657
 20
3.530622
  0
VERTEX
  8
PLAN_1
 62
     2
  6
CONTINUOUS
 10
-1.239909
 20
3.527413
  0
VERTEX
  8
PLAN_1
 62
     2
  6
CONTINUOUS
 10
-1.238075
 20
3.523748
  0
VERTEX
  8
PLAN_1
 62
     2
  6
CONTINUOUS
 10
-1.237161
 20
3.521917
  0
VERTEX
  8
PLAN_1
 62
     2
  6
CONTINUOUS
 10
-1.236701
 20
3.519626
  0
VERTEX
  8
PLAN_1
 62
     2
  6
CONTINUOUS
 10
-1.236244
 20
3.517339
  0
VERTEX
  8
PLAN_1
 62
     2
  6
CONTINUOUS
 10
-1.236244
 20
3.514587
  0
VERTEX
  8
PLAN_1
 62
     2
  6
CONTINUOUS
 10
-1.236701
 20
3.510008
  0
VERTEX
  8
PLAN_1
 62
     2
  6
CONTINUOUS
 10
-1.237618
 20
3.505886
  0
VERTEX
  8
PLAN_1
 62
     2
  6
CONTINUOUS
 10
-1.239449
 20
3.502677
  0
VERTEX
  8
PLAN_1
 62
     2
  6
CONTINUOUS
 10
-1.241740
 20
3.499472
  0
VERTEX
  8
PLAN_1
 62
     2
  6
CONTINUOUS
 10
-1.244488
 20
3.497181
  0
VERTEX
  8
PLAN_1
 62
     2
  6
CONTINUOUS
 10
-1.248154
 20
3.494433
  0
VERTEX
  8
PLAN_1
 62
     2
  6
CONTINUOUS
 10
-1.251819
 20
3.492142
  0
VERTEX
  8
PLAN_1
 62
     2
  6
CONTINUOUS
 10
-1.255480
 20
3.490311
  0
VERTEX
  8
PLAN_1
 62
     2
  6
CONTINUOUS
 10
-1.263268
 20
3.486189
  0
VERTEX
  8
PLAN_1
 62
     2
  6
CONTINUOUS
 10
-1.266476
 20
3.483898
  0
VERTEX
  8
PLAN_1
 62
     2
  6
CONTINUOUS
 10
-1.269224
 20
3.482067
  0
VERTEX
  8
PLAN_1
 62
     2
  6
CONTINUOUS
 10
-1.271516
 20
3.479776
  0
VERTEX
  8
PLAN_1
 62
     2
  6
CONTINUOUS
 10
-1.273346
 20
3.477945
  0
VERTEX
  8
PLAN_1
 62
     2
  6
CONTINUOUS
 10
-1.274264
 20
3.476110
  0
VERTEX
  8
PLAN_1
 62
     2
  6
CONTINUOUS
 10
-1.275177
 20
3.474736
  0
VERTEX
  8
PLAN_1
 62
     2
  6
CONTINUOUS
 10
-1.275638
 20
3.473362
  0
VERTEX
  8
PLAN_1
 62
     2
  6
CONTINUOUS
 10
-1.276094
 20
3.471988
  0
VERTEX
  8
PLAN_1
 62
     2
  6
CONTINUOUS
 10
-1.236244
 20
3.471988
  0
VERTEX
  8
PLAN_1
 62
     2
  6
CONTINUOUS
 10
-1.236244
 20
3.463287
  0
VERTEX
  8
PLAN_1
 62
     2
  6
CONTINUOUS
 10
-1.286173
 20
3.463287
  0
VERTEX
  8
PLAN_1
 62
     2
  6
CONTINUOUS
 10
-1.285713
 20
3.468783
  0
VERTEX
  8
PLAN_1
 62
     2
  6
CONTINUOUS
 10
-1.284799
 20
3.473362
  0
VERTEX
  8
PLAN_1
 62
     2
  6
CONTINUOUS
 10
-1.282965
 20
3.477484
  0
VERTEX
  8
PLAN_1
 62
     2
  6
CONTINUOUS
 10
-1.281134
 20
3.481606
  0
VERTEX
  8
PLAN_1
 62
     2
  6
CONTINUOUS
 10
-1.278386
 20
3.484815
  0
VERTEX
  8
PLAN_1
 62
     2
  6
CONTINUOUS
 10
-1.275638
 20
3.487563
  0
VERTEX
  8
PLAN_1
 62
     2
  6
CONTINUOUS
 10
-1.272429
 20
3.490311
  0
VERTEX
  8
PLAN_1
 62
     2
  6
CONTINUOUS
 10
-1.269224
 20
3.492142
  0
VERTEX
  8
PLAN_1
 62
     2
  6
CONTINUOUS
 10
-1.259146
 20
3.498098
  0
VERTEX
  8
PLAN_1
 62
     2
  6
CONTINUOUS
 10
-1.256398
 20
3.499472
  0
VERTEX
  8
PLAN_1
 62
     2
  6
CONTINUOUS
 10
-1.254106
 20
3.501303
  0
VERTEX
  8
PLAN_1
 62
     2
  6
CONTINUOUS
 10
-1.251819
 20
3.502677
  0
VERTEX
  8
PLAN_1
 62
     2
  6
CONTINUOUS
 10
-1.249528
 20
3.504512
  0
VERTEX
  8
PLAN_1
 62
     2
  6
CONTINUOUS
 10
-1.248154
 20
3.506803
  0
VERTEX
  8
PLAN_1
 62
     2
  6
CONTINUOUS
 10
-1.246780
 20
3.509091
  0
VERTEX
  8
PLAN_1
 62
     2
  6
CONTINUOUS
 10
-1.246323
 20
3.511839
  0
VERTEX
  8
PLAN_1
 62
     2
  6
CONTINUOUS
 10
-1.245862
 20
3.515047
  0
VERTEX
  8
PLAN_1
 62
     2
  6
CONTINUOUS
 10
-1.246323
 20
3.517339
  0
VERTEX
  8
PLAN_1
 62
     2
  6
CONTINUOUS
 10
-1.246780
 20
3.519626
  0
VERTEX
  8
PLAN_1
 62
     2
  6
CONTINUOUS
 10
-1.247697
 20
3.521917
  0
VERTEX
  8
PLAN_1
 62
     2
  6
CONTINUOUS
 10
-1.249071
 20
3.523748
  0
VERTEX
  8
PLAN_1
 62
     2
  6
CONTINUOUS
 10
-1.250902
 20
3.525583
  0
VERTEX
  8
PLAN_1
 62
     2
  6
CONTINUOUS
 10
-1.253650
 20
3.526957
  0
VERTEX
  8
PLAN_1
 62
     2
  6
CONTINUOUS
 10
-1.256858
 20
3.527874
  0
VERTEX
  8
PLAN_1
 62
     2
  6
CONTINUOUS
 10
-1.260520
 20
3.528331
  0
VERTEX
  8
PLAN_1
 62
     2
  6
CONTINUOUS
 10
-1.262811
 20
3.528331
  0
VERTEX
  8
PLAN_1
 62
     2
  6
CONTINUOUS
 10
-1.265102
 20
3.527874
  0
VERTEX
  8
PLAN_1
 62
     2
  6
CONTINUOUS
 10
-1.266933
 20
3.526957
  0
VERTEX
  8
PLAN_1
 62
     2
  6
CONTINUOUS
 10
-1.268307
 20
3.526039
  0
VERTEX
  8
PLAN_1
 62
     2
  6
CONTINUOUS
 10
-1.271055
 20
3.523748
  0
VERTEX
  8
PLAN_1
 62
     2
  6
CONTINUOUS
 10
-1.272890
 20
3.521000
  0
VERTEX
  8
PLAN_1
 62
     2
  6
CONTINUOUS
 10
-1.273803
 20
3.518252
  0
VERTEX
  8
PLAN_1
 62
     2
  6
CONTINUOUS
 10
-1.274720
 20
3.515047
  0
VERTEX
  8
PLAN_1
 62
     2
  6
CONTINUOUS
 10
-1.275177
 20
3.512299
  0
VERTEX
  8
PLAN_1
 62
     2
  6
CONTINUOUS
 10
-1.275177
 20
3.510465
  0
VERTEX
  8
PLAN_1
 62
     2
  6
CONTINUOUS
 10
-1.284339
 20
3.510465
  0
SEQEND
  8
0
  0
SOLID
  8
PLAN_1
 62
     2
 10
-1.992043
 20
3.321287
 11
-1.961354
 21
3.373965
 12
-1.992043
 22
3.321287
 13
-1.938909
 23
3.351976
  0
POLYLINE
  8
PLAN_1
 62
     2
  6
CONTINUOUS
 66
     1
 40
0.003000
 41
0.003000
  0
VERTEX
  8
PLAN_1
 62
     2
  6
CONTINUOUS
 10
-1.992043
 20
3.321287
  0
VERTEX
  8
PLAN_1
 62
     2
  6
CONTINUOUS
 10
-1.961354
 20
3.373965
  0
VERTEX
  8
PLAN_1
 62
     2
  6
CONTINUOUS
 10
-1.938909
 20
3.351976
  0
VERTEX
  8
PLAN_1
 62
     2
  6
CONTINUOUS
 10
-1.992043
 20
3.321287
  0
SEQEND
  8
0
  0
POLYLINE
  8
PLAN_1
 62
     2
  6
CONTINUOUS
 66
     1
 40
0.004122
 41
0.004122
  0
VERTEX
  8
PLAN_1
 62
     2
  6
CONTINUOUS
 10
-1.965476
 20
3.347854
  0
VERTEX
  8
PLAN_1
 62
     2
  6
CONTINUOUS
 10
-1.743315
 20
3.564516
  0
VERTEX
  8
PLAN_1
 62
     2
  6
CONTINUOUS
 10
-0.988890
 20
3.564516
  0
SEQEND
  8
0
  0
POLYLINE
  8
PLAN_1
 62
     2
  6
CONTINUOUS
 66
     1
 40
0.003000
 41
0.003000
  0
VERTEX
  8
PLAN_1
 62
     2
  6
CONTINUOUS
 10
-1.234409
 20
0.603614
  0
VERTEX
  8
PLAN_1
 62
     2
  6
CONTINUOUS
 10
-1.235327
 20
0.605906
  0
VERTEX
  8
PLAN_1
 62
     2
  6
CONTINUOUS
 10
-1.235787
 20
0.608197
  0
VERTEX
  8
PLAN_1
 62
     2
  6
CONTINUOUS
 10
-1.237161
 20
0.610028
  0
VERTEX
  8
PLAN_1
 62
     2
  6
CONTINUOUS
 10
-1.238535
 20
0.611858
  0
VERTEX
  8
PLAN_1
 62
     2
  6
CONTINUOUS
 10
-1.239909
 20
0.613232
  0
VERTEX
  8
PLAN_1
 62
     2
  6
CONTINUOUS
 10
-1.242197
 20
0.614150
  0
VERTEX
  8
PLAN_1
 62
     2
  6
CONTINUOUS
 10
-1.244488
 20
0.614610
  0
VERTEX
  8
PLAN_1
 62
     2
  6
CONTINUOUS
 10
-1.247236
 20
0.615067
  0
VERTEX
  8
PLAN_1
 62
     2
  6
CONTINUOUS
 10
-1.249528
 20
0.614610
  0
VERTEX
  8
PLAN_1
 62
     2
  6
CONTINUOUS
 10
-1.251819
 20
0.614150
  0
VERTEX
  8
PLAN_1
 62
     2
  6
CONTINUOUS
 10
-1.254106
 20
0.613232
  0
VERTEX
  8
PLAN_1
 62
     2
  6
CONTINUOUS
 10
-1.255941
 20
0.611858
  0
VERTEX
  8
PLAN_1
 62
     2
  6
CONTINUOUS
 10
-1.257772
 20
0.610484
  0
VERTEX
  8
PLAN_1
 62
     2
  6
CONTINUOUS
 10
-1.259146
 20
0.608654
  0
VERTEX
  8
PLAN_1
 62
     2
  6
CONTINUOUS
 10
-1.260063
 20
0.606362
  0
VERTEX
  8
PLAN_1
 62
     2
  6
CONTINUOUS
 10
-1.261437
 20
0.604531
  0
VERTEX
  8
PLAN_1
 62
     2
  6
CONTINUOUS
 10
-1.262811
 20
0.599949
  0
VERTEX
  8
PLAN_1
 62
     2
  6
CONTINUOUS
 10
-1.263728
 20
0.595370
  0
VERTEX
  8
PLAN_1
 62
     2
  6
CONTINUOUS
 10
-1.264185
 20
0.591248
  0
VERTEX
  8
PLAN_1
 62
     2
  6
CONTINUOUS
 10
-1.264642
 20
0.588039
  0
VERTEX
  8
PLAN_1
 62
     2
  6
CONTINUOUS
 10
-1.264185
 20
0.587583
  0
VERTEX
  8
PLAN_1
 62
     2
  6
CONTINUOUS
 10
-1.263268
 20
0.589413
  0
VERTEX
  8
PLAN_1
 62
     2
  6
CONTINUOUS
 10
-1.261894
 20
0.590787
  0
VERTEX
  8
PLAN_1
 62
     2
  6
CONTINUOUS
 10
-1.260520
 20
0.592165
  0
VERTEX
  8
PLAN_1
 62
     2
  6
CONTINUOUS
 10
-1.258689
 20
0.593539
  0
VERTEX
  8
PLAN_1
 62
     2
  6
CONTINUOUS
 10
-1.256398
 20
0.594913
  0
VERTEX
  8
PLAN_1
 62
     2
  6
CONTINUOUS
 10
-1.253650
 20
0.595827
  0
VERTEX
  8
PLAN_1
 62
     2
  6
CONTINUOUS
 10
-1.250445
 20
0.596287
  0
VERTEX
  8
PLAN_1
 62
     2
  6
CONTINUOUS
 10
-1.246780
 20
0.596744
  0
VERTEX
  8
PLAN_1
 62
     2
  6
CONTINUOUS
 10
-1.243571
 20
0.596287
  0
VERTEX
  8
PLAN_1
 62
     2
  6
CONTINUOUS
 10
-1.239449
 20
0.595370
  0
VERTEX
  8
PLAN_1
 62
     2
  6
CONTINUOUS
 10
-1.235787
 20
0.593996
  0
VERTEX
  8
PLAN_1
 62
     2
  6
CONTINUOUS
 10
-1.232122
 20
0.591705
  0
VERTEX
  8
PLAN_1
 62
     2
  6
CONTINUOUS
 10
-1.230287
 20
0.590331
  0
VERTEX
  8
PLAN_1
 62
     2
  6
CONTINUOUS
 10
-1.228913
 20
0.588500
  0
VERTEX
  8
PLAN_1
 62
     2
  6
CONTINUOUS
 10
-1.227539
 20
0.586665
  0
VERTEX
  8
PLAN_1
 62
     2
  6
CONTINUOUS
 10
-1.226626
 20
0.584378
  0
VERTEX
  8
PLAN_1
 62
     2
  6
CONTINUOUS
 10
-1.225252
 20
0.582087
  0
VERTEX
  8
PLAN_1
 62
     2
  6
CONTINUOUS
 10
-1.224791
 20
0.579339
  0
VERTEX
  8
PLAN_1
 62
     2
  6
CONTINUOUS
 10
-1.224335
 20
0.576591
  0
VERTEX
  8
PLAN_1
 62
     2
  6
CONTINUOUS
 10
-1.223874
 20
0.573382
  0
VERTEX
  8
PLAN_1
 62
     2
  6
CONTINUOUS
 10
-1.224335
 20
0.570634
  0
VERTEX
  8
PLAN_1
 62
     2
  6
CONTINUOUS
 10
-1.224335
 20
0.568343
  0
VERTEX
  8
PLAN_1
 62
     2
  6
CONTINUOUS
 10
-1.224791
 20
0.566055
  0
VERTEX
  8
PLAN_1
 62
     2
  6
CONTINUOUS
 10
-1.225709
 20
0.563764
  0
VERTEX
  8
PLAN_1
 62
     2
  6
CONTINUOUS
 10
-1.226626
 20
0.561472
  0
VERTEX
  8
PLAN_1
 62
     2
  6
CONTINUOUS
 10
-1.228000
 20
0.559185
  0
VERTEX
  8
PLAN_1
 62
     2
  6
CONTINUOUS
 10
-1.229374
 20
0.557350
  0
VERTEX
  8
PLAN_1
 62
     2
  6
CONTINUOUS
 10
-1.231205
 20
0.555059
  0
VERTEX
  8
PLAN_1
 62
     2
  6
CONTINUOUS
 10
-1.232579
 20
0.553685
  0
VERTEX
  8
PLAN_1
 62
     2
  6
CONTINUOUS
 10
-1.233953
 20
0.552311
  0
VERTEX
  8
PLAN_1
 62
     2
  6
CONTINUOUS
 10
-1.235787
 20
0.550937
  0
VERTEX
  8
PLAN_1
 62
     2
  6
CONTINUOUS
 10
-1.238075
 20
0.550024
  0
VERTEX
  8
PLAN_1
 62
     2
  6
CONTINUOUS
 10
-1.240366
 20
0.549106
  0
VERTEX
  8
PLAN_1
 62
     2
  6
CONTINUOUS
 10
-1.242657
 20
0.548650
  0
VERTEX
  8
PLAN_1
 62
     2
  6
CONTINUOUS
 10
-1.245862
 20
0.548189
  0
VERTEX
  8
PLAN_1
 62
     2
  6
CONTINUOUS
 10
-1.249528
 20
0.548189
  0
VERTEX
  8
PLAN_1
 62
     2
  6
CONTINUOUS
 10
-1.251819
 20
0.548189
  0
VERTEX
  8
PLAN_1
 62
     2
  6
CONTINUOUS
 10
-1.254106
 20
0.548650
  0
VERTEX
  8
PLAN_1
 62
     2
  6
CONTINUOUS
 10
-1.256398
 20
0.549563
  0
VERTEX
  8
PLAN_1
 62
     2
  6
CONTINUOUS
 10
-1.259146
 20
0.550480
  0
VERTEX
  8
PLAN_1
 62
     2
  6
CONTINUOUS
 10
-1.261437
 20
0.551854
  0
VERTEX
  8
PLAN_1
 62
     2
  6
CONTINUOUS
 10
-1.264185
 20
0.553685
  0
VERTEX
  8
PLAN_1
 62
     2
  6
CONTINUOUS
 10
-1.266476
 20
0.555976
  0
VERTEX
  8
PLAN_1
 62
     2
  6
CONTINUOUS
 10
-1.268307
 20
0.558724
  0
VERTEX
  8
PLAN_1
 62
     2
  6
CONTINUOUS
 10
-1.269681
 20
0.561472
  0
VERTEX
  8
PLAN_1
 62
     2
  6
CONTINUOUS
 10
-1.271055
 20
0.564220
  0
VERTEX
  8
PLAN_1
 62
     2
  6
CONTINUOUS
 10
-1.271972
 20
0.567429
  0
VERTEX
  8
PLAN_1
 62
     2
  6
CONTINUOUS
 10
-1.272890
 20
0.570634
  0
VERTEX
  8
PLAN_1
 62
     2
  6
CONTINUOUS
 10
-1.273346
 20
0.573843
  0
VERTEX
  8
PLAN_1
 62
     2
  6
CONTINUOUS
 10
-1.273803
 20
0.577047
  0
VERTEX
  8
PLAN_1
 62
     2
  6
CONTINUOUS
 10
-1.273803
 20
0.580713
  0
VERTEX
  8
PLAN_1
 62
     2
  6
CONTINUOUS
 10
-1.273803
 20
0.583917
  0
VERTEX
  8
PLAN_1
 62
     2
  6
CONTINUOUS
 10
-1.273803
 20
0.590331
  0
VERTEX
  8
PLAN_1
 62
     2
  6
CONTINUOUS
 10
-1.272890
 20
0.597201
  0
VERTEX
  8
PLAN_1
 62
     2
  6
CONTINUOUS
 10
-1.271972
 20
0.600409
  0
VERTEX
  8
PLAN_1
 62
     2
  6
CONTINUOUS
 10
-1.271055
 20
0.603614
  0
VERTEX
  8
PLAN_1
 62
     2
  6
CONTINUOUS
 10
-1.270142
 20
0.606823
  0
VERTEX
  8
PLAN_1
 62
     2
  6
CONTINUOUS
 10
-1.268768
 20
0.609571
  0
VERTEX
  8
PLAN_1
 62
     2
  6
CONTINUOUS
 10
-1.266933
 20
0.612319
  0
VERTEX
  8
PLAN_1
 62
     2
  6
CONTINUOUS
 10
-1.265102
 20
0.615067
  0
VERTEX
  8
PLAN_1
 62
     2
  6
CONTINUOUS
 10
-1.262811
 20
0.617358
  0
VERTEX
  8
PLAN_1
 62
     2
  6
CONTINUOUS
 10
-1.260520
 20
0.619189
  0
VERTEX
  8
PLAN_1
 62
     2
  6
CONTINUOUS
 10
-1.257772
 20
0.621020
  0
VERTEX
  8
PLAN_1
 62
     2
  6
CONTINUOUS
 10
-1.254567
 20
0.622394
  0
VERTEX
  8
PLAN_1
 62
     2
  6
CONTINUOUS
 10
-1.250902
 20
0.622854
  0
VERTEX
  8
PLAN_1
 62
     2
  6
CONTINUOUS
 10
-1.246780
 20
0.623311
  0
VERTEX
  8
PLAN_1
 62
     2
  6
CONTINUOUS
 10
-1.243571
 20
0.622854
  0
VERTEX
  8
PLAN_1
 62
     2
  6
CONTINUOUS
 10
-1.240366
 20
0.622394
  0
VERTEX
  8
PLAN_1
 62
     2
  6
CONTINUOUS
 10
-1.236701
 20
0.621020
  0
VERTEX
  8
PLAN_1
 62
     2
  6
CONTINUOUS
 10
-1.233496
 20
0.619189
  0
VERTEX
  8
PLAN_1
 62
     2
  6
CONTINUOUS
 10
-1.230748
 20
0.616441
  0
VERTEX
  8
PLAN_1
 62
     2
  6
CONTINUOUS
 10
-1.228000
 20
0.613232
  0
VERTEX
  8
PLAN_1
 62
     2
  6
CONTINUOUS
 10
-1.227083
 20
0.610945
  0
VERTEX
  8
PLAN_1
 62
     2
  6
CONTINUOUS
 10
-1.226626
 20
0.609110
  0
VERTEX
  8
PLAN_1
 62
     2
  6
CONTINUOUS
 10
-1.226165
 20
0.606362
  0
VERTEX
  8
PLAN_1
 62
     2
  6
CONTINUOUS
 10
-1.225709
 20
0.603614
  0
VERTEX
  8
PLAN_1
 62
     2
  6
CONTINUOUS
 10
-1.234409
 20
0.603614
  0
SEQEND
  8
0
  0
POLYLINE
  8
PLAN_1
 62
     2
  6
CONTINUOUS
 66
     1
 40
0.003000
 41
0.003000
  0
VERTEX
  8
PLAN_1
 62
     2
  6
CONTINUOUS
 10
-1.247697
 20
0.556433
  0
VERTEX
  8
PLAN_1
 62
     2
  6
CONTINUOUS
 10
-1.244945
 20
0.556894
  0
VERTEX
  8
PLAN_1
 62
     2
  6
CONTINUOUS
 10
-1.241740
 20
0.557350
  0
VERTEX
  8
PLAN_1
 62
     2
  6
CONTINUOUS
 10
-1.239449
 20
0.559185
  0
VERTEX
  8
PLAN_1
 62
     2
  6
CONTINUOUS
 10
-1.237618
 20
0.561016
  0
VERTEX
  8
PLAN_1
 62
     2
  6
CONTINUOUS
 10
-1.235787
 20
0.563307
  0
VERTEX
  8
PLAN_1
 62
     2
  6
CONTINUOUS
 10
-1.234409
 20
0.566512
  0
VERTEX
  8
PLAN_1
 62
     2
  6
CONTINUOUS
 10
-1.233953
 20
0.569717
  0
VERTEX
  8
PLAN_1
 62
     2
  6
CONTINUOUS
 10
-1.233496
 20
0.572925
  0
VERTEX
  8
PLAN_1
 62
     2
  6
CONTINUOUS
 10
-1.233496
 20
0.575673
  0
VERTEX
  8
PLAN_1
 62
     2
  6
CONTINUOUS
 10
-1.234409
 20
0.578421
  0
VERTEX
  8
PLAN_1
 62
     2
  6
CONTINUOUS
 10
-1.235327
 20
0.580713
  0
VERTEX
  8
PLAN_1
 62
     2
  6
CONTINUOUS
 10
-1.236701
 20
0.583004
  0
VERTEX
  8
PLAN_1
 62
     2
  6
CONTINUOUS
 10
-1.238535
 20
0.585291
  0
VERTEX
  8
PLAN_1
 62
     2
  6
CONTINUOUS
 10
-1.241283
 20
0.587126
  0
VERTEX
  8
PLAN_1
 62
     2
  6
CONTINUOUS
 10
-1.244488
 20
0.588039
  0
VERTEX
  8
PLAN_1
 62
     2
  6
CONTINUOUS
 10
-1.248154
 20
0.588500
  0
VERTEX
  8
PLAN_1
 62
     2
  6
CONTINUOUS
 10
-1.251819
 20
0.588039
  0
VERTEX
  8
PLAN_1
 62
     2
  6
CONTINUOUS
 10
-1.255024
 20
0.587126
  0
VERTEX
  8
PLAN_1
 62
     2
  6
CONTINUOUS
 10
-1.257315
 20
0.585752
  0
VERTEX
  8
PLAN_1
 62
     2
  6
CONTINUOUS
 10
-1.259606
 20
0.583917
  0
VERTEX
  8
PLAN_1
 62
     2
  6
CONTINUOUS
 10
-1.261437
 20
0.581630
  0
VERTEX
  8
PLAN_1
 62
     2
  6
CONTINUOUS
 10
-1.262354
 20
0.578878
  0
VERTEX
  8
PLAN_1
 62
     2
  6
CONTINUOUS
 10
-1.263268
 20
0.575673
  0
VERTEX
  8
PLAN_1
 62
     2
  6
CONTINUOUS
 10
-1.263268
 20
0.572469
  0
VERTEX
  8
PLAN_1
 62
     2
  6
CONTINUOUS
 10
-1.263268
 20
0.569717
  0
VERTEX
  8
PLAN_1
 62
     2
  6
CONTINUOUS
 10
-1.262354
 20
0.566969
  0
VERTEX
  8
PLAN_1
 62
     2
  6
CONTINUOUS
 10
-1.261437
 20
0.564220
  0
VERTEX
  8
PLAN_1
 62
     2
  6
CONTINUOUS
 10
-1.259606
 20
0.561472
  0
VERTEX
  8
PLAN_1
 62
     2
  6
CONTINUOUS
 10
-1.257315
 20
0.559642
  0
VERTEX
  8
PLAN_1
 62
     2
  6
CONTINUOUS
 10
-1.255024
 20
0.557807
  0
VERTEX
  8
PLAN_1
 62
     2
  6
CONTINUOUS
 10
-1.251819
 20
0.556894
  0
VERTEX
  8
PLAN_1
 62
     2
  6
CONTINUOUS
 10
-1.247697
 20
0.556433
  0
SEQEND
  8
0
  0
POLYLINE
  8
PLAN_1
 62
     2
  6
CONTINUOUS
 66
     1
 40
0.003000
 41
0.003000
  0
VERTEX
  8
PLAN_1
 62
     2
  6
CONTINUOUS
 10
-1.176236
 20
0.567886
  0
VERTEX
  8
PLAN_1
 62
     2
  6
CONTINUOUS
 10
-1.176236
 20
0.550024
  0
VERTEX
  8
PLAN_1
 62
     2
  6
CONTINUOUS
 10
-1.185398
 20
0.550024
  0
VERTEX
  8
PLAN_1
 62
     2
  6
CONTINUOUS
 10
-1.185398
 20
0.567886
  0
VERTEX
  8
PLAN_1
 62
     2
  6
CONTINUOUS
 10
-1.217465
 20
0.567886
  0
VERTEX
  8
PLAN_1
 62
     2
  6
CONTINUOUS
 10
-1.217465
 20
0.577047
  0
VERTEX
  8
PLAN_1
 62
     2
  6
CONTINUOUS
 10
-1.184024
 20
0.623311
  0
VERTEX
  8
PLAN_1
 62
     2
  6
CONTINUOUS
 10
-1.176236
 20
0.623311
  0
VERTEX
  8
PLAN_1
 62
     2
  6
CONTINUOUS
 10
-1.176236
 20
0.575673
  0
VERTEX
  8
PLAN_1
 62
     2
  6
CONTINUOUS
 10
-1.165701
 20
0.575673
  0
VERTEX
  8
PLAN_1
 62
     2
  6
CONTINUOUS
 10
-1.165701
 20
0.567886
  0
VERTEX
  8
PLAN_1
 62
     2
  6
CONTINUOUS
 10
-1.176236
 20
0.567886
  0
SEQEND
  8
0
  0
SOLID
  8
PLAN_1
 62
     2
 10
-1.209217
 20
0.575673
 11
-1.185398
 21
0.575673
 12
-1.185858
 22
0.609110
 13
-1.185398
 23
0.609110
  0
POLYLINE
  8
PLAN_1
 62
     2
  6
CONTINUOUS
 66
     1
 40
0.003000
 41
0.003000
  0
VERTEX
  8
PLAN_1
 62
     2
  6
CONTINUOUS
 10
-1.209217
 20
0.575673
  0
VERTEX
  8
PLAN_1
 62
     2
  6
CONTINUOUS
 10
-1.185398
 20
0.575673
  0
VERTEX
  8
PLAN_1
 62
     2
  6
CONTINUOUS
 10
-1.185398
 20
0.609110
  0
VERTEX
  8
PLAN_1
 62
     2
  6
CONTINUOUS
 10
-1.185858
 20
0.609110
  0
VERTEX
  8
PLAN_1
 62
     2
  6
CONTINUOUS
 10
-1.209217
 20
0.575673
  0
SEQEND
  8
0
  0
POLYLINE
  8
PLAN_1
 62
     2
  6
CONTINUOUS
 66
     1
 40
0.004122
 41
0.004122
  0
VERTEX
  8
PLAN_1
 62
     2
  6
CONTINUOUS
 10
-2.479421
 20
0.502843
  0
VERTEX
  8
PLAN_1
 62
     2
  6
CONTINUOUS
 10
-2.479421
 20
1.069921
  0
SEQEND
  8
0
  0
POLYLINE
  8
PLAN_1
 62
     2
  6
CONTINUOUS
 66
     1
 40
0.003000
 41
0.003000
  0
VERTEX
  8
PLAN_1
 62
     2
  6
CONTINUOUS
 10
-2.049760
 20
0.660413
  0
VERTEX
  8
PLAN_1
 62
     2
  6
CONTINUOUS
 10
-2.049760
 20
0.668661
  0
SEQEND
  8
0
  0
POLYLINE
  8
PLAN_1
 62
     2
  6
CONTINUOUS
 66
     1
 40
0.003000
 41
0.003000
  0
VERTEX
  8
PLAN_1
 62
     2
  6
CONTINUOUS
 10
-2.049760
 20
0.676906
  0
VERTEX
  8
PLAN_1
 62
     2
  6
CONTINUOUS
 10
-2.049760
 20
0.685150
  0
SEQEND
  8
0
  0
POLYLINE
  8
PLAN_1
 62
     2
  6
CONTINUOUS
 66
     1
 40
0.003000
 41
0.003000
  0
VERTEX
  8
PLAN_1
 62
     2
  6
CONTINUOUS
 10
-2.049760
 20
0.693854
  0
VERTEX
  8
PLAN_1
 62
     2
  6
CONTINUOUS
 10
-2.049760
 20
0.702098
  0
SEQEND
  8
0
  0
POLYLINE
  8
PLAN_1
 62
     2
  6
CONTINUOUS
 66
     1
 40
0.003000
 41
0.003000
  0
VERTEX
  8
PLAN_1
 62
     2
  6
CONTINUOUS
 10
-2.049760
 20
0.710343
  0
VERTEX
  8
PLAN_1
 62
     2
  6
CONTINUOUS
 10
-2.049760
 20
0.718587
  0
SEQEND
  8
0
  0
POLYLINE
  8
PLAN_1
 62
     2
  6
CONTINUOUS
 66
     1
 40
0.003000
 41
0.003000
  0
VERTEX
  8
PLAN_1
 62
     2
  6
CONTINUOUS
 10
-2.049760
 20
0.726835
  0
VERTEX
  8
PLAN_1
 62
     2
  6
CONTINUOUS
 10
-2.049760
 20
0.735079
  0
SEQEND
  8
0
  0
POLYLINE
  8
PLAN_1
 62
     2
  6
CONTINUOUS
 66
     1
 40
0.003000
 41
0.003000
  0
VERTEX
  8
PLAN_1
 62
     2
  6
CONTINUOUS
 10
-2.049760
 20
0.743780
  0
VERTEX
  8
PLAN_1
 62
     2
  6
CONTINUOUS
 10
-2.049760
 20
0.752028
  0
SEQEND
  8
0
  0
POLYLINE
  8
PLAN_1
 62
     2
  6
CONTINUOUS
 66
     1
 40
0.003000
 41
0.003000
  0
VERTEX
  8
PLAN_1
 62
     2
  6
CONTINUOUS
 10
-2.049760
 20
0.760272
  0
VERTEX
  8
PLAN_1
 62
     2
  6
CONTINUOUS
 10
-2.049760
 20
0.768516
  0
SEQEND
  8
0
  0
POLYLINE
  8
PLAN_1
 62
     2
  6
CONTINUOUS
 66
     1
 40
0.003000
 41
0.003000
  0
VERTEX
  8
PLAN_1
 62
     2
  6
CONTINUOUS
 10
-2.049760
 20
0.776760
  0
VERTEX
  8
PLAN_1
 62
     2
  6
CONTINUOUS
 10
-2.049760
 20
0.785465
  0
SEQEND
  8
0
  0
POLYLINE
  8
PLAN_1
 62
     2
  6
CONTINUOUS
 66
     1
 40
0.003000
 41
0.003000
  0
VERTEX
  8
PLAN_1
 62
     2
  6
CONTINUOUS
 10
-2.049760
 20
0.793709
  0
VERTEX
  8
PLAN_1
 62
     2
  6
CONTINUOUS
 10
-2.049760
 20
0.801957
  0
SEQEND
  8
0
  0
POLYLINE
  8
PLAN_1
 62
     2
  6
CONTINUOUS
 66
     1
 40
0.003000
 41
0.003000
  0
VERTEX
  8
PLAN_1
 62
     2
  6
CONTINUOUS
 10
-2.049760
 20
0.810201
  0
VERTEX
  8
PLAN_1
 62
     2
  6
CONTINUOUS
 10
-2.049760
 20
0.815240
  0
SEQEND
  8
0
  0
POLYLINE
  8
PLAN_1
 62
     2
  6
CONTINUOUS
 66
     1
 40
0.003000
 41
0.003000
  0
VERTEX
  8
PLAN_1
 62
     2
  6
CONTINUOUS
 10
-2.049760
 20
0.810201
  0
VERTEX
  8
PLAN_1
 62
     2
  6
CONTINUOUS
 10
-2.049760
 20
0.815240
  0
SEQEND
  8
0
  0
POLYLINE
  8
PLAN_1
 62
     2
  6
CONTINUOUS
 66
     1
 40
0.003000
 41
0.003000
  0
VERTEX
  8
PLAN_1
 62
     2
  6
CONTINUOUS
 10
-0.388831
 20
0.660413
  0
VERTEX
  8
PLAN_1
 62
     2
  6
CONTINUOUS
 10
-0.388831
 20
0.668661
  0
SEQEND
  8
0
  0
POLYLINE
  8
PLAN_1
 62
     2
  6
CONTINUOUS
 66
     1
 40
0.003000
 41
0.003000
  0
VERTEX
  8
PLAN_1
 62
     2
  6
CONTINUOUS
 10
-0.388831
 20
0.676906
  0
VERTEX
  8
PLAN_1
 62
     2
  6
CONTINUOUS
 10
-0.388831
 20
0.685150
  0
SEQEND
  8
0
  0
POLYLINE
  8
PLAN_1
 62
     2
  6
CONTINUOUS
 66
     1
 40
0.003000
 41
0.003000
  0
VERTEX
  8
PLAN_1
 62
     2
  6
CONTINUOUS
 10
-0.388831
 20
0.693854
  0
VERTEX
  8
PLAN_1
 62
     2
  6
CONTINUOUS
 10
-0.388831
 20
0.702098
  0
SEQEND
  8
0
  0
POLYLINE
  8
PLAN_1
 62
     2
  6
CONTINUOUS
 66
     1
 40
0.003000
 41
0.003000
  0
VERTEX
  8
PLAN_1
 62
     2
  6
CONTINUOUS
 10
-0.388831
 20
0.710343
  0
VERTEX
  8
PLAN_1
 62
     2
  6
CONTINUOUS
 10
-0.388831
 20
0.718587
  0
SEQEND
  8
0
  0
POLYLINE
  8
PLAN_1
 62
     2
  6
CONTINUOUS
 66
     1
 40
0.003000
 41
0.003000
  0
VERTEX
  8
PLAN_1
 62
     2
  6
CONTINUOUS
 10
-0.388831
 20
0.726835
  0
VERTEX
  8
PLAN_1
 62
     2
  6
CONTINUOUS
 10
-0.388831
 20
0.735079
  0
SEQEND
  8
0
  0
POLYLINE
  8
PLAN_1
 62
     2
  6
CONTINUOUS
 66
     1
 40
0.003000
 41
0.003000
  0
VERTEX
  8
PLAN_1
 62
     2
  6
CONTINUOUS
 10
-0.388831
 20
0.743780
  0
VERTEX
  8
PLAN_1
 62
     2
  6
CONTINUOUS
 10
-0.388831
 20
0.752028
  0
SEQEND
  8
0
  0
POLYLINE
  8
PLAN_1
 62
     2
  6
CONTINUOUS
 66
     1
 40
0.003000
 41
0.003000
  0
VERTEX
  8
PLAN_1
 62
     2
  6
CONTINUOUS
 10
-0.388831
 20
0.760272
  0
VERTEX
  8
PLAN_1
 62
     2
  6
CONTINUOUS
 10
-0.388831
 20
0.768516
  0
SEQEND
  8
0
  0
POLYLINE
  8
PLAN_1
 62
     2
  6
CONTINUOUS
 66
     1
 40
0.003000
 41
0.003000
  0
VERTEX
  8
PLAN_1
 62
     2
  6
CONTINUOUS
 10
-0.388831
 20
0.776760
  0
VERTEX
  8
PLAN_1
 62
     2
  6
CONTINUOUS
 10
-0.388831
 20
0.785465
  0
SEQEND
  8
0
  0
POLYLINE
  8
PLAN_1
 62
     2
  6
CONTINUOUS
 66
     1
 40
0.003000
 41
0.003000
  0
VERTEX
  8
PLAN_1
 62
     2
  6
CONTINUOUS
 10
-0.388831
 20
0.793709
  0
VERTEX
  8
PLAN_1
 62
     2
  6
CONTINUOUS
 10
-0.388831
 20
0.801957
  0
SEQEND
  8
0
  0
POLYLINE
  8
PLAN_1
 62
     2
  6
CONTINUOUS
 66
     1
 40
0.003000
 41
0.003000
  0
VERTEX
  8
PLAN_1
 62
     2
  6
CONTINUOUS
 10
-0.388831
 20
0.810201
  0
VERTEX
  8
PLAN_1
 62
     2
  6
CONTINUOUS
 10
-0.388831
 20
0.815240
  0
SEQEND
  8
0
  0
POLYLINE
  8
PLAN_1
 62
     2
  6
CONTINUOUS
 66
     1
 40
0.003000
 41
0.003000
  0
VERTEX
  8
PLAN_1
 62
     2
  6
CONTINUOUS
 10
-0.388831
 20
0.810201
  0
VERTEX
  8
PLAN_1
 62
     2
  6
CONTINUOUS
 10
-0.388831
 20
0.815240
  0
SEQEND
  8
0
  0
POLYLINE
  8
PLAN_1
 62
     2
  6
CONTINUOUS
 66
     1
 40
0.004122
 41
0.004122
  0
VERTEX
  8
PLAN_1
 62
     2
  6
CONTINUOUS
 10
0.039453
 20
0.502843
  0
VERTEX
  8
PLAN_1
 62
     2
  6
CONTINUOUS
 10
0.039453
 20
1.069921
  0
SEQEND
  8
0
  0
POLYLINE
  8
PLAN_1
 62
     2
  6
CONTINUOUS
 66
     1
 40
0.003000
 41
0.003000
  0
VERTEX
  8
PLAN_1
 62
     2
  6
CONTINUOUS
 10
0.129236
 20
1.945732
  0
VERTEX
  8
PLAN_1
 62
     2
  6
CONTINUOUS
 10
0.128776
 20
1.947106
  0
VERTEX
  8
PLAN_1
 62
     2
  6
CONTINUOUS
 10
0.127858
 20
1.948480
  0
VERTEX
  8
PLAN_1
 62
     2
  6
CONTINUOUS
 10
0.126945
 20
1.949854
  0
VERTEX
  8
PLAN_1
 62
     2
  6
CONTINUOUS
 10
0.126484
 20
1.951685
  0
VERTEX
  8
PLAN_1
 62
     2
  6
CONTINUOUS
 10
0.125571
 20
1.953520
  0
VERTEX
  8
PLAN_1
 62
     2
  6
CONTINUOUS
 10
0.125110
 20
1.955350
  0
VERTEX
  8
PLAN_1
 62
     2
  6
CONTINUOUS
 10
0.125110
 20
1.957642
  0
VERTEX
  8
PLAN_1
 62
     2
  6
CONTINUOUS
 10
0.124654
 20
1.959933
  0
VERTEX
  8
PLAN_1
 62
     2
  6
CONTINUOUS
 10
0.125110
 20
1.964512
  0
VERTEX
  8
PLAN_1
 62
     2
  6
CONTINUOUS
 10
0.126484
 20
1.968634
  0
VERTEX
  8
PLAN_1
 62
     2
  6
CONTINUOUS
 10
0.128319
 20
1.972756
  0
VERTEX
  8
PLAN_1
 62
     2
  6
CONTINUOUS
 10
0.131067
 20
1.976421
  0
VERTEX
  8
PLAN_1
 62
     2
  6
CONTINUOUS
 10
0.132441
 20
1.978256
  0
VERTEX
  8
PLAN_1
 62
     2
  6
CONTINUOUS
 10
0.134272
 20
1.979630
  0
VERTEX
  8
PLAN_1
 62
     2
  6
CONTINUOUS
 10
0.136106
 20
1.981004
  0
VERTEX
  8
PLAN_1
 62
     2
  6
CONTINUOUS
 10
0.138394
 20
1.981917
  0
VERTEX
  8
PLAN_1
 62
     2
  6
CONTINUOUS
 10
0.140685
 20
1.982835
  0
VERTEX
  8
PLAN_1
 62
     2
  6
CONTINUOUS
 10
0.142976
 20
1.983291
  0
VERTEX
  8
PLAN_1
 62
     2
  6
CONTINUOUS
 10
0.145724
 20
1.983752
  0
VERTEX
  8
PLAN_1
 62
     2
  6
CONTINUOUS
 10
0.148472
 20
1.984209
  0
VERTEX
  8
PLAN_1
 62
     2
  6
CONTINUOUS
 10
0.151681
 20
1.983752
  0
VERTEX
  8
PLAN_1
 62
     2
  6
CONTINUOUS
 10
0.155803
 20
1.983291
  0
VERTEX
  8
PLAN_1
 62
     2
  6
CONTINUOUS
 10
0.159925
 20
1.981917
  0
VERTEX
  8
PLAN_1
 62
     2
  6
CONTINUOUS
 10
0.164047
 20
1.979169
  0
VERTEX
  8
PLAN_1
 62
     2
  6
CONTINUOUS
 10
0.166339
 20
1.977795
  0
VERTEX
  8
PLAN_1
 62
     2
  6
CONTINUOUS
 10
0.168169
 20
1.975965
  0
VERTEX
  8
PLAN_1
 62
     2
  6
CONTINUOUS
 10
0.169543
 20
1.973673
  0
VERTEX
  8
PLAN_1
 62
     2
  6
CONTINUOUS
 10
0.170917
 20
1.971382
  0
VERTEX
  8
PLAN_1
 62
     2
  6
CONTINUOUS
 10
0.172291
 20
1.968634
  0
VERTEX
  8
PLAN_1
 62
     2
  6
CONTINUOUS
 10
0.173209
 20
1.965429
  0
VERTEX
  8
PLAN_1
 62
     2
  6
CONTINUOUS
 10
0.173665
 20
1.961764
  0
VERTEX
  8
PLAN_1
 62
     2
  6
CONTINUOUS
 10
0.174126
 20
1.957642
  0
VERTEX
  8
PLAN_1
 62
     2
  6
CONTINUOUS
 10
0.173665
 20
1.953976
  0
VERTEX
  8
PLAN_1
 62
     2
  6
CONTINUOUS
 10
0.173209
 20
1.949854
  0
VERTEX
  8
PLAN_1
 62
     2
  6
CONTINUOUS
 10
0.171835
 20
1.946189
  0
VERTEX
  8
PLAN_1
 62
     2
  6
CONTINUOUS
 10
0.170000
 20
1.942984
  0
VERTEX
  8
PLAN_1
 62
     2
  6
CONTINUOUS
 10
0.168626
 20
1.941150
  0
VERTEX
  8
PLAN_1
 62
     2
  6
CONTINUOUS
 10
0.167252
 20
1.939776
  0
VERTEX
  8
PLAN_1
 62
     2
  6
CONTINUOUS
 10
0.165878
 20
1.938402
  0
VERTEX
  8
PLAN_1
 62
     2
  6
CONTINUOUS
 10
0.164047
 20
1.937028
  0
VERTEX
  8
PLAN_1
 62
     2
  6
CONTINUOUS
 10
0.161756
 20
1.936114
  0
VERTEX
  8
PLAN_1
 62
     2
  6
CONTINUOUS
 10
0.159465
 20
1.935197
  0
VERTEX
  8
PLAN_1
 62
     2
  6
CONTINUOUS
 10
0.156717
 20
1.934280
  0
VERTEX
  8
PLAN_1
 62
     2
  6
CONTINUOUS
 10
0.153969
 20
1.933823
  0
VERTEX
  8
PLAN_1
 62
     2
  6
CONTINUOUS
 10
0.153969
 20
1.943441
  0
VERTEX
  8
PLAN_1
 62
     2
  6
CONTINUOUS
 10
0.156717
 20
1.943898
  0
VERTEX
  8
PLAN_1
 62
     2
  6
CONTINUOUS
 10
0.159465
 20
1.944815
  0
VERTEX
  8
PLAN_1
 62
     2
  6
CONTINUOUS
 10
0.161299
 20
1.946650
  0
VERTEX
  8
PLAN_1
 62
     2
  6
CONTINUOUS
 10
0.163130
 20
1.948480
  0
VERTEX
  8
PLAN_1
 62
     2
  6
CONTINUOUS
 10
0.164504
 20
1.950772
  0
VERTEX
  8
PLAN_1
 62
     2
  6
CONTINUOUS
 10
0.165421
 20
1.953059
  0
VERTEX
  8
PLAN_1
 62
     2
  6
CONTINUOUS
 10
0.165878
 20
1.955811
  0
VERTEX
  8
PLAN_1
 62
     2
  6
CONTINUOUS
 10
0.165878
 20
1.959016
  0
VERTEX
  8
PLAN_1
 62
     2
  6
CONTINUOUS
 10
0.165878
 20
1.962220
  0
VERTEX
  8
PLAN_1
 62
     2
  6
CONTINUOUS
 10
0.164504
 20
1.965429
  0
VERTEX
  8
PLAN_1
 62
     2
  6
CONTINUOUS
 10
0.163130
 20
1.967720
  0
VERTEX
  8
PLAN_1
 62
     2
  6
CONTINUOUS
 10
0.161299
 20
1.970008
  0
VERTEX
  8
PLAN_1
 62
     2
  6
CONTINUOUS
 10
0.158551
 20
1.971843
  0
VERTEX
  8
PLAN_1
 62
     2
  6
CONTINUOUS
 10
0.155803
 20
1.973217
  0
VERTEX
  8
PLAN_1
 62
     2
  6
CONTINUOUS
 10
0.152594
 20
1.974130
  0
VERTEX
  8
PLAN_1
 62
     2
  6
CONTINUOUS
 10
0.149390
 20
1.974130
  0
VERTEX
  8
PLAN_1
 62
     2
  6
CONTINUOUS
 10
0.145724
 20
1.974130
  0
VERTEX
  8
PLAN_1
 62
     2
  6
CONTINUOUS
 10
0.142520
 20
1.973217
  0
VERTEX
  8
PLAN_1
 62
     2
  6
CONTINUOUS
 10
0.139768
 20
1.971382
  0
VERTEX
  8
PLAN_1
 62
     2
  6
CONTINUOUS
 10
0.137480
 20
1.969551
  0
VERTEX
  8
PLAN_1
 62
     2
  6
CONTINUOUS
 10
0.135646
 20
1.967260
  0
VERTEX
  8
PLAN_1
 62
     2
  6
CONTINUOUS
 10
0.134272
 20
1.964512
  0
VERTEX
  8
PLAN_1
 62
     2
  6
CONTINUOUS
 10
0.133358
 20
1.961307
  0
VERTEX
  8
PLAN_1
 62
     2
  6
CONTINUOUS
 10
0.132898
 20
1.958098
  0
VERTEX
  8
PLAN_1
 62
     2
  6
CONTINUOUS
 10
0.133358
 20
1.956268
  0
VERTEX
  8
PLAN_1
 62
     2
  6
CONTINUOUS
 10
0.133358
 20
1.953976
  0
VERTEX
  8
PLAN_1
 62
     2
  6
CONTINUOUS
 10
0.134272
 20
1.952146
  0
VERTEX
  8
PLAN_1
 62
     2
  6
CONTINUOUS
 10
0.134732
 20
1.950772
  0
VERTEX
  8
PLAN_1
 62
     2
  6
CONTINUOUS
 10
0.136106
 20
1.948937
  0
VERTEX
  8
PLAN_1
 62
     2
  6
CONTINUOUS
 10
0.137020
 20
1.947106
  0
VERTEX
  8
PLAN_1
 62
     2
  6
CONTINUOUS
 10
0.138394
 20
1.945732
  0
VERTEX
  8
PLAN_1
 62
     2
  6
CONTINUOUS
 10
0.140228
 20
1.944358
  0
VERTEX
  8
PLAN_1
 62
     2
  6
CONTINUOUS
 10
0.139768
 20
1.936571
  0
VERTEX
  8
PLAN_1
 62
     2
  6
CONTINUOUS
 10
0.100378
 20
1.942067
  0
VERTEX
  8
PLAN_1
 62
     2
  6
CONTINUOUS
 10
0.100378
 20
1.980087
  0
VERTEX
  8
PLAN_1
 62
     2
  6
CONTINUOUS
 10
0.109539
 20
1.980087
  0
VERTEX
  8
PLAN_1
 62
     2
  6
CONTINUOUS
 10
0.109539
 20
1.948937
  0
VERTEX
  8
PLAN_1
 62
     2
  6
CONTINUOUS
 10
0.129236
 20
1.945732
  0
SEQEND
  8
0
  0
POLYLINE
  8
PLAN_1
 62
     2
  6
CONTINUOUS
 66
     1
 40
0.003000
 41
0.003000
  0
VERTEX
  8
PLAN_1
 62
     2
  6
CONTINUOUS
 10
0.132898
 20
2.030472
  0
VERTEX
  8
PLAN_1
 62
     2
  6
CONTINUOUS
 10
0.134732
 20
2.033681
  0
VERTEX
  8
PLAN_1
 62
     2
  6
CONTINUOUS
 10
0.137020
 20
2.036429
  0
VERTEX
  8
PLAN_1
 62
     2
  6
CONTINUOUS
 10
0.139311
 20
2.038260
  0
VERTEX
  8
PLAN_1
 62
     2
  6
CONTINUOUS
 10
0.141602
 20
2.040091
  0
VERTEX
  8
PLAN_1
 62
     2
  6
CONTINUOUS
 10
0.143894
 20
2.041008
  0
VERTEX
  8
PLAN_1
 62
     2
  6
CONTINUOUS
 10
0.146181
 20
2.041925
  0
VERTEX
  8
PLAN_1
 62
     2
  6
CONTINUOUS
 10
0.148472
 20
2.041925
  0
VERTEX
  8
PLAN_1
 62
     2
  6
CONTINUOUS
 10
0.150764
 20
2.042382
  0
VERTEX
  8
PLAN_1
 62
     2
  6
CONTINUOUS
 10
0.155343
 20
2.041925
  0
VERTEX
  8
PLAN_1
 62
     2
  6
CONTINUOUS
 10
0.159465
 20
2.041008
  0
VERTEX
  8
PLAN_1
 62
     2
  6
CONTINUOUS
 10
0.163130
 20
2.039177
  0
VERTEX
  8
PLAN_1
 62
     2
  6
CONTINUOUS
 10
0.166795
 20
2.036429
  0
VERTEX
  8
PLAN_1
 62
     2
  6
CONTINUOUS
 10
0.168169
 20
2.034594
  0
VERTEX
  8
PLAN_1
 62
     2
  6
CONTINUOUS
 10
0.169543
 20
2.032764
  0
VERTEX
  8
PLAN_1
 62
     2
  6
CONTINUOUS
 10
0.170917
 20
2.030929
  0
VERTEX
  8
PLAN_1
 62
     2
  6
CONTINUOUS
 10
0.171835
 20
2.028642
  0
VERTEX
  8
PLAN_1
 62
     2
  6
CONTINUOUS
 10
0.172752
 20
2.026350
  0
VERTEX
  8
PLAN_1
 62
     2
  6
CONTINUOUS
 10
0.173665
 20
2.023602
  0
VERTEX
  8
PLAN_1
 62
     2
  6
CONTINUOUS
 10
0.173665
 20
2.020394
  0
VERTEX
  8
PLAN_1
 62
     2
  6
CONTINUOUS
 10
0.174126
 20
2.017646
  0
VERTEX
  8
PLAN_1
 62
     2
  6
CONTINUOUS
 10
0.174126
 20
2.015815
  0
VERTEX
  8
PLAN_1
 62
     2
  6
CONTINUOUS
 10
0.173665
 20
2.013984
  0
VERTEX
  8
PLAN_1
 62
     2
  6
CONTINUOUS
 10
0.173209
 20
2.011693
  0
VERTEX
  8
PLAN_1
 62
     2
  6
CONTINUOUS
 10
0.172752
 20
2.009402
  0
VERTEX
  8
PLAN_1
 62
     2
  6
CONTINUOUS
 10
0.172291
 20
2.007110
  0
VERTEX
  8
PLAN_1
 62
     2
  6
CONTINUOUS
 10
0.171374
 20
2.004362
  0
VERTEX
  8
PLAN_1
 62
     2
  6
CONTINUOUS
 10
0.170000
 20
2.002075
  0
VERTEX
  8
PLAN_1
 62
     2
  6
CONTINUOUS
 10
0.168169
 20
1.999783
  0
VERTEX
  8
PLAN_1
 62
     2
  6
CONTINUOUS
 10
0.165878
 20
1.997492
  0
VERTEX
  8
PLAN_1
 62
     2
  6
CONTINUOUS
 10
0.163591
 20
1.995661
  0
VERTEX
  8
PLAN_1
 62
     2
  6
CONTINUOUS
 10
0.161299
 20
1.994287
  0
VERTEX
  8
PLAN_1
 62
     2
  6
CONTINUOUS
 10
0.158551
 20
1.993370
  0
VERTEX
  8
PLAN_1
 62
     2
  6
CONTINUOUS
 10
0.156260
 20
1.992913
  0
VERTEX
  8
PLAN_1
 62
     2
  6
CONTINUOUS
 10
0.154429
 20
1.992453
  0
VERTEX
  8
PLAN_1
 62
     2
  6
CONTINUOUS
 10
0.152594
 20
1.992453
  0
VERTEX
  8
PLAN_1
 62
     2
  6
CONTINUOUS
 10
0.150764
 20
1.992453
  0
VERTEX
  8
PLAN_1
 62
     2
  6
CONTINUOUS
 10
0.147555
 20
1.992453
  0
VERTEX
  8
PLAN_1
 62
     2
  6
CONTINUOUS
 10
0.144807
 20
1.993370
  0
VERTEX
  8
PLAN_1
 62
     2
  6
CONTINUOUS
 10
0.142059
 20
1.994287
  0
VERTEX
  8
PLAN_1
 62
     2
  6
CONTINUOUS
 10
0.139768
 20
1.995661
  0
VERTEX
  8
PLAN_1
 62
     2
  6
CONTINUOUS
 10
0.137937
 20
1.997492
  0
VERTEX
  8
PLAN_1
 62
     2
  6
CONTINUOUS
 10
0.136106
 20
1.999783
  0
VERTEX
  8
PLAN_1
 62
     2
  6
CONTINUOUS
 10
0.134272
 20
2.002075
  0
VERTEX
  8
PLAN_1
 62
     2
  6
CONTINUOUS
 10
0.133358
 20
2.004823
  0
VERTEX
  8
PLAN_1
 62
     2
  6
CONTINUOUS
 10
0.131984
 20
2.002531
  0
VERTEX
  8
PLAN_1
 62
     2
  6
CONTINUOUS
 10
0.131067
 20
2.000701
  0
VERTEX
  8
PLAN_1
 62
     2
  6
CONTINUOUS
 10
0.129236
 20
1.998866
  0
VERTEX
  8
PLAN_1
 62
     2
  6
CONTINUOUS
 10
0.127858
 20
1.997492
  0
VERTEX
  8
PLAN_1
 62
     2
  6
CONTINUOUS
 10
0.126028
 20
1.996575
  0
VERTEX
  8
PLAN_1
 62
     2
  6
CONTINUOUS
 10
0.123736
 20
1.995661
  0
VERTEX
  8
PLAN_1
 62
     2
  6
CONTINUOUS
 10
0.121449
 20
1.995201
  0
VERTEX
  8
PLAN_1
 62
     2
  6
CONTINUOUS
 10
0.119157
 20
1.994744
  0
VERTEX
  8
PLAN_1
 62
     2
  6
CONTINUOUS
 10
0.115949
 20
1.995201
  0
VERTEX
  8
PLAN_1
 62
     2
  6
CONTINUOUS
 10
0.112744
 20
1.996118
  0
VERTEX
  8
PLAN_1
 62
     2
  6
CONTINUOUS
 10
0.109079
 20
1.997492
  0
VERTEX
  8
PLAN_1
 62
     2
  6
CONTINUOUS
 10
0.105874
 20
1.999327
  0
VERTEX
  8
PLAN_1
 62
     2
  6
CONTINUOUS
 10
0.104500
 20
2.000701
  0
VERTEX
  8
PLAN_1
 62
     2
  6
CONTINUOUS
 10
0.103126
 20
2.002531
  0
VERTEX
  8
PLAN_1
 62
     2
  6
CONTINUOUS
 10
0.102209
 20
2.004362
  0
VERTEX
  8
PLAN_1
 62
     2
  6
CONTINUOUS
 10
0.100835
 20
2.006197
  0
VERTEX
  8
PLAN_1
 62
     2
  6
CONTINUOUS
 10
0.099917
 20
2.008484
  0
VERTEX
  8
PLAN_1
 62
     2
  6
CONTINUOUS
 10
0.099461
 20
2.011236
  0
VERTEX
  8
PLAN_1
 62
     2
  6
CONTINUOUS
 10
0.099004
 20
2.013984
  0
VERTEX
  8
PLAN_1
 62
     2
  6
CONTINUOUS
 10
0.099004
 20
2.017189
  0
VERTEX
  8
PLAN_1
 62
     2
  6
CONTINUOUS
 10
0.099004
 20
2.019937
  0
VERTEX
  8
PLAN_1
 62
     2
  6
CONTINUOUS
 10
0.099461
 20
2.022685
  0
VERTEX
  8
PLAN_1
 62
     2
  6
CONTINUOUS
 10
0.099917
 20
2.024976
  0
VERTEX
  8
PLAN_1
 62
     2
  6
CONTINUOUS
 10
0.100378
 20
2.027268
  0
VERTEX
  8
PLAN_1
 62
     2
  6
CONTINUOUS
 10
0.102665
 20
2.031390
  0
VERTEX
  8
PLAN_1
 62
     2
  6
CONTINUOUS
 10
0.104957
 20
2.034594
  0
VERTEX
  8
PLAN_1
 62
     2
  6
CONTINUOUS
 10
0.108165
 20
2.036886
  0
VERTEX
  8
PLAN_1
 62
     2
  6
CONTINUOUS
 10
0.111370
 20
2.038260
  0
VERTEX
  8
PLAN_1
 62
     2
  6
CONTINUOUS
 10
0.114575
 20
2.039177
  0
VERTEX
  8
PLAN_1
 62
     2
  6
CONTINUOUS
 10
0.117783
 20
2.039634
  0
VERTEX
  8
PLAN_1
 62
     2
  6
CONTINUOUS
 10
0.121449
 20
2.039177
  0
VERTEX
  8
PLAN_1
 62
     2
  6
CONTINUOUS
 10
0.124197
 20
2.038717
  0
VERTEX
  8
PLAN_1
 62
     2
  6
CONTINUOUS
 10
0.126945
 20
2.037343
  0
VERTEX
  8
PLAN_1
 62
     2
  6
CONTINUOUS
 10
0.128776
 20
2.035969
  0
VERTEX
  8
PLAN_1
 62
     2
  6
CONTINUOUS
 10
0.130150
 20
2.034594
  0
VERTEX
  8
PLAN_1
 62
     2
  6
CONTINUOUS
 10
0.131524
 20
2.033220
  0
VERTEX
  8
PLAN_1
 62
     2
  6
CONTINUOUS
 10
0.132441
 20
2.031846
  0
VERTEX
  8
PLAN_1
 62
     2
  6
CONTINUOUS
 10
0.132898
 20
2.030472
  0
SEQEND
  8
0
  0
POLYLINE
  8
PLAN_1
 62
     2
  6
CONTINUOUS
 66
     1
 40
0.003000
 41
0.003000
  0
VERTEX
  8
PLAN_1
 62
     2
  6
CONTINUOUS
 10
0.151220
 20
2.002075
  0
VERTEX
  8
PLAN_1
 62
     2
  6
CONTINUOUS
 10
0.153512
 20
2.002531
  0
VERTEX
  8
PLAN_1
 62
     2
  6
CONTINUOUS
 10
0.155803
 20
2.002988
  0
VERTEX
  8
PLAN_1
 62
     2
  6
CONTINUOUS
 10
0.158551
 20
2.003906
  0
VERTEX
  8
PLAN_1
 62
     2
  6
CONTINUOUS
 10
0.160839
 20
2.005280
  0
VERTEX
  8
PLAN_1
 62
     2
  6
CONTINUOUS
 10
0.162673
 20
2.007110
  0
VERTEX
  8
PLAN_1
 62
     2
  6
CONTINUOUS
 10
0.164504
 20
2.009858
  0
VERTEX
  8
PLAN_1
 62
     2
  6
CONTINUOUS
 10
0.165421
 20
2.013524
  0
VERTEX
  8
PLAN_1
 62
     2
  6
CONTINUOUS
 10
0.165878
 20
2.017646
  0
VERTEX
  8
PLAN_1
 62
     2
  6
CONTINUOUS
 10
0.165421
 20
2.020394
  0
VERTEX
  8
PLAN_1
 62
     2
  6
CONTINUOUS
 10
0.165421
 20
2.022685
  0
VERTEX
  8
PLAN_1
 62
     2
  6
CONTINUOUS
 10
0.164504
 20
2.025433
  0
VERTEX
  8
PLAN_1
 62
     2
  6
CONTINUOUS
 10
0.163130
 20
2.027724
  0
VERTEX
  8
PLAN_1
 62
     2
  6
CONTINUOUS
 10
0.161299
 20
2.029555
  0
VERTEX
  8
PLAN_1
 62
     2
  6
CONTINUOUS
 10
0.159008
 20
2.030929
  0
VERTEX
  8
PLAN_1
 62
     2
  6
CONTINUOUS
 10
0.155803
 20
2.032307
  0
VERTEX
  8
PLAN_1
 62
     2
  6
CONTINUOUS
 10
0.152138
 20
2.032307
  0
VERTEX
  8
PLAN_1
 62
     2
  6
CONTINUOUS
 10
0.148472
 20
2.032307
  0
VERTEX
  8
PLAN_1
 62
     2
  6
CONTINUOUS
 10
0.145724
 20
2.031390
  0
VERTEX
  8
PLAN_1
 62
     2
  6
CONTINUOUS
 10
0.142976
 20
2.030016
  0
VERTEX
  8
PLAN_1
 62
     2
  6
CONTINUOUS
 10
0.141146
 20
2.028181
  0
VERTEX
  8
PLAN_1
 62
     2
  6
CONTINUOUS
 10
0.139768
 20
2.025894
  0
VERTEX
  8
PLAN_1
 62
     2
  6
CONTINUOUS
 10
0.138394
 20
2.023146
  0
VERTEX
  8
PLAN_1
 62
     2
  6
CONTINUOUS
 10
0.137937
 20
2.020394
  0
VERTEX
  8
PLAN_1
 62
     2
  6
CONTINUOUS
 10
0.137480
 20
2.017189
  0
VERTEX
  8
PLAN_1
 62
     2
  6
CONTINUOUS
 10
0.137937
 20
2.013524
  0
VERTEX
  8
PLAN_1
 62
     2
  6
CONTINUOUS
 10
0.138854
 20
2.010776
  0
VERTEX
  8
PLAN_1
 62
     2
  6
CONTINUOUS
 10
0.140228
 20
2.008028
  0
VERTEX
  8
PLAN_1
 62
     2
  6
CONTINUOUS
 10
0.142059
 20
2.005736
  0
VERTEX
  8
PLAN_1
 62
     2
  6
CONTINUOUS
 10
0.143894
 20
2.004362
  0
VERTEX
  8
PLAN_1
 62
     2
  6
CONTINUOUS
 10
0.146181
 20
2.002988
  0
VERTEX
  8
PLAN_1
 62
     2
  6
CONTINUOUS
 10
0.148472
 20
2.002531
  0
VERTEX
  8
PLAN_1
 62
     2
  6
CONTINUOUS
 10
0.151220
 20
2.002075
  0
SEQEND
  8
0
  0
POLYLINE
  8
PLAN_1
 62
     2
  6
CONTINUOUS
 66
     1
 40
0.003000
 41
0.003000
  0
VERTEX
  8
PLAN_1
 62
     2
  6
CONTINUOUS
 10
0.117783
 20
2.030016
  0
VERTEX
  8
PLAN_1
 62
     2
  6
CONTINUOUS
 10
0.116409
 20
2.030016
  0
VERTEX
  8
PLAN_1
 62
     2
  6
CONTINUOUS
 10
0.114575
 20
2.029555
  0
VERTEX
  8
PLAN_1
 62
     2
  6
CONTINUOUS
 10
0.112744
 20
2.028642
  0
VERTEX
  8
PLAN_1
 62
     2
  6
CONTINUOUS
 10
0.110913
 20
2.027268
  0
VERTEX
  8
PLAN_1
 62
     2
  6
CONTINUOUS
 10
0.109539
 20
2.025433
  0
VERTEX
  8
PLAN_1
 62
     2
  6
CONTINUOUS
 10
0.108165
 20
2.023146
  0
VERTEX
  8
PLAN_1
 62
     2
  6
CONTINUOUS
 10
0.107248
 20
2.020394
  0
VERTEX
  8
PLAN_1
 62
     2
  6
CONTINUOUS
 10
0.107248
 20
2.016732
  0
VERTEX
  8
PLAN_1
 62
     2
  6
CONTINUOUS
 10
0.107248
 20
2.013067
  0
VERTEX
  8
PLAN_1
 62
     2
  6
CONTINUOUS
 10
0.108165
 20
2.010319
  0
VERTEX
  8
PLAN_1
 62
     2
  6
CONTINUOUS
 10
0.109539
 20
2.008484
  0
VERTEX
  8
PLAN_1
 62
     2
  6
CONTINUOUS
 10
0.110913
 20
2.006654
  0
VERTEX
  8
PLAN_1
 62
     2
  6
CONTINUOUS
 10
0.112744
 20
2.005736
  0
VERTEX
  8
PLAN_1
 62
     2
  6
CONTINUOUS
 10
0.114575
 20
2.004823
  0
VERTEX
  8
PLAN_1
 62
     2
  6
CONTINUOUS
 10
0.116866
 20
2.004362
  0
VERTEX
  8
PLAN_1
 62
     2
  6
CONTINUOUS
 10
0.118701
 20
2.004362
  0
VERTEX
  8
PLAN_1
 62
     2
  6
CONTINUOUS
 10
0.120988
 20
2.004823
  0
VERTEX
  8
PLAN_1
 62
     2
  6
CONTINUOUS
 10
0.123280
 20
2.005280
  0
VERTEX
  8
PLAN_1
 62
     2
  6
CONTINUOUS
 10
0.125110
 20
2.006654
  0
VERTEX
  8
PLAN_1
 62
     2
  6
CONTINUOUS
 10
0.126945
 20
2.008484
  0
VERTEX
  8
PLAN_1
 62
     2
  6
CONTINUOUS
 10
0.127858
 20
2.010319
  0
VERTEX
  8
PLAN_1
 62
     2
  6
CONTINUOUS
 10
0.128776
 20
2.012150
  0
VERTEX
  8
PLAN_1
 62
     2
  6
CONTINUOUS
 10
0.129693
 20
2.014898
  0
VERTEX
  8
PLAN_1
 62
     2
  6
CONTINUOUS
 10
0.129693
 20
2.017189
  0
VERTEX
  8
PLAN_1
 62
     2
  6
CONTINUOUS
 10
0.129693
 20
2.019937
  0
VERTEX
  8
PLAN_1
 62
     2
  6
CONTINUOUS
 10
0.128776
 20
2.022685
  0
VERTEX
  8
PLAN_1
 62
     2
  6
CONTINUOUS
 10
0.127858
 20
2.024976
  0
VERTEX
  8
PLAN_1
 62
     2
  6
CONTINUOUS
 10
0.126484
 20
2.026807
  0
VERTEX
  8
PLAN_1
 62
     2
  6
CONTINUOUS
 10
0.124654
 20
2.028181
  0
VERTEX
  8
PLAN_1
 62
     2
  6
CONTINUOUS
 10
0.122823
 20
2.029098
  0
VERTEX
  8
PLAN_1
 62
     2
  6
CONTINUOUS
 10
0.120531
 20
2.030016
  0
VERTEX
  8
PLAN_1
 62
     2
  6
CONTINUOUS
 10
0.117783
 20
2.030016
  0
SEQEND
  8
0
  0
POLYLINE
  8
PLAN_1
 62
     2
  6
CONTINUOUS
 66
     1
 40
0.003000
 41
0.003000
  0
VERTEX
  8
PLAN_1
 62
     2
  6
CONTINUOUS
 10
0.160839
 20
2.055209
  0
VERTEX
  8
PLAN_1
 62
     2
  6
CONTINUOUS
 10
0.160839
 20
2.066201
  0
VERTEX
  8
PLAN_1
 62
     2
  6
CONTINUOUS
 10
0.171374
 20
2.066201
  0
VERTEX
  8
PLAN_1
 62
     2
  6
CONTINUOUS
 10
0.175957
 20
2.065744
  0
VERTEX
  8
PLAN_1
 62
     2
  6
CONTINUOUS
 10
0.179622
 20
2.064827
  0
VERTEX
  8
PLAN_1
 62
     2
  6
CONTINUOUS
 10
0.182370
 20
2.063453
  0
VERTEX
  8
PLAN_1
 62
     2
  6
CONTINUOUS
 10
0.184201
 20
2.061622
  0
VERTEX
  8
PLAN_1
 62
     2
  6
CONTINUOUS
 10
0.185575
 20
2.059787
  0
VERTEX
  8
PLAN_1
 62
     2
  6
CONTINUOUS
 10
0.186492
 20
2.057957
  0
VERTEX
  8
PLAN_1
 62
     2
  6
CONTINUOUS
 10
0.186949
 20
2.056583
  0
VERTEX
  8
PLAN_1
 62
     2
  6
CONTINUOUS
 10
0.187409
 20
2.055209
  0
VERTEX
  8
PLAN_1
 62
     2
  6
CONTINUOUS
 10
0.182370
 20
2.055209
  0
VERTEX
  8
PLAN_1
 62
     2
  6
CONTINUOUS
 10
0.181909
 20
2.057039
  0
VERTEX
  8
PLAN_1
 62
     2
  6
CONTINUOUS
 10
0.181453
 20
2.057957
  0
VERTEX
  8
PLAN_1
 62
     2
  6
CONTINUOUS
 10
0.180079
 20
2.058874
  0
VERTEX
  8
PLAN_1
 62
     2
  6
CONTINUOUS
 10
0.178705
 20
2.059787
  0
VERTEX
  8
PLAN_1
 62
     2
  6
CONTINUOUS
 10
0.177331
 20
2.060248
  0
VERTEX
  8
PLAN_1
 62
     2
  6
CONTINUOUS
 10
0.175500
 20
2.060705
  0
VERTEX
  8
PLAN_1
 62
     2
  6
CONTINUOUS
 10
0.173665
 20
2.060705
  0
VERTEX
  8
PLAN_1
 62
     2
  6
CONTINUOUS
 10
0.171835
 20
2.061161
  0
VERTEX
  8
PLAN_1
 62
     2
  6
CONTINUOUS
 10
0.171835
 20
2.055209
  0
VERTEX
  8
PLAN_1
 62
     2
  6
CONTINUOUS
 10
0.160839
 20
2.055209
  0
SEQEND
  8
0
  0
POLYLINE
  8
PLAN_1
 62
     2
  6
CONTINUOUS
 66
     1
 40
0.003000
 41
0.003000
  0
VERTEX
  8
PLAN_1
 62
     2
  6
CONTINUOUS
 10
0.129236
 20
2.090480
  0
VERTEX
  8
PLAN_1
 62
     2
  6
CONTINUOUS
 10
0.128776
 20
2.091854
  0
VERTEX
  8
PLAN_1
 62
     2
  6
CONTINUOUS
 10
0.127858
 20
2.093228
  0
VERTEX
  8
PLAN_1
 62
     2
  6
CONTINUOUS
 10
0.126945
 20
2.094602
  0
VERTEX
  8
PLAN_1
 62
     2
  6
CONTINUOUS
 10
0.126484
 20
2.096433
  0
VERTEX
  8
PLAN_1
 62
     2
  6
CONTINUOUS
 10
0.125571
 20
2.098268
  0
VERTEX
  8
PLAN_1
 62
     2
  6
CONTINUOUS
 10
0.125110
 20
2.100098
  0
VERTEX
  8
PLAN_1
 62
     2
  6
CONTINUOUS
 10
0.125110
 20
2.102390
  0
VERTEX
  8
PLAN_1
 62
     2
  6
CONTINUOUS
 10
0.124654
 20
2.104677
  0
VERTEX
  8
PLAN_1
 62
     2
  6
CONTINUOUS
 10
0.125110
 20
2.109260
  0
VERTEX
  8
PLAN_1
 62
     2
  6
CONTINUOUS
 10
0.126484
 20
2.113382
  0
VERTEX
  8
PLAN_1
 62
     2
  6
CONTINUOUS
 10
0.128319
 20
2.117504
  0
VERTEX
  8
PLAN_1
 62
     2
  6
CONTINUOUS
 10
0.131067
 20
2.121169
  0
VERTEX
  8
PLAN_1
 62
     2
  6
CONTINUOUS
 10
0.132441
 20
2.123000
  0
VERTEX
  8
PLAN_1
 62
     2
  6
CONTINUOUS
 10
0.134272
 20
2.124374
  0
VERTEX
  8
PLAN_1
 62
     2
  6
CONTINUOUS
 10
0.136106
 20
2.125748
  0
VERTEX
  8
PLAN_1
 62
     2
  6
CONTINUOUS
 10
0.138394
 20
2.126665
  0
VERTEX
  8
PLAN_1
 62
     2
  6
CONTINUOUS
 10
0.140685
 20
2.127583
  0
VERTEX
  8
PLAN_1
 62
     2
  6
CONTINUOUS
 10
0.142976
 20
2.128039
  0
VERTEX
  8
PLAN_1
 62
     2
  6
CONTINUOUS
 10
0.145724
 20
2.128496
  0
VERTEX
  8
PLAN_1
 62
     2
  6
CONTINUOUS
 10
0.148472
 20
2.128957
  0
VERTEX
  8
PLAN_1
 62
     2
  6
CONTINUOUS
 10
0.151681
 20
2.128496
  0
VERTEX
  8
PLAN_1
 62
     2
  6
CONTINUOUS
 10
0.155803
 20
2.128039
  0
VERTEX
  8
PLAN_1
 62
     2
  6
CONTINUOUS
 10
0.159925
 20
2.126209
  0
VERTEX
  8
PLAN_1
 62
     2
  6
CONTINUOUS
 10
0.164047
 20
2.123917
  0
VERTEX
  8
PLAN_1
 62
     2
  6
CONTINUOUS
 10
0.166339
 20
2.122543
  0
VERTEX
  8
PLAN_1
 62
     2
  6
CONTINUOUS
 10
0.168169
 20
2.120713
  0
VERTEX
  8
PLAN_1
 62
     2
  6
CONTINUOUS
 10
0.169543
 20
2.118421
  0
VERTEX
  8
PLAN_1
 62
     2
  6
CONTINUOUS
 10
0.170917
 20
2.116130
  0
VERTEX
  8
PLAN_1
 62
     2
  6
CONTINUOUS
 10
0.172291
 20
2.113382
  0
VERTEX
  8
PLAN_1
 62
     2
  6
CONTINUOUS
 10
0.173209
 20
2.110177
  0
VERTEX
  8
PLAN_1
 62
     2
  6
CONTINUOUS
 10
0.173665
 20
2.106512
  0
VERTEX
  8
PLAN_1
 62
     2
  6
CONTINUOUS
 10
0.174126
 20
2.102390
  0
VERTEX
  8
PLAN_1
 62
     2
  6
CONTINUOUS
 10
0.173665
 20
2.098724
  0
VERTEX
  8
PLAN_1
 62
     2
  6
CONTINUOUS
 10
0.173209
 20
2.094602
  0
VERTEX
  8
PLAN_1
 62
     2
  6
CONTINUOUS
 10
0.171835
 20
2.090937
  0
VERTEX
  8
PLAN_1
 62
     2
  6
CONTINUOUS
 10
0.170000
 20
2.087732
  0
VERTEX
  8
PLAN_1
 62
     2
  6
CONTINUOUS
 10
0.168626
 20
2.085898
  0
VERTEX
  8
PLAN_1
 62
     2
  6
CONTINUOUS
 10
0.167252
 20
2.084524
  0
VERTEX
  8
PLAN_1
 62
     2
  6
CONTINUOUS
 10
0.165878
 20
2.083150
  0
VERTEX
  8
PLAN_1
 62
     2
  6
CONTINUOUS
 10
0.164047
 20
2.081776
  0
VERTEX
  8
PLAN_1
 62
     2
  6
CONTINUOUS
 10
0.161756
 20
2.080858
  0
VERTEX
  8
PLAN_1
 62
     2
  6
CONTINUOUS
 10
0.159465
 20
2.079945
  0
VERTEX
  8
PLAN_1
 62
     2
  6
CONTINUOUS
 10
0.156717
 20
2.079028
  0
VERTEX
  8
PLAN_1
 62
     2
  6
CONTINUOUS
 10
0.153969
 20
2.078571
  0
VERTEX
  8
PLAN_1
 62
     2
  6
CONTINUOUS
 10
0.153969
 20
2.088189
  0
VERTEX
  8
PLAN_1
 62
     2
  6
CONTINUOUS
 10
0.156717
 20
2.088646
  0
VERTEX
  8
PLAN_1
 62
     2
  6
CONTINUOUS
 10
0.159465
 20
2.089563
  0
VERTEX
  8
PLAN_1
 62
     2
  6
CONTINUOUS
 10
0.161299
 20
2.091394
  0
VERTEX
  8
PLAN_1
 62
     2
  6
CONTINUOUS
 10
0.163130
 20
2.093228
  0
VERTEX
  8
PLAN_1
 62
     2
  6
CONTINUOUS
 10
0.164504
 20
2.095516
  0
VERTEX
  8
PLAN_1
 62
     2
  6
CONTINUOUS
 10
0.165421
 20
2.097807
  0
VERTEX
  8
PLAN_1
 62
     2
  6
CONTINUOUS
 10
0.165878
 20
2.100555
  0
VERTEX
  8
PLAN_1
 62
     2
  6
CONTINUOUS
 10
0.165878
 20
2.103764
  0
VERTEX
  8
PLAN_1
 62
     2
  6
CONTINUOUS
 10
0.165878
 20
2.106969
  0
VERTEX
  8
PLAN_1
 62
     2
  6
CONTINUOUS
 10
0.164504
 20
2.110177
  0
VERTEX
  8
PLAN_1
 62
     2
  6
CONTINUOUS
 10
0.163130
 20
2.112465
  0
VERTEX
  8
PLAN_1
 62
     2
  6
CONTINUOUS
 10
0.161299
 20
2.114756
  0
VERTEX
  8
PLAN_1
 62
     2
  6
CONTINUOUS
 10
0.158551
 20
2.116587
  0
VERTEX
  8
PLAN_1
 62
     2
  6
CONTINUOUS
 10
0.155803
 20
2.117961
  0
VERTEX
  8
PLAN_1
 62
     2
  6
CONTINUOUS
 10
0.152594
 20
2.118878
  0
VERTEX
  8
PLAN_1
 62
     2
  6
CONTINUOUS
 10
0.149390
 20
2.118878
  0
VERTEX
  8
PLAN_1
 62
     2
  6
CONTINUOUS
 10
0.145724
 20
2.118878
  0
VERTEX
  8
PLAN_1
 62
     2
  6
CONTINUOUS
 10
0.142520
 20
2.117961
  0
VERTEX
  8
PLAN_1
 62
     2
  6
CONTINUOUS
 10
0.139768
 20
2.116130
  0
VERTEX
  8
PLAN_1
 62
     2
  6
CONTINUOUS
 10
0.137480
 20
2.114299
  0
VERTEX
  8
PLAN_1
 62
     2
  6
CONTINUOUS
 10
0.135646
 20
2.112008
  0
VERTEX
  8
PLAN_1
 62
     2
  6
CONTINUOUS
 10
0.134272
 20
2.109260
  0
VERTEX
  8
PLAN_1
 62
     2
  6
CONTINUOUS
 10
0.133358
 20
2.106051
  0
VERTEX
  8
PLAN_1
 62
     2
  6
CONTINUOUS
 10
0.132898
 20
2.102846
  0
VERTEX
  8
PLAN_1
 62
     2
  6
CONTINUOUS
 10
0.133358
 20
2.101016
  0
VERTEX
  8
PLAN_1
 62
     2
  6
CONTINUOUS
 10
0.133358
 20
2.098724
  0
VERTEX
  8
PLAN_1
 62
     2
  6
CONTINUOUS
 10
0.134272
 20
2.096890
  0
VERTEX
  8
PLAN_1
 62
     2
  6
CONTINUOUS
 10
0.134732
 20
2.095516
  0
VERTEX
  8
PLAN_1
 62
     2
  6
CONTINUOUS
 10
0.136106
 20
2.093685
  0
VERTEX
  8
PLAN_1
 62
     2
  6
CONTINUOUS
 10
0.137020
 20
2.091854
  0
VERTEX
  8
PLAN_1
 62
     2
  6
CONTINUOUS
 10
0.138394
 20
2.090480
  0
VERTEX
  8
PLAN_1
 62
     2
  6
CONTINUOUS
 10
0.140228
 20
2.089106
  0
VERTEX
  8
PLAN_1
 62
     2
  6
CONTINUOUS
 10
0.139768
 20
2.081319
  0
VERTEX
  8
PLAN_1
 62
     2
  6
CONTINUOUS
 10
0.100378
 20
2.086815
  0
VERTEX
  8
PLAN_1
 62
     2
  6
CONTINUOUS
 10
0.100378
 20
2.124835
  0
VERTEX
  8
PLAN_1
 62
     2
  6
CONTINUOUS
 10
0.109539
 20
2.124835
  0
VERTEX
  8
PLAN_1
 62
     2
  6
CONTINUOUS
 10
0.109539
 20
2.093685
  0
VERTEX
  8
PLAN_1
 62
     2
  6
CONTINUOUS
 10
0.129236
 20
2.090480
  0
SEQEND
  8
0
  0
POLYLINE
  8
PLAN_1
 62
     2
  6
CONTINUOUS
 66
     1
 40
0.004122
 41
0.004122
  0
VERTEX
  8
PLAN_1
 62
     2
  6
CONTINUOUS
 10
-0.763524
 20
0.839972
  0
VERTEX
  8
PLAN_1
 62
     2
  6
CONTINUOUS
 10
0.014720
 20
0.839972
  0
SEQEND
  8
0
  0
POLYLINE
  8
PLAN_1
 62
     2
  6
CONTINUOUS
 66
     1
 40
0.004122
 41
0.004122
  0
VERTEX
  8
PLAN_1
 62
     2
  6
CONTINUOUS
 10
0.062358
 20
0.839972
  0
VERTEX
  8
PLAN_1
 62
     2
  6
CONTINUOUS
 10
0.219016
 20
0.839972
  0
SEQEND
  8
0
  0
POLYLINE
  8
PLAN_1
 62
     2
  6
CONTINUOUS
 66
     1
 40
0.004122
 41
0.004122
  0
VERTEX
  8
PLAN_1
 62
     2
  6
CONTINUOUS
 10
0.219016
 20
3.223720
  0
VERTEX
  8
PLAN_1
 62
     2
  6
CONTINUOUS
 10
-0.168965
 20
3.223720
  0
SEQEND
  8
0
  0
ENDSEC
  0
EOF
