999
DXF file: C:\Users\sesa63760\Dev\_Creo\CAD\MCADID0005463_3D-CAD\drw0001_3.dxf
999
Pro/ENGINEER 2019471 by Parametric Technology Corporation
  0
SECTION
  2
HEADER
  9
$ACADVER
  1
AC1024
  9
$DWGCODEPAGE
  3
ANSI_1252
  9
$EXTMAX
 10
58.737772544
 20
83.0719925979
 30
0.0
  9
$EXTMIN
 10
0.0
 20
0.0
 30
0.0
  9
$LIMMIN
 10
0.0
 20
0.0
  9
$LIMMAX
 10
58.737772544
 20
83.0719925979
  9
$VIEWCTR
 10
29.368886272
 20
41.535996299
  9
$VIEWSIZE
 40
83.0719925979
  9
$CLAYER
  8
0
  9
$LTSCALE
 40
5.4150632212
  9
$CELTYPE
  6
BYLAYER
  9
$DIMSCALE
 40
1.0
  9
$DIMASZ
 40
0.699259197
  9
$DIMEXO
 40
1.0
  9
$DIMDLI
 40
3.7413164074
  9
$DIMEXE
 40
1.0
  9
$DIMCEN
 40
0.8861012544
  9
$DIMLFAC
 40
1.0
  9
$DIMBLK
  1
_FILLED
  9
$DIMALT
 70
0
  9
$DIMALTF
 40
0.0393700787
  9
$DIMTXT
 40
0.9789628757
  9
$DIMTOL
 70
1
  9
$DIMLIM
 70
0
  9
$DIMTFAC
 40
1.0
  9
$DIMTP
 40
0.01
  9
$DIMTM
 40
0.01
  9
$DIMGAP
 40
0.625
  9
$DIMDSEP
 70
46
  9
$AUNITS
 70
0
  9
$PDMODE
 70
3
  9
$PDSIZE
 40
0.3125
  9
$HANDSEED
  5
2AF
  9
$TILEMODE
 70
1
  9
$MEASUREMENT
 70
1
  9
$INSUNITS
 70
4
  0
ENDSEC
  0
SECTION
  2
CLASSES
  0
CLASS
  1
ACDBDICTIONARYWDFLT
  2
AcDbDictionaryWithDefault
  3
AutoCAD 2000
 90
0
 91
1
280
0
281
0
  0
CLASS
  1
ACDBPLACEHOLDER
  2
AcDbPlaceHolder
  3
AutoCAD 2000
 90
0
 91
1
280
0
281
0
  0
CLASS
  1
LAYOUT
  2
AcDbLayout
  3
AutoCAD 2000
 90
0
 91
0
280
0
281
0
  0
ENDSEC
  0
SECTION
  2
TABLES
  0
TABLE
  2
VPORT
  5
8
100
AcDbSymbolTable
 70
2
  0
VPORT
  5
1F4
100
AcDbSymbolTableRecord
100
AcDbViewportTableRecord
  2
*ACTIVE
 70
0
 10
0.0
 20
0.0
 11
1.0
 21
1.0
 12
29.368886272
 22
41.535996299
 13
0.0
 23
0.0
 14
1.0
 24
1.0
 15
0.0
 25
0.0
 16
0.0
 26
0.0
 36
1.0
 17
0.0
 27
0.0
 37
0.0
 40
83.0719925979
 41
0.7070707071
 42
50.0
 43
0.0
 44
0.0
 50
0.0
 51
0.0
 71
0
 72
100
 73
1
 74
1
 75
0
 76
0
 77
0
 78
0
  0
ENDTAB
  0
TABLE
  2
LTYPE
  5
5
100
AcDbSymbolTable
 70
6
  0
LTYPE
  5
14
100
AcDbSymbolTableRecord
100
AcDbLinetypeTableRecord
  2
BYBLOCK
 70
0
  3

 72
65
 73
0
 40
0.0
  0
LTYPE
  5
15
100
AcDbSymbolTableRecord
100
AcDbLinetypeTableRecord
  2
BYLAYER
 70
0
  3

 72
65
 73
0
 40
0.0
  0
LTYPE
  5
16
100
AcDbSymbolTableRecord
100
AcDbLinetypeTableRecord
  2
CONTINUOUS
 70
64
  3
Solid line
 72
65
 73
0
 40
0.0
  0
LTYPE
  5
1F5
100
AcDbSymbolTableRecord
100
AcDbLinetypeTableRecord
  2
CENTER
 70
64
  3
____ _ ____ _ ____ _ ____ _ ____ _ ____ _ ____
 72
65
 73
4
 40
0.6
 49
0.375
 74
0
 49
-0.075
 74
0
 49
0.075
 74
0
 49
-0.075
 74
0
  0
LTYPE
  5
1F6
100
AcDbSymbolTableRecord
100
AcDbLinetypeTableRecord
  2
HIDDEN
 70
64
  3
- - - - - - - - - - - - - - - - - - - -
 72
65
 73
2
 40
0.2
 49
0.1
 74
0
 49
-0.1
 74
0
  0
LTYPE
  5
1F7
100
AcDbSymbolTableRecord
100
AcDbLinetypeTableRecord
  2
PHANTOM
 70
64
  3
_____ _ _ _____ _ _ _____ _ _ _____
 72
65
 73
6
 40
0.8
 49
0.45
 74
0
 49
-0.05
 74
0
 49
0.1
 74
0
 49
-0.05
 74
0
 49
0.1
 74
0
 49
-0.05
 74
0
  0
LTYPE
  5
1F8
100
AcDbSymbolTableRecord
100
AcDbLinetypeTableRecord
  2
DOT
 70
64
  3
. . . . . . . . . . . . . . . . . . . .
 72
65
 73
2
 40
0.2
 49
0.1
 74
0
 49
-0.1
 74
0
  0
LTYPE
  5
1F9
100
AcDbSymbolTableRecord
100
AcDbLinetypeTableRecord
  2
DASHED
 70
64
  3
- - - - - - - - - - - - - - - - - - - -
 72
65
 73
2
 40
0.2
 49
0.1
 74
0
 49
-0.1
 74
0
  0
ENDTAB
  0
TABLE
  2
LAYER
  5
2
100
AcDbSymbolTable
 70
36
  0
LAYER
  5
10
100
AcDbSymbolTableRecord
100
AcDbLayerTableRecord
  2
0
 70
0
 62
7
  6
CONTINUOUS
370
-3
390
F
  0
LAYER
  5
1FA
100
AcDbSymbolTableRecord
100
AcDbLayerTableRecord
  2
DEFAULT_1
 70
0
 62
7
  6
CENTER
370
-3
390
F
  0
LAYER
  5
1FB
100
AcDbSymbolTableRecord
100
AcDbLayerTableRecord
  2
DEFAULT_2
 70
0
 62
7
  6
HIDDEN
370
-3
390
F
  0
LAYER
  5
1FC
100
AcDbSymbolTableRecord
100
AcDbLayerTableRecord
  2
DEFAULT_3
 70
0
 62
7
  6
PHANTOM
370
-3
390
F
  0
LAYER
  5
1FD
100
AcDbSymbolTableRecord
100
AcDbLayerTableRecord
  2
00_COMPONENTS
 70
0
 62
7
  6
CONTINUOUS
370
-3
390
F
  0
LAYER
  5
1FE
100
AcDbSymbolTableRecord
100
AcDbLayerTableRecord
  2
01_1_DEFAULT_DATUMS
 70
0
 62
7
  6
CONTINUOUS
370
-3
390
F
  0
LAYER
  5
1FF
100
AcDbSymbolTableRecord
100
AcDbLayerTableRecord
  2
01_PLANES
 70
0
 62
7
  6
CONTINUOUS
370
-3
390
F
  0
LAYER
  5
200
100
AcDbSymbolTableRecord
100
AcDbLayerTableRecord
  2
02_COORD_SYS
 70
0
 62
7
  6
CONTINUOUS
370
-3
390
F
  0
LAYER
  5
201
100
AcDbSymbolTableRecord
100
AcDbLayerTableRecord
  2
03_AXES
 70
0
 62
7
  6
CONTINUOUS
370
-3
390
F
  0
LAYER
  5
202
100
AcDbSymbolTableRecord
100
AcDbLayerTableRecord
  2
04_POINTS
 70
0
 62
7
  6
CONTINUOUS
370
-3
390
F
  0
LAYER
  5
203
100
AcDbSymbolTableRecord
100
AcDbLayerTableRecord
  2
05_CURVES
 70
0
 62
7
  6
CONTINUOUS
370
-3
390
F
  0
LAYER
  5
204
100
AcDbSymbolTableRecord
100
AcDbLayerTableRecord
  2
06_SURFS
 70
0
 62
7
  6
CONTINUOUS
370
-3
390
F
  0
LAYER
  5
205
100
AcDbSymbolTableRecord
100
AcDbLayerTableRecord
  2
07_COSMETICS
 70
0
 62
7
  6
CONTINUOUS
370
-3
390
F
  0
LAYER
  5
206
100
AcDbSymbolTableRecord
100
AcDbLayerTableRecord
  2
10_NOTES
 70
0
 62
7
  6
CONTINUOUS
370
-3
390
F
  0
LAYER
  5
207
100
AcDbSymbolTableRecord
100
AcDbLayerTableRecord
  2
11_NOTES_PUB
 70
0
 62
7
  6
CONTINUOUS
370
-3
390
F
  0
LAYER
  5
208
100
AcDbSymbolTableRecord
100
AcDbLayerTableRecord
  2
13_REF_GTOL
 70
0
 62
7
  6
CONTINUOUS
370
-3
390
F
  0
LAYER
  5
209
100
AcDbSymbolTableRecord
100
AcDbLayerTableRecord
  2
16_MISC
 70
0
 62
7
  6
CONTINUOUS
370
-3
390
F
  0
LAYER
  5
20A
100
AcDbSymbolTableRecord
100
AcDbLayerTableRecord
  2
17_NO_PRINT
 70
0
 62
7
  6
CONTINUOUS
370
-3
390
F
  0
LAYER
  5
20B
100
AcDbSymbolTableRecord
100
AcDbLayerTableRecord
  2
18_DATUM_CAMS_JOINTS
 70
0
 62
7
  6
CONTINUOUS
370
-3
390
F
  0
LAYER
  5
20C
100
AcDbSymbolTableRecord
100
AcDbLayerTableRecord
  2
19_DATUM_FUNCTIONAL
 70
0
 62
7
  6
CONTINUOUS
370
-3
390
F
  0
LAYER
  5
20D
100
AcDbSymbolTableRecord
100
AcDbLayerTableRecord
  2
20_DATUM_KINEMATIC_SCHEME
 70
0
 62
7
  6
CONTINUOUS
370
-3
390
F
  0
ENDTAB
  0
TABLE
  2
STYLE
  5
3
100
AcDbSymbolTable
 70
1
  0
STYLE
  5
11
100
AcDbSymbolTableRecord
100
AcDbTextStyleTableRecord
  2
STANDARD
 70
0
 40
0.0
 41
1.0
 50
0.0
 71
0
 42
0.2
  3
ARIAL.TTF
  4

  0
STYLE
  5
20E
100
AcDbSymbolTableRecord
100
AcDbTextStyleTableRecord
  2
TEXTSTYLE_1
 70
0
 40
0.0
 41
0.8
 50
0.0
 71
0
 42
0.2
  3
gdt
  4

  0
ENDTAB
  0
TABLE
  2
VIEW
  5
6
100
AcDbSymbolTable
 70
0
  0
ENDTAB
  0
TABLE
  2
UCS
  5
7
100
AcDbSymbolTable
 70
0
  0
ENDTAB
  0
TABLE
  2
APPID
  5
9
100
AcDbSymbolTable
 70
1
  0
APPID
  5
20F
100
AcDbSymbolTableRecord
100
AcDbRegAppTableRecord
  2
ACAD
 70
0
  0
ENDTAB
  0
TABLE
  2
BLOCK_RECORD
  5
1
100
AcDbSymbolTable
 70
0
  0
BLOCK_RECORD
  5
210
100
AcDbSymbolTableRecord
100
AcDbBlockTableRecord
  2
*Model_Space
  0
BLOCK_RECORD
  5
211
100
AcDbSymbolTableRecord
100
AcDbBlockTableRecord
  2
*Paper_Space
  0
BLOCK_RECORD
  5
212
100
AcDbSymbolTableRecord
100
AcDbBlockTableRecord
  2
_FILLED
  0
ENDTAB
  0
TABLE
  2
DIMSTYLE
  5
A
100
AcDbSymbolTable
 70
1
100
AcDbDimStyleTable
 71
0
  0
DIMSTYLE
105
213
100
AcDbSymbolTableRecord
100
AcDbDimStyleTableRecord
  2
STANDARD
 70
0
  3

  4

 40
1.0
 41
0.699259197
 42
1.0
 43
0.38
 44
1.0
 45
0.0
 46
0.0
 47
0.01
 48
0.01
140
0.9789628757
141
0.09
142
0.0
143
25.4
144
1.0
145
0.0
146
1.0
147
0.625
 71
1
 72
0
 73
0
 74
0
 75
0
 76
0
 77
1
 78
8
 79
2
170
0
171
1
172
0
173
0
174
0
175
0
176
0
177
0
178
0
270
2
179
2
271
2
272
2
273
2
274
2
275
0
280
0
281
0
282
0
283
1
284
8
285
0
286
0
287
3
288
0
340
11
278
46
341
212
342
212
343
212
344
212
  0
ENDTAB
  0
ENDSEC
  0
SECTION
  2
BLOCKS
  0
BLOCK
  5
20
100
AcDbEntity
  8
0
100
AcDbBlockBegin
  2
*Model_Space
 70
0
 10
0.0
 20
0.0
 30
0.0
  3
*Model_Space
  1

  0
ENDBLK
  5
21
100
AcDbEntity
  8
0
100
AcDbBlockEnd
  0
BLOCK
  5
1C
100
AcDbEntity
  8
0
100
AcDbBlockBegin
  2
*Paper_Space
 70
0
 10
0.0
 20
0.0
 30
0.0
  3
*Paper_Space
  1

  0
ENDBLK
  5
1D
100
AcDbEntity
  8
0
100
AcDbBlockEnd
  0
BLOCK
  5
214
100
AcDbEntity
  8
0
100
AcDbBlockBegin
  2
_FILLED
 70
64
 10
0.0
 20
0.0
  3
_FILLED
  1

  0
SOLID
  5
215
100
AcDbEntity
  8
0
  6
BYBLOCK
 62
0
100
AcDbTrace
 10
0.0
 20
0.0
 11
-1.0
 21
0.25
 12
-1.0
 22
-0.25
 13
-1.0
 23
-0.25
  0
ENDBLK
  5
216
100
AcDbEntity
  8
0
  6
BYBLOCK
 62
0
100
AcDbBlockEnd
  0
ENDSEC
  0
SECTION
  2
ENTITIES
  0
LINE
  5
217
100
AcDbEntity
  8
0
100
AcDbLine
 62
7
  6
BYLAYER
 10
42.8036493732
 20
6.6599945106
 11
33.0036493732
 21
6.6599945106
  0
LINE
  5
218
100
AcDbEntity
  8
0
100
AcDbLine
 62
7
  6
BYLAYER
 10
41.4036493732
 20
10.7345561577
 11
34.4036493732
 21
10.7345561577
  0
LINE
  5
219
100
AcDbEntity
  8
0
100
AcDbLine
 62
7
  6
BYLAYER
 10
42.8036493732
 20
10.7813373568
 11
41.4036493732
 21
10.7813373568
  0
LINE
  5
21A
100
AcDbEntity
  8
0
100
AcDbLine
 62
7
  6
BYLAYER
 10
34.4036493732
 20
10.7813373568
 11
33.0036493732
 21
10.7813373568
  0
LINE
  5
21B
100
AcDbEntity
  8
0
100
AcDbLine
 62
7
  6
BYLAYER
 10
33.6536493732
 20
11.5399942349
 11
33.0036493732
 21
11.5399942349
  0
LINE
  5
21C
100
AcDbEntity
  8
0
100
AcDbLine
 62
7
  6
BYLAYER
 10
42.1536493732
 20
11.5399942349
 11
42.8036493732
 21
11.5399942349
  0
LINE
  5
21D
100
AcDbEntity
  8
0
100
AcDbLine
 62
7
  6
BYLAYER
 10
41.4036493732
 20
13.5799942349
 11
34.4036493732
 21
13.5799942349
  0
LINE
  5
21E
100
AcDbEntity
  8
0
100
AcDbLine
 62
7
  6
BYLAYER
 10
41.4036493732
 20
16.1999942349
 11
34.4036493732
 21
16.1999942349
  0
LINE
  5
21F
100
AcDbEntity
  8
0
100
AcDbLine
 62
7
  6
BYLAYER
 10
42.1536493732
 20
16.6475854481
 11
33.6536493732
 21
16.6475854481
  0
LINE
  5
220
100
AcDbEntity
  8
0
100
AcDbLine
 62
7
  6
BYLAYER
 10
33.6536493732
 20
19.2630280059
 11
33.0036493732
 21
19.2630280059
  0
LINE
  5
221
100
AcDbEntity
  8
0
100
AcDbLine
 62
7
  6
BYLAYER
 10
42.1536493732
 20
19.2630280059
 11
42.8036493732
 21
19.2630280059
  0
LINE
  5
222
100
AcDbEntity
  8
0
100
AcDbLine
 62
7
  6
BYLAYER
 10
12.9536493732
 20
36.9399942349
 11
12.9536493732
 21
27.1399943806
  0
LINE
  5
223
100
AcDbEntity
  8
0
100
AcDbLine
 62
7
  6
BYLAYER
 10
13.2386493732
 20
36.9399942349
 11
13.2386493732
 21
42.9399942349
  0
LINE
  5
224
100
AcDbEntity
  8
0
100
AcDbLine
 62
7
  6
BYLAYER
 10
13.6536493732
 20
60.8399942349
 11
13.6536493732
 21
50.5399942349
  0
LINE
  5
225
100
AcDbEntity
  8
0
100
AcDbLine
 62
7
  6
BYLAYER
 10
42.8036493732
 20
26.3399942349
 11
33.0036493732
 21
26.3399942349
  0
LINE
  5
226
100
AcDbEntity
  8
0
100
AcDbLine
 62
7
  6
BYLAYER
 10
15.2979324605
 20
74.9394217735
 11
15.2979324605
 21
61.5899942349
  0
LINE
  5
227
100
AcDbEntity
  8
0
100
AcDbLine
 62
7
  6
BYLAYER
 10
15.3036493732
 20
49.2899942349
 11
15.3036493732
 21
50.5399942349
  0
LINE
  5
228
100
AcDbEntity
  8
0
100
AcDbLine
 62
7
  6
BYLAYER
 10
15.3536493732
 20
32.556795583
 11
15.3536493732
 21
34.2632317499
  0
LINE
  5
229
100
AcDbEntity
  8
0
100
AcDbLine
 62
7
  6
BYLAYER
 10
15.429105974
 20
61.5899942349
 11
15.429105974
 21
60.8399942349
  0
LINE
  5
22A
100
AcDbEntity
  8
0
100
AcDbLine
 62
7
  6
BYLAYER
 10
15.7786493732
 20
43.1399942349
 11
15.7786493732
 21
42.9399942349
  0
LINE
  5
22B
100
AcDbEntity
  8
0
100
AcDbLine
 62
7
  6
BYLAYER
 10
15.9036493732
 20
34.2632317499
 11
15.9036493732
 21
32.55679558
  0
LINE
  5
22C
100
AcDbEntity
  8
0
100
AcDbLine
 62
7
  6
BYLAYER
 10
17.0286493732
 20
46.3409942349
 11
17.0286493732
 21
49.2899942349
  0
LINE
  5
22D
100
AcDbEntity
  8
0
100
AcDbLine
 62
7
  6
BYLAYER
 10
17.0386493732
 20
42.9399942349
 11
17.0386493732
 21
36.9399942349
  0
LINE
  5
22E
100
AcDbEntity
  8
0
100
AcDbLine
 62
7
  6
BYLAYER
 10
17.2036493732
 20
46.3409942349
 11
17.2036493732
 21
43.1399942349
  0
LINE
  5
22F
100
AcDbEntity
  8
0
100
AcDbLine
 62
7
  6
BYLAYER
 10
17.3922213934
 20
43.1399942349
 11
17.3922213934
 21
45.9299942349
  0
LINE
  5
230
100
AcDbEntity
  8
0
100
AcDbLine
 62
7
  6
BYLAYER
 10
33.0036493732
 20
26.7157912421
 11
42.8036493732
 21
26.7157912421
  0
LINE
  5
231
100
AcDbEntity
  8
0
100
AcDbLine
 62
7
  6
BYLAYER
 10
42.8036493732
 20
26.7199942349
 11
33.0036493732
 21
26.7199942349
  0
LINE
  5
232
100
AcDbEntity
  8
0
100
AcDbLine
 62
7
  6
BYLAYER
 10
25.2171254837
 20
27.1409201214
 11
12.9536493732
 21
27.1399943806
  0
LINE
  5
233
100
AcDbEntity
  8
0
100
AcDbLine
 62
7
  6
BYLAYER
 10
21.2536670562
 20
28.4574096822
 11
19.2536493732
 21
28.4574101012
  0
LINE
  5
234
100
AcDbEntity
  8
0
100
AcDbLine
 62
7
  6
BYLAYER
 10
36.5536493732
 20
28.4574101012
 11
34.5536316903
 21
28.4574096822
  0
LINE
  5
235
100
AcDbEntity
  8
0
100
AcDbLine
 62
7
  6
BYLAYER
 10
42.8536493732
 20
28.6988400008
 11
36.5536493732
 21
28.6988400008
  0
LINE
  5
236
100
AcDbEntity
  8
0
100
AcDbLine
 62
7
  6
BYLAYER
 10
19.2536493732
 20
28.6988400008
 11
12.9536493732
 21
28.6988400008
  0
LINE
  5
237
100
AcDbEntity
  8
0
100
AcDbLine
 62
7
  6
BYLAYER
 10
42.8536493732
 20
27.1399943806
 11
30.5901732627
 21
27.1409201214
  0
LINE
  5
238
100
AcDbEntity
  8
0
100
AcDbLine
 62
7
  6
BYLAYER
 10
19.2381008666
 20
45.9299942349
 11
19.2381008666
 21
43.1399942349
  0
LINE
  5
239
100
AcDbEntity
  8
0
100
AcDbLine
 62
7
  6
BYLAYER
 10
19.2536493732
 20
27.1406676622
 11
19.2536493732
 21
33.4409875871
  0
LINE
  5
23A
100
AcDbEntity
  8
0
100
AcDbLine
 62
7
  6
BYLAYER
 10
19.3636493732
 20
43.1399942349
 11
19.3636493732
 21
42.9399942349
  0
LINE
  5
23B
100
AcDbEntity
  8
0
100
AcDbLine
 62
7
  6
BYLAYER
 10
19.5913629385
 20
43.1399942349
 11
19.5913629385
 21
45.9299942349
  0
LINE
  5
23C
100
AcDbEntity
  8
0
100
AcDbLine
 62
7
  6
BYLAYER
 10
25.0573779981
 20
29.4752676768
 11
21.2536670562
 21
28.4574096822
  0
LINE
  5
23D
100
AcDbEntity
  8
0
100
AcDbLine
 62
7
  6
BYLAYER
 10
30.7499207483
 20
29.4752676768
 11
29.0540099702
 21
29.4752676768
  0
LINE
  5
23E
100
AcDbEntity
  8
0
100
AcDbLine
 62
7
  6
BYLAYER
 10
26.7532887762
 20
29.4752676768
 11
25.0573779981
 21
29.4752676768
  0
LINE
  5
23F
100
AcDbEntity
  8
0
100
AcDbLine
 62
7
  6
BYLAYER
 10
25.1816092082
 20
29.6409942007
 11
30.6256895382
 21
29.6409942007
  0
LINE
  5
240
100
AcDbEntity
  8
0
100
AcDbLine
 62
7
  6
BYLAYER
 10
30.7499207483
 20
29.4752676768
 11
34.5536316903
 21
28.4574096822
  0
LINE
  5
241
100
AcDbEntity
  8
0
100
AcDbLine
 62
7
  6
BYLAYER
 10
20.4036493732
 20
34.9409941614
 11
20.4036493732
 21
33.4409960339
  0
LINE
  5
242
100
AcDbEntity
  8
0
100
AcDbLine
 62
7
  6
BYLAYER
 10
20.6716819319
 20
36.7109941179
 11
20.6716819319
 21
36.1871547861
  0
LINE
  5
243
100
AcDbEntity
  8
0
100
AcDbLine
 62
7
  6
BYLAYER
 10
21.1536493732
 20
36.9399942349
 11
21.1536493732
 21
42.9399942349
  0
LINE
  5
244
100
AcDbEntity
  8
0
100
AcDbLine
 62
7
  6
BYLAYER
 10
21.2536670562
 20
28.4574096822
 11
21.2536493732
 21
33.4409875871
  0
LINE
  5
245
100
AcDbEntity
  8
0
100
AcDbLine
 62
7
  6
BYLAYER
 10
21.9121971253
 20
36.9400003337
 11
21.9121971125
 21
36.7109941179
  0
LINE
  5
246
100
AcDbEntity
  8
0
100
AcDbLine
 62
7
  6
BYLAYER
 10
22.0402019776
 20
42.9399942349
 11
22.0402019776
 21
43.1399942349
  0
LINE
  5
247
100
AcDbEntity
  8
0
100
AcDbLine
 62
7
  6
BYLAYER
 10
42.8536493732
 20
32.55679558
 11
36.5536493732
 21
32.55679558
  0
LINE
  5
248
100
AcDbEntity
  8
0
100
AcDbLine
 62
7
  6
BYLAYER
 10
19.2536493732
 20
32.55679558
 11
12.9536493732
 21
32.55679558
  0
LINE
  5
249
100
AcDbEntity
  8
0
100
AcDbLine
 62
7
  6
BYLAYER
 10
36.5536493732
 20
33.4409875871
 11
19.2536493732
 21
33.4409875871
  0
LINE
  5
24A
100
AcDbEntity
  8
0
100
AcDbLine
 62
7
  6
BYLAYER
 10
20.4036493732
 20
34.0959340912
 11
15.9036493732
 21
34.0959340912
  0
LINE
  5
24B
100
AcDbEntity
  8
0
100
AcDbLine
 62
7
  6
BYLAYER
 10
15.9036493732
 20
34.2632317499
 11
15.3536493732
 21
34.2632317499
  0
LINE
  5
24C
100
AcDbEntity
  8
0
100
AcDbLine
 62
7
  6
BYLAYER
 10
25.3726703424
 20
25.3902526816
 11
25.1539766157
 21
27.8516647134
  0
LINE
  5
24D
100
AcDbEntity
  8
0
100
AcDbLine
 62
7
  6
BYLAYER
 10
23.5036493732
 20
36.9399942349
 11
23.5036493732
 21
36.7109941179
  0
LINE
  5
24E
100
AcDbEntity
  8
0
100
AcDbLine
 62
7
  6
BYLAYER
 10
24.4036493732
 20
42.9399942349
 11
24.4036493732
 21
36.9399942349
  0
LINE
  5
24F
100
AcDbEntity
  8
0
100
AcDbLine
 62
7
  6
BYLAYER
 10
24.9210718195
 20
43.1399942349
 11
24.9210718195
 21
42.9399942349
  0
LINE
  5
250
100
AcDbEntity
  8
0
100
AcDbLine
 62
7
  6
BYLAYER
 10
25.9992057404
 20
47.5089030308
 11
25.9036493732
 21
47.4028361924
  0
LINE
  5
251
100
AcDbEntity
  8
0
100
AcDbLine
 62
7
  6
BYLAYER
 10
27.9036493732
 20
48.5399942349
 11
25.9992057404
 21
47.5089030308
  0
LINE
  5
252
100
AcDbEntity
  8
0
100
AcDbLine
 62
7
  6
BYLAYER
 10
36.5536493732
 20
34.9409941614
 11
29.9036493732
 21
34.9409941614
  0
LINE
  5
253
100
AcDbEntity
  8
0
100
AcDbLine
 62
7
  6
BYLAYER
 10
25.9036493732
 20
34.9409941614
 11
20.4036493732
 21
34.9409941614
  0
LINE
  5
254
100
AcDbEntity
  8
0
100
AcDbLine
 62
7
  6
BYLAYER
 10
23.6068283818
 20
35.0109941179
 11
25.9036493732
 21
35.0109941179
  0
LINE
  5
255
100
AcDbEntity
  8
0
100
AcDbLine
 62
7
  6
BYLAYER
 10
29.9036493732
 20
35.0109941179
 11
31.235273694
 21
35.0109941179
  0
LINE
  5
256
100
AcDbEntity
  8
0
100
AcDbLine
 62
7
  6
BYLAYER
 10
23.5036493732
 20
36.7109941179
 11
25.9036493732
 21
36.7109941179
  0
LINE
  5
257
100
AcDbEntity
  8
0
100
AcDbLine
 62
7
  6
BYLAYER
 10
29.9036493732
 20
36.7109941179
 11
32.3036493732
 21
36.7109941179
  0
LINE
  5
258
100
AcDbEntity
  8
0
100
AcDbLine
 62
7
  6
BYLAYER
 10
34.5784810315
 20
36.7109940814
 11
33.8951016339
 21
36.7109941179
  0
LINE
  5
259
100
AcDbEntity
  8
0
100
AcDbLine
 62
7
  6
BYLAYER
 10
21.9121971125
 20
36.7109941179
 11
20.2636111289
 21
36.7109940814
  0
LINE
  5
25A
100
AcDbEntity
  8
0
100
AcDbLine
 62
7
  6
BYLAYER
 10
30.6256895383
 20
29.6409942007
 11
30.7499207483
 21
29.4752676768
  0
LINE
  5
25B
100
AcDbEntity
  8
0
100
AcDbLine
 62
7
  6
BYLAYER
 10
25.9036493732
 20
28.1703201441
 11
25.9036493732
 21
28.604713525
  0
LINE
  5
25C
100
AcDbEntity
  8
0
100
AcDbLine
 62
7
  6
BYLAYER
 10
25.9036493732
 20
33.440988657
 11
25.9036493732
 21
36.9399942349
  0
LINE
  5
25D
100
AcDbEntity
  8
0
100
AcDbLine
 62
7
  6
BYLAYER
 10
25.9036493732
 20
42.9399942349
 11
25.9036493732
 21
47.4028361924
  0
LINE
  5
25E
100
AcDbEntity
  8
0
100
AcDbLine
 62
7
  6
BYLAYER
 10
26.5312658266
 20
29.6409942007
 11
26.5312658266
 21
33.4409832084
  0
LINE
  5
25F
100
AcDbEntity
  8
0
100
AcDbLine
 62
7
  6
BYLAYER
 10
12.9536493732
 20
36.9399942349
 11
42.8536493732
 21
36.9399942349
  0
LINE
  5
260
100
AcDbEntity
  8
0
100
AcDbLine
 62
7
  6
BYLAYER
 10
29.2760329198
 20
33.4409832084
 11
29.2760329198
 21
29.6409942007
  0
LINE
  5
261
100
AcDbEntity
  8
0
100
AcDbLine
 62
7
  6
BYLAYER
 10
29.9036493732
 20
28.1703201441
 11
29.9036493732
 21
28.604713525
  0
LINE
  5
262
100
AcDbEntity
  8
0
100
AcDbLine
 62
7
  6
BYLAYER
 10
29.9036493732
 20
33.440988657
 11
29.9036493732
 21
36.9399942349
  0
LINE
  5
263
100
AcDbEntity
  8
0
100
AcDbLine
 62
7
  6
BYLAYER
 10
29.9036493732
 20
42.9399942349
 11
29.9036493732
 21
47.4028361924
  0
LINE
  5
264
100
AcDbEntity
  8
0
100
AcDbLine
 62
7
  6
BYLAYER
 10
30.886225273
 20
42.9399942349
 11
30.886225273
 21
43.1399942349
  0
LINE
  5
265
100
AcDbEntity
  8
0
100
AcDbLine
 62
7
  6
BYLAYER
 10
31.4036493732
 20
42.9399942349
 11
31.4036493732
 21
36.9399942349
  0
LINE
  5
266
100
AcDbEntity
  8
0
100
AcDbLine
 62
7
  6
BYLAYER
 10
32.3036493732
 20
36.9399942349
 11
32.3036493732
 21
36.7109941179
  0
LINE
  5
267
100
AcDbEntity
  8
0
100
AcDbLine
 62
7
  6
BYLAYER
 10
33.0036493732
 20
27.1399942182
 11
33.0036493732
 21
6.6599945106
  0
LINE
  5
268
100
AcDbEntity
  8
0
100
AcDbLine
 62
7
  6
BYLAYER
 10
30.434628404
 20
25.3902526816
 11
30.6533221308
 21
27.8516647134
  0
LINE
  5
269
100
AcDbEntity
  8
0
100
AcDbLine
 62
7
  6
BYLAYER
 10
42.5686493732
 20
42.9399942349
 11
13.2386493732
 21
42.9399942349
  0
LINE
  5
26A
100
AcDbEntity
  8
0
100
AcDbLine
 62
7
  6
BYLAYER
 10
40.0286493732
 20
43.1399942349
 11
29.9036493732
 21
43.1399942349
  0
LINE
  5
26B
100
AcDbEntity
  8
0
100
AcDbLine
 62
7
  6
BYLAYER
 10
25.9036493732
 20
43.1399942349
 11
15.7786493732
 21
43.1399942349
  0
LINE
  5
26C
100
AcDbEntity
  8
0
100
AcDbLine
 62
7
  6
BYLAYER
 10
33.3683073687
 20
43.1399942349
 11
33.3683073687
 21
42.9399942349
  0
LINE
  5
26D
100
AcDbEntity
  8
0
100
AcDbLine
 62
7
  6
BYLAYER
 10
33.6536493732
 20
11.5399942349
 11
33.6536493732
 21
19.2630280059
  0
LINE
  5
26E
100
AcDbEntity
  8
0
100
AcDbLine
 62
7
  6
BYLAYER
 10
33.8951016212
 20
36.9399942349
 11
33.8951016339
 21
36.7109941179
  0
LINE
  5
26F
100
AcDbEntity
  8
0
100
AcDbLine
 62
7
  6
BYLAYER
 10
34.1704102285
 20
36.1871547861
 11
34.1704102285
 21
36.7109941179
  0
LINE
  5
270
100
AcDbEntity
  8
0
100
AcDbLine
 62
7
  6
BYLAYER
 10
34.4036493732
 20
10.7345561577
 11
34.4036493732
 21
16.1999942349
  0
LINE
  5
271
100
AcDbEntity
  8
0
100
AcDbLine
 62
7
  6
BYLAYER
 10
34.5536316903
 20
28.4574096822
 11
34.5536493732
 21
33.4409875871
  0
LINE
  5
272
100
AcDbEntity
  8
0
100
AcDbLine
 62
7
  6
BYLAYER
 10
34.6536493732
 20
42.9399942349
 11
34.6536493732
 21
36.9399942349
  0
LINE
  5
273
100
AcDbEntity
  8
0
100
AcDbLine
 62
7
  6
BYLAYER
 10
35.1536493732
 20
42.9399942349
 11
35.1536493732
 21
36.9399942349
  0
LINE
  5
274
100
AcDbEntity
  8
0
100
AcDbLine
 62
7
  6
BYLAYER
 10
25.1816092082
 20
29.6409942007
 11
25.0573779981
 21
29.4752676768
  0
LINE
  5
275
100
AcDbEntity
  8
0
100
AcDbLine
 62
7
  6
BYLAYER
 10
38.4150773531
 20
45.9299942349
 11
36.2159358079
 21
45.9299942349
  0
LINE
  5
276
100
AcDbEntity
  8
0
100
AcDbLine
 62
7
  6
BYLAYER
 10
19.5913629385
 20
45.9299942349
 11
17.3922213934
 21
45.9299942349
  0
LINE
  5
277
100
AcDbEntity
  8
0
100
AcDbLine
 62
7
  6
BYLAYER
 10
17.028664081
 20
46.3409942349
 11
25.9036493732
 21
46.3409942349
  0
LINE
  5
278
100
AcDbEntity
  8
0
100
AcDbLine
 62
7
  6
BYLAYER
 10
29.9036493732
 20
46.3409942349
 11
38.7786346654
 21
46.3409942349
  0
LINE
  5
279
100
AcDbEntity
  8
0
100
AcDbLine
 62
7
  6
BYLAYER
 10
27.9036493732
 20
48.5399942349
 11
29.808093006
 21
47.5089030308
  0
LINE
  5
27A
100
AcDbEntity
  8
0
100
AcDbLine
 62
7
  6
BYLAYER
 10
29.9036493732
 20
47.4028361924
 11
29.808093006
 21
47.5089030308
  0
LINE
  5
27B
100
AcDbEntity
  8
0
100
AcDbLine
 62
7
  6
BYLAYER
 10
36.2159358079
 20
45.9299942349
 11
36.2159358079
 21
43.1399942349
  0
LINE
  5
27C
100
AcDbEntity
  8
0
100
AcDbLine
 62
7
  6
BYLAYER
 10
36.4412134286
 20
43.1399942349
 11
36.4412134286
 21
42.9399942349
  0
LINE
  5
27D
100
AcDbEntity
  8
0
100
AcDbLine
 62
7
  6
BYLAYER
 10
36.5536493732
 20
27.1406676622
 11
36.5536493732
 21
34.9409941614
  0
LINE
  5
27E
100
AcDbEntity
  8
0
100
AcDbLine
 62
7
  6
BYLAYER
 10
36.5691978799
 20
43.1399942349
 11
36.5691978799
 21
45.9299942349
  0
LINE
  5
27F
100
AcDbEntity
  8
0
100
AcDbLine
 62
7
  6
BYLAYER
 10
15.3036493732
 20
49.2899942349
 11
40.5036493732
 21
49.2899942349
  0
LINE
  5
280
100
AcDbEntity
  8
0
100
AcDbLine
 62
7
  6
BYLAYER
 10
38.4150773531
 20
45.9299942349
 11
38.4150773531
 21
43.1399942349
  0
LINE
  5
281
100
AcDbEntity
  8
0
100
AcDbLine
 62
7
  6
BYLAYER
 10
38.6036493732
 20
46.3409942349
 11
38.6036493732
 21
43.1399942349
  0
LINE
  5
282
100
AcDbEntity
  8
0
100
AcDbLine
 62
7
  6
BYLAYER
 10
38.7686493732
 20
36.9399942349
 11
38.7686493732
 21
42.9399942349
  0
LINE
  5
283
100
AcDbEntity
  8
0
100
AcDbLine
 62
7
  6
BYLAYER
 10
38.7786493732
 20
46.3409942349
 11
38.7786493732
 21
49.2899942349
  0
LINE
  5
284
100
AcDbEntity
  8
0
100
AcDbLine
 62
7
  6
BYLAYER
 10
40.0286493732
 20
43.1399942349
 11
40.0286493732
 21
42.9399942349
  0
LINE
  5
285
100
AcDbEntity
  8
0
100
AcDbLine
 62
7
  6
BYLAYER
 10
40.3781927724
 20
61.5899942349
 11
40.3781927724
 21
60.8399942349
  0
LINE
  5
286
100
AcDbEntity
  8
0
100
AcDbLine
 62
7
  6
BYLAYER
 10
40.5036493732
 20
50.5399942349
 11
40.5036493732
 21
49.2899942349
  0
LINE
  5
287
100
AcDbEntity
  8
0
100
AcDbLine
 62
7
  6
BYLAYER
 10
13.6536493732
 20
50.5399942349
 11
42.1536493732
 21
50.5399942349
  0
LINE
  5
288
100
AcDbEntity
  8
0
100
AcDbLine
 62
7
  6
BYLAYER
 10
41.3998035508
 20
71.0502759774
 11
41.3998035508
 21
61.5899942349
  0
LINE
  5
289
100
AcDbEntity
  8
0
100
AcDbLine
 62
7
  6
BYLAYER
 10
41.4036493732
 20
10.7345561577
 11
41.4036493732
 21
16.1999942349
  0
LINE
  5
28A
100
AcDbEntity
  8
0
100
AcDbLine
 62
7
  6
BYLAYER
 10
42.1536493732
 20
60.8399942349
 11
42.1536493732
 21
50.5399942349
  0
LINE
  5
28B
100
AcDbEntity
  8
0
100
AcDbLine
 62
7
  6
BYLAYER
 10
42.1536493732
 20
11.5399942349
 11
42.1536493732
 21
19.2630280059
  0
LINE
  5
28C
100
AcDbEntity
  8
0
100
AcDbLine
 62
7
  6
BYLAYER
 10
42.5686493732
 20
42.9399942349
 11
42.5686493732
 21
36.9399942349
  0
LINE
  5
28D
100
AcDbEntity
  8
0
100
AcDbLine
 62
7
  6
BYLAYER
 10
42.8036493732
 20
6.6599945106
 11
42.8036493732
 21
27.1399943806
  0
LINE
  5
28E
100
AcDbEntity
  8
0
100
AcDbLine
 62
7
  6
BYLAYER
 10
42.8536493732
 20
27.1399943806
 11
42.8536493732
 21
36.9399942349
  0
LINE
  5
28F
100
AcDbEntity
  8
0
100
AcDbLine
 62
7
  6
BYLAYER
 10
47.4109920588
 20
71.0385564902
 11
47.4109920588
 21
61.5899942349
  0
LINE
  5
290
100
AcDbEntity
  8
0
100
AcDbLine
 62
7
  6
BYLAYER
 10
42.1536493732
 20
60.8399942349
 11
13.6536493732
 21
60.8399942349
  0
LINE
  5
291
100
AcDbEntity
  8
0
100
AcDbLine
 62
7
  6
BYLAYER
 10
15.2979324605
 20
61.5899942349
 11
47.4109920588
 21
61.5899942349
  0
LINE
  5
292
100
AcDbEntity
  8
0
100
AcDbLine
 62
7
  6
BYLAYER
 10
30.1550902332
 20
76.818106571
 11
25.6420824037
 21
76.8187153093
  0
SPLINE
  5
293
100
AcDbEntity
  8
0
100
AcDbSpline
 62
7
  6
BYLAYER
 70
0
 71
3
 72
22
 73
18
 74
0
 42
0.0000001
 43
0.0000001
 44
0.0000000001
 40
0.0
 40
0.0
 40
0.0
 40
0.0
 40
0.0082668927
 40
0.016968998
 40
0.0266561634
 40
0.0377254978
 40
0.0648791658
 40
0.0995280957
 40
0.1419579962
 40
0.1920558014
 40
0.249548751
 40
0.3139888854
 40
0.384840844
 40
0.4614836015
 40
0.6292086491
 40
0.8110594345
 40
1.0
 40
1.0
 40
1.0
 40
1.0
 10
30.6532915243
 20
27.8516647856
 30
0.0
 10
30.6539893814
 20
27.8595343566
 30
0.0
 10
30.6530698435
 20
27.8759899119
 30
0.0
 10
30.6445178401
 20
27.9002783176
 30
0.0
 10
30.6291393211
 20
27.9241022828
 30
0.0
 10
30.5976366508
 20
27.9575799508
 30
0.0
 10
30.5398749104
 20
27.997562138
 30
0.0
 10
30.4502094348
 20
28.0412927156
 30
0.0
 10
30.3360301868
 20
28.0834299419
 30
0.0
 10
30.1983266405
 20
28.1236017228
 30
0.0
 10
30.0382411821
 20
28.161311031
 30
0.0
 10
29.857295506
 20
28.1962031362
 30
0.0
 10
29.6572156948
 20
28.2278879463
 30
0.0
 10
29.3584295025
 20
28.2665628275
 30
0.0
 10
28.9526539359
 20
28.3037467527
 30
0.0
 10
28.4386044528
 20
28.3305506668
 30
0.0
 10
28.0842149179
 20
28.3365639104
 30
0.0
 10
27.9036493732
 20
28.3365639104
 30
0.0
  0
SPLINE
  5
294
100
AcDbEntity
  8
0
100
AcDbSpline
 62
7
  6
BYLAYER
 70
0
 71
3
 72
20
 73
16
 74
0
 42
0.0000001
 43
0.0000001
 44
0.0000000001
 40
0.0
 40
0.0
 40
0.0
 40
0.0
 40
0.0173052841
 40
0.0275978987
 40
0.0393779649
 40
0.0680254235
 40
0.1040388126
 40
0.1475706701
 40
0.1984678017
 40
0.2564421076
 40
0.321043759
 40
0.467970013
 40
0.6341365622
 40
0.8137149373
 40
1.0
 40
1.0
 40
1.0
 40
1.0
 10
30.4345961575
 20
25.3902527575
 30
0.0
 10
30.433259957
 20
25.3751689356
 30
0.0
 10
30.4235428752
 20
25.3517178908
 30
0.0
 10
30.4017139862
 20
25.3250450307
 30
0.0
 10
30.3687373197
 20
25.2950833971
 30
0.0
 10
30.3116734258
 20
25.2594213462
 30
0.0
 10
30.2253538622
 20
25.2202230051
 30
0.0
 10
30.1174825201
 20
25.1825343487
 30
0.0
 10
29.9889722855
 20
25.1466714881
 30
0.0
 10
29.8408920663
 20
25.1130637245
 30
0.0
 10
29.6090245679
 20
25.0697905889
 30
0.0
 10
29.281364857
 20
25.0251317678
 30
0.0
 10
28.851875426
 20
24.9865635477
 30
0.0
 10
28.3868297175
 20
24.9628170144
 30
0.0
 10
28.0666570523
 20
24.9574812809
 30
0.0
 10
27.9036493732
 20
24.9574812809
 30
0.0
  0
SPLINE
  5
295
100
AcDbEntity
  8
0
100
AcDbSpline
 62
7
  6
BYLAYER
 70
0
 71
3
 72
20
 73
16
 74
0
 42
0.0000001
 43
0.0000001
 44
0.0000000001
 40
0.0
 40
0.0
 40
0.0
 40
0.0
 40
0.186287932
 40
0.3658626432
 40
0.5320259186
 40
0.6789488181
 40
0.7435507316
 40
0.8015247914
 40
0.8524232775
 40
0.8959577348
 40
0.931971194
 40
0.960621086
 40
0.972401853
 40
0.9826941986
 40
1.0
 40
1.0
 40
1.0
 40
1.0
 10
27.9036493732
 20
24.9574812809
 30
0.0
 10
27.7406391664
 20
24.9574812809
 30
0.0
 10
27.4204671531
 20
24.9628169122
 30
0.0
 10
26.9554249861
 20
24.9865634666
 30
0.0
 10
26.5259443628
 20
25.0251299896
 30
0.0
 10
26.1982903118
 20
25.0697888776
 30
0.0
 10
25.9664251638
 20
25.1130587006
 30
0.0
 10
25.8183436757
 20
25.1466666978
 30
0.0
 10
25.6898305258
 20
25.1825306335
 30
0.0
 10
25.5819540679
 20
25.2202159026
 30
0.0
 10
25.4956321264
 20
25.2594198818
 30
0.0
 10
25.438564485
 20
25.2950805056
 30
0.0
 10
25.4055838506
 20
25.3250418412
 30
0.0
 10
25.3837573182
 20
25.3517180156
 30
0.0
 10
25.3740409835
 20
25.3751686172
 30
0.0
 10
25.3727032775
 20
25.3902527618
 30
0.0
  0
SPLINE
  5
296
100
AcDbEntity
  8
0
100
AcDbSpline
 62
7
  6
BYLAYER
 70
0
 71
3
 72
22
 73
18
 74
0
 42
0.0000001
 43
0.0000001
 44
0.0000000001
 40
0.0
 40
0.0
 40
0.0
 40
0.0
 40
0.1889405655
 40
0.3707913509
 40
0.5385163985
 40
0.615159156
 40
0.6860111146
 40
0.750451249
 40
0.8079441986
 40
0.8580420038
 40
0.9004719043
 40
0.9351208342
 40
0.9622745022
 40
0.9733438366
 40
0.983031002
 40
0.9917331073
 40
1.0
 40
1.0
 40
1.0
 40
1.0
 10
27.9036493732
 20
28.3365639104
 30
0.0
 10
27.7230838286
 20
28.3365639104
 30
0.0
 10
27.3686942936
 20
28.3305506668
 30
0.0
 10
26.8546448106
 20
28.3037467527
 30
0.0
 10
26.448869244
 20
28.2665628275
 30
0.0
 10
26.1500830517
 20
28.2278879463
 30
0.0
 10
25.9500032405
 20
28.1962031362
 30
0.0
 10
25.7690575643
 20
28.161311031
 30
0.0
 10
25.608972106
 20
28.1236017228
 30
0.0
 10
25.4712685597
 20
28.0834299419
 30
0.0
 10
25.3570893116
 20
28.0412927156
 30
0.0
 10
25.2674238361
 20
27.997562138
 30
0.0
 10
25.2096620956
 20
27.9575799508
 30
0.0
 10
25.1781594254
 20
27.9241022828
 30
0.0
 10
25.1627809063
 20
27.9002783176
 30
0.0
 10
25.1542289029
 20
27.8759899119
 30
0.0
 10
25.1533093651
 20
27.8595343566
 30
0.0
 10
25.1540072222
 20
27.8516647856
 30
0.0
  0
SPLINE
  5
297
100
AcDbEntity
  8
0
100
AcDbSpline
 62
7
  6
BYLAYER
 70
0
 71
3
 72
9
 73
5
 74
0
 42
0.0000001
 43
0.0000001
 44
0.0000000001
 40
0.0
 40
0.0
 40
0.0
 40
0.0
 40
0.5032848002
 40
1.0
 40
1.0
 40
1.0
 40
1.0
 10
23.8109946611
 20
33.4409960339
 30
0.0
 10
23.825138233
 20
33.4842360424
 30
0.0
 10
23.8466210037
 20
33.5724872595
 30
0.0
 10
23.8536493732
 20
33.6630365061
 30
0.0
 10
23.8536493732
 20
33.7079370315
 30
0.0
  0
SPLINE
  5
298
100
AcDbEntity
  8
0
100
AcDbSpline
 62
7
  6
BYLAYER
 70
0
 71
3
 72
9
 73
5
 74
0
 42
0.0000001
 43
0.0000001
 44
0.0000000001
 40
0.0
 40
0.0
 40
0.0
 40
0.0
 40
0.4967151999
 40
1.0
 40
1.0
 40
1.0
 40
1.0
 10
31.9536493732
 20
33.7079370315
 30
0.0
 10
31.9536493732
 20
33.663036506
 30
0.0
 10
31.9606777427
 20
33.5724872595
 30
0.0
 10
31.9821605134
 20
33.4842360424
 30
0.0
 10
31.9963040854
 20
33.4409960339
 30
0.0
  0
SPLINE
  5
299
100
AcDbEntity
  8
0
100
AcDbSpline
 62
7
  6
BYLAYER
 70
0
 71
3
 72
9
 73
5
 74
0
 42
0.0000001
 43
0.0000001
 44
0.0000000001
 40
0.0
 40
0.0
 40
0.0
 40
0.0
 40
0.5032848002
 40
1.0
 40
1.0
 40
1.0
 40
1.0
 10
33.8109946611
 20
33.4409960339
 30
0.0
 10
33.825138233
 20
33.4842360424
 30
0.0
 10
33.8466210037
 20
33.5724872595
 30
0.0
 10
33.8536493732
 20
33.6630365061
 30
0.0
 10
33.8536493732
 20
33.7079370315
 30
0.0
  0
SPLINE
  5
29A
100
AcDbEntity
  8
0
100
AcDbSpline
 62
7
  6
BYLAYER
 70
0
 71
3
 72
9
 73
5
 74
0
 42
0.0000001
 43
0.0000001
 44
0.0000000001
 40
0.0
 40
0.0
 40
0.0
 40
0.0
 40
0.4967151999
 40
1.0
 40
1.0
 40
1.0
 40
1.0
 10
21.9536493732
 20
33.7079370315
 30
0.0
 10
21.9536493732
 20
33.663036506
 30
0.0
 10
21.9606777427
 20
33.5724872595
 30
0.0
 10
21.9821605134
 20
33.4842360424
 30
0.0
 10
21.9963040854
 20
33.4409960339
 30
0.0
  0
SPLINE
  5
29B
100
AcDbEntity
  8
0
100
AcDbSpline
 62
7
  6
BYLAYER
 70
0
 71
3
 72
15
 73
11
 74
0
 42
0.0000001
 43
0.0000001
 44
0.0000000001
 40
0.0
 40
0.0
 40
0.0
 40
0.0
 40
0.1365333633
 40
0.2698180327
 40
0.3997172169
 40
0.5262110422
 40
0.6493413405
 40
0.7692068874
 40
0.8860046341
 40
1.0
 40
1.0
 40
1.0
 40
1.0
 10
47.4109920588
 20
71.0385564902
 30
0.0
 10
46.7114029186
 20
71.503279361
 30
0.0
 10
45.3012026051
 20
72.3808997406
 30
0.0
 10
43.1351602543
 20
73.5479506615
 30
0.0
 10
40.9533107423
 20
74.5450884483
 30
0.0
 10
38.7661405477
 20
75.3671717888
 30
0.0
 10
36.5843957348
 20
76.0116388083
 30
0.0
 10
34.4181338592
 20
76.476497652
 30
0.0
 10
32.2767360668
 20
76.7552841851
 30
0.0
 10
30.8563255165
 20
76.8179562863
 30
0.0
 10
30.1550902336
 20
76.8181054308
 30
0.0
  0
SPLINE
  5
29C
100
AcDbEntity
  8
0
100
AcDbSpline
 62
7
  6
BYLAYER
 70
0
 71
3
 72
11
 73
7
 74
0
 42
0.0000001
 43
0.0000001
 44
0.0000000001
 40
0.0
 40
0.0
 40
0.0
 40
0.0
 40
0.2595140688
 40
0.5125037312
 40
0.7591469531
 40
1.0
 40
1.0
 40
1.0
 40
1.0
 10
15.2979324605
 20
74.9394217735
 30
0.0
 10
16.1587602642
 20
75.2454815951
 30
0.0
 10
17.8824336048
 20
75.7859858104
 30
0.0
 10
20.4916493486
 20
76.3781438085
 30
0.0
 10
23.0769787903
 20
76.7366353665
 30
0.0
 10
24.7941413122
 20
76.8186101946
 30
0.0
 10
25.6420629067
 20
76.8186202908
 30
0.0
  0
SPLINE
  5
29D
100
AcDbEntity
  8
0
100
AcDbSpline
 62
7
  6
BYLAYER
 70
0
 71
3
 72
15
 73
11
 74
0
 42
0.0000001
 43
0.0000001
 44
0.0000000001
 40
0.0
 40
0.0
 40
0.0
 40
0.0
 40
0.3211896908
 40
0.4721223746
 40
0.6117565029
 40
0.736888462
 40
0.8446263144
 40
0.9327691768
 40
0.9690305859
 40
1.0
 40
1.0
 40
1.0
 40
1.0
 10
27.9036493732
 20
47.7501325477
 30
0.0
 10
27.6969418712
 20
47.7501325477
 30
0.0
 10
27.392987533
 20
47.7421930411
 30
0.0
 10
27.0002206286
 20
47.7142708032
 30
0.0
 10
26.7341015166
 20
47.6862738952
 30
0.0
 10
26.4967873703
 20
47.6516609119
 30
0.0
 10
26.2940998073
 20
47.6112548743
 30
0.0
 10
26.1497371132
 20
47.5717751269
 30
0.0
 10
26.0560296241
 20
47.5367066234
 30
0.0
 10
26.0167437902
 20
47.518388094
 30
0.0
 10
25.9992147825
 20
47.508902527
 30
0.0
  0
SPLINE
  5
29E
100
AcDbEntity
  8
0
100
AcDbSpline
 62
7
  6
BYLAYER
 70
0
 71
3
 72
15
 73
11
 74
0
 42
0.0000001
 43
0.0000001
 44
0.0000000001
 40
0.0
 40
0.0
 40
0.0
 40
0.0
 40
0.1281313397
 40
0.254258113
 40
0.3788771153
 40
0.5025462718
 40
0.6258628924
 40
0.749466116
 40
0.8739960894
 40
1.0
 40
1.0
 40
1.0
 40
1.0
 10
25.6420629067
 20
76.8186202908
 30
0.0
 10
26.3740569996
 20
76.8186290066
 30
0.0
 10
27.8274088701
 20
76.7587702647
 30
0.0
 10
29.9769323888
 20
76.483188385
 30
0.0
 10
32.0689054506
 20
76.0235323121
 30
0.0
 10
34.0955147232
 20
75.3816463982
 30
0.0
 10
36.0501524692
 20
74.5607620328
 30
0.0
 10
37.9270899029
 20
73.5645872341
 30
0.0
 10
39.7209267692
 20
72.3976544719
 30
0.0
 10
40.8508732739
 20
71.5159430161
 30
0.0
 10
41.3998035508
 20
71.0502759774
 30
0.0
  0
SPLINE
  5
29F
100
AcDbEntity
  8
0
100
AcDbSpline
 62
7
  6
BYLAYER
 70
0
 71
3
 72
15
 73
11
 74
0
 42
0.0000001
 43
0.0000001
 44
0.0000000001
 40
0.0
 40
0.0
 40
0.0
 40
0.0
 40
0.0309694141
 40
0.0672308232
 40
0.1553736856
 40
0.263111538
 40
0.3882434971
 40
0.5278776254
 40
0.6788103092
 40
1.0
 40
1.0
 40
1.0
 40
1.0
 10
29.808083964
 20
47.508902527
 30
0.0
 10
29.7905549563
 20
47.518388094
 30
0.0
 10
29.7512691224
 20
47.5367066234
 30
0.0
 10
29.6575616332
 20
47.5717751269
 30
0.0
 10
29.5131989392
 20
47.6112548743
 30
0.0
 10
29.3105113762
 20
47.6516609119
 30
0.0
 10
29.0731972299
 20
47.6862738952
 30
0.0
 10
28.8070781178
 20
47.7142708032
 30
0.0
 10
28.4143112135
 20
47.7421930411
 30
0.0
 10
28.1103568753
 20
47.7501325477
 30
0.0
 10
27.9036493732
 20
47.7501325477
 30
0.0
  0
SPLINE
  5
2A0
100
AcDbEntity
  8
0
100
AcDbSpline
 62
7
  6
BYLAYER
 70
0
 71
3
 72
22
 73
18
 74
0
 42
0.0000001
 43
0.0000001
 44
0.0000000001
 40
0.0
 40
0.0
 40
0.0
 40
0.0
 40
0.1889429352
 40
0.3707919291
 40
0.5385191025
 40
0.6151623783
 40
0.6860125184
 40
0.7504509494
 40
0.8079410578
 40
0.8580397157
 40
0.900470872
 40
0.9351198177
 40
0.9622754283
 40
0.9733444418
 40
0.9830307815
 40
0.9917329569
 40
1.0
 40
1.0
 40
1.0
 40
1.0
 10
27.9036493732
 20
25.8365856847
 30
0.0
 10
28.0698557182
 20
25.8365856847
 30
0.0
 10
28.3960593816
 20
25.8310509552
 30
0.0
 10
28.8692263339
 20
25.8063788408
 30
0.0
 10
29.2427291676
 20
25.7721514007
 30
0.0
 10
29.5177522552
 20
25.7365533634
 30
0.0
 10
29.7019159176
 20
25.7073880054
 30
0.0
 10
29.8684650257
 20
25.6752743423
 30
0.0
 10
30.0158143908
 20
25.6405624991
 30
0.0
 10
30.1425651696
 20
25.6035870512
 30
0.0
 10
30.2476662928
 20
25.5648033201
 30
0.0
 10
30.3302005666
 20
25.5245458609
 30
0.0
 10
30.3833726576
 20
25.4877477335
 30
0.0
 10
30.4123700861
 20
25.4569312759
 30
0.0
 10
30.4265193699
 20
25.4349993694
 30
0.0
 10
30.4343901314
 20
25.4126434179
 30
0.0
 10
30.4352378545
 20
25.3974966129
 30
0.0
 10
30.4345961575
 20
25.3902527575
 30
0.0
  0
SPLINE
  5
2A1
100
AcDbEntity
  8
0
100
AcDbSpline
 62
7
  6
BYLAYER
 70
0
 71
3
 72
15
 73
11
 74
0
 42
0.0000001
 43
0.0000001
 44
0.0000000001
 40
0.0
 40
0.0
 40
0.0
 40
0.0
 40
0.0904796779
 40
0.1912552417
 40
0.3024093353
 40
0.4237635486
 40
0.554944661
 40
0.6953174199
 40
0.8440506972
 40
1.0
 40
1.0
 40
1.0
 40
1.0
 10
47.4109920588
 20
71.0385564902
 30
0.0
 10
47.2381585523
 20
70.9782459441
 30
0.0
 10
46.8648722213
 20
70.873093926
 30
0.0
 10
46.2620519973
 20
70.7643766494
 30
0.0
 10
45.5902195277
 20
70.6996123557
 30
0.0
 10
44.854187144
 20
70.6798902528
 30
0.0
 10
44.0593077271
 20
70.7062923345
 30
0.0
 10
43.2116819628
 20
70.7775847665
 30
0.0
 10
42.3183842202
 20
70.8924454437
 30
0.0
 10
41.7101858957
 20
70.9936304684
 30
0.0
 10
41.3998035508
 20
71.0502759774
 30
0.0
  0
SPLINE
  5
2A2
100
AcDbEntity
  8
0
100
AcDbSpline
 62
7
  6
BYLAYER
 70
0
 71
3
 72
22
 73
18
 74
0
 42
0.0000001
 43
0.0000001
 44
0.0000000001
 40
0.0
 40
0.0
 40
0.0
 40
0.0
 40
0.0082667884
 40
0.0169686292
 40
0.0266552306
 40
0.0377240672
 40
0.0648772634
 40
0.0995256809
 40
0.1419547897
 40
0.1920512598
 40
0.2495418528
 40
0.3139798201
 40
0.3848319632
 40
0.4614765804
 40
0.6292069658
 40
0.8110598346
 40
1.0
 40
1.0
 40
1.0
 40
1.0
 10
25.3727032775
 20
25.3902527618
 30
0.0
 10
25.3720608965
 20
25.3974963316
 30
0.0
 10
25.3729067654
 20
25.4126427099
 30
0.0
 10
25.3807765443
 20
25.434999096
 30
0.0
 10
25.394929185
 20
25.4569286566
 30
0.0
 10
25.4239245963
 20
25.4877436046
 30
0.0
 10
25.4770915391
 20
25.5245446464
 30
0.0
 10
25.559623835
 20
25.5647967214
 30
0.0
 10
25.6647195162
 20
25.6035822044
 30
0.0
 10
25.7914668183
 20
25.6405584588
 30
0.0
 10
25.9388146051
 20
25.6752684497
 30
0.0
 10
26.1053648672
 20
25.7073855229
 30
0.0
 10
26.289531285
 20
25.7365498611
 30
0.0
 10
26.5645598056
 20
25.7721506248
 30
0.0
 10
26.9380701121
 20
25.8063783933
 30
0.0
 10
27.4112408223
 20
25.831050944
 30
0.0
 10
27.7374454646
 20
25.8365856847
 30
0.0
 10
27.9036493732
 20
25.8365856847
 30
0.0
  0
ELLIPSE
  5
2A3
100
AcDbEntity
  8
0
100
AcDbEllipse
 62
7
  6
BYLAYER
 10
32.9036493732
 20
33.7079370315
 30
0.0
 11
0.95
 21
-0.0
 31
0.0
 40
0.9483866829
 41
0.0
 42
3.1415926536
  0
ELLIPSE
  5
2A4
100
AcDbEntity
  8
0
100
AcDbEllipse
 62
7
  6
BYLAYER
 10
27.9036493732
 20
36.9399942107
 30
0.0
 11
6.4
 21
0.0
 31
0.0
 40
0.3345953173
 41
-0.1071438256
 42
0.0000000113
  0
ELLIPSE
  5
2A5
100
AcDbEntity
  8
0
100
AcDbEllipse
 62
7
  6
BYLAYER
 10
27.9036493732
 20
36.9399942107
 30
0.0
 11
6.4
 21
-0.0
 31
0.0
 40
0.3345953173
 41
3.1415926423
 42
3.2487364792
  0
ELLIPSE
  5
2A6
100
AcDbEntity
  8
0
100
AcDbEllipse
 62
7
  6
BYLAYER
 10
27.9036493732
 20
26.3033816753
 30
0.0
 11
-0.0
 21
3.8774848526
 31
0.0
 40
0.5157982754
 41
0.5340209194
 42
0.6128245376
  0
ELLIPSE
  5
2A7
100
AcDbEntity
  8
0
100
AcDbEllipse
 62
7
  6
BYLAYER
 10
27.9036493732
 20
28.604713525
 30
0.0
 11
2.0
 21
-0.0
 31
0.0
 40
0.5321062193
 41
2.1836208644
 42
3.1415926526
  0
ELLIPSE
  5
2A8
100
AcDbEntity
  8
0
100
AcDbEllipse
 62
7
  6
BYLAYER
 10
27.4210460802
 20
37.0554956003
 30
0.0
 11
7.231110887
 21
-0.0
 31
0.0
 40
0.3345953173
 41
5.2122175137
 42
6.1403140879
  0
ELLIPSE
  5
2A9
100
AcDbEntity
  8
0
100
AcDbEllipse
 62
7
  6
BYLAYER
 10
22.9036493732
 20
33.7079370315
 30
0.0
 11
0.95
 21
-0.0
 31
0.0
 40
0.9483866829
 41
0.0
 42
3.1415926536
  0
ELLIPSE
  5
2AA
100
AcDbEntity
  8
0
100
AcDbEllipse
 62
7
  6
BYLAYER
 10
27.9036493732
 20
26.3033816753
 30
0.0
 11
0.0
 21
3.8774848526
 31
0.0
 40
0.5157982754
 41
-0.6128245376
 42
-0.5340209194
  0
ELLIPSE
  5
2AB
100
AcDbEntity
  8
0
100
AcDbEllipse
 62
7
  6
BYLAYER
 10
27.9036493732
 20
28.604713525
 30
0.0
 11
2.0
 21
-0.0
 31
0.0
 40
0.5321062193
 41
0.0000000004
 42
0.9579717892
  0
ELLIPSE
  5
2AC
100
AcDbEntity
  8
0
100
AcDbEllipse
 62
7
  6
BYLAYER
 10
27.4210460802
 20
37.0554956003
 30
0.0
 11
7.231110887
 21
0.0
 31
0.0
 40
0.3345953173
 41
-2.9987214343
 42
-2.0706179919
  0
ENDSEC
  0
SECTION
  2
OBJECTS
  0
DICTIONARY
  5
C
100
AcDbDictionary
280
0
281
1
  3
ACAD_GROUP
350
D
  3
ACAD_MLINESTYLE
350
17
  3
ACAD_LAYOUT
350
1A
  3
ACAD_PLOTSETTINGS
350
19
  3
ACAD_PLOTSTYLENAME
350
E
  0
DICTIONARY
  5
D
102
{ACAD_REACTORS
330
C
102
}
100
AcDbDictionary
280
0
281
1
  0
ACDBDICTIONARYWDFLT
  5
E
102
{ACAD_REACTORS
330
C
102
}
100
AcDbDictionary
281
1
  3
Normal
350
F
100
AcDbDictionaryWithDefault
340
F
  0
DICTIONARY
  5
17
102
{ACAD_REACTORS
330
C
102
}
100
AcDbDictionary
280
0
281
1
  3
Standard
350
18
  0
DICTIONARY
  5
19
102
{ACAD_REACTORS
330
C
102
}
100
AcDbDictionary
281
1
  0
DICTIONARY
  5
1A
102
{ACAD_REACTORS
330
C
102
}
100
AcDbDictionary
281
1
  3
Model
350
2AD
  3
Layout1
350
2AE
  0
ACDBPLACEHOLDER
  5
F
102
{ACAD_REACTORS
330
E
102
}
  0
MLINESTYLE
  5
18
102
{ACAD_REACTORS
330
17
102
}
100
AcDbMlineStyle
  2
STANDARD
 70
0
  3

 62
256
 51
90.0
 52
90.0
 71
2
 49
0.5
 62
256
  6
BYLAYER
 49
-0.5
 62
256
  6
BYLAYER
  0
LAYOUT
  5
2AD
102
{ACAD_REACTORS
330
1A
102
}
100
AcDbPlotSettings
  1

  2
none_device
  4

  6

 40
0.0
 41
0.0
 42
0.0
 43
0.0
 44
210.0
 45
297.0
 46
0.0
 47
0.0
 48
0.0
 49
0.0
140
0.0
141
0.0
142
1.0
143
1.0
 70
1024
 72
1
 73
0
 74
0
  7

 75
0
147
1.0
148
0.0
149
0.0
100
AcDbLayout
  1
Model
 70
0
 71
0
 10
0.0
 20
0.0
 11
210.0
 21
297.0
 12
0.0
 22
0.0
 32
0.0
 14
0.0
 24
0.0
 34
0.0
 15
0.0
 25
0.0
 35
0.0
146
0.0
 13
0.0
 23
0.0
 33
0.0
 16
1.0
 26
0.0
 36
0.0
 17
0.0
 27
1.0
 37
0.0
 76
0
330
210
345
0
346
0
  0
LAYOUT
  5
2AE
102
{ACAD_REACTORS
330
1A
102
}
100
AcDbPlotSettings
  1

  2
none_device
  4

  6

 40
0.0
 41
0.0
 42
0.0
 43
0.0
 44
210.0
 45
297.0
 46
0.0
 47
0.0
 48
0.0
 49
0.0
140
0.0
141
0.0
142
1.0
143
1.0
 70
0
 72
1
 73
0
 74
0
  7

 75
0
147
1.0
148
0.0
149
0.0
100
AcDbLayout
  1
Layout1
 70
0
 71
1
 10
0.0
 20
0.0
 11
210.0
 21
297.0
 12
0.0
 22
0.0
 32
0.0
 14
0.0
 24
0.0
 34
0.0
 15
0.0
 25
0.0
 35
0.0
146
0.0
 13
0.0
 23
0.0
 33
0.0
 16
1.0
 26
0.0
 36
0.0
 17
0.0
 27
1.0
 37
0.0
 76
0
330
211
345
0
346
0
  0
ENDSEC
  0
EOF
