999
DXF file: C:\Users\sesa63760\OneDrive - Schneider Electric\Documents\7-Dev\_Creo\CAD\MCADPP0000100_3D-CAD\drw0001_1.dxf
999
Pro/ENGINEER 2019471 by Parametric Technology Corporation
  0
SECTION
  2
HEADER
  9
$ACADVER
  1
AC1024
  9
$DWGCODEPAGE
  3
ANSI_1252
  9
$EXTMAX
 10
129.9583002015
 20
183.7981674279
 30
0.0
  9
$EXTMIN
 10
0.0
 20
0.0
 30
0.0
  9
$LIMMIN
 10
0.0
 20
0.0
  9
$LIMMAX
 10
129.9583002015
 20
183.7981674279
  9
$VIEWCTR
 10
64.9791501008
 20
91.8990837139
  9
$VIEWSIZE
 40
183.7981674279
  9
$CLAYER
  8
0
  9
$LTSCALE
 40
11.9809175805
  9
$CELTYPE
  6
BYLAYER
  9
$DIMSCALE
 40
1.0
  9
$DIMASZ
 40
1.5471226214
  9
$DIMEXO
 40
1.0
  9
$DIMDLI
 40
8.2777248738
  9
$DIMEXE
 40
1.0
  9
$DIMCEN
 40
1.9605137859
  9
$DIMLFAC
 40
1.0
  9
$DIMBLK
  1
_FILLED
  9
$DIMALT
 70
0
  9
$DIMALTF
 40
0.0393700787
  9
$DIMTXT
 40
2.16597167
  9
$DIMTOL
 70
1
  9
$DIMLIM
 70
0
  9
$DIMTFAC
 40
1.0
  9
$DIMTP
 40
0.01
  9
$DIMTM
 40
0.01
  9
$DIMGAP
 40
0.625
  9
$DIMDSEP
 70
46
  9
$AUNITS
 70
0
  9
$PDMODE
 70
3
  9
$PDSIZE
 40
0.3125
  9
$HANDSEED
  5
458
  9
$TILEMODE
 70
1
  9
$MEASUREMENT
 70
1
  9
$INSUNITS
 70
4
  0
ENDSEC
  0
SECTION
  2
CLASSES
  0
CLASS
  1
ACDBDICTIONARYWDFLT
  2
AcDbDictionaryWithDefault
  3
AutoCAD 2000
 90
0
 91
1
280
0
281
0
  0
CLASS
  1
ACDBPLACEHOLDER
  2
AcDbPlaceHolder
  3
AutoCAD 2000
 90
0
 91
1
280
0
281
0
  0
CLASS
  1
LAYOUT
  2
AcDbLayout
  3
AutoCAD 2000
 90
0
 91
0
280
0
281
0
  0
ENDSEC
  0
SECTION
  2
TABLES
  0
TABLE
  2
VPORT
  5
8
100
AcDbSymbolTable
 70
2
  0
VPORT
  5
1F4
100
AcDbSymbolTableRecord
100
AcDbViewportTableRecord
  2
*ACTIVE
 70
0
 10
0.0
 20
0.0
 11
1.0
 21
1.0
 12
64.9791501008
 22
91.8990837139
 13
0.0
 23
0.0
 14
1.0
 24
1.0
 15
0.0
 25
0.0
 16
0.0
 26
0.0
 36
1.0
 17
0.0
 27
0.0
 37
0.0
 40
183.7981674279
 41
0.7070707071
 42
50.0
 43
0.0
 44
0.0
 50
0.0
 51
0.0
 71
0
 72
100
 73
1
 74
1
 75
0
 76
0
 77
0
 78
0
  0
ENDTAB
  0
TABLE
  2
LTYPE
  5
5
100
AcDbSymbolTable
 70
6
  0
LTYPE
  5
14
100
AcDbSymbolTableRecord
100
AcDbLinetypeTableRecord
  2
BYBLOCK
 70
0
  3

 72
65
 73
0
 40
0.0
  0
LTYPE
  5
15
100
AcDbSymbolTableRecord
100
AcDbLinetypeTableRecord
  2
BYLAYER
 70
0
  3

 72
65
 73
0
 40
0.0
  0
LTYPE
  5
16
100
AcDbSymbolTableRecord
100
AcDbLinetypeTableRecord
  2
CONTINUOUS
 70
64
  3
Solid line
 72
65
 73
0
 40
0.0
  0
LTYPE
  5
1F5
100
AcDbSymbolTableRecord
100
AcDbLinetypeTableRecord
  2
CENTER
 70
64
  3
____ _ ____ _ ____ _ ____ _ ____ _ ____ _ ____
 72
65
 73
4
 40
0.6
 49
0.375
 74
0
 49
-0.075
 74
0
 49
0.075
 74
0
 49
-0.075
 74
0
  0
LTYPE
  5
1F6
100
AcDbSymbolTableRecord
100
AcDbLinetypeTableRecord
  2
HIDDEN
 70
64
  3
- - - - - - - - - - - - - - - - - - - -
 72
65
 73
2
 40
0.2
 49
0.1
 74
0
 49
-0.1
 74
0
  0
LTYPE
  5
1F7
100
AcDbSymbolTableRecord
100
AcDbLinetypeTableRecord
  2
PHANTOM
 70
64
  3
_____ _ _ _____ _ _ _____ _ _ _____
 72
65
 73
6
 40
0.8
 49
0.45
 74
0
 49
-0.05
 74
0
 49
0.1
 74
0
 49
-0.05
 74
0
 49
0.1
 74
0
 49
-0.05
 74
0
  0
LTYPE
  5
1F8
100
AcDbSymbolTableRecord
100
AcDbLinetypeTableRecord
  2
DOT
 70
64
  3
. . . . . . . . . . . . . . . . . . . .
 72
65
 73
2
 40
0.2
 49
0.1
 74
0
 49
-0.1
 74
0
  0
LTYPE
  5
1F9
100
AcDbSymbolTableRecord
100
AcDbLinetypeTableRecord
  2
DASHED
 70
64
  3
- - - - - - - - - - - - - - - - - - - -
 72
65
 73
2
 40
0.2
 49
0.1
 74
0
 49
-0.1
 74
0
  0
ENDTAB
  0
TABLE
  2
LAYER
  5
2
100
AcDbSymbolTable
 70
36
  0
LAYER
  5
10
100
AcDbSymbolTableRecord
100
AcDbLayerTableRecord
  2
0
 70
0
 62
7
  6
CONTINUOUS
370
-3
390
F
  0
LAYER
  5
1FA
100
AcDbSymbolTableRecord
100
AcDbLayerTableRecord
  2
DEFAULT_1
 70
0
 62
7
  6
CENTER
370
-3
390
F
  0
LAYER
  5
1FB
100
AcDbSymbolTableRecord
100
AcDbLayerTableRecord
  2
DEFAULT_2
 70
0
 62
8
  6
HIDDEN
370
-3
390
F
  0
LAYER
  5
1FC
100
AcDbSymbolTableRecord
100
AcDbLayerTableRecord
  2
DEFAULT_3
 70
0
 62
7
  6
PHANTOM
370
-3
390
F
  0
LAYER
  5
1FD
100
AcDbSymbolTableRecord
100
AcDbLayerTableRecord
  2
00_COMPONENTS
 70
0
 62
7
  6
CONTINUOUS
370
-3
390
F
  0
LAYER
  5
1FE
100
AcDbSymbolTableRecord
100
AcDbLayerTableRecord
  2
01_1_DEFAULT_DATUMS
 70
0
 62
7
  6
CONTINUOUS
370
-3
390
F
  0
LAYER
  5
1FF
100
AcDbSymbolTableRecord
100
AcDbLayerTableRecord
  2
01_PLANES
 70
0
 62
7
  6
CONTINUOUS
370
-3
390
F
  0
LAYER
  5
200
100
AcDbSymbolTableRecord
100
AcDbLayerTableRecord
  2
02_COORD_SYS
 70
0
 62
7
  6
CONTINUOUS
370
-3
390
F
  0
LAYER
  5
201
100
AcDbSymbolTableRecord
100
AcDbLayerTableRecord
  2
03_AXES
 70
0
 62
7
  6
CONTINUOUS
370
-3
390
F
  0
LAYER
  5
202
100
AcDbSymbolTableRecord
100
AcDbLayerTableRecord
  2
04_POINTS
 70
0
 62
7
  6
CONTINUOUS
370
-3
390
F
  0
LAYER
  5
203
100
AcDbSymbolTableRecord
100
AcDbLayerTableRecord
  2
05_CURVES
 70
0
 62
7
  6
CONTINUOUS
370
-3
390
F
  0
LAYER
  5
204
100
AcDbSymbolTableRecord
100
AcDbLayerTableRecord
  2
06_SURFS
 70
0
 62
7
  6
CONTINUOUS
370
-3
390
F
  0
LAYER
  5
205
100
AcDbSymbolTableRecord
100
AcDbLayerTableRecord
  2
07_COSMETICS
 70
0
 62
7
  6
CONTINUOUS
370
-3
390
F
  0
LAYER
  5
206
100
AcDbSymbolTableRecord
100
AcDbLayerTableRecord
  2
10_NOTES
 70
0
 62
7
  6
CONTINUOUS
370
-3
390
F
  0
LAYER
  5
207
100
AcDbSymbolTableRecord
100
AcDbLayerTableRecord
  2
11_NOTES_PUB
 70
0
 62
7
  6
CONTINUOUS
370
-3
390
F
  0
LAYER
  5
208
100
AcDbSymbolTableRecord
100
AcDbLayerTableRecord
  2
13_REF_GTOL
 70
0
 62
7
  6
CONTINUOUS
370
-3
390
F
  0
LAYER
  5
209
100
AcDbSymbolTableRecord
100
AcDbLayerTableRecord
  2
16_MISC
 70
0
 62
7
  6
CONTINUOUS
370
-3
390
F
  0
LAYER
  5
20A
100
AcDbSymbolTableRecord
100
AcDbLayerTableRecord
  2
17_NO_PRINT
 70
0
 62
7
  6
CONTINUOUS
370
-3
390
F
  0
LAYER
  5
20B
100
AcDbSymbolTableRecord
100
AcDbLayerTableRecord
  2
18_DATUM_CAMS_JOINTS
 70
0
 62
7
  6
CONTINUOUS
370
-3
390
F
  0
LAYER
  5
20C
100
AcDbSymbolTableRecord
100
AcDbLayerTableRecord
  2
19_DATUM_FUNCTIONAL
 70
0
 62
7
  6
CONTINUOUS
370
-3
390
F
  0
LAYER
  5
20D
100
AcDbSymbolTableRecord
100
AcDbLayerTableRecord
  2
20_DATUM_KINEMATIC_SCHEME
 70
0
 62
7
  6
CONTINUOUS
370
-3
390
F
  0
ENDTAB
  0
TABLE
  2
STYLE
  5
3
100
AcDbSymbolTable
 70
1
  0
STYLE
  5
11
100
AcDbSymbolTableRecord
100
AcDbTextStyleTableRecord
  2
STANDARD
 70
0
 40
0.0
 41
0.8
 50
0.0
 71
0
 42
0.2
  3
txt
  4

  0
STYLE
  5
20E
100
AcDbSymbolTableRecord
100
AcDbTextStyleTableRecord
  2
TEXTSTYLE_1
 70
0
 40
0.0
 41
0.8
 50
0.0
 71
0
 42
0.2
  3
gdt
  4

  0
ENDTAB
  0
TABLE
  2
VIEW
  5
6
100
AcDbSymbolTable
 70
0
  0
ENDTAB
  0
TABLE
  2
UCS
  5
7
100
AcDbSymbolTable
 70
0
  0
ENDTAB
  0
TABLE
  2
APPID
  5
9
100
AcDbSymbolTable
 70
1
  0
APPID
  5
20F
100
AcDbSymbolTableRecord
100
AcDbRegAppTableRecord
  2
ACAD
 70
0
  0
ENDTAB
  0
TABLE
  2
BLOCK_RECORD
  5
1
100
AcDbSymbolTable
 70
0
  0
BLOCK_RECORD
  5
210
100
AcDbSymbolTableRecord
100
AcDbBlockTableRecord
  2
*Model_Space
  0
BLOCK_RECORD
  5
211
100
AcDbSymbolTableRecord
100
AcDbBlockTableRecord
  2
*Paper_Space
  0
BLOCK_RECORD
  5
212
100
AcDbSymbolTableRecord
100
AcDbBlockTableRecord
  2
_FILLED
  0
ENDTAB
  0
TABLE
  2
DIMSTYLE
  5
A
100
AcDbSymbolTable
 70
1
100
AcDbDimStyleTable
 71
0
  0
DIMSTYLE
105
213
100
AcDbSymbolTableRecord
100
AcDbDimStyleTableRecord
  2
STANDARD
 70
0
  3

  4

 40
1.0
 41
1.5471226214
 42
1.0
 43
0.38
 44
1.0
 45
0.0
 46
0.0
 47
0.01
 48
0.01
140
2.16597167
141
0.09
142
0.0
143
25.4
144
1.0
145
0.0
146
1.0
147
0.625
 71
1
 72
0
 73
0
 74
0
 75
0
 76
0
 77
1
 78
8
 79
2
170
0
171
1
172
0
173
0
174
0
175
0
176
0
177
0
178
0
270
2
179
2
271
2
272
2
273
2
274
2
275
0
280
0
281
0
282
0
283
1
284
8
285
0
286
0
287
3
288
0
340
11
278
46
341
212
342
212
343
212
344
212
  0
ENDTAB
  0
ENDSEC
  0
SECTION
  2
BLOCKS
  0
BLOCK
  5
20
100
AcDbEntity
  8
0
100
AcDbBlockBegin
  2
*Model_Space
 70
0
 10
0.0
 20
0.0
 30
0.0
  3
*Model_Space
  1

  0
ENDBLK
  5
21
100
AcDbEntity
  8
0
100
AcDbBlockEnd
  0
BLOCK
  5
1C
100
AcDbEntity
  8
0
100
AcDbBlockBegin
  2
*Paper_Space
 70
0
 10
0.0
 20
0.0
 30
0.0
  3
*Paper_Space
  1

  0
ENDBLK
  5
1D
100
AcDbEntity
  8
0
100
AcDbBlockEnd
  0
BLOCK
  5
214
100
AcDbEntity
  8
0
100
AcDbBlockBegin
  2
_FILLED
 70
64
 10
0.0
 20
0.0
  3
_FILLED
  1

  0
SOLID
  5
215
100
AcDbEntity
  8
0
  6
BYBLOCK
 62
0
100
AcDbTrace
 10
0.0
 20
0.0
 11
-1.0
 21
0.25
 12
-1.0
 22
-0.25
 13
-1.0
 23
-0.25
  0
ENDBLK
  5
216
100
AcDbEntity
  8
0
  6
BYBLOCK
 62
0
100
AcDbBlockEnd
  0
ENDSEC
  0
SECTION
  2
ENTITIES
  0
LINE
  5
217
100
AcDbEntity
  8
0
100
AcDbLine
 62
7
  6
CONTINUOUS
 10
17.0185603657
 20
96.3374273106
 11
17.0185603657
 21
90.4177847864
  0
LINE
  5
218
100
AcDbEntity
  8
0
100
AcDbLine
 62
7
  6
CONTINUOUS
 10
17.7841128177
 20
104.2730611257
 11
17.7841128177
 21
111.5871445449
  0
LINE
  5
219
100
AcDbEntity
  8
0
100
AcDbLine
 62
7
  6
CONTINUOUS
 10
18.3049600924
 20
98.2677143199
 11
18.3049600924
 21
96.444260131
  0
LINE
  5
21A
100
AcDbEntity
  8
0
100
AcDbLine
 62
7
  6
CONTINUOUS
 10
41.1687831456
 20
132.8159364246
 11
24.6932637385
 21
123.3038476394
  0
LINE
  5
21B
100
AcDbEntity
  8
0
100
AcDbLine
 62
7
  6
CONTINUOUS
 10
19.0806108823
 20
98.1434839119
 11
19.0806108823
 21
95.4898510562
  0
LINE
  5
21C
100
AcDbEntity
  8
0
100
AcDbLine
 62
7
  6
CONTINUOUS
 10
19.2485936283
 20
105.1134453428
 11
19.2485936249
 21
109.5459237795
  0
LINE
  5
21D
100
AcDbEntity
  8
0
100
AcDbLine
 62
7
  6
CONTINUOUS
 10
21.76436099
 20
119.2214400942
 11
21.76436099
 21
112.6894207572
  0
LINE
  5
21E
100
AcDbEntity
  8
0
100
AcDbLine
 62
7
  6
CONTINUOUS
 10
22.5012910074
 20
108.6886224403
 11
22.5012910074
 21
108.4845012132
  0
LINE
  5
21F
100
AcDbEntity
  8
0
100
AcDbLine
 62
7
  6
CONTINUOUS
 10
22.5012910074
 20
108.6886224403
 11
22.4280738619
 21
108.5865622517
  0
LINE
  5
220
100
AcDbEntity
  8
0
100
AcDbLine
 62
7
  6
CONTINUOUS
 10
25.4003734637
 20
122.8956068849
 11
41.1687890335
 21
131.9994515162
  0
LINE
  5
221
100
AcDbEntity
  8
0
100
AcDbLine
 62
7
  6
CONTINUOUS
 10
46.7195856561
 20
130.8359738642
 11
45.6589299003
 21
130.2236076334
  0
LINE
  5
222
100
AcDbEntity
  8
0
100
AcDbLine
 62
7
  6
CONTINUOUS
 10
23.1351844829
 20
105.3494583731
 11
23.135184483
 21
107.3020502646
  0
LINE
  5
223
100
AcDbEntity
  8
0
100
AcDbLine
 62
7
  6
CONTINUOUS
 10
23.2084106053
 20
105.0597148791
 11
23.2084085236
 21
107.199989827
  0
LINE
  5
224
100
AcDbEntity
  8
0
100
AcDbLine
 62
7
  6
CONTINUOUS
 10
23.2816346422
 20
104.9869321301
 11
23.2816346383
 21
106.8092583862
  0
LINE
  5
225
100
AcDbEntity
  8
0
100
AcDbLine
 62
7
  6
CONTINUOUS
 10
23.6235102861
 20
107.8366031178
 11
23.6235102861
 21
111.6670750247
  0
LINE
  5
226
100
AcDbEntity
  8
0
100
AcDbLine
 62
7
  6
CONTINUOUS
 10
24.3415589641
 20
109.7510952983
 11
24.3415589641
 21
111.1521512024
  0
LINE
  5
227
100
AcDbEntity
  8
0
100
AcDbLine
 62
7
  6
CONTINUOUS
 10
24.6933226178
 20
115.1389985555
 11
24.6933226178
 21
110.9375220677
  0
LINE
  5
228
100
AcDbEntity
  8
0
100
AcDbLine
 62
7
  6
CONTINUOUS
 10
24.6933226178
 20
108.6069792184
 11
24.6933226178
 21
107.218960653
  0
LINE
  5
229
100
AcDbEntity
  8
0
100
AcDbLine
 62
7
  6
CONTINUOUS
 10
25.4003734637
 20
122.8956068849
 11
25.4003734637
 21
115.5470851307
  0
LINE
  5
22A
100
AcDbEntity
  8
0
100
AcDbLine
 62
7
  6
CONTINUOUS
 10
26.6707360526
 20
103.0302777848
 11
26.6707360526
 21
104.8526040378
  0
LINE
  5
22B
100
AcDbEntity
  8
0
100
AcDbLine
 62
7
  6
CONTINUOUS
 10
26.8475130384
 20
102.9587256339
 11
26.847513024
 21
104.8103295724
  0
LINE
  5
22C
100
AcDbEntity
  8
0
100
AcDbLine
 62
7
  6
CONTINUOUS
 10
27.3475130527
 20
102.8936156024
 11
27.3475130528
 21
104.8103307742
  0
LINE
  5
22D
100
AcDbEntity
  8
0
100
AcDbLine
 62
7
  6
CONTINUOUS
 10
45.6589357882
 20
129.407122725
 11
46.719591544
 21
130.0194889558
  0
LINE
  5
22E
100
AcDbEntity
  8
0
100
AcDbLine
 62
7
  6
CONTINUOUS
 10
21.76436099
 20
115.0808356059
 11
19.2485381438
 21
113.6283332787
  0
LINE
  5
22F
100
AcDbEntity
  8
0
100
AcDbLine
 62
7
  6
CONTINUOUS
 10
25.4003734637
 20
115.5470851307
 11
41.1687890335
 21
124.650929762
  0
LINE
  5
230
100
AcDbEntity
  8
0
100
AcDbLine
 62
7
  6
CONTINUOUS
 10
27.5242900529
 20
104.7680563088
 11
27.5242900529
 21
102.8154644174
  0
LINE
  5
231
100
AcDbEntity
  8
0
100
AcDbLine
 62
7
  6
CONTINUOUS
 10
29.7845126389
 20
104.3682745648
 11
29.7845126389
 21
105.6676457859
  0
LINE
  5
232
100
AcDbEntity
  8
0
100
AcDbLine
 62
7
  6
CONTINUOUS
 10
29.7845126389
 20
107.9981886351
 11
29.7845126389
 21
112.1996651229
  0
LINE
  5
233
100
AcDbEntity
  8
0
100
AcDbLine
 62
7
  6
CONTINUOUS
 10
31.0481623856
 20
107.3805470938
 11
31.0481623698
 21
105.0500042355
  0
LINE
  5
234
100
AcDbEntity
  8
0
100
AcDbLine
 62
7
  6
CONTINUOUS
 10
31.4108808913
 20
102.5241828052
 11
31.4108808977
 21
98.0917043778
  0
LINE
  5
235
100
AcDbEntity
  8
0
100
AcDbLine
 62
7
  6
CONTINUOUS
 10
26.2636634522
 20
100.3872964672
 11
25.2457046141
 21
98.9390782283
  0
LINE
  5
236
100
AcDbEntity
  8
0
100
AcDbLine
 62
7
  6
CONTINUOUS
 10
41.2395481284
 20
121.7523448212
 11
32.0472396421
 21
116.4451947215
  0
LINE
  5
237
100
AcDbEntity
  8
0
100
AcDbLine
 62
7
  6
CONTINUOUS
 10
22.5012910074
 20
108.6886224403
 11
24.3415589641
 21
109.7510952983
  0
LINE
  5
238
100
AcDbEntity
  8
0
100
AcDbLine
 62
7
  6
CONTINUOUS
 10
45.6589357882
 20
122.0586009708
 11
46.719591544
 21
122.6709672016
  0
LINE
  5
239
100
AcDbEntity
  8
0
100
AcDbLine
 62
7
  6
CONTINUOUS
 10
55.805897932
 20
126.4880910067
 11
55.0282104612
 21
126.0390956162
  0
LINE
  5
23A
100
AcDbEntity
  8
0
100
AcDbLine
 62
7
  6
CONTINUOUS
 10
19.0837984347
 20
105.0234304874
 11
17.665557574
 21
104.2046136324
  0
LINE
  5
23B
100
AcDbEntity
  8
0
100
AcDbLine
 62
7
  6
CONTINUOUS
 10
25.2457046141
 20
98.9390782283
 11
26.8787046376
 21
94.7302767597
  0
LINE
  5
23C
100
AcDbEntity
  8
0
100
AcDbLine
 62
7
  6
CONTINUOUS
 10
32.0472387018
 20
111.9792783558
 11
32.0472389153
 21
116.4451943019
  0
LINE
  5
23D
100
AcDbEntity
  8
0
100
AcDbLine
 62
7
  6
CONTINUOUS
 10
33.6885841276
 20
87.0561245671
 11
33.6885841276
 21
88.0318276025
  0
LINE
  5
23E
100
AcDbEntity
  8
0
100
AcDbLine
 62
7
  6
CONTINUOUS
 10
35.0498583569
 20
80.0076455462
 11
35.0498583569
 21
85.9272880704
  0
LINE
  5
23F
100
AcDbEntity
  8
0
100
AcDbLine
 62
7
  6
CONTINUOUS
 10
55.5584631084
 20
124.9164795243
 11
54.4978073525
 21
124.3041132935
  0
LINE
  5
240
100
AcDbEntity
  8
0
100
AcDbLine
 62
7
  6
CONTINUOUS
 10
55.9120209149
 20
124.3041166929
 11
56.9726766707
 21
124.9164829237
  0
LINE
  5
241
100
AcDbEntity
  8
0
100
AcDbLine
 62
7
  6
CONTINUOUS
 10
59.3414465577
 20
124.4468872341
 11
57.5031033312
 21
123.3855256128
  0
LINE
  5
242
100
AcDbEntity
  8
0
100
AcDbLine
 62
7
  6
CONTINUOUS
 10
58.2102252755
 20
122.9772778037
 11
58.6343427205
 21
123.2221406631
  0
LINE
  5
243
100
AcDbEntity
  8
0
100
AcDbLine
 62
7
  6
CONTINUOUS
 10
19.08378368
 20
105.0234219689
 11
19.2485936283
 21
105.1134453428
  0
LINE
  5
244
100
AcDbEntity
  8
0
100
AcDbLine
 62
7
  6
CONTINUOUS
 10
36.7120388365
 20
89.2404654403
 11
36.7120388365
 21
87.0094159355
  0
LINE
  5
245
100
AcDbEntity
  8
0
100
AcDbLine
 62
7
  6
CONTINUOUS
 10
38.481948716
 20
102.5241997946
 11
38.481948716
 21
89.8684123291
  0
LINE
  5
246
100
AcDbEntity
  8
0
100
AcDbLine
 62
7
  6
CONTINUOUS
 10
20.0586017563
 20
99.2801737626
 11
16.1695306512
 21
97.0348309166
  0
LINE
  5
247
100
AcDbEntity
  8
0
100
AcDbLine
 62
7
  6
CONTINUOUS
 10
58.9879541072
 20
121.7117845023
 11
43.2195385374
 21
112.607939871
  0
LINE
  5
248
100
AcDbEntity
  8
0
100
AcDbLine
 62
7
  6
CONTINUOUS
 10
31.0481618686
 20
105.0500045248
 11
29.9259429396
 21
104.4020944128
  0
LINE
  5
249
100
AcDbEntity
  8
0
100
AcDbLine
 62
7
  6
CONTINUOUS
 10
19.1554480036
 20
98.1002776572
 11
20.6288557288
 21
98.9509449262
  0
LINE
  5
24A
100
AcDbEntity
  8
0
100
AcDbLine
 62
7
  6
CONTINUOUS
 10
43.9266482625
 20
112.1996991164
 11
60.4021676696
 21
121.7117879016
  0
LINE
  5
24B
100
AcDbEntity
  8
0
100
AcDbLine
 62
7
  6
CONTINUOUS
 10
17.0185603657
 20
96.3374273106
 11
18.3049600924
 21
97.0801261058
  0
LINE
  5
24C
100
AcDbEntity
  8
0
100
AcDbLine
 62
7
  6
CONTINUOUS
 10
25.2457046141
 20
98.9390782283
 11
26.9212622565
 21
99.9064561097
  0
LINE
  5
24D
100
AcDbEntity
  8
0
100
AcDbLine
 62
7
  6
CONTINUOUS
 10
19.3600474323
 20
94.9855997048
 11
19.657031044
 21
95.1570622494
  0
LINE
  5
24E
100
AcDbEntity
  8
0
100
AcDbLine
 62
7
  6
CONTINUOUS
 10
17.0185603657
 20
90.4177847864
 11
35.0498583569
 21
80.0076455462
  0
LINE
  5
24F
100
AcDbEntity
  8
0
100
AcDbLine
 62
7
  6
CONTINUOUS
 10
41.7674007458
 20
76.1293583782
 11
59.7986987371
 21
65.719219138
  0
LINE
  5
250
100
AcDbEntity
  8
0
100
AcDbLine
 62
7
  6
CONTINUOUS
 10
66.516241126
 20
61.84093197
 11
84.5475391172
 21
51.4307927297
  0
LINE
  5
251
100
AcDbEntity
  8
0
100
AcDbLine
 62
7
  6
CONTINUOUS
 10
22.4280738619
 20
108.5865622517
 11
22.5012924794
 21
108.4845012132
  0
LINE
  5
252
100
AcDbEntity
  8
0
100
AcDbLine
 62
7
  6
CONTINUOUS
 10
41.1687890335
 20
124.650929762
 11
41.1687890335
 21
131.9994515162
  0
LINE
  5
253
100
AcDbEntity
  8
0
100
AcDbLine
 62
7
  6
CONTINUOUS
 10
41.2395481284
 20
121.7523448212
 11
41.2395481284
 21
111.8078132057
  0
LINE
  5
254
100
AcDbEntity
  8
0
100
AcDbLine
 62
7
  6
CONTINUOUS
 10
41.7674007458
 20
82.0490009024
 11
41.7674007458
 21
76.1293583782
  0
LINE
  5
255
100
AcDbEntity
  8
0
100
AcDbLine
 62
7
  6
CONTINUOUS
 10
42.5329531978
 20
89.9846347175
 11
42.5329531978
 21
97.2987181367
  0
LINE
  5
256
100
AcDbEntity
  8
0
100
AcDbLine
 62
7
  6
CONTINUOUS
 10
43.0538004725
 20
83.9792879116
 11
43.0538004725
 21
82.1558337228
  0
LINE
  5
257
100
AcDbEntity
  8
0
100
AcDbLine
 62
7
  6
CONTINUOUS
 10
43.8294512624
 20
83.8550575037
 11
43.8294512625
 21
81.201424648
  0
LINE
  5
258
100
AcDbEntity
  8
0
100
AcDbLine
 62
7
  6
CONTINUOUS
 10
43.9266482625
 20
112.1996991164
 11
43.9266482625
 21
105.6676797794
  0
LINE
  5
259
100
AcDbEntity
  8
0
100
AcDbLine
 62
7
  6
CONTINUOUS
 10
43.9974340084
 20
90.8250189345
 11
43.997434005
 21
95.2574973713
  0
LINE
  5
25A
100
AcDbEntity
  8
0
100
AcDbLine
 62
7
  6
CONTINUOUS
 10
65.9176235257
 20
118.5275100164
 11
49.4421041186
 21
109.0154212312
  0
LINE
  5
25B
100
AcDbEntity
  8
0
100
AcDbLine
 62
7
  6
CONTINUOUS
 10
38.481948716
 20
102.5241997946
 11
43.9266482625
 21
105.6676797794
  0
LINE
  5
25C
100
AcDbEntity
  8
0
100
AcDbLine
 62
7
  6
CONTINUOUS
 10
50.1492138438
 20
108.6071804767
 11
65.9176294137
 21
117.711025108
  0
LINE
  5
25D
100
AcDbEntity
  8
0
100
AcDbLine
 62
7
  6
CONTINUOUS
 10
26.8787046376
 20
94.7302763622
 11
29.5186272074
 21
96.2544272705
  0
LINE
  5
25E
100
AcDbEntity
  8
0
100
AcDbLine
 62
7
  6
CONTINUOUS
 10
45.6589357882
 20
129.407122725
 11
45.6589357882
 21
122.0586009708
  0
LINE
  5
25F
100
AcDbEntity
  8
0
100
AcDbLine
 62
7
  6
CONTINUOUS
 10
46.5132013701
 20
104.933013686
 11
46.5132013701
 21
98.4009943489
  0
LINE
  5
260
100
AcDbEntity
  8
0
100
AcDbLine
 62
7
  6
CONTINUOUS
 10
46.719591544
 20
122.6709672016
 11
46.719591544
 21
130.0194889558
  0
LINE
  5
261
100
AcDbEntity
  8
0
100
AcDbLine
 62
7
  6
CONTINUOUS
 10
47.2501313875
 20
94.4001960321
 11
47.2501313875
 21
94.196074805
  0
LINE
  5
262
100
AcDbEntity
  8
0
100
AcDbLine
 62
7
  6
CONTINUOUS
 10
47.8840248631
 20
91.0610319649
 11
47.8840248631
 21
93.0136238563
  0
LINE
  5
263
100
AcDbEntity
  8
0
100
AcDbLine
 62
7
  6
CONTINUOUS
 10
47.9572509854
 20
90.7712884709
 11
47.9572489037
 21
92.9115634188
  0
LINE
  5
264
100
AcDbEntity
  8
0
100
AcDbLine
 62
7
  6
CONTINUOUS
 10
48.0304750223
 20
90.6985057219
 11
48.0304750185
 21
92.520831978
  0
LINE
  5
265
100
AcDbEntity
  8
0
100
AcDbLine
 62
7
  6
CONTINUOUS
 10
48.3723506663
 20
93.5481767096
 11
48.3723506663
 21
97.3786486165
  0
LINE
  5
266
100
AcDbEntity
  8
0
100
AcDbLine
 62
7
  6
CONTINUOUS
 10
49.0903993442
 20
95.4626688901
 11
49.0903993442
 21
96.8637247942
  0
LINE
  5
267
100
AcDbEntity
  8
0
100
AcDbLine
 62
7
  6
CONTINUOUS
 10
71.4684260362
 20
116.547547456
 11
70.4077702804
 21
115.9351812252
  0
LINE
  5
268
100
AcDbEntity
  8
0
100
AcDbLine
 62
7
  6
CONTINUOUS
 10
70.4077761684
 20
115.1186963168
 11
71.4684319242
 21
115.7310625476
  0
LINE
  5
269
100
AcDbEntity
  8
0
100
AcDbLine
 62
7
  6
CONTINUOUS
 10
46.5132013701
 20
100.7924091977
 11
43.997378524
 21
99.3399068705
  0
LINE
  5
26A
100
AcDbEntity
  8
0
100
AcDbLine
 62
7
  6
CONTINUOUS
 10
84.5475391172
 20
57.3504352539
 11
82.2060520506
 21
58.7022628597
  0
LINE
  5
26B
100
AcDbEntity
  8
0
100
AcDbLine
 62
7
  6
CONTINUOUS
 10
68.8577281926
 20
66.4087468884
 11
66.516241126
 21
67.7605744942
  0
LINE
  5
26C
100
AcDbEntity
  8
0
100
AcDbLine
 62
7
  6
CONTINUOUS
 10
59.7986987371
 20
71.6388616621
 11
57.4572116704
 21
72.9906892679
  0
LINE
  5
26D
100
AcDbEntity
  8
0
100
AcDbLine
 62
7
  6
CONTINUOUS
 10
44.1088878125
 20
80.6971732966
 11
41.7674007458
 21
82.0490009024
  0
LINE
  5
26E
100
AcDbEntity
  8
0
100
AcDbLine
 62
7
  6
CONTINUOUS
 10
35.0498583569
 20
85.9272880704
 11
32.7083712903
 21
87.2791156762
  0
LINE
  5
26F
100
AcDbEntity
  8
0
100
AcDbLine
 62
7
  6
CONTINUOUS
 10
19.3600474323
 20
94.9855997048
 11
17.0185603657
 21
96.3374273106
  0
LINE
  5
270
100
AcDbEntity
  8
0
100
AcDbLine
 62
7
  6
CONTINUOUS
 10
15.1049878203
 20
97.6494311024
 11
16.1695306512
 21
97.0348309166
  0
LINE
  5
271
100
AcDbEntity
  8
0
100
AcDbLine
 62
7
  6
CONTINUOUS
 10
31.6615285371
 20
88.0907241096
 11
32.7260713723
 21
87.4761239212
  0
LINE
  5
272
100
AcDbEntity
  8
0
100
AcDbLine
 62
7
  6
CONTINUOUS
 10
39.8538282005
 20
83.3610046942
 11
40.9183710313
 21
82.7464045084
  0
LINE
  5
273
100
AcDbEntity
  8
0
100
AcDbLine
 62
7
  6
CONTINUOUS
 10
56.4103689173
 20
73.8022977014
 11
57.4749117525
 21
73.187697513
  0
LINE
  5
274
100
AcDbEntity
  8
0
100
AcDbLine
 62
7
  6
CONTINUOUS
 10
64.6026685806
 20
69.072578286
 11
65.6672114115
 21
68.4579781001
  0
LINE
  5
275
100
AcDbEntity
  8
0
100
AcDbLine
 62
7
  6
CONTINUOUS
 10
81.1592092974
 20
59.5138712931
 11
82.2237521326
 21
58.8992711048
  0
LINE
  5
276
100
AcDbEntity
  8
0
100
AcDbLine
 62
7
  6
CONTINUOUS
 10
83.1862648879
 20
58.4792717507
 11
82.5030356622
 21
58.8737254044
  0
LINE
  5
277
100
AcDbEntity
  8
0
100
AcDbLine
 62
7
  6
CONTINUOUS
 10
58.4374245078
 20
72.7676981589
 11
57.7541952821
 21
73.1621518126
  0
LINE
  5
278
100
AcDbEntity
  8
0
100
AcDbLine
 62
7
  6
CONTINUOUS
 10
33.6885841276
 20
87.0561245671
 11
33.0053549019
 21
87.4505782208
  0
LINE
  5
279
100
AcDbEntity
  8
0
100
AcDbLine
 62
7
  6
CONTINUOUS
 10
19.0806108829
 20
95.4898510559
 11
19.657031044
 21
95.1570622494
  0
LINE
  5
27A
100
AcDbEntity
  8
0
100
AcDbLine
 62
7
  6
CONTINUOUS
 10
43.829451263
 20
81.2014246477
 11
44.4058714241
 21
80.8686358412
  0
LINE
  5
27B
100
AcDbEntity
  8
0
100
AcDbLine
 62
7
  6
CONTINUOUS
 10
68.5782916432
 20
66.9129982395
 11
69.1547118043
 21
66.580209433
  0
LINE
  5
27C
100
AcDbEntity
  8
0
100
AcDbLine
 62
7
  6
CONTINUOUS
 10
19.0806108823
 20
98.1434839119
 11
19.1554480036
 21
98.1002776572
  0
LINE
  5
27D
100
AcDbEntity
  8
0
100
AcDbLine
 62
7
  6
CONTINUOUS
 10
43.8294512624
 20
83.8550575037
 11
43.9042883838
 21
83.811851249
  0
LINE
  5
27E
100
AcDbEntity
  8
0
100
AcDbLine
 62
7
  6
CONTINUOUS
 10
68.5782916426
 20
69.5666310955
 11
68.6531287639
 21
69.5234248408
  0
LINE
  5
27F
100
AcDbEntity
  8
0
100
AcDbLine
 62
7
  6
CONTINUOUS
 10
76.3763853979
 20
66.1534239433
 11
79.5906584515
 21
64.2977060773
  0
LINE
  5
280
100
AcDbEntity
  8
0
100
AcDbLine
 62
7
  6
CONTINUOUS
 10
51.6275450177
 20
80.4418503515
 11
54.8418180713
 21
78.5861324856
  0
LINE
  5
281
100
AcDbEntity
  8
0
100
AcDbLine
 62
7
  6
CONTINUOUS
 10
26.8787046376
 20
94.7302767597
 11
30.0929776912
 21
92.8745588938
  0
LINE
  5
282
100
AcDbEntity
  8
0
100
AcDbLine
 62
7
  6
CONTINUOUS
 10
49.9945449942
 20
84.6506518201
 11
51.6275450177
 21
80.4418503515
  0
LINE
  5
283
100
AcDbEntity
  8
0
100
AcDbLine
 62
7
  6
CONTINUOUS
 10
49.442162998
 20
100.8505721473
 11
49.442162998
 21
96.6490956594
  0
LINE
  5
284
100
AcDbEntity
  8
0
100
AcDbLine
 62
7
  6
CONTINUOUS
 10
49.442162998
 20
94.3185528102
 11
49.442162998
 21
92.9305342448
  0
LINE
  5
285
100
AcDbEntity
  8
0
100
AcDbLine
 62
7
  6
CONTINUOUS
 10
50.1492138438
 20
108.6071804767
 11
50.1492138438
 21
101.2586587225
  0
LINE
  5
286
100
AcDbEntity
  8
0
100
AcDbLine
 62
7
  6
CONTINUOUS
 10
51.4195764327
 20
88.7418513766
 11
51.4195764327
 21
90.5641776296
  0
LINE
  5
287
100
AcDbEntity
  8
0
100
AcDbLine
 62
7
  6
CONTINUOUS
 10
51.5963534185
 20
88.6702992257
 11
51.5963534042
 21
90.5219031642
  0
LINE
  5
288
100
AcDbEntity
  8
0
100
AcDbLine
 62
7
  6
CONTINUOUS
 10
52.0963534329
 20
88.6051891942
 11
52.0963534329
 21
90.521904366
  0
LINE
  5
289
100
AcDbEntity
  8
0
100
AcDbLine
 62
7
  6
CONTINUOUS
 10
52.273130433
 20
90.4796299006
 11
52.273130433
 21
88.5270380092
  0
LINE
  5
28A
100
AcDbEntity
  8
0
100
AcDbLine
 62
7
  6
CONTINUOUS
 10
47.2501313875
 20
94.4001960321
 11
47.1769142421
 21
94.2981358434
  0
LINE
  5
28B
100
AcDbEntity
  8
0
100
AcDbLine
 62
7
  6
CONTINUOUS
 10
50.1492138438
 20
101.2586587225
 11
65.9176294137
 21
110.3625033538
  0
LINE
  5
28C
100
AcDbEntity
  8
0
100
AcDbLine
 62
7
  6
CONTINUOUS
 10
56.7960785687
 20
102.1567674741
 11
65.9883885086
 21
107.463918413
  0
LINE
  5
28D
100
AcDbEntity
  8
0
100
AcDbLine
 62
7
  6
CONTINUOUS
 10
35.4284874491
 20
89.0363552574
 11
32.7260713723
 21
87.4761239212
  0
LINE
  5
28E
100
AcDbEntity
  8
0
100
AcDbLine
 62
7
  6
CONTINUOUS
 10
116.1930661044
 20
83.7093557177
 11
116.9001699416
 21
83.8204172956
  0
LINE
  5
28F
100
AcDbEntity
  8
0
100
AcDbLine
 62
7
  6
CONTINUOUS
 10
109.8998484299
 20
85.4472507923
 11
112.4807400473
 21
85.852619679
  0
LINE
  5
290
100
AcDbEntity
  8
0
100
AcDbLine
 62
7
  6
CONTINUOUS
 10
76.8451938131
 20
76.2334779578
 11
76.34519377
 21
76.233476756
  0
LINE
  5
291
100
AcDbEntity
  8
0
100
AcDbLine
 62
7
  6
CONTINUOUS
 10
20.0586017563
 20
99.2801737626
 11
20.6288557288
 21
98.9509449262
  0
LINE
  5
292
100
AcDbEntity
  8
0
100
AcDbLine
 62
7
  6
CONTINUOUS
 10
44.8074421364
 20
84.9917473544
 11
45.377696109
 21
84.662518518
  0
LINE
  5
293
100
AcDbEntity
  8
0
100
AcDbLine
 62
7
  6
CONTINUOUS
 10
69.5562825165
 20
70.7033209462
 11
70.1265364891
 21
70.3740921098
  0
LINE
  5
294
100
AcDbEntity
  8
0
100
AcDbLine
 62
7
  6
CONTINUOUS
 10
47.1769142421
 20
94.2981358434
 11
47.2501328595
 21
94.196074805
  0
LINE
  5
295
100
AcDbEntity
  8
0
100
AcDbLine
 62
7
  6
CONTINUOUS
 10
54.4978073525
 20
124.3041132935
 11
54.4978073525
 21
119.1194125392
  0
LINE
  5
296
100
AcDbEntity
  8
0
100
AcDbLine
 62
7
  6
CONTINUOUS
 10
54.533353019
 20
90.0798481266
 11
54.533353019
 21
91.3792193777
  0
LINE
  5
297
100
AcDbEntity
  8
0
100
AcDbLine
 62
7
  6
CONTINUOUS
 10
54.533353019
 20
93.7097622269
 11
54.533353019
 21
97.9112387147
  0
LINE
  5
298
100
AcDbEntity
  8
0
100
AcDbLine
 62
7
  6
CONTINUOUS
 10
55.7970027657
 20
93.0921206856
 11
55.79700275
 21
90.7615778273
  0
LINE
  5
299
100
AcDbEntity
  8
0
100
AcDbLine
 62
7
  6
CONTINUOUS
 10
56.1597212715
 20
88.235756397
 11
56.1597212779
 21
83.8032779696
  0
LINE
  5
29A
100
AcDbEntity
  8
0
100
AcDbLine
 62
7
  6
CONTINUOUS
 10
56.7960785687
 20
102.1567674741
 11
56.7960785687
 21
97.690852155
  0
LINE
  5
29B
100
AcDbEntity
  8
0
100
AcDbLine
 62
7
  6
CONTINUOUS
 10
56.9726766707
 20
123.6917606601
 11
56.9726766707
 21
124.9164829237
  0
LINE
  5
29C
100
AcDbEntity
  8
0
100
AcDbLine
 62
7
  6
CONTINUOUS
 10
51.0125038324
 20
86.098870059
 11
49.9945449942
 21
84.6506518201
  0
LINE
  5
29D
100
AcDbEntity
  8
0
100
AcDbLine
 62
7
  6
CONTINUOUS
 10
33.0053549019
 20
87.4505782208
 11
32.7083712903
 21
87.2791156762
  0
LINE
  5
29E
100
AcDbEntity
  8
0
100
AcDbLine
 62
7
  6
CONTINUOUS
 10
42.5329531978
 20
92.2072468962
 11
38.481948716
 21
89.8684123291
  0
LINE
  5
29F
100
AcDbEntity
  8
0
100
AcDbLine
 62
7
  6
CONTINUOUS
 10
47.2501313875
 20
94.4001960321
 11
49.0903993442
 21
95.4626688901
  0
LINE
  5
2A0
100
AcDbEntity
  8
0
100
AcDbLine
 62
7
  6
CONTINUOUS
 10
70.4077761684
 20
107.7701745626
 11
71.4684319242
 21
108.3825407934
  0
LINE
  5
2A1
100
AcDbEntity
  8
0
100
AcDbLine
 62
7
  6
CONTINUOUS
 10
42.5329531978
 20
90.3701023483
 11
36.7120388365
 21
87.0094159355
  0
LINE
  5
2A2
100
AcDbEntity
  8
0
100
AcDbLine
 62
7
  6
CONTINUOUS
 10
80.5547383121
 20
112.1996645985
 11
79.7770508414
 21
111.750669208
  0
LINE
  5
2A3
100
AcDbEntity
  8
0
100
AcDbLine
 62
7
  6
CONTINUOUS
 10
35.0498583569
 20
85.9272880704
 11
42.5329531978
 21
90.2476291022
  0
LINE
  5
2A4
100
AcDbEntity
  8
0
100
AcDbLine
 62
7
  6
CONTINUOUS
 10
43.8326388148
 20
90.7350040792
 11
42.4143979541
 21
89.9161872242
  0
LINE
  5
2A5
100
AcDbEntity
  8
0
100
AcDbLine
 62
7
  6
CONTINUOUS
 10
80.3073034885
 20
110.6280531161
 11
79.2466477327
 21
110.0156868853
  0
LINE
  5
2A6
100
AcDbEntity
  8
0
100
AcDbLine
 62
7
  6
CONTINUOUS
 10
80.6608612951
 20
110.0156902846
 11
81.7215170509
 21
110.6280565154
  0
LINE
  5
2A7
100
AcDbEntity
  8
0
100
AcDbLine
 62
7
  6
CONTINUOUS
 10
43.8326240613
 20
90.7349955613
 11
43.9974340085
 21
90.8250189346
  0
LINE
  5
2A8
100
AcDbEntity
  8
0
100
AcDbLine
 62
7
  6
CONTINUOUS
 10
23.2816346383
 20
106.8092583862
 11
26.6707360526
 21
104.8526040378
  0
LINE
  5
2A9
100
AcDbEntity
  8
0
100
AcDbLine
 62
7
  6
CONTINUOUS
 10
48.0304750185
 20
92.520831978
 11
51.4195764327
 21
90.5641776296
  0
LINE
  5
2AA
100
AcDbEntity
  8
0
100
AcDbLine
 62
7
  6
CONTINUOUS
 10
72.7793153986
 20
78.2324055698
 11
76.1684168129
 21
76.2757512214
  0
LINE
  5
2AB
100
AcDbEntity
  8
0
100
AcDbLine
 62
7
  6
CONTINUOUS
 10
19.2485936249
 20
109.5459237795
 11
23.135184483
 21
107.3020502646
  0
LINE
  5
2AC
100
AcDbEntity
  8
0
100
AcDbLine
 62
7
  6
CONTINUOUS
 10
27.5242900529
 20
104.7680563088
 11
31.4108808913
 21
102.5241828052
  0
LINE
  5
2AD
100
AcDbEntity
  8
0
100
AcDbLine
 62
7
  6
CONTINUOUS
 10
43.997434005
 20
95.2574973713
 11
47.8840248631
 21
93.0136238563
  0
LINE
  5
2AE
100
AcDbEntity
  8
0
100
AcDbLine
 62
7
  6
CONTINUOUS
 10
52.273130433
 20
90.4796299006
 11
56.1597212715
 21
88.235756397
  0
LINE
  5
2AF
100
AcDbEntity
  8
0
100
AcDbLine
 62
7
  6
CONTINUOUS
 10
68.7462743852
 20
80.9690709631
 11
72.6328652432
 21
78.7251974481
  0
LINE
  5
2B0
100
AcDbEntity
  8
0
100
AcDbLine
 62
7
  6
CONTINUOUS
 10
77.0219708132
 20
76.1912034924
 11
80.9085616516
 21
73.9473299888
  0
LINE
  5
2B1
100
AcDbEntity
  8
0
100
AcDbLine
 62
7
  6
CONTINUOUS
 10
58.4374245078
 20
72.7676981589
 11
58.4374245078
 21
73.7434011943
  0
LINE
  5
2B2
100
AcDbEntity
  8
0
100
AcDbLine
 62
7
  6
CONTINUOUS
 10
59.6242880926
 20
122.6505790945
 11
59.6242880926
 21
122.1608867249
  0
LINE
  5
2B3
100
AcDbEntity
  8
0
100
AcDbLine
 62
7
  6
CONTINUOUS
 10
59.7986987371
 20
65.719219138
 11
59.7986987371
 21
71.6388616621
  0
LINE
  5
2B4
100
AcDbEntity
  8
0
100
AcDbLine
 62
7
  6
CONTINUOUS
 10
60.3313919298
 20
121.7526493697
 11
60.3313919298
 21
123.8753256655
  0
LINE
  5
2B5
100
AcDbEntity
  8
0
100
AcDbLine
 62
7
  6
CONTINUOUS
 10
60.4021676696
 20
121.7117879016
 11
60.4021676696
 21
115.343179101
  0
LINE
  5
2B6
100
AcDbEntity
  8
0
100
AcDbLine
 62
7
  6
CONTINUOUS
 10
61.4608792166
 20
74.9520390321
 11
61.4608792166
 21
72.7209895272
  0
LINE
  5
2B7
100
AcDbEntity
  8
0
100
AcDbLine
 62
7
  6
CONTINUOUS
 10
84.0902869379
 20
110.1584608259
 11
82.2519437113
 21
109.0970992046
  0
LINE
  5
2B8
100
AcDbEntity
  8
0
100
AcDbLine
 62
7
  6
CONTINUOUS
 10
82.9590656557
 20
108.6888513955
 11
83.3831831006
 21
108.9337142549
  0
LINE
  5
2B9
100
AcDbEntity
  8
0
100
AcDbLine
 62
7
  6
CONTINUOUS
 10
35.0498583569
 20
80.0076455462
 11
40.3559590051
 21
83.0711058974
  0
LINE
  5
2BA
100
AcDbEntity
  8
0
100
AcDbLine
 62
7
  6
CONTINUOUS
 10
44.8074421364
 20
84.9917473544
 11
40.9183710313
 21
82.7464045084
  0
LINE
  5
2BB
100
AcDbEntity
  8
0
100
AcDbLine
 62
7
  6
CONTINUOUS
 10
83.7367944874
 20
107.4233580941
 11
67.9683789175
 21
98.3195134628
  0
LINE
  5
2BC
100
AcDbEntity
  8
0
100
AcDbLine
 62
7
  6
CONTINUOUS
 10
55.7970022488
 20
90.7615781166
 11
54.6747833197
 21
90.1136680046
  0
LINE
  5
2BD
100
AcDbEntity
  8
0
100
AcDbLine
 62
7
  6
CONTINUOUS
 10
43.9042883838
 20
83.811851249
 11
45.377696109
 21
84.662518518
  0
LINE
  5
2BE
100
AcDbEntity
  8
0
100
AcDbLine
 62
7
  6
CONTINUOUS
 10
79.0700704911
 20
75.8252408516
 11
71.9989732397
 21
79.9076483968
  0
LINE
  5
2BF
100
AcDbEntity
  8
0
100
AcDbLine
 62
7
  6
CONTINUOUS
 10
54.321230111
 20
90.1136672598
 11
47.2501328595
 21
94.196074805
  0
LINE
  5
2C0
100
AcDbEntity
  8
0
100
AcDbLine
 62
7
  6
CONTINUOUS
 10
29.5723897308
 20
104.402093668
 11
22.5012924794
 21
108.4845012132
  0
LINE
  5
2C1
100
AcDbEntity
  8
0
100
AcDbLine
 62
7
  6
CONTINUOUS
 10
24.6933226178
 20
108.6069792184
 11
29.7845126389
 21
105.6676457859
  0
LINE
  5
2C2
100
AcDbEntity
  8
0
100
AcDbLine
 62
7
  6
CONTINUOUS
 10
49.442162998
 20
94.3185528102
 11
54.533353019
 21
91.3792193777
  0
LINE
  5
2C3
100
AcDbEntity
  8
0
100
AcDbLine
 62
7
  6
CONTINUOUS
 10
74.1910033781
 20
80.030126402
 11
79.2821933992
 21
77.0907929695
  0
LINE
  5
2C4
100
AcDbEntity
  8
0
100
AcDbLine
 62
7
  6
CONTINUOUS
 10
79.9892972364
 20
77.4990371233
 11
74.8981072153
 21
80.4383705559
  0
LINE
  5
2C5
100
AcDbEntity
  8
0
100
AcDbLine
 62
7
  6
CONTINUOUS
 10
55.2404568563
 20
91.7874635316
 11
50.1492668352
 21
94.7267969641
  0
LINE
  5
2C6
100
AcDbEntity
  8
0
100
AcDbLine
 62
7
  6
CONTINUOUS
 10
30.4916164761
 20
106.0758899398
 11
25.4004264551
 21
109.0152233723
  0
LINE
  5
2C7
100
AcDbEntity
  8
0
100
AcDbLine
 62
7
  6
CONTINUOUS
 10
24.6933226178
 20
110.9375220677
 11
29.7845126389
 21
107.9981886351
  0
LINE
  5
2C8
100
AcDbEntity
  8
0
100
AcDbLine
 62
7
  6
CONTINUOUS
 10
49.442162998
 20
96.6490956594
 11
54.533353019
 21
93.7097622269
  0
LINE
  5
2C9
100
AcDbEntity
  8
0
100
AcDbLine
 62
7
  6
CONTINUOUS
 10
74.1910033781
 20
82.3606692512
 11
79.2821933992
 21
79.4213358187
  0
LINE
  5
2CA
100
AcDbEntity
  8
0
100
AcDbLine
 62
7
  6
CONTINUOUS
 10
63.2307890962
 20
88.2357733864
 11
63.2307890962
 21
75.5799859209
  0
LINE
  5
2CB
100
AcDbEntity
  8
0
100
AcDbLine
 62
7
  6
CONTINUOUS
 10
65.9176294137
 20
110.3625033538
 11
65.9176294137
 21
117.711025108
  0
LINE
  5
2CC
100
AcDbEntity
  8
0
100
AcDbLine
 62
7
  6
CONTINUOUS
 10
65.9883885086
 20
107.463918413
 11
65.9883885086
 21
97.5193867975
  0
LINE
  5
2CD
100
AcDbEntity
  8
0
100
AcDbLine
 62
7
  6
CONTINUOUS
 10
66.516241126
 20
67.7605744942
 11
66.516241126
 21
61.84093197
  0
LINE
  5
2CE
100
AcDbEntity
  8
0
100
AcDbLine
 62
7
  6
CONTINUOUS
 10
68.6754886427
 20
97.9112727082
 11
85.1510080497
 21
107.4233614934
  0
LINE
  5
2CF
100
AcDbEntity
  8
0
100
AcDbLine
 62
7
  6
CONTINUOUS
 10
41.7674007458
 20
82.0490009024
 11
43.0538004725
 21
82.7916996976
  0
LINE
  5
2D0
100
AcDbEntity
  8
0
100
AcDbLine
 62
7
  6
CONTINUOUS
 10
49.9945449942
 20
84.6506518201
 11
51.6701026366
 21
85.6180297015
  0
LINE
  5
2D1
100
AcDbEntity
  8
0
100
AcDbLine
 62
7
  6
CONTINUOUS
 10
44.1088878125
 20
80.6971732966
 11
44.4058714241
 21
80.8686358412
  0
LINE
  5
2D2
100
AcDbEntity
  8
0
100
AcDbLine
 62
7
  6
CONTINUOUS
 10
52.0963534329
 20
90.521904366
 11
51.5963533898
 21
90.5219031642
  0
LINE
  5
2D3
100
AcDbEntity
  8
0
100
AcDbLine
 62
7
  6
CONTINUOUS
 10
24.6933226178
 20
115.1389985555
 11
29.7845126389
 21
112.1996651229
  0
LINE
  5
2D4
100
AcDbEntity
  8
0
100
AcDbLine
 62
7
  6
CONTINUOUS
 10
49.442162998
 20
100.8505721473
 11
54.533353019
 21
97.9112387147
  0
LINE
  5
2D5
100
AcDbEntity
  8
0
100
AcDbLine
 62
7
  6
CONTINUOUS
 10
74.1910033781
 20
86.5621457391
 11
79.2821933992
 21
83.6228123065
  0
LINE
  5
2D6
100
AcDbEntity
  8
0
100
AcDbLine
 62
7
  6
CONTINUOUS
 10
79.9892972364
 20
84.0310564604
 11
74.8981072153
 21
86.9703898929
  0
LINE
  5
2D7
100
AcDbEntity
  8
0
100
AcDbLine
 62
7
  6
CONTINUOUS
 10
55.2404568563
 20
98.3194828686
 11
50.1492668352
 21
101.2588163011
  0
LINE
  5
2D8
100
AcDbEntity
  8
0
100
AcDbLine
 62
7
  6
CONTINUOUS
 10
30.4916164761
 20
112.6079092768
 11
25.4004264551
 21
115.5472427093
  0
LINE
  5
2D9
100
AcDbEntity
  8
0
100
AcDbLine
 62
7
  6
CONTINUOUS
 10
71.9257546222
 20
80.0097094352
 11
71.9989732397
 21
79.9076483968
  0
LINE
  5
2DA
100
AcDbEntity
  8
0
100
AcDbLine
 62
7
  6
CONTINUOUS
 10
74.7433853744
 20
70.3622254119
 11
76.3763853979
 21
66.1534239433
  0
LINE
  5
2DB
100
AcDbEntity
  8
0
100
AcDbLine
 62
7
  6
CONTINUOUS
 10
67.281793578
 20
75.6962083093
 11
67.281793578
 21
83.0102917285
  0
LINE
  5
2DC
100
AcDbEntity
  8
0
100
AcDbLine
 62
7
  6
CONTINUOUS
 10
67.8026408527
 20
69.6908615034
 11
67.8026408527
 21
67.8674073145
  0
LINE
  5
2DD
100
AcDbEntity
  8
0
100
AcDbLine
 62
7
  6
CONTINUOUS
 10
68.5782916426
 20
69.5666310955
 11
68.5782916426
 21
66.9129982398
  0
LINE
  5
2DE
100
AcDbEntity
  8
0
100
AcDbLine
 62
7
  6
CONTINUOUS
 10
68.6754886427
 20
97.9112727082
 11
68.6754886427
 21
91.3792533712
  0
LINE
  5
2DF
100
AcDbEntity
  8
0
100
AcDbLine
 62
7
  6
CONTINUOUS
 10
68.7462743885
 20
76.5365925263
 11
68.7462743852
 21
80.9690709631
  0
LINE
  5
2E0
100
AcDbEntity
  8
0
100
AcDbLine
 62
7
  6
CONTINUOUS
 10
70.4077761684
 20
115.1186963168
 11
70.4077761684
 21
107.7701745626
  0
LINE
  5
2E1
100
AcDbEntity
  8
0
100
AcDbLine
 62
7
  6
CONTINUOUS
 10
90.6664639059
 20
104.2390836082
 11
74.1909444988
 21
94.726994823
  0
LINE
  5
2E2
100
AcDbEntity
  8
0
100
AcDbLine
 62
7
  6
CONTINUOUS
 10
63.2307890962
 20
88.2357733864
 11
68.6754886427
 21
91.3792533712
  0
LINE
  5
2E3
100
AcDbEntity
  8
0
100
AcDbLine
 62
7
  6
CONTINUOUS
 10
74.8980542239
 20
94.3187540685
 11
90.6664697938
 21
103.4225986998
  0
LINE
  5
2E4
100
AcDbEntity
  8
0
100
AcDbLine
 62
7
  6
CONTINUOUS
 10
51.6275450177
 20
80.441849954
 11
54.2674675875
 21
81.9660008623
  0
LINE
  5
2E5
100
AcDbEntity
  8
0
100
AcDbLine
 62
7
  6
CONTINUOUS
 10
108.9452532449
 20
71.4363779914
 11
108.4856348675
 21
71.7017327822
  0
LINE
  5
2E6
100
AcDbEntity
  8
0
100
AcDbLine
 62
7
  6
CONTINUOUS
 10
108.4856348675
 20
71.9056388518
 11
116.1930661044
 21
67.4558520201
  0
LINE
  5
2E7
100
AcDbEntity
  8
0
100
AcDbLine
 62
7
  6
CONTINUOUS
 10
71.2620417503
 20
90.6445872778
 11
71.2620417503
 21
84.1125679407
  0
LINE
  5
2E8
100
AcDbEntity
  8
0
100
AcDbLine
 62
7
  6
CONTINUOUS
 10
71.4684319242
 20
108.3825407934
 11
71.4684319242
 21
115.7310625476
  0
LINE
  5
2E9
100
AcDbEntity
  8
0
100
AcDbLine
 62
7
  6
CONTINUOUS
 10
71.9989717677
 20
80.1117696239
 11
71.9989717677
 21
79.9076483968
  0
LINE
  5
2EA
100
AcDbEntity
  8
0
100
AcDbLine
 62
7
  6
CONTINUOUS
 10
72.6328652432
 20
76.7726055567
 11
72.6328652432
 21
78.7251974481
  0
LINE
  5
2EB
100
AcDbEntity
  8
0
100
AcDbLine
 62
7
  6
CONTINUOUS
 10
72.7060913656
 20
76.4828620627
 11
72.7060892839
 21
78.6231370106
  0
LINE
  5
2EC
100
AcDbEntity
  8
0
100
AcDbLine
 62
7
  6
CONTINUOUS
 10
72.7793154024
 20
76.4100793137
 11
72.7793153986
 21
78.2324055698
  0
LINE
  5
2ED
100
AcDbEntity
  8
0
100
AcDbLine
 62
7
  6
CONTINUOUS
 10
73.1211910464
 20
79.2597503014
 11
73.1211910464
 21
83.0902222083
  0
LINE
  5
2EE
100
AcDbEntity
  8
0
100
AcDbLine
 62
7
  6
CONTINUOUS
 10
73.8392397243
 20
81.1742424819
 11
73.8392397243
 21
82.575298386
  0
LINE
  5
2EF
100
AcDbEntity
  8
0
100
AcDbLine
 62
7
  6
CONTINUOUS
 10
74.1910033781
 20
86.5621457391
 11
74.1910033781
 21
82.3606692512
  0
LINE
  5
2F0
100
AcDbEntity
  8
0
100
AcDbLine
 62
7
  6
CONTINUOUS
 10
74.1910033781
 20
80.030126402
 11
74.1910033781
 21
78.6421078366
  0
LINE
  5
2F1
100
AcDbEntity
  8
0
100
AcDbLine
 62
7
  6
CONTINUOUS
 10
74.8980542239
 20
94.3187540685
 11
74.8980542239
 21
86.9702323143
  0
LINE
  5
2F2
100
AcDbEntity
  8
0
100
AcDbLine
 62
7
  6
CONTINUOUS
 10
96.2172664164
 20
102.2591210478
 11
95.1566106606
 21
101.646754817
  0
LINE
  5
2F3
100
AcDbEntity
  8
0
100
AcDbLine
 62
7
  6
CONTINUOUS
 10
95.1566165485
 20
100.8302699086
 11
96.2172723043
 21
101.4426361394
  0
LINE
  5
2F4
100
AcDbEntity
  8
0
100
AcDbLine
 62
7
  6
CONTINUOUS
 10
71.2620417503
 20
86.5039827895
 11
68.7462189041
 21
85.0514804623
  0
LINE
  5
2F5
100
AcDbEntity
  8
0
100
AcDbLine
 62
7
  6
CONTINUOUS
 10
74.8980542239
 20
86.9702323143
 11
90.6664697938
 21
96.0740769456
  0
LINE
  5
2F6
100
AcDbEntity
  8
0
100
AcDbLine
 62
7
  6
CONTINUOUS
 10
109.8998484299
 20
75.1716728278
 11
112.4807400473
 21
73.681628067
  0
LINE
  5
2F7
100
AcDbEntity
  8
0
100
AcDbLine
 62
7
  6
CONTINUOUS
 10
76.1684168129
 20
74.4534249683
 11
76.1684168129
 21
76.2757512214
  0
LINE
  5
2F8
100
AcDbEntity
  8
0
100
AcDbLine
 62
7
  6
CONTINUOUS
 10
76.3451937987
 20
74.3818728175
 11
76.3451937843
 21
76.233476756
  0
LINE
  5
2F9
100
AcDbEntity
  8
0
100
AcDbLine
 62
7
  6
CONTINUOUS
 10
76.845193813
 20
74.316762786
 11
76.845193813
 21
76.2334779578
  0
LINE
  5
2FA
100
AcDbEntity
  8
0
100
AcDbLine
 62
7
  6
CONTINUOUS
 10
77.0219708132
 20
76.1912034924
 11
77.0219708132
 21
74.2386116009
  0
LINE
  5
2FB
100
AcDbEntity
  8
0
100
AcDbLine
 62
7
  6
CONTINUOUS
 10
79.2466477327
 20
110.0156868853
 11
79.2466477327
 21
104.8309861309
  0
LINE
  5
2FC
100
AcDbEntity
  8
0
100
AcDbLine
 62
7
  6
CONTINUOUS
 10
79.2821933992
 20
75.7914217184
 11
79.2821933992
 21
77.0907929695
  0
LINE
  5
2FD
100
AcDbEntity
  8
0
100
AcDbLine
 62
7
  6
CONTINUOUS
 10
79.2821933992
 20
79.4213358187
 11
79.2821933992
 21
83.6228123065
  0
LINE
  5
2FE
100
AcDbEntity
  8
0
100
AcDbLine
 62
7
  6
CONTINUOUS
 10
71.9989717677
 20
80.1117696239
 11
71.9257546222
 21
80.0097094352
  0
LINE
  5
2FF
100
AcDbEntity
  8
0
100
AcDbLine
 62
7
  6
CONTINUOUS
 10
81.5449189489
 20
87.8683410659
 11
90.7372288887
 21
93.1754920047
  0
LINE
  5
300
100
AcDbEntity
  8
0
100
AcDbLine
 62
7
  6
CONTINUOUS
 10
60.1773278293
 20
74.7479288492
 11
57.4749117525
 21
73.187697513
  0
LINE
  5
301
100
AcDbEntity
  8
0
100
AcDbLine
 62
7
  6
CONTINUOUS
 10
57.7541952821
 20
73.1621518126
 11
57.4572116704
 21
72.9906892679
  0
LINE
  5
302
100
AcDbEntity
  8
0
100
AcDbLine
 62
7
  6
CONTINUOUS
 10
67.281793578
 20
77.918820488
 11
63.2307890962
 21
75.5799859209
  0
LINE
  5
303
100
AcDbEntity
  8
0
100
AcDbLine
 62
7
  6
CONTINUOUS
 10
71.9989717677
 20
80.1117696239
 11
73.8392397243
 21
81.1742424819
  0
LINE
  5
304
100
AcDbEntity
  8
0
100
AcDbLine
 62
7
  6
CONTINUOUS
 10
95.1566165485
 20
93.4817481544
 11
96.2172723043
 21
94.0941143852
  0
LINE
  5
305
100
AcDbEntity
  8
0
100
AcDbLine
 62
7
  6
CONTINUOUS
 10
27.3475130528
 20
104.8103307742
 11
26.8475130097
 21
104.8103295724
  0
LINE
  5
306
100
AcDbEntity
  8
0
100
AcDbLine
 62
7
  6
CONTINUOUS
 10
50.1489517802
 20
116.6086145912
 11
41.2395481284
 21
121.7523448212
  0
LINE
  5
307
100
AcDbEntity
  8
0
100
AcDbLine
 62
7
  6
CONTINUOUS
 10
65.9883885086
 20
107.463918413
 11
74.8977921603
 21
102.320188183
  0
LINE
  5
308
100
AcDbEntity
  8
0
100
AcDbLine
 62
7
  6
CONTINUOUS
 10
90.7372288887
 20
93.1754920047
 11
99.6466325405
 21
88.0317617748
  0
LINE
  5
309
100
AcDbEntity
  8
0
100
AcDbLine
 62
7
  6
CONTINUOUS
 10
80.5458431459
 20
78.8036942774
 11
80.5458431301
 21
76.473151419
  0
LINE
  5
30A
100
AcDbEntity
  8
0
100
AcDbLine
 62
7
  6
CONTINUOUS
 10
80.9085616516
 20
73.9473299888
 11
80.908561658
 21
69.5148515614
  0
LINE
  5
30B
100
AcDbEntity
  8
0
100
AcDbLine
 62
7
  6
CONTINUOUS
 10
81.5449189489
 20
87.8683410659
 11
81.5449189489
 21
83.4024257468
  0
LINE
  5
30C
100
AcDbEntity
  8
0
100
AcDbLine
 62
7
  6
CONTINUOUS
 10
81.7215170509
 20
109.4033342518
 11
81.7215170509
 21
110.6280565154
  0
LINE
  5
30D
100
AcDbEntity
  8
0
100
AcDbLine
 62
7
  6
CONTINUOUS
 10
83.1862648879
 20
58.4792717507
 11
83.1862648879
 21
59.4549747861
  0
LINE
  5
30E
100
AcDbEntity
  8
0
100
AcDbLine
 62
7
  6
CONTINUOUS
 10
67.281793578
 20
76.0816759401
 11
61.4608792166
 21
72.7209895272
  0
LINE
  5
30F
100
AcDbEntity
  8
0
100
AcDbLine
 62
7
  6
CONTINUOUS
 10
105.3035786923
 20
97.9112381903
 11
104.5258912215
 21
97.4622427998
  0
LINE
  5
310
100
AcDbEntity
  8
0
100
AcDbLine
 62
7
  6
CONTINUOUS
 10
59.7986987371
 20
71.6388616621
 11
67.281793578
 21
75.959202694
  0
LINE
  5
311
100
AcDbEntity
  8
0
100
AcDbLine
 62
7
  6
CONTINUOUS
 10
68.581479195
 20
76.446577671
 11
67.1632383343
 21
75.627760816
  0
LINE
  5
312
100
AcDbEntity
  8
0
100
AcDbLine
 62
7
  6
CONTINUOUS
 10
105.0561438687
 20
96.3396267079
 11
103.9954881128
 21
95.7272604771
  0
LINE
  5
313
100
AcDbEntity
  8
0
100
AcDbLine
 62
7
  6
CONTINUOUS
 10
105.4097016752
 20
95.7272638764
 11
106.470357431
 21
96.3396301072
  0
LINE
  5
314
100
AcDbEntity
  8
0
100
AcDbLine
 62
7
  6
CONTINUOUS
 10
68.5814644415
 20
76.4465691531
 11
68.7462743886
 21
76.5365925264
  0
LINE
  5
315
100
AcDbEntity
  8
0
100
AcDbLine
 62
7
  6
CONTINUOUS
 10
95.1566165485
 20
93.4817481544
 11
90.6664697938
 21
96.0740769456
  0
LINE
  5
316
100
AcDbEntity
  8
0
100
AcDbLine
 62
7
  6
CONTINUOUS
 10
70.4077761684
 20
107.7701745626
 11
65.9176294137
 21
110.3625033538
  0
LINE
  5
317
100
AcDbEntity
  8
0
100
AcDbLine
 62
7
  6
CONTINUOUS
 10
45.6589357882
 20
122.0586009708
 11
41.1687890335
 21
124.650929762
  0
LINE
  5
318
100
AcDbEntity
  8
0
100
AcDbLine
 62
7
  6
CONTINUOUS
 10
46.719591544
 20
122.6709672016
 11
53.6845123636
 21
118.6498592612
  0
LINE
  5
319
100
AcDbEntity
  8
0
100
AcDbLine
 62
7
  6
CONTINUOUS
 10
71.4684319242
 20
108.3825407934
 11
78.4333527437
 21
104.361432853
  0
LINE
  5
31A
100
AcDbEntity
  8
0
100
AcDbLine
 62
7
  6
CONTINUOUS
 10
96.2172723043
 20
94.0941143852
 11
103.1821931239
 21
90.0730064448
  0
LINE
  5
31B
100
AcDbEntity
  8
0
100
AcDbLine
 62
7
  6
CONTINUOUS
 10
112.4807400473
 20
85.852619679
 11
116.1930661044
 21
83.7093557177
  0
LINE
  5
31C
100
AcDbEntity
  8
0
100
AcDbLine
 62
7
  6
CONTINUOUS
 10
84.3731284727
 20
108.3621526863
 11
84.3731284727
 21
107.8724603166
  0
LINE
  5
31D
100
AcDbEntity
  8
0
100
AcDbLine
 62
7
  6
CONTINUOUS
 10
84.5475391172
 20
51.4307927297
 11
84.5475391172
 21
57.3504352539
  0
LINE
  5
31E
100
AcDbEntity
  8
0
100
AcDbLine
 62
7
  6
CONTINUOUS
 10
85.08023231
 20
107.4642229614
 11
85.08023231
 21
109.5868992573
  0
LINE
  5
31F
100
AcDbEntity
  8
0
100
AcDbLine
 62
7
  6
CONTINUOUS
 10
85.1510080497
 20
107.4233614934
 11
85.1510080497
 21
101.0547526928
  0
LINE
  5
320
100
AcDbEntity
  8
0
100
AcDbLine
 62
7
  6
CONTINUOUS
 10
86.2097195968
 20
60.6636126238
 11
86.2097195968
 21
58.432563119
  0
LINE
  5
321
100
AcDbEntity
  8
0
100
AcDbLine
 62
7
  6
CONTINUOUS
 10
87.9796294763
 20
73.9473469782
 11
87.9796294763
 21
61.2915595127
  0
LINE
  5
322
100
AcDbEntity
  8
0
100
AcDbLine
 62
7
  6
CONTINUOUS
 10
75.7613442125
 20
71.8104436507
 11
74.7433853744
 21
70.3622254119
  0
LINE
  5
323
100
AcDbEntity
  8
0
100
AcDbLine
 62
7
  6
CONTINUOUS
 10
108.839127318
 20
95.8700344177
 11
107.0007840914
 21
94.8086727964
  0
LINE
  5
324
100
AcDbEntity
  8
0
100
AcDbLine
 62
7
  6
CONTINUOUS
 10
107.7079060358
 20
94.4004249873
 11
108.1320234808
 21
94.6452878467
  0
LINE
  5
325
100
AcDbEntity
  8
0
100
AcDbLine
 62
7
  6
CONTINUOUS
 10
59.7986987371
 20
65.719219138
 11
65.1047993853
 21
68.7826794891
  0
LINE
  5
326
100
AcDbEntity
  8
0
100
AcDbLine
 62
7
  6
CONTINUOUS
 10
69.5562825165
 20
70.7033209462
 11
65.6672114115
 21
68.4579781001
  0
LINE
  5
327
100
AcDbEntity
  8
0
100
AcDbLine
 62
7
  6
CONTINUOUS
 10
108.4856348675
 20
93.1349316859
 11
92.7172192977
 21
84.0310870545
  0
LINE
  5
328
100
AcDbEntity
  8
0
100
AcDbLine
 62
7
  6
CONTINUOUS
 10
80.5458426289
 20
76.4731517084
 11
79.4236236999
 21
75.8252415964
  0
LINE
  5
329
100
AcDbEntity
  8
0
100
AcDbLine
 62
7
  6
CONTINUOUS
 10
68.6531287639
 20
69.5234248408
 11
70.1265364891
 21
70.3740921098
  0
LINE
  5
32A
100
AcDbEntity
  8
0
100
AcDbLine
 62
7
  6
CONTINUOUS
 10
93.4243290228
 20
83.6228463
 11
109.8998484299
 21
93.1349350852
  0
LINE
  5
32B
100
AcDbEntity
  8
0
100
AcDbLine
 62
7
  6
CONTINUOUS
 10
66.516241126
 20
67.7605744942
 11
67.8026408527
 21
68.5032732894
  0
LINE
  5
32C
100
AcDbEntity
  8
0
100
AcDbLine
 62
7
  6
CONTINUOUS
 10
60.4021676696
 20
116.4388161892
 11
61.3510307861
 21
115.8910022067
  0
LINE
  5
32D
100
AcDbEntity
  8
0
100
AcDbLine
 62
7
  6
CONTINUOUS
 10
85.1510080497
 20
102.150389781
 11
86.0998711662
 21
101.6025757985
  0
LINE
  5
32E
100
AcDbEntity
  8
0
100
AcDbLine
 62
7
  6
CONTINUOUS
 10
109.8998484299
 20
87.8619633728
 11
116.9001699416
 21
83.8204172956
  0
LINE
  5
32F
100
AcDbEntity
  8
0
100
AcDbLine
 62
7
  6
CONTINUOUS
 10
41.1687890335
 20
131.9994515162
 11
45.6589357882
 21
129.407122725
  0
LINE
  5
330
100
AcDbEntity
  8
0
100
AcDbLine
 62
7
  6
CONTINUOUS
 10
54.4978073525
 20
124.3041132935
 11
58.9879541072
 21
121.7117845023
  0
LINE
  5
331
100
AcDbEntity
  8
0
100
AcDbLine
 62
7
  6
CONTINUOUS
 10
65.9176294137
 20
117.711025108
 11
70.4077761684
 21
115.1186963168
  0
LINE
  5
332
100
AcDbEntity
  8
0
100
AcDbLine
 62
7
  6
CONTINUOUS
 10
79.2466477327
 20
110.0156868853
 11
83.7367944874
 21
107.4233580941
  0
LINE
  5
333
100
AcDbEntity
  8
0
100
AcDbLine
 62
7
  6
CONTINUOUS
 10
90.6664697938
 20
103.4225986998
 11
95.1566165485
 21
100.8302699086
  0
LINE
  5
334
100
AcDbEntity
  8
0
100
AcDbLine
 62
7
  6
CONTINUOUS
 10
103.9954881128
 20
95.7272604771
 11
108.4856348675
 21
93.1349316859
  0
LINE
  5
335
100
AcDbEntity
  8
0
100
AcDbLine
 62
7
  6
CONTINUOUS
 10
90.6664697938
 20
96.0740769456
 11
90.6664697938
 21
103.4225986998
  0
LINE
  5
336
100
AcDbEntity
  8
0
100
AcDbLine
 62
7
  6
CONTINUOUS
 10
90.7372288887
 20
93.1754920047
 11
90.7372288887
 21
83.2309603893
  0
LINE
  5
337
100
AcDbEntity
  8
0
100
AcDbLine
 62
7
  6
CONTINUOUS
 10
74.7433853744
 20
70.3622254119
 11
76.4189430168
 21
71.3296032933
  0
LINE
  5
338
100
AcDbEntity
  8
0
100
AcDbLine
 62
7
  6
CONTINUOUS
 10
68.8577281926
 20
66.4087468884
 11
69.1547118043
 21
66.580209433
  0
LINE
  5
339
100
AcDbEntity
  8
0
100
AcDbLine
 62
7
  6
CONTINUOUS
 10
109.8998484299
 20
93.1349350852
 11
105.4097016752
 21
95.7272638764
  0
LINE
  5
33A
100
AcDbEntity
  8
0
100
AcDbLine
 62
7
  6
CONTINUOUS
 10
95.1566106606
 20
101.646754817
 11
90.6664639059
 21
104.2390836082
  0
LINE
  5
33B
100
AcDbEntity
  8
0
100
AcDbLine
 62
7
  6
CONTINUOUS
 10
85.1510080497
 20
107.4233614934
 11
80.6608612951
 21
110.0156902846
  0
LINE
  5
33C
100
AcDbEntity
  8
0
100
AcDbLine
 62
7
  6
CONTINUOUS
 10
70.4077702804
 20
115.9351812252
 11
65.9176235257
 21
118.5275100164
  0
LINE
  5
33D
100
AcDbEntity
  8
0
100
AcDbLine
 62
7
  6
CONTINUOUS
 10
60.4021676696
 20
121.7117879016
 11
55.9120209149
 21
124.3041166929
  0
LINE
  5
33E
100
AcDbEntity
  8
0
100
AcDbLine
 62
7
  6
CONTINUOUS
 10
45.6589299003
 20
130.2236076334
 11
41.1687831456
 21
132.8159364246
  0
LINE
  5
33F
100
AcDbEntity
  8
0
100
AcDbLine
 62
7
  6
CONTINUOUS
 10
46.719591544
 20
130.0194889558
 11
55.5584631084
 21
124.9164795243
  0
LINE
  5
340
100
AcDbEntity
  8
0
100
AcDbLine
 62
7
  6
CONTINUOUS
 10
71.4684319242
 20
115.7310625476
 11
80.3073034885
 21
110.6280531161
  0
LINE
  5
341
100
AcDbEntity
  8
0
100
AcDbLine
 62
7
  6
CONTINUOUS
 10
96.2172723043
 20
101.4426361394
 11
105.0561438687
 21
96.3396267079
  0
LINE
  5
342
100
AcDbEntity
  8
0
100
AcDbLine
 62
7
  6
CONTINUOUS
 10
109.1219688529
 20
94.0737262781
 11
108.1320108061
 21
94.6452658929
  0
LINE
  5
343
100
AcDbEntity
  8
0
100
AcDbLine
 62
7
  6
CONTINUOUS
 10
84.3731284727
 20
108.3621526863
 11
83.383170426
 21
108.9336923012
  0
LINE
  5
344
100
AcDbEntity
  8
0
100
AcDbLine
 62
7
  6
CONTINUOUS
 10
59.6242880926
 20
122.6505790945
 11
58.6343300458
 21
123.2221187094
  0
LINE
  5
345
100
AcDbEntity
  8
0
100
AcDbLine
 62
7
  6
CONTINUOUS
 10
106.470357431
 20
96.3396301072
 11
96.2172664164
 21
102.2591210478
  0
LINE
  5
346
100
AcDbEntity
  8
0
100
AcDbLine
 62
7
  6
CONTINUOUS
 10
81.7215170509
 20
110.6280565154
 11
71.4684260362
 21
116.547547456
  0
LINE
  5
347
100
AcDbEntity
  8
0
100
AcDbLine
 62
7
  6
CONTINUOUS
 10
56.9726766707
 20
124.9164829237
 11
46.7195856561
 21
130.8359738642
  0
LINE
  5
348
100
AcDbEntity
  8
0
100
AcDbLine
 62
7
  6
CONTINUOUS
 10
108.839127318
 20
95.8700344177
 11
105.3035786923
 21
97.9112381903
  0
LINE
  5
349
100
AcDbEntity
  8
0
100
AcDbLine
 62
7
  6
CONTINUOUS
 10
84.0902869379
 20
110.1584608259
 11
80.5547383121
 21
112.1996645985
  0
LINE
  5
34A
100
AcDbEntity
  8
0
100
AcDbLine
 62
7
  6
CONTINUOUS
 10
59.3414465577
 20
124.4468872341
 11
55.805897932
 21
126.4880910067
  0
LINE
  5
34B
100
AcDbEntity
  8
0
100
AcDbLine
 62
7
  6
CONTINUOUS
 10
109.5391154411
 20
95.939373456
 11
106.0035668153
 21
97.9805772286
  0
LINE
  5
34C
100
AcDbEntity
  8
0
100
AcDbLine
 62
7
  6
CONTINUOUS
 10
84.7902750609
 20
110.2277998643
 11
81.2547264352
 21
112.2690036369
  0
LINE
  5
34D
100
AcDbEntity
  8
0
100
AcDbLine
 62
7
  6
CONTINUOUS
 10
60.0414346808
 20
124.5162262725
 11
56.5058860551
 21
126.5574300451
  0
LINE
  5
34E
100
AcDbEntity
  8
0
100
AcDbLine
 62
7
  6
CONTINUOUS
 10
93.4243290228
 20
83.6228463
 11
93.4243290228
 21
77.090826963
  0
LINE
  5
34F
100
AcDbEntity
  8
0
100
AcDbLine
 62
7
  6
CONTINUOUS
 10
95.1566165485
 20
100.8302699086
 11
95.1566165485
 21
93.4817481544
  0
LINE
  5
350
100
AcDbEntity
  8
0
100
AcDbLine
 62
7
  6
CONTINUOUS
 10
96.2172723043
 20
94.0941143852
 11
96.2172723043
 21
101.4426361394
  0
LINE
  5
351
100
AcDbEntity
  8
0
100
AcDbLine
 62
7
  6
CONTINUOUS
 10
87.9796294763
 20
73.9473469782
 11
93.4243290228
 21
77.090826963
  0
LINE
  5
352
100
AcDbEntity
  8
0
100
AcDbLine
 62
7
  6
CONTINUOUS
 10
76.3763853979
 20
66.1534235458
 11
79.0163079677
 21
67.6775744541
  0
LINE
  5
353
100
AcDbEntity
  8
0
100
AcDbLine
 62
7
  6
CONTINUOUS
 10
112.4807400473
 20
73.681628067
 11
110.3594285357
 21
76.9476588996
  0
LINE
  5
354
100
AcDbEntity
  8
0
100
AcDbLine
 62
7
  6
CONTINUOUS
 10
109.8998484299
 20
76.6823217856
 11
110.3594285357
 21
76.9476588996
  0
LINE
  5
355
100
AcDbEntity
  8
0
100
AcDbLine
 62
7
  6
CONTINUOUS
 10
103.9954881128
 20
95.7272604771
 11
103.9954881128
 21
90.5425597227
  0
LINE
  5
356
100
AcDbEntity
  8
0
100
AcDbLine
 62
7
  6
CONTINUOUS
 10
84.9261682094
 20
60.459502441
 11
82.2237521326
 21
58.8992711048
  0
LINE
  5
357
100
AcDbEntity
  8
0
100
AcDbLine
 62
7
  6
CONTINUOUS
 10
82.5030356622
 20
58.8737254044
 11
82.2060520506
 21
58.7022628597
  0
LINE
  5
358
100
AcDbEntity
  8
0
100
AcDbLine
 62
7
  6
CONTINUOUS
 10
109.8998484299
 20
73.9471282827
 11
87.9796294763
 21
61.2915595127
  0
LINE
  5
359
100
AcDbEntity
  8
0
100
AcDbLine
 62
7
  6
CONTINUOUS
 10
108.4856348675
 20
71.2934920277
 11
86.2097195968
 21
58.432563119
  0
LINE
  5
35A
100
AcDbEntity
  8
0
100
AcDbLine
 62
7
  6
CONTINUOUS
 10
84.5475391172
 20
57.3504352539
 11
108.9452532449
 21
71.4363779914
  0
LINE
  5
35B
100
AcDbEntity
  8
0
100
AcDbLine
 62
7
  6
CONTINUOUS
 10
106.470357431
 20
95.1149078436
 11
106.470357431
 21
96.3396301072
  0
LINE
  5
35C
100
AcDbEntity
  8
0
100
AcDbLine
 62
7
  6
CONTINUOUS
 10
108.4856348675
 20
73.1306365756
 11
108.4856348675
 21
71.2934920277
  0
LINE
  5
35D
100
AcDbEntity
  8
0
100
AcDbLine
 62
7
  6
CONTINUOUS
 10
108.9452532449
 20
65.5167354672
 11
108.9452532449
 21
71.4363779914
  0
LINE
  5
35E
100
AcDbEntity
  8
0
100
AcDbLine
 62
7
  6
CONTINUOUS
 10
109.1219688529
 20
94.0737262781
 11
109.1219688529
 21
93.5840339084
  0
LINE
  5
35F
100
AcDbEntity
  8
0
100
AcDbLine
 62
7
  6
CONTINUOUS
 10
109.8290726901
 20
93.1757965532
 11
109.8290726901
 21
95.2984728491
  0
LINE
  5
360
100
AcDbEntity
  8
0
100
AcDbLine
 62
7
  6
CONTINUOUS
 10
109.8998484299
 20
93.1349350852
 11
109.8998484299
 21
73.9471282827
  0
LINE
  5
361
100
AcDbEntity
  8
0
100
AcDbLine
 62
7
  6
CONTINUOUS
 10
112.4807400473
 20
73.681628067
 11
112.4807400473
 21
85.852619679
  0
LINE
  5
362
100
AcDbEntity
  8
0
100
AcDbLine
 62
7
  6
CONTINUOUS
 10
84.5475391172
 20
51.4307927297
 11
108.9452532449
 21
65.5167354672
  0
LINE
  5
363
100
AcDbEntity
  8
0
100
AcDbLine
 62
7
  6
CONTINUOUS
 10
116.1930661044
 20
67.4558520201
 11
116.9001699416
 21
67.864096174
  0
LINE
  5
364
100
AcDbEntity
  8
0
100
AcDbLine
 62
7
  6
CONTINUOUS
 10
116.1930661044
 20
83.7093557177
 11
116.1930661044
 21
67.4558520201
  0
LINE
  5
365
100
AcDbEntity
  8
0
100
AcDbLine
 62
7
  6
CONTINUOUS
 10
116.9001699416
 20
67.864096174
 11
116.9001699416
 21
83.8204172956
  0
ARC
  5
366
100
AcDbEntity
  8
0
100
AcDbCircle
 62
7
  6
CONTINUOUS
 10
27.693131546
 20
98.4945295117
 40
12.6164794544
100
AcDbArc
 50
180.0555867447
 51
183.8407588449
  0
ARC
  5
367
100
AcDbEntity
  8
0
100
AcDbCircle
 62
7
  6
CONTINUOUS
 10
52.4419719261
 20
84.2061031035
 40
12.6164794544
100
AcDbArc
 50
180.0555867447
 51
183.8407588449
  0
ARC
  5
368
100
AcDbEntity
  8
0
100
AcDbCircle
 62
7
  6
CONTINUOUS
 10
77.1908123063
 20
69.9176766953
 40
12.6164794544
100
AcDbArc
 50
180.0555867447
 51
183.8407588449
  0
ARC
  5
369
100
AcDbEntity
  8
0
100
AcDbCircle
 62
7
  6
CONTINUOUS
 10
31.2293680625
 20
100.1291776547
 40
11.2029829723
100
AcDbArc
 50
180.0711228821
 51
184.3462551742
  0
ARC
  5
36A
100
AcDbEntity
  8
0
100
AcDbCircle
 62
7
  6
CONTINUOUS
 10
55.9782084427
 20
85.8407512465
 40
11.2029829723
100
AcDbArc
 50
180.0711228821
 51
184.3462551743
  0
ARC
  5
36B
100
AcDbEntity
  8
0
100
AcDbCircle
 62
7
  6
CONTINUOUS
 10
80.7270488228
 20
71.5523248383
 40
11.2029829723
100
AcDbArc
 50
180.0711228821
 51
184.3462551743
  0
ARC
  5
36C
100
AcDbEntity
  8
0
100
AcDbCircle
 62
7
  6
CONTINUOUS
 10
21.5558881664
 20
88.2721874408
 40
11.1985137358
100
AcDbArc
 50
355.9236036818
 51
0.0208904522
  0
ARC
  5
36D
100
AcDbEntity
  8
0
100
AcDbCircle
 62
7
  6
CONTINUOUS
 10
46.3047285465
 20
73.9837610325
 40
11.1985137358
100
AcDbArc
 50
355.9236036818
 51
0.0208904522
  0
ARC
  5
36E
100
AcDbEntity
  8
0
100
AcDbCircle
 62
7
  6
CONTINUOUS
 10
71.0535689266
 20
59.6953346243
 40
11.1985137358
100
AcDbArc
 50
355.9236036818
 51
0.0208904522
  0
ARC
  5
36F
100
AcDbEntity
  8
0
100
AcDbCircle
 62
7
  6
CONTINUOUS
 10
27.1001660626
 20
97.8745734396
 40
10.9628444299
100
AcDbArc
 50
180.02427754
 51
184.3931005186
  0
ARC
  5
370
100
AcDbEntity
  8
0
100
AcDbCircle
 62
7
  6
CONTINUOUS
 10
51.8490064428
 20
83.5861470314
 40
10.9628444299
100
AcDbArc
 50
180.02427754
 51
184.3931005186
  0
ARC
  5
371
100
AcDbEntity
  8
0
100
AcDbCircle
 62
7
  6
CONTINUOUS
 10
76.5978468229
 20
69.2977206232
 40
10.9628444299
100
AcDbArc
 50
180.02427754
 51
184.3931005186
  0
ARC
  5
372
100
AcDbEntity
  8
0
100
AcDbCircle
 62
7
  6
CONTINUOUS
 10
34.9544060558
 20
113.8123337576
 40
8.9313522928
100
AcDbArc
 50
240.0213800938
 51
244.0461828142
  0
ARC
  5
373
100
AcDbEntity
  8
0
100
AcDbCircle
 62
7
  6
CONTINUOUS
 10
59.703246436
 20
99.5239073494
 40
8.9313522929
100
AcDbArc
 50
240.0213800938
 51
244.0461828142
  0
ARC
  5
374
100
AcDbEntity
  8
0
100
AcDbCircle
 62
7
  6
CONTINUOUS
 10
84.4520868162
 20
85.2354809412
 40
8.9313522929
100
AcDbArc
 50
240.0213800938
 51
244.0461828142
  0
ARC
  5
375
100
AcDbEntity
  8
0
100
AcDbCircle
 62
7
  6
CONTINUOUS
 10
28.6682160406
 20
89.6924614677
 40
4.7441448819
100
AcDbArc
 50
332.9916181922
 51
333.4667728531
  0
ARC
  5
376
100
AcDbEntity
  8
0
100
AcDbCircle
 62
7
  6
CONTINUOUS
 10
53.4170564214
 20
75.4040350592
 40
4.7441448812
100
AcDbArc
 50
332.9916181922
 51
333.4667728531
  0
ARC
  5
377
100
AcDbEntity
  8
0
100
AcDbCircle
 62
7
  6
CONTINUOUS
 10
78.1658968016
 20
61.1156086509
 40
4.7441448812
100
AcDbArc
 50
332.9916181922
 51
333.4667728531
  0
ARC
  5
378
100
AcDbEntity
  8
0
100
AcDbCircle
 62
7
  6
CONTINUOUS
 10
28.7828336484
 20
89.6331560235
 40
4.6150956879
100
AcDbArc
 50
330.8922410098
 51
333.0013930836
  0
ARC
  5
379
100
AcDbEntity
  8
0
100
AcDbCircle
 62
7
  6
CONTINUOUS
 10
53.5316740286
 20
75.3447296153
 40
4.6150956879
100
AcDbArc
 50
330.8922410098
 51
333.0013930836
  0
ARC
  5
37A
100
AcDbEntity
  8
0
100
AcDbCircle
 62
7
  6
CONTINUOUS
 10
78.2805144086
 20
61.0563032072
 40
4.6150956881
100
AcDbArc
 50
330.8922410098
 51
333.0013930835
  0
ARC
  5
37B
100
AcDbEntity
  8
0
100
AcDbCircle
 62
7
  6
CONTINUOUS
 10
75.4458041726
 20
65.7302343595
 40
4.4918949873
100
AcDbArc
 50
0.0020079119
 51
0.8472504686
  0
ARC
  5
37C
100
AcDbEntity
  8
0
100
AcDbCircle
 62
7
  6
CONTINUOUS
 10
25.9481234127
 20
94.307087176
 40
4.4918949869
100
AcDbArc
 50
0.0020079119
 51
0.8472504687
  0
ARC
  5
37D
100
AcDbEntity
  8
0
100
AcDbCircle
 62
7
  6
CONTINUOUS
 10
50.6969637929
 20
80.0186607678
 40
4.4918949869
100
AcDbArc
 50
0.0020079119
 51
0.8472504687
  0
ARC
  5
37E
100
AcDbEntity
  8
0
100
AcDbCircle
 62
7
  6
CONTINUOUS
 10
28.9327613414
 20
89.5490959671
 40
4.4432116135
100
AcDbArc
 50
328.75772834
 51
330.8988294434
  0
ARC
  5
37F
100
AcDbEntity
  8
0
100
AcDbCircle
 62
7
  6
CONTINUOUS
 10
53.6816017216
 20
75.2606695588
 40
4.4432116134
100
AcDbArc
 50
328.75772834
 51
330.8988294434
  0
ARC
  5
380
100
AcDbEntity
  8
0
100
AcDbCircle
 62
7
  6
CONTINUOUS
 10
78.4304421016
 20
60.9722431507
 40
4.4432116135
100
AcDbArc
 50
328.75772834
 51
330.8988294434
  0
ARC
  5
381
100
AcDbEntity
  8
0
100
AcDbCircle
 62
7
  6
CONTINUOUS
 10
29.3006154821
 20
96.1931626538
 40
4.4061208129
100
AcDbArc
 50
239.9991258813
 51
240.7551019235
  0
ARC
  5
382
100
AcDbEntity
  8
0
100
AcDbCircle
 62
7
  6
CONTINUOUS
 10
54.0494558621
 20
81.9047362452
 40
4.4061208125
100
AcDbArc
 50
239.9991258813
 51
240.7551019235
  0
ARC
  5
383
100
AcDbEntity
  8
0
100
AcDbCircle
 62
7
  6
CONTINUOUS
 10
78.798296242
 20
67.6163098366
 40
4.406120812
100
AcDbArc
 50
239.9991258812
 51
240.7551019236
  0
ARC
  5
384
100
AcDbEntity
  8
0
100
AcDbCircle
 62
7
  6
CONTINUOUS
 10
29.4785972472
 20
88.6363890953
 40
3.4623495031
100
AcDbArc
 50
300.0016180416
 51
306.2293374364
  0
ARC
  5
385
100
AcDbEntity
  8
0
100
AcDbCircle
 62
7
  6
CONTINUOUS
 10
54.2274376273
 20
74.3479626871
 40
3.4623495031
100
AcDbArc
 50
300.0016180416
 51
306.2293374364
  0
ARC
  5
386
100
AcDbEntity
  8
0
100
AcDbCircle
 62
7
  6
CONTINUOUS
 10
78.9762780074
 20
60.0595362789
 40
3.4623495031
100
AcDbArc
 50
300.0016180416
 51
306.2293374363
  0
ARC
  5
387
100
AcDbEntity
  8
0
100
AcDbCircle
 62
7
  6
CONTINUOUS
 10
54.926490126
 20
76.6136446735
 40
3.0896993222
100
AcDbArc
 50
297.8948536564
 51
298.9043599938
  0
ARC
  5
388
100
AcDbEntity
  8
0
100
AcDbCircle
 62
7
  6
CONTINUOUS
 10
79.6753305062
 20
62.3252182653
 40
3.0896993222
100
AcDbArc
 50
297.8948536564
 51
298.9043599939
  0
ARC
  5
389
100
AcDbEntity
  8
0
100
AcDbCircle
 62
7
  6
CONTINUOUS
 10
30.1776497461
 20
90.9020710814
 40
3.0896993219
100
AcDbArc
 50
297.8948536563
 51
298.9043599939
  0
ARC
  5
38A
100
AcDbEntity
  8
0
100
AcDbCircle
 62
7
  6
CONTINUOUS
 10
28.157759355
 20
93.8937069314
 40
2.2253534896
100
AcDbArc
 50
332.1677774163
 51
335.9465970739
  0
ARC
  5
38B
100
AcDbEntity
  8
0
100
AcDbCircle
 62
7
  6
CONTINUOUS
 10
52.9065997351
 20
79.6052805232
 40
2.2253534896
100
AcDbArc
 50
332.1677774163
 51
335.9465970739
  0
ARC
  5
38C
100
AcDbEntity
  8
0
100
AcDbCircle
 62
7
  6
CONTINUOUS
 10
77.6554401153
 20
65.316854115
 40
2.2253534896
100
AcDbArc
 50
332.1677774162
 51
335.9465970739
  0
SPLINE
  5
38D
100
AcDbEntity
  8
0
100
AcDbSpline
 62
7
  6
CONTINUOUS
 70
0
 71
3
 72
11
 73
7
 74
0
 42
0.0000001
 43
0.0000001
 44
0.0000000001
 40
0.0
 40
0.0
 40
0.0
 40
0.0
 40
0.2177839237
 40
0.4509111717
 40
0.7102971901
 40
1.0
 40
1.0
 40
1.0
 40
1.0
 10
59.3343273507
 20
123.2914736515
 30
0.0
 10
59.2881475701
 20
123.3181349338
 30
0.0
 10
59.1820424266
 20
123.3566404252
 30
0.0
 10
59.0058039544
 20
123.3611012431
 30
0.0
 10
58.8179752587
 20
123.3157422967
 30
0.0
 10
58.6957722024
 20
123.2576067793
 30
0.0
 10
58.6343427205
 20
123.2221406631
 30
0.0
  0
SPLINE
  5
38E
100
AcDbEntity
  8
0
100
AcDbSpline
 62
7
  6
CONTINUOUS
 70
0
 71
3
 72
14
 73
10
 74
0
 42
0.0000001
 43
0.0000001
 44
0.0000000001
 40
0.0
 40
0.0
 40
0.0
 40
0.0
 40
0.1080460605
 40
0.21812972
 40
0.3321047289
 40
0.4515034045
 40
0.5774509436
 40
0.7107171718
 40
1.0
 40
1.0
 40
1.0
 40
1.0
 10
22.7643949411
 20
119.2214400942
 30
0.0
 10
22.7643949407
 20
119.0510589278
 30
0.0
 10
22.7939465561
 20
118.7063873751
 30
0.0
 10
22.9260525771
 20
118.1973090987
 30
0.0
 10
23.1440360163
 20
117.6991744103
 30
0.0
 10
23.4452104093
 20
117.2171035105
 30
0.0
 10
23.826154928
 20
116.7553203353
 30
0.0
 10
24.4520895866
 20
116.1562465879
 30
0.0
 10
25.0053616032
 20
115.775328348
 30
0.0
 10
25.4004264551
 20
115.5472427093
 30
0.0
  0
SPLINE
  5
38F
100
AcDbEntity
  8
0
100
AcDbSpline
 62
7
  6
CONTINUOUS
 70
0
 71
3
 72
14
 73
10
 74
0
 42
0.0000001
 43
0.0000001
 44
0.0000000001
 40
0.0
 40
0.0
 40
0.0
 40
0.0
 40
0.1080469168
 40
0.2181297392
 40
0.3321033402
 40
0.4515030983
 40
0.5774571041
 40
0.7107165297
 40
1.0
 40
1.0
 40
1.0
 40
1.0
 10
21.7643683235
 20
119.2214400942
 30
0.0
 10
21.7643683263
 20
119.410751738
 30
0.0
 10
21.7972699465
 20
119.793708663
 30
0.0
 10
21.9439900903
 20
120.3593530979
 30
0.0
 10
22.1861965349
 20
120.9128299273
 30
0.0
 10
22.5208469121
 20
121.4484584102
 30
0.0
 10
22.9441064479
 20
121.9615524901
 30
0.0
 10
23.6395859006
 20
122.6271778334
 30
0.0
 10
24.254308894
 20
123.0504184545
 30
0.0
 10
24.6932637385
 20
123.3038476394
 30
0.0
  0
SPLINE
  5
390
100
AcDbEntity
  8
0
100
AcDbSpline
 62
7
  6
CONTINUOUS
 70
0
 71
3
 72
12
 73
8
 74
0
 42
0.0000001
 43
0.0000001
 44
0.0000000001
 40
0.0
 40
0.0
 40
0.0
 40
0.0
 40
0.1081614247
 40
0.2183625642
 40
0.451364358
 40
0.7104179553
 40
1.0
 40
1.0
 40
1.0
 40
1.0
 10
17.7841213535
 20
111.5871445449
 30
0.0
 10
17.7841213606
 20
111.6817979883
 30
0.0
 10
17.8006141228
 20
111.873282073
 30
0.0
 10
17.9000239489
 20
112.2571882807
 30
0.0
 10
18.1554061524
 20
112.7278973202
 30
0.0
 10
18.6309751843
 20
113.2274413618
 30
0.0
 10
19.029059284
 20
113.5016178563
 30
0.0
 10
19.2485251223
 20
113.6283257608
 30
0.0
  0
SPLINE
  5
391
100
AcDbEntity
  8
0
100
AcDbSpline
 62
7
  6
CONTINUOUS
 70
0
 71
3
 72
9
 73
5
 74
0
 42
0.0000001
 43
0.0000001
 44
0.0000000001
 40
0.0
 40
0.0
 40
0.0
 40
0.0
 40
0.4862234924
 40
1.0
 40
1.0
 40
1.0
 40
1.0
 10
29.4609920172
 20
92.1432885166
 30
0.0
 10
29.599038184
 20
92.2229826932
 30
0.0
 10
29.8588011942
 20
92.432098979
 30
0.0
 10
30.047012867
 20
92.7057938153
 30
0.0
 10
30.1256807129
 20
92.8547248899
 30
0.0
  0
SPLINE
  5
392
100
AcDbEntity
  8
0
100
AcDbSpline
 62
7
  6
CONTINUOUS
 70
0
 71
3
 72
9
 73
5
 74
0
 42
0.0000001
 43
0.0000001
 44
0.0000000001
 40
0.0
 40
0.0
 40
0.0
 40
0.0
 40
0.472427363
 40
1.0
 40
1.0
 40
1.0
 40
1.0
 10
30.1898764088
 20
92.986679681
 30
0.0
 10
30.2767310739
 20
93.1809565727
 30
0.0
 10
30.4045423199
 20
93.6179049073
 30
0.0
 10
30.4400183968
 20
94.0695960467
 30
0.0
 10
30.4400183968
 20
94.307244593
 30
0.0
  0
SPLINE
  5
393
100
AcDbEntity
  8
0
100
AcDbSpline
 62
7
  6
CONTINUOUS
 70
0
 71
3
 72
14
 73
10
 74
0
 42
0.0000001
 43
0.0000001
 44
0.0000000001
 40
0.0
 40
0.0
 40
0.0
 40
0.0
 40
0.1078797664
 40
0.218093555
 40
0.3323450354
 40
0.4520232248
 40
0.5781456617
 40
0.7114072736
 40
1.0
 40
1.0
 40
1.0
 40
1.0
 10
31.6231669085
 20
88.1713711651
 30
0.0
 10
31.4722309961
 20
88.0914718716
 30
0.0
 10
31.153003317
 20
87.9551944744
 30
0.0
 10
30.6400964925
 20
87.8290372392
 30
0.0
 10
30.095467508
 20
87.7806202151
 30
0.0
 10
29.5245776267
 20
87.8099533935
 30
0.0
 10
28.9324922845
 20
87.9162836358
 30
0.0
 10
28.1001675645
 20
88.1655596028
 30
0.0
 10
27.4931490135
 20
88.4559345769
 30
0.0
 10
27.0974968609
 20
88.684359286
 30
0.0
  0
SPLINE
  5
394
100
AcDbEntity
  8
0
100
AcDbSpline
 62
7
  6
CONTINUOUS
 70
0
 71
3
 72
11
 73
7
 74
0
 42
0.0000001
 43
0.0000001
 44
0.0000000001
 40
0.0
 40
0.0
 40
0.0
 40
0.0
 40
0.2431707328
 40
0.4891647451
 40
0.7406514717
 40
1.0
 40
1.0
 40
1.0
 40
1.0
 10
31.4297359094
 20
85.942967492
 30
0.0
 10
31.5602712725
 20
86.0183200385
 30
0.0
 10
31.8130222942
 20
86.1876860288
 30
0.0
 10
32.1583911635
 20
86.4920037875
 30
0.0
 10
32.4688872524
 20
86.845211322
 30
0.0
 10
32.6482440171
 20
87.1071549759
 30
0.0
 10
32.7316265716
 20
87.2445889906
 30
0.0
  0
SPLINE
  5
395
100
AcDbEntity
  8
0
100
AcDbSpline
 62
7
  6
CONTINUOUS
 70
0
 71
3
 72
11
 73
7
 74
0
 42
0.0000001
 43
0.0000001
 44
0.0000000001
 40
0.0
 40
0.0
 40
0.0
 40
0.0
 40
0.2665327346
 40
0.5249724067
 40
0.7707071382
 40
1.0
 40
1.0
 40
1.0
 40
1.0
 10
35.4284874491
 20
89.0363552574
 30
0.0
 10
35.7115204135
 20
89.0521842778
 30
0.0
 10
36.2678855142
 20
89.1109141789
 30
0.0
 10
37.071323574
 20
89.2809936386
 30
0.0
 10
37.813271837
 20
89.5273244958
 30
0.0
 10
38.2706329641
 20
89.7464098511
 30
0.0
 10
38.4818293124
 20
89.8683433918
 30
0.0
  0
SPLINE
  5
396
100
AcDbEntity
  8
0
100
AcDbSpline
 62
7
  6
CONTINUOUS
 70
0
 71
3
 72
10
 73
6
 74
0
 42
0.0000001
 43
0.0000001
 44
0.0000000001
 40
0.0
 40
0.0
 40
0.0
 40
0.0
 40
0.2408430284
 40
0.4865037759
 40
1.0
 40
1.0
 40
1.0
 40
1.0
 10
31.5249108333
 20
85.8434578773
 30
0.0
 10
31.6463764578
 20
85.9324378611
 30
0.0
 10
31.8803469335
 20
86.1283736773
 30
0.0
 10
32.3065305558
 20
86.587362934
 30
0.0
 10
32.5640592911
 20
86.9923536487
 30
0.0
 10
32.7083712903
 20
87.2791156762
 30
0.0
  0
SPLINE
  5
397
100
AcDbEntity
  8
0
100
AcDbSpline
 62
7
  6
CONTINUOUS
 70
0
 71
3
 72
11
 73
7
 74
0
 42
0.0000001
 43
0.0000001
 44
0.0000000001
 40
0.0
 40
0.0
 40
0.0
 40
0.0
 40
0.2177839237
 40
0.4509111717
 40
0.7102971901
 40
1.0
 40
1.0
 40
1.0
 40
1.0
 10
56.5058825622
 20
126.5574239951
 30
0.0
 10
56.4597027816
 20
126.5840852774
 30
0.0
 10
56.353597638
 20
126.6225907688
 30
0.0
 10
56.1773591659
 20
126.6270515867
 30
0.0
 10
55.9895304702
 20
126.5816926403
 30
0.0
 10
55.8673274138
 20
126.5235571229
 30
0.0
 10
55.805897932
 20
126.4880910067
 30
0.0
  0
SPLINE
  5
398
100
AcDbEntity
  8
0
100
AcDbSpline
 62
7
  6
CONTINUOUS
 70
0
 71
3
 72
11
 73
7
 74
0
 42
0.0000001
 43
0.0000001
 44
0.0000000001
 40
0.0
 40
0.0
 40
0.0
 40
0.0
 40
0.2177825102
 40
0.4509091639
 40
0.7102957096
 40
1.0
 40
1.0
 40
1.0
 40
1.0
 10
60.0414311879
 20
124.5162202225
 30
0.0
 10
60.0876124858
 20
124.4895580356
 30
0.0
 10
60.1740159155
 20
124.416919521
 30
0.0
 10
60.2660024847
 20
124.2665175977
 30
0.0
 10
60.3206370662
 20
124.0811659707
 30
0.0
 10
60.3313919298
 20
123.9462613879
 30
0.0
 10
60.3313919298
 20
123.8753256655
 30
0.0
  0
SPLINE
  5
399
100
AcDbEntity
  8
0
100
AcDbSpline
 62
7
  6
CONTINUOUS
 70
0
 71
3
 72
9
 73
5
 74
0
 42
0.0000001
 43
0.0000001
 44
0.0000000001
 40
0.0
 40
0.0
 40
0.0
 40
0.0
 40
0.2407576429
 40
1.0
 40
1.0
 40
1.0
 40
1.0
 10
24.3415589641
 20
109.7510952983
 30
0.0
 10
24.4207751665
 20
109.6843918438
 30
0.0
 10
24.7566235956
 20
109.4154673161
 30
0.0
 10
25.1175979836
 20
109.1785107724
 30
0.0
 10
25.4004264551
 20
109.0152233723
 30
0.0
  0
SPLINE
  5
39A
100
AcDbEntity
  8
0
100
AcDbSpline
 62
7
  6
CONTINUOUS
 70
0
 71
3
 72
15
 73
11
 74
0
 42
0.0000001
 43
0.0000001
 44
0.0000000001
 40
0.0
 40
0.0
 40
0.0
 40
0.0
 40
0.1141577899
 40
0.2373246518
 40
0.3669755934
 40
0.4999989082
 40
0.6330223748
 40
0.7626737603
 40
0.8858413213
 40
1.0
 40
1.0
 40
1.0
 40
1.0
 10
27.0974968609
 20
88.684359286
 30
0.0
 10
26.649717039
 20
88.9428792382
 30
0.0
 10
25.7652935552
 20
89.5628304037
 30
0.0
 10
24.5484005091
 20
90.7013651335
 30
0.0
 10
23.4269395626
 20
92.0471437416
 30
0.0
 10
22.4431987824
 20
93.5497705992
 30
0.0
 10
21.6337476115
 20
95.1530264673
 30
0.0
 10
21.0289889506
 20
96.7971317172
 30
0.0
 10
20.651423085
 20
98.4202658735
 30
0.0
 10
20.5567319033
 20
99.496180921
 30
0.0
 10
20.5567319033
 20
100.0132336237
 30
0.0
  0
SPLINE
  5
39B
100
AcDbEntity
  8
0
100
AcDbSpline
 62
7
  6
CONTINUOUS
 70
0
 71
3
 72
11
 73
7
 74
0
 42
0.0000001
 43
0.0000001
 44
0.0000000001
 40
0.0
 40
0.0
 40
0.0
 40
0.0
 40
0.2782667209
 40
0.5370143164
 40
0.7767697877
 40
1.0
 40
1.0
 40
1.0
 40
1.0
 10
20.5567319033
 20
100.0132336237
 30
0.0
 10
20.5567319033
 20
100.3341501643
 30
0.0
 10
20.5907984308
 20
100.9542950055
 30
0.0
 10
20.7564670312
 20
101.8376480403
 30
0.0
 10
21.0331669439
 20
102.6263584891
 30
0.0
 10
21.2980248094
 20
103.0944301958
 30
0.0
 10
21.4474853003
 20
103.3040472012
 30
0.0
  0
SPLINE
  5
39C
100
AcDbEntity
  8
0
100
AcDbSpline
 62
7
  6
CONTINUOUS
 70
0
 71
3
 72
11
 73
7
 74
0
 42
0.0000001
 43
0.0000001
 44
0.0000000001
 40
0.0
 40
0.0
 40
0.0
 40
0.0
 40
0.2770074163
 40
0.5322899255
 40
0.770774252
 40
1.0
 40
1.0
 40
1.0
 40
1.0
 10
26.4234259388
 20
100.4064900407
 30
0.0
 10
26.2712119233
 20
100.458176065
 30
0.0
 10
25.9704722599
 20
100.5358501356
 30
0.0
 10
25.5212404623
 20
100.5661856842
 30
0.0
 10
25.1027992406
 20
100.5030818941
 30
0.0
 10
24.8492012703
 20
100.3972369173
 30
0.0
 10
24.7340005003
 20
100.3307268598
 30
0.0
  0
SPLINE
  5
39D
100
AcDbEntity
  8
0
100
AcDbSpline
 62
7
  6
CONTINUOUS
 70
0
 71
3
 72
15
 73
11
 74
0
 42
0.0000001
 43
0.0000001
 44
0.0000000001
 40
0.0
 40
0.0
 40
0.0
 40
0.0
 40
0.148572154
 40
0.2895074914
 40
0.4227238102
 40
0.5486379983
 40
0.6679995274
 40
0.7819361728
 40
0.8919849438
 40
1.0
 40
1.0
 40
1.0
 40
1.0
 10
15.0766580291
 20
98.4822893621
 30
0.0
 10
15.0766580291
 20
98.8078018072
 30
0.0
 10
15.1029302448
 20
99.4425305596
 30
0.0
 10
15.2278321235
 20
100.3617015913
 30
0.0
 10
15.4365531701
 20
101.2148712798
 30
0.0
 10
15.7274400934
 20
101.9937035265
 30
0.0
 10
16.0981414556
 20
102.6907834391
 30
0.0
 10
16.5459326543
 20
103.2989237827
 30
0.0
 10
17.0665916329
 20
103.8113004564
 30
0.0
 10
17.4606116266
 20
104.0862817456
 30
0.0
 10
17.6655604151
 20
104.2046087111
 30
0.0
  0
SPLINE
  5
39E
100
AcDbEntity
  8
0
100
AcDbSpline
 62
7
  6
CONTINUOUS
 70
0
 71
3
 72
9
 73
5
 74
0
 42
0.0000001
 43
0.0000001
 44
0.0000000001
 40
0.0
 40
0.0
 40
0.0
 40
0.0
 40
0.24556428
 40
1.0
 40
1.0
 40
1.0
 40
1.0
 10
31.6615285371
 20
88.0907241273
 30
0.0
 10
31.666925667
 20
88.1558772616
 30
0.0
 10
31.6860109712
 20
88.4214320277
 30
0.0
 10
31.6937365701
 20
88.6877790799
 30
0.0
 10
31.6937365701
 20
88.8886316309
 30
0.0
  0
SPLINE
  5
39F
100
AcDbEntity
  8
0
100
AcDbSpline
 62
7
  6
CONTINUOUS
 70
0
 71
3
 72
11
 73
7
 74
0
 42
0.0000001
 43
0.0000001
 44
0.0000000001
 40
0.0
 40
0.0
 40
0.0
 40
0.0
 40
0.2313611218
 40
0.47679251
 40
0.7339360544
 40
1.0
 40
1.0
 40
1.0
 40
1.0
 10
31.6937365701
 20
88.8886316309
 30
0.0
 10
31.6937365701
 20
89.3200912468
 30
0.0
 10
31.638488112
 20
90.2097948123
 30
0.0
 10
31.4101416153
 20
91.5614531239
 30
0.0
 10
31.038053319
 20
92.9477400472
 30
0.0
 10
30.703271476
 20
93.8656867507
 30
0.0
 10
30.5142904932
 20
94.3244643239
 30
0.0
  0
SPLINE
  5
3A0
100
AcDbEntity
  8
0
100
AcDbSpline
 62
7
  6
CONTINUOUS
 70
0
 71
3
 72
20
 73
16
 74
0
 42
0.0000001
 43
0.0000001
 44
0.0000000001
 40
0.0
 40
0.0
 40
0.0
 40
0.0
 40
0.1502554122
 40
0.3005734981
 40
0.4459719577
 40
0.5154496029
 40
0.5821047753
 40
0.6455613847
 40
0.7055590443
 40
0.7619778262
 40
0.8148726513
 40
0.864507345
 40
0.9113787971
 40
0.9562262758
 40
1.0
 40
1.0
 40
1.0
 40
1.0
 10
30.5142904932
 20
94.3244643239
 30
0.0
 10
30.2024093692
 20
95.0815990528
 30
0.0
 10
29.4756111589
 20
96.555806226
 30
0.0
 10
28.1280125094
 20
98.5857419059
 30
0.0
 10
26.8137374144
 20
100.0899274114
 30
0.0
 10
25.6808651674
 20
101.1265701272
 30
0.0
 10
24.8215572526
 20
101.7955274244
 30
0.0
 10
23.9506030953
 20
102.3592769298
 30
0.0
 10
23.0786014117
 20
102.8108169689
 30
0.0
 10
22.2160714448
 20
103.1443290283
 30
0.0
 10
21.3733312355
 20
103.3552811116
 30
0.0
 10
20.5605361498
 20
103.4404064137
 30
0.0
 10
19.7876573546
 20
103.3974024822
 30
0.0
 10
19.065385762
 20
103.2255762733
 30
0.0
 10
18.6221521883
 20
103.0248474166
 30
0.0
 10
18.4155641422
 20
102.9055566132
 30
0.0
  0
SPLINE
  5
3A1
100
AcDbEntity
  8
0
100
AcDbSpline
 62
7
  6
CONTINUOUS
 70
0
 71
3
 72
15
 73
11
 74
0
 42
0.0000001
 43
0.0000001
 44
0.0000000001
 40
0.0
 40
0.0
 40
0.0
 40
0.0
 40
0.1141581171
 40
0.2373254444
 40
0.3669768515
 40
0.5000005115
 40
0.6330241004
 40
0.7626752999
 40
0.8858423003
 40
1.0
 40
1.0
 40
1.0
 40
1.0
 10
30.4916164761
 20
112.6079092768
 30
0.0
 10
30.9272945877
 20
112.3563760923
 30
0.0
 10
31.8799463671
 20
111.9127576454
 30
0.0
 10
33.4313081748
 20
111.4412816161
 30
0.0
 10
35.1108678
 20
111.1510356354
 30
0.0
 10
36.8555881145
 20
111.053135111
 30
0.0
 10
38.6003070547
 20
111.1510438891
 30
0.0
 10
40.2798626175
 20
111.4412978285
 30
0.0
 10
41.8312178297
 20
111.9127812392
 30
0.0
 10
42.7838638325
 20
112.3564044643
 30
0.0
 10
43.2195385374
 20
112.607939871
 30
0.0
  0
SPLINE
  5
3A2
100
AcDbEntity
  8
0
100
AcDbSpline
 62
7
  6
CONTINUOUS
 70
0
 71
3
 72
11
 73
7
 74
0
 42
0.0000001
 43
0.0000001
 44
0.0000000001
 40
0.0
 40
0.0
 40
0.0
 40
0.0
 40
0.2372435122
 40
0.5000002595
 40
0.7627568825
 40
1.0
 40
1.0
 40
1.0
 40
1.0
 10
29.5723897308
 20
104.402093668
 30
0.0
 10
29.5974873322
 20
104.3876038889
 30
0.0
 10
29.6558514817
 20
104.3664625377
 30
0.0
 10
29.7491661315
 20
104.356332764
 30
0.0
 10
29.8424806846
 20
104.3664627415
 30
0.0
 10
29.9008447799
 20
104.3876041459
 30
0.0
 10
29.9259422469
 20
104.4020940611
 30
0.0
  0
SPLINE
  5
3A3
100
AcDbEntity
  8
0
100
AcDbSpline
 62
7
  6
CONTINUOUS
 70
0
 71
3
 72
9
 73
5
 74
0
 42
0.0000001
 43
0.0000001
 44
0.0000000001
 40
0.0
 40
0.0
 40
0.0
 40
0.0
 40
0.2429160119
 40
1.0
 40
1.0
 40
1.0
 40
1.0
 10
29.7845126389
 20
107.9981886351
 30
0.0
 10
29.8831850518
 20
107.9412213797
 30
0.0
 10
30.2936219241
 20
107.7140818307
 30
0.0
 10
30.7198193791
 20
107.5157759952
 30
0.0
 10
31.0481623525
 20
107.380547123
 30
0.0
  0
SPLINE
  5
3A4
100
AcDbEntity
  8
0
100
AcDbSpline
 62
7
  6
CONTINUOUS
 70
0
 71
3
 72
9
 73
5
 74
0
 42
0.0000001
 43
0.0000001
 44
0.0000000001
 40
0.0
 40
0.0
 40
0.0
 40
0.0
 40
0.2417295349
 40
1.0
 40
1.0
 40
1.0
 40
1.0
 10
23.6235102861
 20
111.6670750247
 30
0.0
 10
23.7046623525
 20
111.6013975298
 30
0.0
 10
24.0462539488
 20
111.336991876
 30
0.0
 10
24.4097105882
 20
111.101261845
 30
0.0
 10
24.6933226178
 20
110.9375220677
 30
0.0
  0
SPLINE
  5
3A5
100
AcDbEntity
  8
0
100
AcDbSpline
 62
7
  6
CONTINUOUS
 70
0
 71
3
 72
11
 73
7
 74
0
 42
0.0000001
 43
0.0000001
 44
0.0000000001
 40
0.0
 40
0.0
 40
0.0
 40
0.0
 40
0.2731759987
 40
0.5279001453
 40
0.7682370764
 40
1.0
 40
1.0
 40
1.0
 40
1.0
 10
23.1351844829
 20
105.3494583731
 30
0.0
 10
22.7860957336
 20
105.447683209
 30
0.0
 10
22.0967830117
 20
105.5909729704
 30
0.0
 10
21.0722983783
 20
105.629643095
 30
0.0
 10
20.1125436572
 20
105.481190396
 30
0.0
 10
19.5218562627
 20
105.2548215838
 30
0.0
 10
19.2485936283
 20
105.1134453428
 30
0.0
  0
SPLINE
  5
3A6
100
AcDbEntity
  8
0
100
AcDbSpline
 62
7
  6
CONTINUOUS
 70
0
 71
3
 72
11
 73
7
 74
0
 42
0.0000001
 43
0.0000001
 44
0.0000000001
 40
0.0
 40
0.0
 40
0.0
 40
0.0
 40
0.2897042895
 40
0.5490907647
 40
0.7822174449
 40
1.0
 40
1.0
 40
1.0
 40
1.0
 10
59.6242880926
 20
122.6505790945
 30
0.0
 10
59.6242880926
 20
122.7215148169
 30
0.0
 10
59.6135332531
 20
122.8564193845
 30
0.0
 10
59.5588986578
 20
123.0417710008
 30
0.0
 10
59.4669120917
 20
123.192172915
 30
0.0
 10
59.3805086707
 20
123.2648114805
 30
0.0
 10
59.3343273507
 20
123.2914736515
 30
0.0
  0
SPLINE
  5
3A7
100
AcDbEntity
  8
0
100
AcDbSpline
 62
7
  6
CONTINUOUS
 70
0
 71
3
 72
11
 73
7
 74
0
 42
0.0000001
 43
0.0000001
 44
0.0000000001
 40
0.0
 40
0.0
 40
0.0
 40
0.0
 40
0.2026037499
 40
0.4238006338
 40
0.6866988476
 40
1.0
 40
1.0
 40
1.0
 40
1.0
 10
23.2084085236
 20
105.2832746552
 30
0.0
 10
23.2084084559
 20
105.2903961685
 30
0.0
 10
23.2047654048
 20
105.3055070762
 30
0.0
 10
23.1889643951
 20
105.3245355971
 30
0.0
 10
23.1649558962
 20
105.3395660486
 30
0.0
 10
23.1457853525
 20
105.3464755537
 30
0.0
 10
23.1351844829
 20
105.3494583731
 30
0.0
  0
SPLINE
  5
3A8
100
AcDbEntity
  8
0
100
AcDbSpline
 62
7
  6
CONTINUOUS
 70
0
 71
3
 72
16
 73
12
 74
0
 42
0.0000001
 43
0.0000001
 44
0.0000000001
 40
0.0
 40
0.0
 40
0.0
 40
0.0
 40
0.0492727434
 40
0.0990287726
 40
0.2016292151
 40
0.3110770999
 40
0.4294510141
 40
0.5577749045
 40
0.696155113
 40
0.8439622656
 40
1.0
 40
1.0
 40
1.0
 40
1.0
 10
17.6655604151
 20
104.2046087111
 30
0.0
 10
17.8125063188
 20
104.2894477726
 30
0.0
 10
18.1186687204
 20
104.4419649837
 30
0.0
 10
18.7742914412
 20
104.6748015611
 30
0.0
 10
19.6724593453
 20
104.8215141892
 30
0.0
 10
20.8159360133
 20
104.7631354968
 30
0.0
 10
22.0148819062
 20
104.4786732216
 30
0.0
 10
23.2468153654
 20
103.9760850525
 30
0.0
 10
24.4894059204
 20
103.2663261311
 30
0.0
 10
25.7193545853
 20
102.3636022142
 30
0.0
 10
26.4973564974
 20
101.6610939269
 30
0.0
 10
26.8795258169
 20
101.2833621214
 30
0.0
  0
SPLINE
  5
3A9
100
AcDbEntity
  8
0
100
AcDbSpline
 62
7
  6
CONTINUOUS
 70
0
 71
3
 72
15
 73
11
 74
0
 42
0.0000001
 43
0.0000001
 44
0.0000000001
 40
0.0
 40
0.0
 40
0.0
 40
0.0
 40
0.1255772141
 40
0.2549345142
 40
0.3861095565
 40
0.5170513794
 40
0.6457191828
 40
0.7701871453
 40
0.8887428327
 40
1.0
 40
1.0
 40
1.0
 40
1.0
 10
26.8795258169
 20
101.2833621214
 30
0.0
 10
27.3143561138
 20
100.8535808054
 30
0.0
 10
28.1528179339
 20
99.935302224
 30
0.0
 10
29.2871829962
 20
98.4333010004
 30
0.0
 10
30.2971638253
 20
96.8140061997
 30
0.0
 10
31.1591652431
 20
95.1151253969
 30
0.0
 10
31.8532576926
 20
93.3759948167
 30
0.0
 10
32.3633897799
 20
91.636681374
 30
0.0
 10
32.6777043461
 20
89.9375875232
 30
0.0
 10
32.7544011578
 20
88.8179353136
 30
0.0
 10
32.7544011578
 20
88.2762704991
 30
0.0
  0
SPLINE
  5
3AA
100
AcDbEntity
  8
0
100
AcDbSpline
 62
7
  6
CONTINUOUS
 70
0
 71
3
 72
11
 73
7
 74
0
 42
0.0000001
 43
0.0000001
 44
0.0000000001
 40
0.0
 40
0.0
 40
0.0
 40
0.0
 40
0.310479908
 40
0.5734037431
 40
0.7964127389
 40
1.0
 40
1.0
 40
1.0
 40
1.0
 10
23.2816346402
 20
104.9869321309
 30
0.0
 10
23.2709386367
 20
104.990694753
 30
0.0
 10
23.251615782
 20
104.9990805885
 30
0.0
 10
23.2276566273
 20
105.0160695928
 30
0.0
 10
23.2120472451
 20
105.0365148338
 30
0.0
 10
23.2084106732
 20
105.052280014
 30
0.0
 10
23.2084106053
 20
105.0597148791
 30
0.0
  0
SPLINE
  5
3AB
100
AcDbEntity
  8
0
100
AcDbSpline
 62
7
  6
CONTINUOUS
 70
0
 71
3
 72
9
 73
5
 74
0
 42
0.0000001
 43
0.0000001
 44
0.0000000001
 40
0.0
 40
0.0
 40
0.0
 40
0.0
 40
0.524020184
 40
1.0
 40
1.0
 40
1.0
 40
1.0
 10
26.6707360526
 20
103.0302777848
 30
0.0
 10
26.1358448252
 20
103.459739881
 30
0.0
 10
25.0587562475
 20
104.2126891374
 30
0.0
 10
23.8694044209
 20
104.7801674848
 30
0.0
 10
23.2816346422
 20
104.9869321301
 30
0.0
  0
SPLINE
  5
3AC
100
AcDbEntity
  8
0
100
AcDbSpline
 62
7
  6
CONTINUOUS
 70
0
 71
3
 72
9
 73
5
 74
0
 42
0.0000001
 43
0.0000001
 44
0.0000000001
 40
0.0
 40
0.0
 40
0.0
 40
0.0
 40
0.2594015069
 40
1.0
 40
1.0
 40
1.0
 40
1.0
 10
26.8475130312
 20
102.958725635
 30
0.0
 10
26.8310315584
 20
102.9607273415
 30
0.0
 10
26.7681623999
 20
102.9726761904
 30
0.0
 10
26.7076976119
 20
103.0006014919
 30
0.0
 10
26.6707360526
 20
103.0302777848
 30
0.0
  0
SPLINE
  5
3AD
100
AcDbEntity
  8
0
100
AcDbSpline
 62
7
  6
CONTINUOUS
 70
0
 71
3
 72
12
 73
8
 74
0
 42
0.0000001
 43
0.0000001
 44
0.0000000001
 40
0.0
 40
0.0
 40
0.0
 40
0.0
 40
0.2864558213
 40
0.5459699936
 40
0.7812886996
 40
0.8921663188
 40
1.0
 40
1.0
 40
1.0
 40
1.0
 10
32.0472396421
 20
116.4451947215
 30
0.0
 10
31.6927829632
 20
116.2405503542
 30
0.0
 10
31.0433783119
 20
115.8008852456
 30
0.0
 10
30.2416445386
 20
115.0143350919
 30
0.0
 10
29.7681152929
 20
114.278052837
 30
0.0
 10
29.5353770901
 20
113.6705460299
 30
0.0
 10
29.4661791271
 20
113.3644123826
 30
0.0
 10
29.4436978638
 20
113.2119876133
 30
0.0
  0
SPLINE
  5
3AE
100
AcDbEntity
  8
0
100
AcDbSpline
 62
7
  6
CONTINUOUS
 70
0
 71
3
 72
20
 73
16
 74
0
 42
0.0000001
 43
0.0000001
 44
0.0000000001
 40
0.0
 40
0.0
 40
0.0
 40
0.0
 40
0.0436541817
 40
0.0897167764
 40
0.1388345179
 40
0.1913904552
 40
0.2475269491
 40
0.3071800376
 40
0.3701189178
 40
0.435980062
 40
0.504294398
 40
0.57451228
 40
0.7181118376
 40
0.8616730065
 40
1.0
 40
1.0
 40
1.0
 40
1.0
 10
32.0186718998
 20
86.4356489111
 30
0.0
 10
31.7847177424
 20
86.3761611298
 30
0.0
 10
31.290775247
 20
86.3015489369
 30
0.0
 10
30.5199961804
 20
86.323117733
 30
0.0
 10
29.7139980026
 20
86.4735843313
 30
0.0
 10
28.8837932351
 20
86.7499850802
 30
0.0
 10
28.0401014124
 20
87.1479865805
 30
0.0
 10
27.1940082013
 20
87.6619026228
 30
0.0
 10
26.3567212075
 20
88.2846444611
 30
0.0
 10
25.5395036488
 20
89.0077315188
 30
0.0
 10
24.753370967
 20
89.8213643729
 30
0.0
 10
23.753819645
 20
91.0206948083
 30
0.0
 10
22.651394669
 20
92.6691243388
 30
0.0
 10
21.612862761
 20
94.7875296139
 30
0.0
 10
21.1246948501
 20
96.2750491896
 30
0.0
 10
20.9451427196
 20
97.0185972673
 30
0.0
  0
SPLINE
  5
3AF
100
AcDbEntity
  8
0
100
AcDbSpline
 62
7
  6
CONTINUOUS
 70
0
 71
3
 72
9
 73
5
 74
0
 42
0.0000001
 43
0.0000001
 44
0.0000000001
 40
0.0
 40
0.0
 40
0.0
 40
0.0
 40
0.2550971692
 40
1.0
 40
1.0
 40
1.0
 40
1.0
 10
20.7827234888
 20
97.7867640094
 30
0.0
 10
20.7649445641
 20
97.8850448453
 30
0.0
 10
20.6997017126
 20
98.2710973636
 30
0.0
 10
20.6524977971
 20
98.660259411
 30
0.0
 10
20.6288557288
 20
98.9509449262
 30
0.0
  0
SPLINE
  5
3B0
100
AcDbEntity
  8
0
100
AcDbSpline
 62
7
  6
CONTINUOUS
 70
0
 71
3
 72
9
 73
5
 74
0
 42
0.0000001
 43
0.0000001
 44
0.0000000001
 40
0.0
 40
0.0
 40
0.0
 40
0.0
 40
0.4973574674
 40
1.0
 40
1.0
 40
1.0
 40
1.0
 10
18.4155641422
 20
102.9055566132
 30
0.0
 10
18.2807915208
 20
102.8277344227
 30
0.0
 10
18.0195423449
 20
102.6537872369
 30
0.0
 10
17.7823374751
 20
102.4483296083
 30
0.0
 10
17.6699125708
 20
102.3383384036
 30
0.0
  0
SPLINE
  5
3B1
100
AcDbEntity
  8
0
100
AcDbSpline
 62
7
  6
CONTINUOUS
 70
0
 71
3
 72
12
 73
8
 74
0
 42
0.0000001
 43
0.0000001
 44
0.0000000001
 40
0.0
 40
0.0
 40
0.0
 40
0.0
 40
0.1081889573
 40
0.2198571844
 40
0.4568075871
 40
0.716257568
 40
1.0
 40
1.0
 40
1.0
 40
1.0
 10
17.6699125708
 20
102.3383384036
 30
0.0
 10
17.5450713435
 20
102.2161996561
 30
0.0
 10
17.3078248949
 20
101.9506136044
 30
0.0
 10
16.8885579985
 20
101.3420452127
 30
0.0
 10
16.4809560734
 20
100.4395640734
 30
0.0
 10
16.1950940775
 20
99.2068073459
 30
0.0
 10
16.1373226169
 20
98.3279795015
 30
0.0
 10
16.1373226169
 20
97.8699282303
 30
0.0
  0
SPLINE
  5
3B2
100
AcDbEntity
  8
0
100
AcDbSpline
 62
7
  6
CONTINUOUS
 70
0
 71
3
 72
9
 73
5
 74
0
 42
0.0000001
 43
0.0000001
 44
0.0000000001
 40
0.0
 40
0.0
 40
0.0
 40
0.0
 40
0.2584095814
 40
1.0
 40
1.0
 40
1.0
 40
1.0
 10
24.6933226178
 20
108.6069792184
 30
0.0
 10
24.5966734745
 20
108.662778365
 30
0.0
 10
24.2265511841
 20
108.8853171019
 30
0.0
 10
23.8724664397
 20
109.1350485013
 30
0.0
 10
23.6235102861
 20
109.3365321755
 30
0.0
  0
SPLINE
  5
3B3
100
AcDbEntity
  8
0
100
AcDbSpline
 62
7
  6
CONTINUOUS
 70
0
 71
3
 72
9
 73
5
 74
0
 42
0.0000001
 43
0.0000001
 44
0.0000000001
 40
0.0
 40
0.0
 40
0.0
 40
0.0
 40
0.2570611456
 40
1.0
 40
1.0
 40
1.0
 40
1.0
 10
31.0481621586
 20
105.0500043548
 30
0.0
 10
30.9366779728
 20
105.0959193972
 30
0.0
 10
30.505770846
 20
105.2811527827
 30
0.0
 10
30.0862894351
 20
105.4934188129
 30
0.0
 10
29.7845126389
 20
105.6676457859
 30
0.0
  0
SPLINE
  5
3B4
100
AcDbEntity
  8
0
100
AcDbSpline
 62
7
  6
CONTINUOUS
 70
0
 71
3
 72
10
 73
6
 74
0
 42
0.0000001
 43
0.0000001
 44
0.0000000001
 40
0.0
 40
0.0
 40
0.0
 40
0.0
 40
0.2733524064
 40
0.5311400841
 40
1.0
 40
1.0
 40
1.0
 40
1.0
 10
20.0263937215
 20
100.1152710766
 30
0.0
 10
20.0263937215
 20
100.4303089163
 30
0.0
 10
20.0543595144
 20
101.0432646535
 30
0.0
 10
20.226221461
 20
102.1835059503
 30
0.0
 10
20.4949177626
 20
102.9906073166
 30
0.0
 10
20.7444928769
 20
103.4698784622
 30
0.0
  0
SPLINE
  5
3B5
100
AcDbEntity
  8
0
100
AcDbSpline
 62
7
  6
CONTINUOUS
 70
0
 71
3
 72
9
 73
5
 74
0
 42
0.0000001
 43
0.0000001
 44
0.0000000001
 40
0.0
 40
0.0
 40
0.0
 40
0.0
 40
0.2404654579
 40
1.0
 40
1.0
 40
1.0
 40
1.0
 10
27.5242900529
 20
102.8154644174
 30
0.0
 10
27.5125299202
 20
102.8257345348
 30
0.0
 10
27.4601172388
 20
102.8643318068
 30
0.0
 10
27.3963594046
 20
102.8868237225
 30
0.0
 10
27.3475130528
 20
102.8936156024
 30
0.0
  0
SPLINE
  5
3B6
100
AcDbEntity
  8
0
100
AcDbSpline
 62
7
  6
CONTINUOUS
 70
0
 71
3
 72
9
 73
5
 74
0
 42
0.0000001
 43
0.0000001
 44
0.0000000001
 40
0.0
 40
0.0
 40
0.0
 40
0.0
 40
0.2665660903
 40
1.0
 40
1.0
 40
1.0
 40
1.0
 10
19.0806108824
 20
98.1434839119
 30
0.0
 10
19.0362513226
 20
98.1647669452
 30
0.0
 10
18.8725337994
 20
98.249845888
 30
0.0
 10
18.7194497123
 20
98.3572705051
 30
0.0
 10
18.6209849603
 20
98.4501702733
 30
0.0
  0
SPLINE
  5
3B7
100
AcDbEntity
  8
0
100
AcDbSpline
 62
7
  6
CONTINUOUS
 70
0
 71
3
 72
15
 73
11
 74
0
 42
0.0000001
 43
0.0000001
 44
0.0000000001
 40
0.0
 40
0.0
 40
0.0
 40
0.0
 40
0.1135176169
 40
0.2358058156
 40
0.3644906059
 40
0.4967519819
 40
0.6294615792
 40
0.7594578184
 40
0.8838213131
 40
1.0
 40
1.0
 40
1.0
 40
1.0
 10
33.6885841276
 20
87.0561245671
 30
0.0
 10
33.7912214213
 20
86.9968682385
 30
0.0
 10
34.0150897816
 20
86.8918072698
 30
0.0
 10
34.3792902767
 20
86.778301403
 30
0.0
 10
34.773736839
 20
86.705986728
 30
0.0
 10
35.1845412441
 20
86.6773413087
 30
0.0
 10
35.597392549
 20
86.6934135053
 30
0.0
 10
35.9978931142
 20
86.753589326
 30
0.0
 10
36.3719268557
 20
86.8558117257
 30
0.0
 10
36.6043659596
 20
86.9535722792
 30
0.0
 10
36.7120388365
 20
87.0094159355
 30
0.0
  0
SPLINE
  5
3B8
100
AcDbEntity
  8
0
100
AcDbSpline
 62
7
  6
CONTINUOUS
 70
0
 71
3
 72
12
 73
8
 74
0
 42
0.0000001
 43
0.0000001
 44
0.0000000001
 40
0.0
 40
0.0
 40
0.0
 40
0.0
 40
0.2887128278
 40
0.5474550214
 40
0.7808172865
 40
0.8913944312
 40
1.0
 40
1.0
 40
1.0
 40
1.0
 10
27.148033588
 20
92.3486481452
 30
0.0
 10
27.3515966935
 20
92.2346778753
 30
0.0
 10
27.7561845733
 20
92.0485670085
 30
0.0
 10
28.3762207795
 20
91.9063911489
 30
0.0
 10
28.8705254987
 20
91.9239587818
 30
0.0
 10
29.2238109317
 20
92.0236529572
 30
0.0
 10
29.3849884865
 20
92.0994116099
 30
0.0
 10
29.4609920172
 20
92.1432885166
 30
0.0
  0
SPLINE
  5
3B9
100
AcDbEntity
  8
0
100
AcDbSpline
 62
7
  6
CONTINUOUS
 70
0
 71
3
 72
15
 73
11
 74
0
 42
0.0000001
 43
0.0000001
 44
0.0000000001
 40
0.0
 40
0.0
 40
0.0
 40
0.0
 40
0.1141555516
 40
0.2373276756
 40
0.3669773296
 40
0.5000011
 40
0.6330247168
 40
0.7626739247
 40
0.885845342
 40
1.0
 40
1.0
 40
1.0
 40
1.0
 10
23.754975325
 20
98.1667686959
 30
0.0
 10
23.754975325
 20
97.9025468537
 30
0.0
 10
23.8033713146
 20
97.352720539
 30
0.0
 10
23.9963009553
 20
96.5232478404
 30
0.0
 10
24.3053631088
 20
95.6830585178
 30
0.0
 10
24.7190075062
 20
94.8637463793
 30
0.0
 10
25.2217335318
 20
94.0958670098
 30
0.0
 10
25.794829467
 20
93.4081220077
 30
0.0
 10
26.4167093407
 20
92.8263108572
 30
0.0
 10
26.8686745306
 20
92.5094913539
 30
0.0
 10
27.0974968609
 20
92.3773837085
 30
0.0
  0
SPLINE
  5
3BA
100
AcDbEntity
  8
0
100
AcDbSpline
 62
7
  6
CONTINUOUS
 70
0
 71
3
 72
9
 73
5
 74
0
 42
0.0000001
 43
0.0000001
 44
0.0000000001
 40
0.0
 40
0.0
 40
0.0
 40
0.0
 40
0.2768037478
 40
1.0
 40
1.0
 40
1.0
 40
1.0
 10
25.1691829995
 20
98.9832570036
 30
0.0
 10
25.1691829995
 20
99.1317720606
 30
0.0
 10
25.1954490781
 20
99.6664270774
 30
0.0
 10
25.3413556013
 20
100.2064315497
 30
0.0
 10
25.5416518164
 20
100.5387587165
 30
0.0
  0
SPLINE
  5
3BB
100
AcDbEntity
  8
0
100
AcDbSpline
 62
7
  6
CONTINUOUS
 70
0
 71
3
 72
10
 73
6
 74
0
 42
0.0000001
 43
0.0000001
 44
0.0000000001
 40
0.0
 40
0.0
 40
0.0
 40
0.0
 40
0.5116497899
 40
0.760023432
 40
1.0
 40
1.0
 40
1.0
 40
1.0
 10
31.4108808977
 20
98.0917043778
 30
0.0
 10
30.8735540797
 20
98.9901354411
 30
0.0
 10
29.9773394588
 20
100.2703977317
 30
0.0
 10
28.6174566366
 20
101.80097935
 30
0.0
 10
27.8941164626
 20
102.4924952182
 30
0.0
 10
27.5242900529
 20
102.8154644174
 30
0.0
  0
SPLINE
  5
3BC
100
AcDbEntity
  8
0
100
AcDbSpline
 62
7
  6
CONTINUOUS
 70
0
 71
3
 72
13
 73
9
 74
0
 42
0.0000001
 43
0.0000001
 44
0.0000000001
 40
0.0
 40
0.0
 40
0.0
 40
0.0
 40
0.1130314585
 40
0.2274011419
 40
0.3443723928
 40
0.465053194
 40
0.7207684282
 40
1.0
 40
1.0
 40
1.0
 40
1.0
 10
21.7643678357
 20
112.6894207576
 30
0.0
 10
21.7643689708
 20
112.5401746198
 30
0.0
 10
21.7846812931
 20
112.2395361542
 30
0.0
 10
21.8755076478
 20
111.7927297057
 30
0.0
 10
22.0262063364
 20
111.3517076639
 30
0.0
 10
22.3105196143
 20
110.7640379013
 30
0.0
 10
22.8201784625
 20
110.0557446795
 30
0.0
 10
23.3369138816
 20
109.5684786277
 30
0.0
 10
23.6235102861
 20
109.3365321755
 30
0.0
  0
SPLINE
  5
3BD
100
AcDbEntity
  8
0
100
AcDbSpline
 62
7
  6
CONTINUOUS
 70
0
 71
3
 72
17
 73
13
 74
0
 42
0.0000001
 43
0.0000001
 44
0.0000000001
 40
0.0
 40
0.0
 40
0.0
 40
0.0
 40
0.139681928
 40
0.276471774
 40
0.408389288
 40
0.5346046792
 40
0.6551874907
 40
0.7712201544
 40
0.8282943208
 40
0.8852254029
 40
0.9423809298
 40
1.0
 40
1.0
 40
1.0
 40
1.0
 10
31.4108808979
 20
98.0917043772
 30
0.0
 10
31.6530415099
 20
97.6868025379
 30
0.0
 10
32.1544545674
 20
96.898669522
 30
0.0
 10
32.9203846202
 20
95.7515434038
 30
0.0
 10
33.6559265488
 20
94.6387277168
 30
0.0
 10
34.3261286903
 20
93.5485911907
 30
0.0
 10
34.8955570406
 20
92.46184594
 30
0.0
 10
35.2486697557
 20
91.5301601071
 30
0.0
 10
35.4218366584
 20
90.7714780549
 30
0.0
 10
35.4913587596
 20
90.1963938429
 30
0.0
 10
35.4968172154
 20
89.615309142
 30
0.0
 10
35.4578465966
 20
89.2287429517
 30
0.0
 10
35.4284874481
 20
89.0363552817
 30
0.0
  0
SPLINE
  5
3BE
100
AcDbEntity
  8
0
100
AcDbSpline
 62
7
  6
CONTINUOUS
 70
0
 71
3
 72
17
 73
13
 74
0
 42
0.0000001
 43
0.0000001
 44
0.0000000001
 40
0.0
 40
0.0
 40
0.0
 40
0.0
 40
0.0948802187
 40
0.1479393007
 40
0.2047922749
 40
0.265254216
 40
0.3289530185
 40
0.4637869207
 40
0.6042050693
 40
0.7441981921
 40
0.8778079336
 40
1.0
 40
1.0
 40
1.0
 40
1.0
 10
30.0434751322
 20
92.7386824965
 30
0.0
 10
29.7729558958
 20
92.7337974325
 30
0.0
 10
29.3482673463
 20
92.8107812857
 30
0.0
 10
28.8059869994
 20
93.0285274029
 30
0.0
 10
28.378987985
 20
93.2630327619
 30
0.0
 10
27.9548759097
 20
93.5586756626
 30
0.0
 10
27.3910267873
 20
94.0371209881
 30
0.0
 10
26.7387947291
 20
94.7567387483
 30
0.0
 10
26.0817242695
 20
95.7466349467
 30
0.0
 10
25.5760747249
 20
96.818456016
 30
0.0
 10
25.2533909804
 20
97.9045325092
 30
0.0
 10
25.1691829995
 20
98.6348103612
 30
0.0
 10
25.1691829995
 20
98.9832570036
 30
0.0
  0
SPLINE
  5
3BF
100
AcDbEntity
  8
0
100
AcDbSpline
 62
7
  6
CONTINUOUS
 70
0
 71
3
 72
12
 73
8
 74
0
 42
0.0000001
 43
0.0000001
 44
0.0000000001
 40
0.0
 40
0.0
 40
0.0
 40
0.0
 40
0.1081594591
 40
0.2183589149
 40
0.4513620313
 40
0.7104188771
 40
1.0
 40
1.0
 40
1.0
 40
1.0
 10
24.7340005003
 20
100.3307268598
 30
0.0
 10
24.6565004769
 20
100.285982966
 30
0.0
 10
24.5075119712
 20
100.1819644553
 30
0.0
 10
24.2401722334
 20
99.9190840194
 30
0.0
 10
23.9754811064
 20
99.4874649729
 30
0.0
 10
23.7912772775
 20
98.8619212236
 30
0.0
 10
23.754975325
 20
98.4063622253
 30
0.0
 10
23.754975325
 20
98.1667686959
 30
0.0
  0
SPLINE
  5
3C0
100
AcDbEntity
  8
0
100
AcDbSpline
 62
7
  6
CONTINUOUS
 70
0
 71
3
 72
14
 73
10
 74
0
 42
0.0000001
 43
0.0000001
 44
0.0000000001
 40
0.0
 40
0.0
 40
0.0
 40
0.0
 40
0.2892839386
 40
0.4225434953
 40
0.548497544
 40
0.6678972503
 40
0.7818707126
 40
0.8919533279
 40
1.0
 40
1.0
 40
1.0
 40
1.0
 10
24.6933226178
 20
115.1389985555
 30
0.0
 10
24.2543595689
 20
115.3924282566
 30
0.0
 10
23.6396247441
 20
115.8156706098
 30
0.0
 10
22.9441311406
 20
116.4813007905
 30
0.0
 10
22.5208629108
 20
116.9943991313
 30
0.0
 10
22.1862055431
 20
117.5300325852
 30
0.0
 10
21.9439939509
 20
118.0835149558
 30
0.0
 10
21.7972706658
 20
118.6491653448
 30
0.0
 10
21.7643683206
 20
119.0321264353
 30
0.0
 10
21.7643683235
 20
119.2214400942
 30
0.0
  0
SPLINE
  5
3C1
100
AcDbEntity
  8
0
100
AcDbSpline
 62
7
  6
CONTINUOUS
 70
0
 71
3
 72
15
 73
11
 74
0
 42
0.0000001
 43
0.0000001
 44
0.0000000001
 40
0.0
 40
0.0
 40
0.0
 40
0.0
 40
0.1141584021
 40
0.2373252831
 40
0.3669757617
 40
0.4999994786
 40
0.633023268
 40
0.7626739585
 40
0.8858411731
 40
1.0
 40
1.0
 40
1.0
 40
1.0
 10
43.9266482625
 20
112.1996991164
 30
0.0
 10
43.4425621608
 20
111.9202135436
 30
0.0
 10
42.3840623513
 20
111.4273005375
 30
0.0
 10
40.6603354821
 20
110.9034276295
 30
0.0
 10
38.7941667203
 20
110.5809209309
 30
0.0
 10
36.8555923758
 20
110.4721141988
 30
0.0
 10
34.9170164818
 20
110.5809117301
 30
0.0
 10
33.0508431411
 20
110.9034095676
 30
0.0
 10
31.3271088518
 20
111.4272742819
 30
0.0
 10
30.2686025571
 20
111.9201820011
 30
0.0
 10
29.7845126389
 20
112.1996651229
 30
0.0
  0
SPLINE
  5
3C2
100
AcDbEntity
  8
0
100
AcDbSpline
 62
7
  6
CONTINUOUS
 70
0
 71
3
 72
14
 73
10
 74
0
 42
0.0000001
 43
0.0000001
 44
0.0000000001
 40
0.0
 40
0.0
 40
0.0
 40
0.0
 40
0.2892823528
 40
0.4225484467
 40
0.5484959445
 40
0.667894673
 40
0.7818698222
 40
0.8919536913
 40
1.0
 40
1.0
 40
1.0
 40
1.0
 10
25.4003734637
 20
122.8956068849
 30
0.0
 10
25.0053160054
 20
122.6675217165
 30
0.0
 10
24.4520546505
 20
122.2866050453
 30
0.0
 10
23.8261327308
 20
121.6875356679
 30
0.0
 10
23.4451960343
 20
121.2257563301
 30
0.0
 10
23.14402792
 20
120.7436899042
 30
0.0
 10
22.9260491079
 20
120.2455601952
 30
0.0
 10
22.7939459124
 20
119.7364872662
 30
0.0
 10
22.7643949415
 20
119.3918194526
 30
0.0
 10
22.7643949411
 20
119.2214400942
 30
0.0
  0
SPLINE
  5
3C3
100
AcDbEntity
  8
0
100
AcDbSpline
 62
7
  6
CONTINUOUS
 70
0
 71
3
 72
23
 73
19
 74
0
 42
0.0000001
 43
0.0000001
 44
0.0000000001
 40
0.0
 40
0.0
 40
0.0
 40
0.0
 40
0.0649799896
 40
0.1333606929
 40
0.2043804511
 40
0.2771868568
 40
0.3508371728
 40
0.4243613228
 40
0.4967899691
 40
0.5671998983
 40
0.6347541113
 40
0.6987475958
 40
0.7586593512
 40
0.8142141835
 40
0.8654559977
 40
0.9128269832
 40
0.9572274803
 40
1.0
 40
1.0
 40
1.0
 40
1.0
 10
19.1554480036
 20
98.1002776572
 30
0.0
 10
19.1896956659
 20
97.6791935442
 30
0.0
 10
19.3093561301
 20
96.8185137952
 30
0.0
 10
19.6214216561
 20
95.5250059813
 30
0.0
 10
20.0652102881
 20
94.2167514926
 30
0.0
 10
20.6318531354
 20
92.919548844
 30
0.0
 10
21.3103616149
 20
91.6587173841
 30
0.0
 10
22.0873692606
 20
90.4590042791
 30
0.0
 10
22.9476674705
 20
89.3439425719
 30
0.0
 10
23.8744088118
 20
88.3353815636
 30
0.0
 10
24.8495390671
 20
87.4530248128
 30
0.0
 10
25.8542229712
 20
86.7140655576
 30
0.0
 10
26.8693210884
 20
86.1329274047
 30
0.0
 10
27.8758952454
 20
85.7212053408
 30
0.0
 10
28.8554694336
 20
85.4878168208
 30
0.0
 10
29.7901621387
 20
85.4396189416
 30
0.0
 10
30.6606484911
 20
85.5808763846
 30
0.0
 10
31.1888930536
 20
85.8039390934
 30
0.0
 10
31.4297359094
 20
85.942967492
 30
0.0
  0
SPLINE
  5
3C4
100
AcDbEntity
  8
0
100
AcDbSpline
 62
7
  6
CONTINUOUS
 70
0
 71
3
 72
15
 73
11
 74
0
 42
0.0000001
 43
0.0000001
 44
0.0000000001
 40
0.0
 40
0.0
 40
0.0
 40
0.0
 40
0.1201843651
 40
0.2467464823
 40
0.3773511765
 40
0.5093799225
 40
0.6401336712
 40
0.7669929638
 40
0.8875846687
 40
1.0
 40
1.0
 40
1.0
 40
1.0
 10
31.048162149
 20
105.0500043492
 30
0.0
 10
31.5402801257
 20
104.8473243337
 30
0.0
 10
32.5792950016
 20
104.4986894802
 30
0.0
 10
34.2168974298
 20
104.1508863539
 30
0.0
 10
35.9341853705
 20
103.9717486334
 30
0.0
 10
37.6791737648
 20
103.966853489
 30
0.0
 10
39.3993391328
 20
104.136240026
 30
0.0
 10
41.0430271249
 20
104.4749618746
 30
0.0
 10
42.560627901
 20
104.9726631248
 30
0.0
 10
43.4955255201
 20
105.4187724338
 30
0.0
 10
43.9266482625
 20
105.6676797794
 30
0.0
  0
SPLINE
  5
3C5
100
AcDbEntity
  8
0
100
AcDbSpline
 62
7
  6
CONTINUOUS
 70
0
 71
3
 72
15
 73
11
 74
0
 42
0.0000001
 43
0.0000001
 44
0.0000000001
 40
0.0
 40
0.0
 40
0.0
 40
0.0
 40
0.1141545728
 40
0.2373261361
 40
0.3669756042
 40
0.499999497
 40
0.6330234591
 40
0.7626731324
 40
0.8858450151
 40
1.0
 40
1.0
 40
1.0
 40
1.0
 10
38.481948716
 20
102.5241997946
 30
0.0
 10
38.2399137707
 20
102.3844616879
 30
0.0
 10
37.7106606299
 20
102.1380086174
 30
0.0
 10
36.8488023728
 20
101.8760553105
 30
0.0
 10
35.9157058334
 20
101.7148129798
 30
0.0
 10
34.9464206335
 20
101.6604103279
 30
0.0
 10
33.9771346765
 20
101.7148084063
 30
0.0
 10
33.0440359124
 20
101.8760463305
 30
0.0
 10
32.1821740284
 20
102.1379955304
 30
0.0
 10
31.6529177115
 20
102.3844459425
 30
0.0
 10
31.4108808849
 20
102.524182809
 30
0.0
  0
SPLINE
  5
3C6
100
AcDbEntity
  8
0
100
AcDbSpline
 62
7
  6
CONTINUOUS
 70
0
 71
3
 72
9
 73
5
 74
0
 42
0.0000001
 43
0.0000001
 44
0.0000000001
 40
0.0
 40
0.0
 40
0.0
 40
0.0
 40
0.4744342232
 40
1.0
 40
1.0
 40
1.0
 40
1.0
 10
27.5242900529
 20
104.7680563088
 30
0.0
 10
27.4991949801
 20
104.7825446281
 30
0.0
 10
27.4408547343
 20
104.803692215
 30
0.0
 10
27.3796131568
 20
104.8103308514
 30
0.0
 10
27.3475130528
 20
104.8103307742
 30
0.0
  0
SPLINE
  5
3C7
100
AcDbEntity
  8
0
100
AcDbSpline
 62
7
  6
CONTINUOUS
 70
0
 71
3
 72
9
 73
5
 74
0
 42
0.0000001
 43
0.0000001
 44
0.0000000001
 40
0.0
 40
0.0
 40
0.0
 40
0.0
 40
0.5255657769
 40
1.0
 40
1.0
 40
1.0
 40
1.0
 10
26.8475130097
 20
104.8103295724
 30
0.0
 10
26.8154129131
 20
104.8103294968
 30
0.0
 10
26.7541713506
 20
104.8169681389
 30
0.0
 10
26.6958311195
 20
104.8381157219
 30
0.0
 10
26.6707360526
 20
104.8526040378
 30
0.0
  0
SPLINE
  5
3C8
100
AcDbEntity
  8
0
100
AcDbSpline
 62
7
  6
CONTINUOUS
 70
0
 71
3
 72
11
 73
7
 74
0
 42
0.0000001
 43
0.0000001
 44
0.0000000001
 40
0.0
 40
0.0
 40
0.0
 40
0.0
 40
0.2897062278
 40
0.5490596134
 40
0.7822840493
 40
1.0
 40
1.0
 40
1.0
 40
1.0
 10
23.2816346345
 20
106.8092583884
 30
0.0
 10
23.2706648001
 20
106.8155916824
 30
0.0
 10
23.2507665939
 20
106.8293009795
 30
0.0
 10
23.2269709015
 20
106.854294125
 30
0.0
 10
23.2119359869
 20
106.8819533011
 30
0.0
 10
23.2084106739
 20
106.9017996421
 30
0.0
 10
23.2084106053
 20
106.9113188193
 30
0.0
  0
SPLINE
  5
3C9
100
AcDbEntity
  8
0
100
AcDbSpline
 62
7
  6
CONTINUOUS
 70
0
 71
3
 72
11
 73
7
 74
0
 42
0.0000001
 43
0.0000001
 44
0.0000000001
 40
0.0
 40
0.0
 40
0.0
 40
0.0
 40
0.2177159471
 40
0.4509403815
 40
0.7102937689
 40
1.0
 40
1.0
 40
1.0
 40
1.0
 10
23.2084085236
 20
107.199989827
 30
0.0
 10
23.208408455
 20
107.209509005
 30
0.0
 10
23.2048831413
 20
107.2293553477
 30
0.0
 10
23.1898482244
 20
107.257014526
 30
0.0
 10
23.1660525279
 20
107.2820076729
 30
0.0
 10
23.1461543188
 20
107.2957169701
 30
0.0
 10
23.135184483
 20
107.3020502645
 30
0.0
  0
SPLINE
  5
3CA
100
AcDbEntity
  8
0
100
AcDbSpline
 62
7
  6
CONTINUOUS
 70
0
 71
3
 72
12
 73
8
 74
0
 42
0.0000001
 43
0.0000001
 44
0.0000000001
 40
0.0
 40
0.0
 40
0.0
 40
0.0
 40
0.289583155
 40
0.5486371596
 40
0.7816384907
 40
0.8918391456
 40
1.0
 40
1.0
 40
1.0
 40
1.0
 10
19.2485936215
 20
109.5459237814
 30
0.0
 10
19.0291194427
 20
109.6726343914
 30
0.0
 10
18.6310160538
 20
109.946810384
 30
0.0
 10
18.1554251253
 20
110.4463640712
 30
0.0
 10
17.9000298394
 20
110.9170839296
 30
0.0
 10
17.8006149076
 20
111.3009998354
 30
0.0
 10
17.7841213464
 20
111.4924887605
 30
0.0
 10
17.7841213535
 20
111.5871445449
 30
0.0
  0
SPLINE
  5
3CB
100
AcDbEntity
  8
0
100
AcDbSpline
 62
7
  6
CONTINUOUS
 70
0
 71
3
 72
11
 73
7
 74
0
 42
0.0000001
 43
0.0000001
 44
0.0000000001
 40
0.0
 40
0.0
 40
0.0
 40
0.0
 40
0.289702809
 40
0.549088757
 40
0.7822160314
 40
1.0
 40
1.0
 40
1.0
 40
1.0
 10
59.3414465577
 20
124.4468872341
 30
0.0
 10
59.4028760396
 20
124.4823533503
 30
0.0
 10
59.5250790707
 20
124.540488881
 30
0.0
 10
59.712907764
 20
124.58584781
 30
0.0
 10
59.8891462268
 20
124.5813869904
 30
0.0
 10
59.99525141
 20
124.5428815319
 30
0.0
 10
60.0414311879
 20
124.5162202225
 30
0.0
  0
SPLINE
  5
3CC
100
AcDbEntity
  8
0
100
AcDbSpline
 62
7
  6
CONTINUOUS
 70
0
 71
3
 72
20
 73
16
 74
0
 42
0.0000001
 43
0.0000001
 44
0.0000000001
 40
0.0
 40
0.0
 40
0.0
 40
0.0
 40
0.1462100055
 40
0.2952795562
 40
0.4414769643
 40
0.5118314072
 40
0.5795139968
 40
0.6440267931
 40
0.7049951305
 40
0.762200201
 40
0.8156181439
 40
0.8654653776
 40
0.9122379565
 40
0.9567296183
 40
1.0
 40
1.0
 40
1.0
 40
1.0
 10
19.3600474323
 20
94.9855997048
 30
0.0
 10
19.6074634762
 20
94.2082749015
 30
0.0
 10
20.2289297758
 20
92.6750747541
 30
0.0
 10
21.4642265197
 20
90.5360564657
 30
0.0
 10
22.7233630846
 20
88.9209907747
 30
0.0
 10
23.8356700987
 20
87.7887056468
 30
0.0
 10
24.6914071263
 20
87.0484733136
 30
0.0
 10
25.566789833
 20
86.4172042892
 30
0.0
 10
26.4495072909
 20
85.9039309905
 30
0.0
 10
27.3272370342
 20
85.5161372492
 30
0.0
 10
28.1879251055
 20
85.2597768519
 30
0.0
 10
29.0197322175
 20
85.1393065246
 30
0.0
 10
29.8110408252
 20
85.1578744122
 30
0.0
 10
30.5494035803
 20
85.3168348499
 30
0.0
 10
31.0007714088
 20
85.5172643026
 30
0.0
 10
31.2098566756
 20
85.6379553587
 30
0.0
  0
SPLINE
  5
3CD
100
AcDbEntity
  8
0
100
AcDbSpline
 62
7
  6
CONTINUOUS
 70
0
 71
3
 72
20
 73
16
 74
0
 42
0.0000001
 43
0.0000001
 44
0.0000000001
 40
0.0
 40
0.0
 40
0.0
 40
0.0
 40
0.0432695344
 40
0.0881715171
 40
0.1356063437
 40
0.186210669
 40
0.2403530315
 40
0.2981599347
 40
0.3595508663
 40
0.4242774765
 40
0.4919589429
 40
0.5621092223
 40
0.7074025331
 40
0.85515513
 40
1.0
 40
1.0
 40
1.0
 40
1.0
 10
31.2186918059
 20
85.6606418597
 30
0.0
 10
31.0034766146
 20
85.5619723716
 30
0.0
 10
30.5430319732
 20
85.4057197109
 30
0.0
 10
29.8036334164
 20
85.3066609866
 30
0.0
 10
29.0186009337
 20
85.3398267725
 30
0.0
 10
28.1992048566
 20
85.5033766996
 30
0.0
 10
27.3561063843
 20
85.7940188033
 30
0.0
 10
26.5002996718
 20
86.2073204693
 30
0.0
 10
25.6429729055
 20
86.737426114
 30
0.0
 10
24.7954850694
 20
87.3770358521
 30
0.0
 10
23.9691338057
 20
88.1175001162
 30
0.0
 10
22.8983146936
 20
89.2387197855
 30
0.0
 10
21.6874453268
 20
90.8236439479
 30
0.0
 10
20.4980115724
 20
92.91093473
 30
0.0
 10
19.897407484
 20
94.4018542763
 30
0.0
 10
19.657031044
 20
95.1570622494
 30
0.0
  0
SPLINE
  5
3CE
100
AcDbEntity
  8
0
100
AcDbSpline
 62
7
  6
CONTINUOUS
 70
0
 71
3
 72
12
 73
8
 74
0
 42
0.0000001
 43
0.0000001
 44
0.0000000001
 40
0.0
 40
0.0
 40
0.0
 40
0.0
 40
0.105517949
 40
0.2135067265
 40
0.4444828518
 40
0.7055226302
 40
1.0
 40
1.0
 40
1.0
 40
1.0
 10
18.3049725271
 20
96.4442601607
 30
0.0
 10
18.3049788176
 20
96.3987795893
 30
0.0
 10
18.3138521151
 20
96.3065206534
 30
0.0
 10
18.3676038139
 20
96.1216377754
 30
0.0
 10
18.5055467891
 20
95.8971572031
 30
0.0
 10
18.7579365001
 20
95.6663417663
 30
0.0
 10
18.9661743134
 20
95.5447559588
 30
0.0
 10
19.0806108829
 20
95.4898510559
 30
0.0
  0
SPLINE
  5
3CF
100
AcDbEntity
  8
0
100
AcDbSpline
 62
7
  6
CONTINUOUS
 70
0
 71
3
 72
9
 73
5
 74
0
 42
0.0000001
 43
0.0000001
 44
0.0000000001
 40
0.0
 40
0.0
 40
0.0
 40
0.0
 40
0.4862234924
 40
1.0
 40
1.0
 40
1.0
 40
1.0
 10
54.2098323973
 20
77.8548621084
 30
0.0
 10
54.3478785642
 20
77.9345562849
 30
0.0
 10
54.6076415744
 20
78.1436725708
 30
0.0
 10
54.7958532471
 20
78.4173674071
 30
0.0
 10
54.8745210931
 20
78.5662984817
 30
0.0
  0
SPLINE
  5
3D0
100
AcDbEntity
  8
0
100
AcDbSpline
 62
7
  6
CONTINUOUS
 70
0
 71
3
 72
9
 73
5
 74
0
 42
0.0000001
 43
0.0000001
 44
0.0000000001
 40
0.0
 40
0.0
 40
0.0
 40
0.0
 40
0.472427363
 40
1.0
 40
1.0
 40
1.0
 40
1.0
 10
54.938716789
 20
78.6982532727
 30
0.0
 10
55.0255714541
 20
78.8925301645
 30
0.0
 10
55.1533827
 20
79.3294784991
 30
0.0
 10
55.188858777
 20
79.7811696385
 30
0.0
 10
55.188858777
 20
80.0188181847
 30
0.0
  0
SPLINE
  5
3D1
100
AcDbEntity
  8
0
100
AcDbSpline
 62
7
  6
CONTINUOUS
 70
0
 71
3
 72
14
 73
10
 74
0
 42
0.0000001
 43
0.0000001
 44
0.0000000001
 40
0.0
 40
0.0
 40
0.0
 40
0.0
 40
0.1078797664
 40
0.218093555
 40
0.3323450354
 40
0.4520232248
 40
0.5781456617
 40
0.7114072736
 40
1.0
 40
1.0
 40
1.0
 40
1.0
 10
56.3720072886
 20
73.8829447569
 30
0.0
 10
56.2210713763
 20
73.8030454634
 30
0.0
 10
55.9018436972
 20
73.6667680662
 30
0.0
 10
55.3889368727
 20
73.540610831
 30
0.0
 10
54.8443078881
 20
73.4921938069
 30
0.0
 10
54.2734180069
 20
73.5215269853
 30
0.0
 10
53.6813326646
 20
73.6278572276
 30
0.0
 10
52.8490079446
 20
73.8771331946
 30
0.0
 10
52.2419893936
 20
74.1675081687
 30
0.0
 10
51.8463372411
 20
74.3959328778
 30
0.0
  0
SPLINE
  5
3D2
100
AcDbEntity
  8
0
100
AcDbSpline
 62
7
  6
CONTINUOUS
 70
0
 71
3
 72
11
 73
7
 74
0
 42
0.0000001
 43
0.0000001
 44
0.0000000001
 40
0.0
 40
0.0
 40
0.0
 40
0.0
 40
0.2177839237
 40
0.4509111717
 40
0.7102971901
 40
1.0
 40
1.0
 40
1.0
 40
1.0
 10
84.0831677309
 20
109.0030472433
 30
0.0
 10
84.0369879502
 20
109.0297085256
 30
0.0
 10
83.9308828067
 20
109.068214017
 30
0.0
 10
83.7546443345
 20
109.0726748348
 30
0.0
 10
83.5668156388
 20
109.0273158884
 30
0.0
 10
83.4446125825
 20
108.9691803711
 30
0.0
 10
83.3831831006
 20
108.9337142549
 30
0.0
  0
SPLINE
  5
3D3
100
AcDbEntity
  8
0
100
AcDbSpline
 62
7
  6
CONTINUOUS
 70
0
 71
3
 72
11
 73
7
 74
0
 42
0.0000001
 43
0.0000001
 44
0.0000000001
 40
0.0
 40
0.0
 40
0.0
 40
0.0
 40
0.2177839237
 40
0.4509111717
 40
0.7102971901
 40
1.0
 40
1.0
 40
1.0
 40
1.0
 10
81.2547229424
 20
112.2689975869
 30
0.0
 10
81.2085431617
 20
112.2956588692
 30
0.0
 10
81.1024380182
 20
112.3341643606
 30
0.0
 10
80.926199546
 20
112.3386251784
 30
0.0
 10
80.7383708503
 20
112.293266232
 30
0.0
 10
80.616167794
 20
112.2351307147
 30
0.0
 10
80.5547383121
 20
112.1996645985
 30
0.0
  0
SPLINE
  5
3D4
100
AcDbEntity
  8
0
100
AcDbSpline
 62
7
  6
CONTINUOUS
 70
0
 71
3
 72
11
 73
7
 74
0
 42
0.0000001
 43
0.0000001
 44
0.0000000001
 40
0.0
 40
0.0
 40
0.0
 40
0.0
 40
0.2177825102
 40
0.4509091639
 40
0.7102957096
 40
1.0
 40
1.0
 40
1.0
 40
1.0
 10
84.7902715681
 20
110.2277938143
 30
0.0
 10
84.8364528659
 20
110.2011316274
 30
0.0
 10
84.9228562956
 20
110.1284931128
 30
0.0
 10
85.0148428649
 20
109.9780911895
 30
0.0
 10
85.0694774463
 20
109.7927395625
 30
0.0
 10
85.08023231
 20
109.6578349797
 30
0.0
 10
85.08023231
 20
109.5868992573
 30
0.0
  0
SPLINE
  5
3D5
100
AcDbEntity
  8
0
100
AcDbSpline
 62
7
  6
CONTINUOUS
 70
0
 71
3
 72
14
 73
10
 74
0
 42
0.0000001
 43
0.0000001
 44
0.0000000001
 40
0.0
 40
0.0
 40
0.0
 40
0.0
 40
0.1080460605
 40
0.21812972
 40
0.3321047289
 40
0.4515034045
 40
0.5774509436
 40
0.7107171718
 40
1.0
 40
1.0
 40
1.0
 40
1.0
 10
47.5132353212
 20
104.933013686
 30
0.0
 10
47.5132353209
 20
104.7626325196
 30
0.0
 10
47.5427869363
 20
104.4179609669
 30
0.0
 10
47.6748929572
 20
103.9088826905
 30
0.0
 10
47.8928763964
 20
103.410748002
 30
0.0
 10
48.1940507894
 20
102.9286771023
 30
0.0
 10
48.5749953081
 20
102.4668939271
 30
0.0
 10
49.2009299668
 20
101.8678201797
 30
0.0
 10
49.7542019833
 20
101.4869019397
 30
0.0
 10
50.1492668352
 20
101.2588163011
 30
0.0
  0
SPLINE
  5
3D6
100
AcDbEntity
  8
0
100
AcDbSpline
 62
7
  6
CONTINUOUS
 70
0
 71
3
 72
14
 73
10
 74
0
 42
0.0000001
 43
0.0000001
 44
0.0000000001
 40
0.0
 40
0.0
 40
0.0
 40
0.0
 40
0.1080469168
 40
0.2181297392
 40
0.3321033402
 40
0.4515030983
 40
0.5774571041
 40
0.7107165297
 40
1.0
 40
1.0
 40
1.0
 40
1.0
 10
46.5132087036
 20
104.933013686
 30
0.0
 10
46.5132087065
 20
105.1223253298
 30
0.0
 10
46.5461103267
 20
105.5052822548
 30
0.0
 10
46.6928304705
 20
106.0709266897
 30
0.0
 10
46.935036915
 20
106.6244035191
 30
0.0
 10
47.2696872923
 20
107.160032002
 30
0.0
 10
47.692946828
 20
107.6731260819
 30
0.0
 10
48.3884262807
 20
108.3387514252
 30
0.0
 10
49.0031492742
 20
108.7619920463
 30
0.0
 10
49.4421041186
 20
109.0154212312
 30
0.0
  0
SPLINE
  5
3D7
100
AcDbEntity
  8
0
100
AcDbSpline
 62
7
  6
CONTINUOUS
 70
0
 71
3
 72
12
 73
8
 74
0
 42
0.0000001
 43
0.0000001
 44
0.0000000001
 40
0.0
 40
0.0
 40
0.0
 40
0.0
 40
0.1081614247
 40
0.2183625642
 40
0.451364358
 40
0.7104179553
 40
1.0
 40
1.0
 40
1.0
 40
1.0
 10
42.5329617336
 20
97.2987181367
 30
0.0
 10
42.5329617407
 20
97.39337158
 30
0.0
 10
42.5494545029
 20
97.5848556648
 30
0.0
 10
42.648864329
 20
97.9687618725
 30
0.0
 10
42.9042465325
 20
98.439470912
 30
0.0
 10
43.3798155645
 20
98.9390149537
 30
0.0
 10
43.7778996642
 20
99.2131914481
 30
0.0
 10
43.9973655025
 20
99.3398993526
 30
0.0
  0
SPLINE
  5
3D8
100
AcDbEntity
  8
0
100
AcDbSpline
 62
7
  6
CONTINUOUS
 70
0
 71
3
 72
11
 73
7
 74
0
 42
0.0000001
 43
0.0000001
 44
0.0000000001
 40
0.0
 40
0.0
 40
0.0
 40
0.0
 40
0.2431707328
 40
0.4891647451
 40
0.7406514717
 40
1.0
 40
1.0
 40
1.0
 40
1.0
 10
56.1785762896
 20
71.6545410838
 30
0.0
 10
56.3091116526
 20
71.7298936302
 30
0.0
 10
56.5618626744
 20
71.8992596206
 30
0.0
 10
56.9072315436
 20
72.2035773793
 30
0.0
 10
57.2177276325
 20
72.5567849138
 30
0.0
 10
57.3970843973
 20
72.8187285677
 30
0.0
 10
57.4804669517
 20
72.9561625824
 30
0.0
  0
SPLINE
  5
3D9
100
AcDbEntity
  8
0
100
AcDbSpline
 62
7
  6
CONTINUOUS
 70
0
 71
3
 72
10
 73
6
 74
0
 42
0.0000001
 43
0.0000001
 44
0.0000000001
 40
0.0
 40
0.0
 40
0.0
 40
0.0
 40
0.2408430284
 40
0.4865037759
 40
1.0
 40
1.0
 40
1.0
 40
1.0
 10
56.2737512134
 20
71.5550314691
 30
0.0
 10
56.3952168379
 20
71.6440114528
 30
0.0
 10
56.6291873136
 20
71.8399472691
 30
0.0
 10
57.055370936
 20
72.2989365258
 30
0.0
 10
57.3128996713
 20
72.7039272405
 30
0.0
 10
57.4572116704
 20
72.9906892679
 30
0.0
  0
SPLINE
  5
3DA
100
AcDbEntity
  8
0
100
AcDbSpline
 62
7
  6
CONTINUOUS
 70
0
 71
3
 72
11
 73
7
 74
0
 42
0.0000001
 43
0.0000001
 44
0.0000000001
 40
0.0
 40
0.0
 40
0.0
 40
0.0
 40
0.2665327346
 40
0.5249724067
 40
0.7707071382
 40
1.0
 40
1.0
 40
1.0
 40
1.0
 10
60.1773278293
 20
74.7479288492
 30
0.0
 10
60.4603607936
 20
74.7637578695
 30
0.0
 10
61.0167258944
 20
74.8224877706
 30
0.0
 10
61.8201639541
 20
74.9925672304
 30
0.0
 10
62.5621122172
 20
75.2388980876
 30
0.0
 10
63.0194733442
 20
75.4579834429
 30
0.0
 10
63.2306696925
 20
75.5799169836
 30
0.0
  0
SPLINE
  5
3DB
100
AcDbEntity
  8
0
100
AcDbSpline
 62
7
  6
CONTINUOUS
 70
0
 71
3
 72
15
 73
11
 74
0
 42
0.0000001
 43
0.0000001
 44
0.0000000001
 40
0.0
 40
0.0
 40
0.0
 40
0.0
 40
0.148572154
 40
0.2895074914
 40
0.4227238102
 40
0.5486379983
 40
0.6679995274
 40
0.7819361728
 40
0.8919849438
 40
1.0
 40
1.0
 40
1.0
 40
1.0
 10
39.8254984093
 20
84.1938629539
 30
0.0
 10
39.8254984093
 20
84.519375399
 30
0.0
 10
39.851770625
 20
85.1541041514
 30
0.0
 10
39.9766725037
 20
86.0732751831
 30
0.0
 10
40.1853935502
 20
86.9264448716
 30
0.0
 10
40.4762804736
 20
87.7052771183
 30
0.0
 10
40.8469818358
 20
88.4023570309
 30
0.0
 10
41.2947730344
 20
89.0104973745
 30
0.0
 10
41.815432013
 20
89.5228740482
 30
0.0
 10
42.2094520067
 20
89.7978553374
 30
0.0
 10
42.4144007953
 20
89.9161823029
 30
0.0
  0
SPLINE
  5
3DC
100
AcDbEntity
  8
0
100
AcDbSpline
 62
7
  6
CONTINUOUS
 70
0
 71
3
 72
9
 73
5
 74
0
 42
0.0000001
 43
0.0000001
 44
0.0000000001
 40
0.0
 40
0.0
 40
0.0
 40
0.0
 40
0.24556428
 40
1.0
 40
1.0
 40
1.0
 40
1.0
 10
56.4103689172
 20
73.8022977191
 30
0.0
 10
56.4157660471
 20
73.8674508534
 30
0.0
 10
56.4348513514
 20
74.1330056195
 30
0.0
 10
56.4425769502
 20
74.3993526717
 30
0.0
 10
56.4425769502
 20
74.6002052227
 30
0.0
  0
SPLINE
  5
3DD
100
AcDbEntity
  8
0
100
AcDbSpline
 62
7
  6
CONTINUOUS
 70
0
 71
3
 72
11
 73
7
 74
0
 42
0.0000001
 43
0.0000001
 44
0.0000000001
 40
0.0
 40
0.0
 40
0.0
 40
0.0
 40
0.2313611218
 40
0.47679251
 40
0.7339360544
 40
1.0
 40
1.0
 40
1.0
 40
1.0
 10
56.4425769502
 20
74.6002052227
 30
0.0
 10
56.4425769502
 20
75.0316648386
 30
0.0
 10
56.3873284921
 20
75.9213684041
 30
0.0
 10
56.1589819955
 20
77.2730267157
 30
0.0
 10
55.7868936992
 20
78.659313639
 30
0.0
 10
55.4521118561
 20
79.5772603425
 30
0.0
 10
55.2631308733
 20
80.0360379157
 30
0.0
  0
SPLINE
  5
3DE
100
AcDbEntity
  8
0
100
AcDbSpline
 62
7
  6
CONTINUOUS
 70
0
 71
3
 72
20
 73
16
 74
0
 42
0.0000001
 43
0.0000001
 44
0.0000000001
 40
0.0
 40
0.0
 40
0.0
 40
0.0
 40
0.1502554122
 40
0.3005734981
 40
0.4459719577
 40
0.5154496029
 40
0.5821047753
 40
0.6455613847
 40
0.7055590443
 40
0.7619778262
 40
0.8148726513
 40
0.864507345
 40
0.9113787971
 40
0.9562262758
 40
1.0
 40
1.0
 40
1.0
 40
1.0
 10
55.2631308733
 20
80.0360379157
 30
0.0
 10
54.9512497493
 20
80.7931726446
 30
0.0
 10
54.224451539
 20
82.2673798178
 30
0.0
 10
52.8768528896
 20
84.2973154977
 30
0.0
 10
51.5625777946
 20
85.8015010032
 30
0.0
 10
50.4297055476
 20
86.838143719
 30
0.0
 10
49.5703976328
 20
87.5071010162
 30
0.0
 10
48.6994434755
 20
88.0708505216
 30
0.0
 10
47.8274417919
 20
88.5223905607
 30
0.0
 10
46.964911825
 20
88.8559026201
 30
0.0
 10
46.1221716156
 20
89.0668547034
 30
0.0
 10
45.3093765299
 20
89.1519800055
 30
0.0
 10
44.5364977347
 20
89.108976074
 30
0.0
 10
43.8142261422
 20
88.9371498651
 30
0.0
 10
43.3709925684
 20
88.7364210084
 30
0.0
 10
43.1644045223
 20
88.617130205
 30
0.0
  0
SPLINE
  5
3DF
100
AcDbEntity
  8
0
100
AcDbSpline
 62
7
  6
CONTINUOUS
 70
0
 71
3
 72
15
 73
11
 74
0
 42
0.0000001
 43
0.0000001
 44
0.0000000001
 40
0.0
 40
0.0
 40
0.0
 40
0.0
 40
0.1141581171
 40
0.2373254444
 40
0.3669768515
 40
0.5000005115
 40
0.6330241004
 40
0.7626752999
 40
0.8858423003
 40
1.0
 40
1.0
 40
1.0
 40
1.0
 10
55.2404568563
 20
98.3194828686
 30
0.0
 10
55.6761349678
 20
98.0679496841
 30
0.0
 10
56.6287867473
 20
97.6243312372
 30
0.0
 10
58.1801485549
 20
97.1528552079
 30
0.0
 10
59.8597081801
 20
96.8626092272
 30
0.0
 10
61.6044284946
 20
96.7647087028
 30
0.0
 10
63.3491474348
 20
96.8626174809
 30
0.0
 10
65.0287029976
 20
97.1528714203
 30
0.0
 10
66.5800582098
 20
97.624354831
 30
0.0
 10
67.5327042127
 20
98.0679780561
 30
0.0
 10
67.9683789175
 20
98.3195134628
 30
0.0
  0
SPLINE
  5
3E0
100
AcDbEntity
  8
0
100
AcDbSpline
 62
7
  6
CONTINUOUS
 70
0
 71
3
 72
11
 73
7
 74
0
 42
0.0000001
 43
0.0000001
 44
0.0000000001
 40
0.0
 40
0.0
 40
0.0
 40
0.0
 40
0.2372435874
 40
0.5000004178
 40
0.762757037
 40
1.0
 40
1.0
 40
1.0
 40
1.0
 10
54.321230111
 20
90.1136672598
 30
0.0
 10
54.3463277549
 20
90.0991774561
 30
0.0
 10
54.4046920129
 20
90.0780360822
 30
0.0
 10
54.4980068119
 20
90.0679063533
 30
0.0
 10
54.5913214983
 20
90.0780363884
 30
0.0
 10
54.6496855844
 20
90.0991779827
 30
0.0
 10
54.6747830697
 20
90.1136679085
 30
0.0
  0
SPLINE
  5
3E1
100
AcDbEntity
  8
0
100
AcDbSpline
 62
7
  6
CONTINUOUS
 70
0
 71
3
 72
9
 73
5
 74
0
 42
0.0000001
 43
0.0000001
 44
0.0000000001
 40
0.0
 40
0.0
 40
0.0
 40
0.0
 40
0.2407576429
 40
1.0
 40
1.0
 40
1.0
 40
1.0
 10
49.0903993442
 20
95.4626688901
 30
0.0
 10
49.1696155466
 20
95.3959654356
 30
0.0
 10
49.5054639757
 20
95.1270409079
 30
0.0
 10
49.8664383638
 20
94.8900843642
 30
0.0
 10
50.1492668352
 20
94.7267969641
 30
0.0
  0
SPLINE
  5
3E2
100
AcDbEntity
  8
0
100
AcDbSpline
 62
7
  6
CONTINUOUS
 70
0
 71
3
 72
9
 73
5
 74
0
 42
0.0000001
 43
0.0000001
 44
0.0000000001
 40
0.0
 40
0.0
 40
0.0
 40
0.0
 40
0.2417295349
 40
1.0
 40
1.0
 40
1.0
 40
1.0
 10
48.3723506663
 20
97.3786486165
 30
0.0
 10
48.4535027327
 20
97.3129711216
 30
0.0
 10
48.7950943289
 20
97.0485654678
 30
0.0
 10
49.1585509684
 20
96.8128354368
 30
0.0
 10
49.442162998
 20
96.6490956594
 30
0.0
  0
SPLINE
  5
3E3
100
AcDbEntity
  8
0
100
AcDbSpline
 62
7
  6
CONTINUOUS
 70
0
 71
3
 72
9
 73
5
 74
0
 42
0.0000001
 43
0.0000001
 44
0.0000000001
 40
0.0
 40
0.0
 40
0.0
 40
0.0
 40
0.242916012
 40
1.0
 40
1.0
 40
1.0
 40
1.0
 10
54.533353019
 20
93.7097622269
 30
0.0
 10
54.632025432
 20
93.6527949715
 30
0.0
 10
55.042462304
 20
93.4256554228
 30
0.0
 10
55.4686597582
 20
93.2273495861
 30
0.0
 10
55.7970027314
 20
93.0921207141
 30
0.0
  0
SPLINE
  5
3E4
100
AcDbEntity
  8
0
100
AcDbSpline
 62
7
  6
CONTINUOUS
 70
0
 71
3
 72
11
 73
7
 74
0
 42
0.0000001
 43
0.0000001
 44
0.0000000001
 40
0.0
 40
0.0
 40
0.0
 40
0.0
 40
0.2770074163
 40
0.5322899255
 40
0.770774252
 40
1.0
 40
1.0
 40
1.0
 40
1.0
 10
51.172266319
 20
86.1180636325
 30
0.0
 10
51.0200523035
 20
86.1697496568
 30
0.0
 10
50.7193126401
 20
86.2474237274
 30
0.0
 10
50.2700808424
 20
86.277759276
 30
0.0
 10
49.8516396207
 20
86.2146554859
 30
0.0
 10
49.5980416504
 20
86.1088105091
 30
0.0
 10
49.4828408805
 20
86.0423004516
 30
0.0
  0
SPLINE
  5
3E5
100
AcDbEntity
  8
0
100
AcDbSpline
 62
7
  6
CONTINUOUS
 70
0
 71
3
 72
11
 73
7
 74
0
 42
0.0000001
 43
0.0000001
 44
0.0000000001
 40
0.0
 40
0.0
 40
0.0
 40
0.0
 40
0.2782667209
 40
0.5370143164
 40
0.7767697877
 40
1.0
 40
1.0
 40
1.0
 40
1.0
 10
45.3055722835
 20
85.7248072155
 30
0.0
 10
45.3055722835
 20
86.0457237561
 30
0.0
 10
45.339638811
 20
86.6658685972
 30
0.0
 10
45.5053074114
 20
87.5492216321
 30
0.0
 10
45.782007324
 20
88.3379320809
 30
0.0
 10
46.0468651895
 20
88.8060037876
 30
0.0
 10
46.1963256805
 20
89.015620793
 30
0.0
  0
SPLINE
  5
3E6
100
AcDbEntity
  8
0
100
AcDbSpline
 62
7
  6
CONTINUOUS
 70
0
 71
3
 72
15
 73
11
 74
0
 42
0.0000001
 43
0.0000001
 44
0.0000000001
 40
0.0
 40
0.0
 40
0.0
 40
0.0
 40
0.1141577899
 40
0.2373246518
 40
0.3669755934
 40
0.4999989082
 40
0.6330223748
 40
0.7626737603
 40
0.8858413213
 40
1.0
 40
1.0
 40
1.0
 40
1.0
 10
51.8463372411
 20
74.3959328778
 30
0.0
 10
51.3985574191
 20
74.65445283
 30
0.0
 10
50.5141339354
 20
75.2744039955
 30
0.0
 10
49.2972408893
 20
76.4129387253
 30
0.0
 10
48.1757799427
 20
77.7587173334
 30
0.0
 10
47.1920391626
 20
79.261344191
 30
0.0
 10
46.3825879916
 20
80.864600059
 30
0.0
 10
45.7778293308
 20
82.508705309
 30
0.0
 10
45.4002634651
 20
84.1318394653
 30
0.0
 10
45.3055722835
 20
85.2077545128
 30
0.0
 10
45.3055722835
 20
85.7248072155
 30
0.0
  0
SPLINE
  5
3E7
100
AcDbEntity
  8
0
100
AcDbSpline
 62
7
  6
CONTINUOUS
 70
0
 71
3
 72
9
 73
5
 74
0
 42
0.0000001
 43
0.0000001
 44
0.0000000001
 40
0.0
 40
0.0
 40
0.0
 40
0.0
 40
0.5255657769
 40
1.0
 40
1.0
 40
1.0
 40
1.0
 10
51.5963533898
 20
90.5219031642
 30
0.0
 10
51.5642532933
 20
90.5219030886
 30
0.0
 10
51.5030117308
 20
90.5285417307
 30
0.0
 10
51.4446714997
 20
90.5496893137
 30
0.0
 10
51.4195764327
 20
90.5641776296
 30
0.0
  0
SPLINE
  5
3E8
100
AcDbEntity
  8
0
100
AcDbSpline
 62
7
  6
CONTINUOUS
 70
0
 71
3
 72
11
 73
7
 74
0
 42
0.0000001
 43
0.0000001
 44
0.0000000001
 40
0.0
 40
0.0
 40
0.0
 40
0.0
 40
0.2897062278
 40
0.5490596134
 40
0.7822840493
 40
1.0
 40
1.0
 40
1.0
 40
1.0
 10
48.0304750146
 20
92.5208319802
 30
0.0
 10
48.0195051802
 20
92.5271652742
 30
0.0
 10
47.9996069741
 20
92.5408745713
 30
0.0
 10
47.9758112817
 20
92.5658677168
 30
0.0
 10
47.960776367
 20
92.5935268929
 30
0.0
 10
47.9572510541
 20
92.6133732339
 30
0.0
 10
47.9572509854
 20
92.6228924111
 30
0.0
  0
SPLINE
  5
3E9
100
AcDbEntity
  8
0
100
AcDbSpline
 62
7
  6
CONTINUOUS
 70
0
 71
3
 72
11
 73
7
 74
0
 42
0.0000001
 43
0.0000001
 44
0.0000000001
 40
0.0
 40
0.0
 40
0.0
 40
0.0
 40
0.2177159471
 40
0.4509403815
 40
0.7102937689
 40
1.0
 40
1.0
 40
1.0
 40
1.0
 10
47.9572489037
 20
92.9115634188
 30
0.0
 10
47.9572488351
 20
92.9210825968
 30
0.0
 10
47.9537235215
 20
92.9409289395
 30
0.0
 10
47.9386886045
 20
92.9685881178
 30
0.0
 10
47.9148929081
 20
92.9935812647
 30
0.0
 10
47.894994699
 20
93.0072905619
 30
0.0
 10
47.8840248631
 20
93.0136238563
 30
0.0
  0
SPLINE
  5
3EA
100
AcDbEntity
  8
0
100
AcDbSpline
 62
7
  6
CONTINUOUS
 70
0
 71
3
 72
12
 73
8
 74
0
 42
0.0000001
 43
0.0000001
 44
0.0000000001
 40
0.0
 40
0.0
 40
0.0
 40
0.0
 40
0.289583155
 40
0.5486371596
 40
0.7816384907
 40
0.8918391456
 40
1.0
 40
1.0
 40
1.0
 40
1.0
 10
43.9974340017
 20
95.2574973732
 30
0.0
 10
43.7779598229
 20
95.3842079832
 30
0.0
 10
43.379856434
 20
95.6583839758
 30
0.0
 10
42.9042655054
 20
96.157937663
 30
0.0
 10
42.6488702195
 20
96.6286575214
 30
0.0
 10
42.5494552878
 20
97.0125734272
 30
0.0
 10
42.5329617266
 20
97.2040623523
 30
0.0
 10
42.5329617336
 20
97.2987181367
 30
0.0
  0
SPLINE
  5
3EB
100
AcDbEntity
  8
0
100
AcDbSpline
 62
7
  6
CONTINUOUS
 70
0
 71
3
 72
9
 73
5
 74
0
 42
0.0000001
 43
0.0000001
 44
0.0000000001
 40
0.0
 40
0.0
 40
0.0
 40
0.0
 40
0.2768037478
 40
1.0
 40
1.0
 40
1.0
 40
1.0
 10
49.9180233796
 20
84.6948305954
 30
0.0
 10
49.9180233796
 20
84.8433456524
 30
0.0
 10
49.9442894583
 20
85.3780006692
 30
0.0
 10
50.0901959814
 20
85.9180051415
 30
0.0
 10
50.2904921966
 20
86.2503323083
 30
0.0
  0
SPLINE
  5
3EC
100
AcDbEntity
  8
0
100
AcDbSpline
 62
7
  6
CONTINUOUS
 70
0
 71
3
 72
9
 73
5
 74
0
 42
0.0000001
 43
0.0000001
 44
0.0000000001
 40
0.0
 40
0.0
 40
0.0
 40
0.0
 40
0.2584095814
 40
1.0
 40
1.0
 40
1.0
 40
1.0
 10
49.442162998
 20
94.3185528102
 30
0.0
 10
49.3455138547
 20
94.3743519568
 30
0.0
 10
48.9753915643
 20
94.5968906937
 30
0.0
 10
48.6213068199
 20
94.8466220931
 30
0.0
 10
48.3723506663
 20
95.0481057672
 30
0.0
  0
SPLINE
  5
3ED
100
AcDbEntity
  8
0
100
AcDbSpline
 62
7
  6
CONTINUOUS
 70
0
 71
3
 72
9
 73
5
 74
0
 42
0.0000001
 43
0.0000001
 44
0.0000000001
 40
0.0
 40
0.0
 40
0.0
 40
0.0
 40
0.2665660903
 40
1.0
 40
1.0
 40
1.0
 40
1.0
 10
43.8294512626
 20
83.8550575037
 30
0.0
 10
43.7850917027
 20
83.876340537
 30
0.0
 10
43.6213741796
 20
83.9614194798
 30
0.0
 10
43.4682900925
 20
84.0688440969
 30
0.0
 10
43.3698253404
 20
84.1617438651
 30
0.0
  0
SPLINE
  5
3EE
100
AcDbEntity
  8
0
100
AcDbSpline
 62
7
  6
CONTINUOUS
 70
0
 71
3
 72
9
 73
5
 74
0
 42
0.0000001
 43
0.0000001
 44
0.0000000001
 40
0.0
 40
0.0
 40
0.0
 40
0.0
 40
0.2570611456
 40
1.0
 40
1.0
 40
1.0
 40
1.0
 10
55.7970025388
 20
90.7615779466
 30
0.0
 10
55.685518353
 20
90.807492989
 30
0.0
 10
55.2546112261
 20
90.9927263745
 30
0.0
 10
54.8351298152
 20
91.2049924047
 30
0.0
 10
54.533353019
 20
91.3792193777
 30
0.0
  0
SPLINE
  5
3EF
100
AcDbEntity
  8
0
100
AcDbSpline
 62
7
  6
CONTINUOUS
 70
0
 71
3
 72
23
 73
19
 74
0
 42
0.0000001
 43
0.0000001
 44
0.0000000001
 40
0.0
 40
0.0
 40
0.0
 40
0.0
 40
0.0649799896
 40
0.1333606929
 40
0.2043804511
 40
0.2771868568
 40
0.3508371728
 40
0.4243613228
 40
0.4967899691
 40
0.5671998983
 40
0.6347541113
 40
0.6987475958
 40
0.7586593512
 40
0.8142141835
 40
0.8654559977
 40
0.9128269832
 40
0.9572274803
 40
1.0
 40
1.0
 40
1.0
 40
1.0
 10
43.9042883838
 20
83.811851249
 30
0.0
 10
43.9385360461
 20
83.390767136
 30
0.0
 10
44.0581965103
 20
82.530087387
 30
0.0
 10
44.3702620362
 20
81.2365795731
 30
0.0
 10
44.8140506682
 20
79.9283250844
 30
0.0
 10
45.3806935156
 20
78.6311224358
 30
0.0
 10
46.059201995
 20
77.3702909758
 30
0.0
 10
46.8362096408
 20
76.1705778709
 30
0.0
 10
47.6965078507
 20
75.0555161637
 30
0.0
 10
48.6232491919
 20
74.0469551554
 30
0.0
 10
49.5983794472
 20
73.1645984046
 30
0.0
 10
50.6030633513
 20
72.4256391494
 30
0.0
 10
51.6181614686
 20
71.8445009965
 30
0.0
 10
52.6247356255
 20
71.4327789326
 30
0.0
 10
53.6043098137
 20
71.1993904126
 30
0.0
 10
54.5390025189
 20
71.1511925334
 30
0.0
 10
55.4094888712
 20
71.2924499764
 30
0.0
 10
55.9377334337
 20
71.5155126852
 30
0.0
 10
56.1785762896
 20
71.6545410838
 30
0.0
  0
SPLINE
  5
3F0
100
AcDbEntity
  8
0
100
AcDbSpline
 62
7
  6
CONTINUOUS
 70
0
 71
3
 72
15
 73
11
 74
0
 42
0.0000001
 43
0.0000001
 44
0.0000000001
 40
0.0
 40
0.0
 40
0.0
 40
0.0
 40
0.1141555516
 40
0.2373276756
 40
0.3669773296
 40
0.5000011
 40
0.6330247168
 40
0.7626739247
 40
0.885845342
 40
1.0
 40
1.0
 40
1.0
 40
1.0
 10
48.5038157052
 20
83.8783422877
 30
0.0
 10
48.5038157052
 20
83.6141204455
 30
0.0
 10
48.5522116947
 20
83.0642941308
 30
0.0
 10
48.7451413354
 20
82.2348214322
 30
0.0
 10
49.054203489
 20
81.3946321096
 30
0.0
 10
49.4678478863
 20
80.5753199711
 30
0.0
 10
49.9705739119
 20
79.8074406016
 30
0.0
 10
50.5436698471
 20
79.1196955995
 30
0.0
 10
51.1655497209
 20
78.537884449
 30
0.0
 10
51.6175149108
 20
78.2210649457
 30
0.0
 10
51.8463372411
 20
78.0889573003
 30
0.0
  0
SPLINE
  5
3F1
100
AcDbEntity
  8
0
100
AcDbSpline
 62
7
  6
CONTINUOUS
 70
0
 71
3
 72
17
 73
13
 74
0
 42
0.0000001
 43
0.0000001
 44
0.0000000001
 40
0.0
 40
0.0
 40
0.0
 40
0.0
 40
0.0948802187
 40
0.1479393007
 40
0.2047922749
 40
0.265254216
 40
0.3289530185
 40
0.4637869207
 40
0.6042050693
 40
0.7441981921
 40
0.8778079336
 40
1.0
 40
1.0
 40
1.0
 40
1.0
 10
54.7923155123
 20
78.4502560883
 30
0.0
 10
54.521796276
 20
78.4453710242
 30
0.0
 10
54.0971077265
 20
78.5223548775
 30
0.0
 10
53.5548273796
 20
78.7401009947
 30
0.0
 10
53.1278283651
 20
78.9746063537
 30
0.0
 10
52.7037162899
 20
79.2702492544
 30
0.0
 10
52.1398671674
 20
79.7486945799
 30
0.0
 10
51.4876351092
 20
80.4683123401
 30
0.0
 10
50.8305646496
 20
81.4582085385
 30
0.0
 10
50.3249151051
 20
82.5300296078
 30
0.0
 10
50.0022313606
 20
83.616106101
 30
0.0
 10
49.9180233796
 20
84.346383953
 30
0.0
 10
49.9180233796
 20
84.6948305954
 30
0.0
  0
SPLINE
  5
3F2
100
AcDbEntity
  8
0
100
AcDbSpline
 62
7
  6
CONTINUOUS
 70
0
 71
3
 72
12
 73
8
 74
0
 42
0.0000001
 43
0.0000001
 44
0.0000000001
 40
0.0
 40
0.0
 40
0.0
 40
0.0
 40
0.2887128278
 40
0.5474550214
 40
0.7808172865
 40
0.8913944312
 40
1.0
 40
1.0
 40
1.0
 40
1.0
 10
51.8968739681
 20
78.0602217369
 30
0.0
 10
52.1004370737
 20
77.9462514671
 30
0.0
 10
52.5050249534
 20
77.7601406003
 30
0.0
 10
53.1250611597
 20
77.6179647407
 30
0.0
 10
53.6193658788
 20
77.6355323736
 30
0.0
 10
53.9726513119
 20
77.735226549
 30
0.0
 10
54.1338288666
 20
77.8109852017
 30
0.0
 10
54.2098323973
 20
77.8548621084
 30
0.0
  0
SPLINE
  5
3F3
100
AcDbEntity
  8
0
100
AcDbSpline
 62
7
  6
CONTINUOUS
 70
0
 71
3
 72
16
 73
12
 74
0
 42
0.0000001
 43
0.0000001
 44
0.0000000001
 40
0.0
 40
0.0
 40
0.0
 40
0.0
 40
0.0492727434
 40
0.0990287726
 40
0.2016292151
 40
0.3110770999
 40
0.4294510141
 40
0.5577749045
 40
0.696155113
 40
0.8439622656
 40
1.0
 40
1.0
 40
1.0
 40
1.0
 10
42.4144007953
 20
89.9161823029
 30
0.0
 10
42.561346699
 20
90.0010213644
 30
0.0
 10
42.8675091005
 20
90.1535385754
 30
0.0
 10
43.5231318213
 20
90.3863751529
 30
0.0
 10
44.4212997254
 20
90.533087781
 30
0.0
 10
45.5647763935
 20
90.4747090886
 30
0.0
 10
46.7637222863
 20
90.1902468134
 30
0.0
 10
47.9956557456
 20
89.6876586443
 30
0.0
 10
49.2382463006
 20
88.9778997229
 30
0.0
 10
50.4681949655
 20
88.075175806
 30
0.0
 10
51.2461968775
 20
87.3726675187
 30
0.0
 10
51.628366197
 20
86.9949357132
 30
0.0
  0
SPLINE
  5
3F4
100
AcDbEntity
  8
0
100
AcDbSpline
 62
7
  6
CONTINUOUS
 70
0
 71
3
 72
15
 73
11
 74
0
 42
0.0000001
 43
0.0000001
 44
0.0000000001
 40
0.0
 40
0.0
 40
0.0
 40
0.0
 40
0.1255772141
 40
0.2549345142
 40
0.3861095565
 40
0.5170513794
 40
0.6457191828
 40
0.7701871453
 40
0.8887428327
 40
1.0
 40
1.0
 40
1.0
 40
1.0
 10
51.628366197
 20
86.9949357132
 30
0.0
 10
52.0631964939
 20
86.5651543972
 30
0.0
 10
52.9016583141
 20
85.6468758158
 30
0.0
 10
54.0360233764
 20
84.1448745922
 30
0.0
 10
55.0460042054
 20
82.5255797915
 30
0.0
 10
55.9080056232
 20
80.8266989887
 30
0.0
 10
56.6020980727
 20
79.0875684085
 30
0.0
 10
57.1122301601
 20
77.3482549658
 30
0.0
 10
57.4265447263
 20
75.649161115
 30
0.0
 10
57.5032415379
 20
74.5295089054
 30
0.0
 10
57.5032415379
 20
73.9878440909
 30
0.0
  0
SPLINE
  5
3F5
100
AcDbEntity
  8
0
100
AcDbSpline
 62
7
  6
CONTINUOUS
 70
0
 71
3
 72
9
 73
5
 74
0
 42
0.0000001
 43
0.0000001
 44
0.0000000001
 40
0.0
 40
0.0
 40
0.0
 40
0.0
 40
0.4973574674
 40
1.0
 40
1.0
 40
1.0
 40
1.0
 10
43.1644045223
 20
88.617130205
 30
0.0
 10
43.0296319009
 20
88.5393080144
 30
0.0
 10
42.7683827251
 20
88.3653608287
 30
0.0
 10
42.5311778553
 20
88.1599032001
 30
0.0
 10
42.418752951
 20
88.0499119954
 30
0.0
  0
SPLINE
  5
3F6
100
AcDbEntity
  8
0
100
AcDbSpline
 62
7
  6
CONTINUOUS
 70
0
 71
3
 72
12
 73
8
 74
0
 42
0.0000001
 43
0.0000001
 44
0.0000000001
 40
0.0
 40
0.0
 40
0.0
 40
0.0
 40
0.1081889573
 40
0.2198571844
 40
0.4568075871
 40
0.716257568
 40
1.0
 40
1.0
 40
1.0
 40
1.0
 10
42.418752951
 20
88.0499119954
 30
0.0
 10
42.2939117237
 20
87.9277732479
 30
0.0
 10
42.0566652751
 20
87.6621871962
 30
0.0
 10
41.6373983786
 20
87.0536188045
 30
0.0
 10
41.2297964535
 20
86.1511376652
 30
0.0
 10
40.9439344577
 20
84.9183809377
 30
0.0
 10
40.886162997
 20
84.0395530933
 30
0.0
 10
40.886162997
 20
83.5815018221
 30
0.0
  0
SPLINE
  5
3F7
100
AcDbEntity
  8
0
100
AcDbSpline
 62
7
  6
CONTINUOUS
 70
0
 71
3
 72
12
 73
8
 74
0
 42
0.0000001
 43
0.0000001
 44
0.0000000001
 40
0.0
 40
0.0
 40
0.0
 40
0.0
 40
0.1081594591
 40
0.2183589149
 40
0.4513620313
 40
0.7104188771
 40
1.0
 40
1.0
 40
1.0
 40
1.0
 10
49.4828408805
 20
86.0423004516
 30
0.0
 10
49.4053408571
 20
85.9975565578
 30
0.0
 10
49.2563523514
 20
85.8935380471
 30
0.0
 10
48.9890126135
 20
85.6306576112
 30
0.0
 10
48.7243214865
 20
85.1990385647
 30
0.0
 10
48.5401176576
 20
84.5734948154
 30
0.0
 10
48.5038157052
 20
84.1179358171
 30
0.0
 10
48.5038157052
 20
83.8783422877
 30
0.0
  0
SPLINE
  5
3F8
100
AcDbEntity
  8
0
100
AcDbSpline
 62
7
  6
CONTINUOUS
 70
0
 71
3
 72
12
 73
8
 74
0
 42
0.0000001
 43
0.0000001
 44
0.0000000001
 40
0.0
 40
0.0
 40
0.0
 40
0.0
 40
0.2864558024
 40
0.5459699681
 40
0.7812886817
 40
0.892166309
 40
1.0
 40
1.0
 40
1.0
 40
1.0
 10
56.796077842
 20
102.1567670546
 30
0.0
 10
56.4416214084
 20
101.9521228055
 30
0.0
 10
55.7922173754
 20
101.5124576693
 30
0.0
 10
54.990484272
 20
100.7259078514
 30
0.0
 10
54.5169554465
 20
99.9896259352
 30
0.0
 10
54.2842174279
 20
99.3821194378
 30
0.0
 10
54.2150195064
 20
99.0759859483
 30
0.0
 10
54.1925382514
 20
98.9235612567
 30
0.0
  0
SPLINE
  5
3F9
100
AcDbEntity
  8
0
100
AcDbSpline
 62
7
  6
CONTINUOUS
 70
0
 71
3
 72
20
 73
16
 74
0
 42
0.0000001
 43
0.0000001
 44
0.0000000001
 40
0.0
 40
0.0
 40
0.0
 40
0.0
 40
0.0436541817
 40
0.0897167764
 40
0.1388345179
 40
0.1913904552
 40
0.2475269491
 40
0.3071800376
 40
0.3701189178
 40
0.435980062
 40
0.504294398
 40
0.57451228
 40
0.7181118376
 40
0.8616730065
 40
1.0
 40
1.0
 40
1.0
 40
1.0
 10
56.7675122799
 20
72.1472225029
 30
0.0
 10
56.5335581225
 20
72.0877347216
 30
0.0
 10
56.0396156272
 20
72.0131225287
 30
0.0
 10
55.2688365606
 20
72.0346913248
 30
0.0
 10
54.4628383828
 20
72.1851579231
 30
0.0
 10
53.6326336153
 20
72.461558672
 30
0.0
 10
52.7889417925
 20
72.8595601723
 30
0.0
 10
51.9428485815
 20
73.3734762146
 30
0.0
 10
51.1055615877
 20
73.9962180529
 30
0.0
 10
50.288344029
 20
74.7193051106
 30
0.0
 10
49.5022113471
 20
75.5329379647
 30
0.0
 10
48.5026600252
 20
76.7322684
 30
0.0
 10
47.4002350491
 20
78.3806979305
 30
0.0
 10
46.3617031411
 20
80.4991032057
 30
0.0
 10
45.8735352302
 20
81.9866227814
 30
0.0
 10
45.6939830998
 20
82.7301708591
 30
0.0
  0
SPLINE
  5
3FA
100
AcDbEntity
  8
0
100
AcDbSpline
 62
7
  6
CONTINUOUS
 70
0
 71
3
 72
9
 73
5
 74
0
 42
0.0000001
 43
0.0000001
 44
0.0000000001
 40
0.0
 40
0.0
 40
0.0
 40
0.0
 40
0.2550971692
 40
1.0
 40
1.0
 40
1.0
 40
1.0
 10
45.531563869
 20
83.4983376012
 30
0.0
 10
45.5137849443
 20
83.5966184371
 30
0.0
 10
45.4485420928
 20
83.9826709554
 30
0.0
 10
45.4013381773
 20
84.3718330028
 30
0.0
 10
45.377696109
 20
84.662518518
 30
0.0
  0
SPLINE
  5
3FB
100
AcDbEntity
  8
0
100
AcDbSpline
 62
7
  6
CONTINUOUS
 70
0
 71
3
 72
11
 73
7
 74
0
 42
0.0000001
 43
0.0000001
 44
0.0000000001
 40
0.0
 40
0.0
 40
0.0
 40
0.0
 40
0.2731759987
 40
0.5279001453
 40
0.7682370764
 40
1.0
 40
1.0
 40
1.0
 40
1.0
 10
47.8840248631
 20
91.0610319649
 30
0.0
 10
47.5349361138
 20
91.1592568008
 30
0.0
 10
46.8456233919
 20
91.3025465622
 30
0.0
 10
45.8211387584
 20
91.3412166868
 30
0.0
 10
44.8613840374
 20
91.1927639878
 30
0.0
 10
44.2706966428
 20
90.9663951756
 30
0.0
 10
43.9974340084
 20
90.8250189345
 30
0.0
  0
SPLINE
  5
3FC
100
AcDbEntity
  8
0
100
AcDbSpline
 62
7
  6
CONTINUOUS
 70
0
 71
3
 72
12
 73
8
 74
0
 42
0.0000001
 43
0.0000001
 44
0.0000000001
 40
0.0
 40
0.0
 40
0.0
 40
0.0
 40
0.105517949
 40
0.2135067265
 40
0.4444828518
 40
0.7055226302
 40
1.0
 40
1.0
 40
1.0
 40
1.0
 10
43.0538129072
 20
82.1558337525
 30
0.0
 10
43.0538191977
 20
82.1103531811
 30
0.0
 10
43.0626924952
 20
82.0180942452
 30
0.0
 10
43.1164441941
 20
81.8332113672
 30
0.0
 10
43.2543871692
 20
81.6087307949
 30
0.0
 10
43.5067768803
 20
81.3779153581
 30
0.0
 10
43.7150146935
 20
81.2563295506
 30
0.0
 10
43.829451263
 20
81.2014246477
 30
0.0
  0
SPLINE
  5
3FD
100
AcDbEntity
  8
0
100
AcDbSpline
 62
7
  6
CONTINUOUS
 70
0
 71
3
 72
11
 73
7
 74
0
 42
0.0000001
 43
0.0000001
 44
0.0000000001
 40
0.0
 40
0.0
 40
0.0
 40
0.0
 40
0.2026037499
 40
0.4238006338
 40
0.6866988477
 40
1.0
 40
1.0
 40
1.0
 40
1.0
 10
47.9572489037
 20
90.994848247
 30
0.0
 10
47.9572488361
 20
91.0019697602
 30
0.0
 10
47.953605785
 20
91.017080668
 30
0.0
 10
47.9378047753
 20
91.0361091889
 30
0.0
 10
47.9137962763
 20
91.0511396404
 30
0.0
 10
47.8946257327
 20
91.0580491455
 30
0.0
 10
47.8840248631
 20
91.0610319649
 30
0.0
  0
SPLINE
  5
3FE
100
AcDbEntity
  8
0
100
AcDbSpline
 62
7
  6
CONTINUOUS
 70
0
 71
3
 72
11
 73
7
 74
0
 42
0.0000001
 43
0.0000001
 44
0.0000000001
 40
0.0
 40
0.0
 40
0.0
 40
0.0
 40
0.310479908
 40
0.573403743
 40
0.7964127389
 40
1.0
 40
1.0
 40
1.0
 40
1.0
 10
48.0304750204
 20
90.6985057227
 30
0.0
 10
48.0197790169
 20
90.7022683448
 30
0.0
 10
48.0004561622
 20
90.7106541803
 30
0.0
 10
47.9764970075
 20
90.7276431846
 30
0.0
 10
47.9608876252
 20
90.7480884256
 30
0.0
 10
47.9572510533
 20
90.7638536057
 30
0.0
 10
47.9572509854
 20
90.7712884709
 30
0.0
  0
SPLINE
  5
3FF
100
AcDbEntity
  8
0
100
AcDbSpline
 62
7
  6
CONTINUOUS
 70
0
 71
3
 72
9
 73
5
 74
0
 42
0.0000001
 43
0.0000001
 44
0.0000000001
 40
0.0
 40
0.0
 40
0.0
 40
0.0
 40
0.524020184
 40
1.0
 40
1.0
 40
1.0
 40
1.0
 10
51.4195764327
 20
88.7418513766
 30
0.0
 10
50.8846852054
 20
89.1713134728
 30
0.0
 10
49.8075966277
 20
89.9242627292
 30
0.0
 10
48.618244801
 20
90.4917410766
 30
0.0
 10
48.0304750223
 20
90.6985057219
 30
0.0
  0
SPLINE
  5
400
100
AcDbEntity
  8
0
100
AcDbSpline
 62
7
  6
CONTINUOUS
 70
0
 71
3
 72
9
 73
5
 74
0
 42
0.0000001
 43
0.0000001
 44
0.0000000001
 40
0.0
 40
0.0
 40
0.0
 40
0.0
 40
0.259401507
 40
1.0
 40
1.0
 40
1.0
 40
1.0
 10
51.5963534114
 20
88.6702992268
 30
0.0
 10
51.5798719386
 20
88.6723009333
 30
0.0
 10
51.51700278
 20
88.6842497821
 30
0.0
 10
51.456537992
 20
88.7121750837
 30
0.0
 10
51.4195764327
 20
88.7418513766
 30
0.0
  0
SPLINE
  5
401
100
AcDbEntity
  8
0
100
AcDbSpline
 62
7
  6
CONTINUOUS
 70
0
 71
3
 72
9
 73
5
 74
0
 42
0.0000001
 43
0.0000001
 44
0.0000000001
 40
0.0
 40
0.0
 40
0.0
 40
0.0
 40
0.2404654578
 40
1.0
 40
1.0
 40
1.0
 40
1.0
 10
52.273130433
 20
88.5270380092
 30
0.0
 10
52.2613703003
 20
88.5373081266
 30
0.0
 10
52.208957619
 20
88.5759053986
 30
0.0
 10
52.1451997848
 20
88.5983973142
 30
0.0
 10
52.0963534329
 20
88.6051891942
 30
0.0
  0
SPLINE
  5
402
100
AcDbEntity
  8
0
100
AcDbSpline
 62
7
  6
CONTINUOUS
 70
0
 71
3
 72
20
 73
16
 74
0
 42
0.0000001
 43
0.0000001
 44
0.0000000001
 40
0.0
 40
0.0
 40
0.0
 40
0.0
 40
0.0432695344
 40
0.0881715171
 40
0.1356063437
 40
0.186210669
 40
0.2403530315
 40
0.2981599347
 40
0.3595508663
 40
0.4242774765
 40
0.4919589429
 40
0.5621092223
 40
0.7074025331
 40
0.85515513
 40
1.0
 40
1.0
 40
1.0
 40
1.0
 10
55.967532186
 20
71.3722154514
 30
0.0
 10
55.7523169947
 20
71.2735459634
 30
0.0
 10
55.2918723533
 20
71.1172933027
 30
0.0
 10
54.5524737965
 20
71.0182345784
 30
0.0
 10
53.7674413138
 20
71.0514003643
 30
0.0
 10
52.9480452368
 20
71.2149502914
 30
0.0
 10
52.1049467644
 20
71.5055923951
 30
0.0
 10
51.2491400519
 20
71.9188940611
 30
0.0
 10
50.3918132857
 20
72.4489997058
 30
0.0
 10
49.5443254495
 20
73.0886094439
 30
0.0
 10
48.7179741858
 20
73.8290737079
 30
0.0
 10
47.6471550737
 20
74.9502933773
 30
0.0
 10
46.436285707
 20
76.5352175396
 30
0.0
 10
45.2468519526
 20
78.6225083218
 30
0.0
 10
44.6462478641
 20
80.1134278681
 30
0.0
 10
44.4058714241
 20
80.8686358412
 30
0.0
  0
SPLINE
  5
403
100
AcDbEntity
  8
0
100
AcDbSpline
 62
7
  6
CONTINUOUS
 70
0
 71
3
 72
10
 73
6
 74
0
 42
0.0000001
 43
0.0000001
 44
0.0000000001
 40
0.0
 40
0.0
 40
0.0
 40
0.0
 40
0.5116497899
 40
0.760023432
 40
1.0
 40
1.0
 40
1.0
 40
1.0
 10
56.1597212779
 20
83.8032779696
 30
0.0
 10
55.6223944598
 20
84.7017090329
 30
0.0
 10
54.726179839
 20
85.9819713235
 30
0.0
 10
53.3662970167
 20
87.5125529418
 30
0.0
 10
52.6429568427
 20
88.2040688099
 30
0.0
 10
52.273130433
 20
88.5270380092
 30
0.0
  0
SPLINE
  5
404
100
AcDbEntity
  8
0
100
AcDbSpline
 62
7
  6
CONTINUOUS
 70
0
 71
3
 72
20
 73
16
 74
0
 42
0.0000001
 43
0.0000001
 44
0.0000000001
 40
0.0
 40
0.0
 40
0.0
 40
0.0
 40
0.1462100055
 40
0.2952795562
 40
0.4414769643
 40
0.5118314072
 40
0.5795139968
 40
0.6440267931
 40
0.7049951305
 40
0.762200201
 40
0.8156181439
 40
0.8654653776
 40
0.9122379565
 40
0.9567296183
 40
1.0
 40
1.0
 40
1.0
 40
1.0
 10
44.1088878125
 20
80.6971732966
 30
0.0
 10
44.3563038563
 20
79.9198484933
 30
0.0
 10
44.9777701559
 20
78.3866483459
 30
0.0
 10
46.2130668998
 20
76.2476300575
 30
0.0
 10
47.4722034647
 20
74.6325643665
 30
0.0
 10
48.5845104788
 20
73.5002792386
 30
0.0
 10
49.4402475064
 20
72.7600469054
 30
0.0
 10
50.3156302132
 20
72.1287778809
 30
0.0
 10
51.1983476711
 20
71.6155045823
 30
0.0
 10
52.0760774143
 20
71.227710841
 30
0.0
 10
52.9367654857
 20
70.9713504437
 30
0.0
 10
53.7685725976
 20
70.8508801164
 30
0.0
 10
54.5598812053
 20
70.869448004
 30
0.0
 10
55.2982439605
 20
71.0284084417
 30
0.0
 10
55.7496117889
 20
71.2288378944
 30
0.0
 10
55.9586970558
 20
71.3495289505
 30
0.0
  0
SPLINE
  5
405
100
AcDbEntity
  8
0
100
AcDbSpline
 62
7
  6
CONTINUOUS
 70
0
 71
3
 72
11
 73
7
 74
0
 42
0.0000001
 43
0.0000001
 44
0.0000000001
 40
0.0
 40
0.0
 40
0.0
 40
0.0
 40
0.2897042895
 40
0.5490907647
 40
0.7822174449
 40
1.0
 40
1.0
 40
1.0
 40
1.0
 10
84.3731284727
 20
108.3621526863
 30
0.0
 10
84.3731284727
 20
108.4330884087
 30
0.0
 10
84.3623736332
 20
108.5679929763
 30
0.0
 10
84.307739038
 20
108.7533445925
 30
0.0
 10
84.2157524719
 20
108.9037465068
 30
0.0
 10
84.1293490508
 20
108.9763850723
 30
0.0
 10
84.0831677309
 20
109.0030472433
 30
0.0
  0
SPLINE
  5
406
100
AcDbEntity
  8
0
100
AcDbSpline
 62
7
  6
CONTINUOUS
 70
0
 71
3
 72
11
 73
7
 74
0
 42
0.0000001
 43
0.0000001
 44
0.0000000001
 40
0.0
 40
0.0
 40
0.0
 40
0.0
 40
0.289702809
 40
0.549088757
 40
0.7822160314
 40
1.0
 40
1.0
 40
1.0
 40
1.0
 10
84.0902869379
 20
110.1584608259
 30
0.0
 10
84.1517164197
 20
110.1939269421
 30
0.0
 10
84.2739194509
 20
110.2520624728
 30
0.0
 10
84.4617481441
 20
110.2974214018
 30
0.0
 10
84.637986607
 20
110.2929605822
 30
0.0
 10
84.7440917902
 20
110.2544551237
 30
0.0
 10
84.7902715681
 20
110.2277938143
 30
0.0
  0
SPLINE
  5
407
100
AcDbEntity
  8
0
100
AcDbSpline
 62
7
  6
CONTINUOUS
 70
0
 71
3
 72
17
 73
13
 74
0
 42
0.0000001
 43
0.0000001
 44
0.0000000001
 40
0.0
 40
0.0
 40
0.0
 40
0.0
 40
0.139681928
 40
0.276471774
 40
0.408389288
 40
0.5346046792
 40
0.6551874907
 40
0.7712201544
 40
0.8282943208
 40
0.8852254029
 40
0.9423809298
 40
1.0
 40
1.0
 40
1.0
 40
1.0
 10
56.159721278
 20
83.803277969
 30
0.0
 10
56.4018818901
 20
83.3983761297
 30
0.0
 10
56.9032949476
 20
82.6102431138
 30
0.0
 10
57.6692250004
 20
81.4631169955
 30
0.0
 10
58.404766929
 20
80.3503013085
 30
0.0
 10
59.0749690705
 20
79.2601647825
 30
0.0
 10
59.6443974207
 20
78.1734195318
 30
0.0
 10
59.9975101358
 20
77.2417336989
 30
0.0
 10
60.1706770386
 20
76.4830516467
 30
0.0
 10
60.2401991398
 20
75.9079674347
 30
0.0
 10
60.2456575956
 20
75.3268827338
 30
0.0
 10
60.2066869767
 20
74.9403165435
 30
0.0
 10
60.1773278283
 20
74.7479288735
 30
0.0
  0
SPLINE
  5
408
100
AcDbEntity
  8
0
100
AcDbSpline
 62
7
  6
CONTINUOUS
 70
0
 71
3
 72
10
 73
6
 74
0
 42
0.0000001
 43
0.0000001
 44
0.0000000001
 40
0.0
 40
0.0
 40
0.0
 40
0.0
 40
0.2733524064
 40
0.5311400841
 40
1.0
 40
1.0
 40
1.0
 40
1.0
 10
44.7752341017
 20
85.8268446684
 30
0.0
 10
44.7752341017
 20
86.1418825081
 30
0.0
 10
44.8031998946
 20
86.7548382453
 30
0.0
 10
44.9750618412
 20
87.8950795421
 30
0.0
 10
45.2437581428
 20
88.7021809084
 30
0.0
 10
45.493333257
 20
89.181452054
 30
0.0
  0
SPLINE
  5
409
100
AcDbEntity
  8
0
100
AcDbSpline
 62
7
  6
CONTINUOUS
 70
0
 71
3
 72
15
 73
11
 74
0
 42
0.0000001
 43
0.0000001
 44
0.0000000001
 40
0.0
 40
0.0
 40
0.0
 40
0.0
 40
0.1135176169
 40
0.2358058156
 40
0.3644906059
 40
0.4967519819
 40
0.6294615792
 40
0.7594578184
 40
0.8838213131
 40
1.0
 40
1.0
 40
1.0
 40
1.0
 10
58.4374245078
 20
72.7676981589
 30
0.0
 10
58.5400618015
 20
72.7084418303
 30
0.0
 10
58.7639301617
 20
72.6033808616
 30
0.0
 10
59.1281306568
 20
72.4898749948
 30
0.0
 10
59.5225772191
 20
72.4175603198
 30
0.0
 10
59.9333816243
 20
72.3889149005
 30
0.0
 10
60.3462329292
 20
72.4049870971
 30
0.0
 10
60.7467334943
 20
72.4651629178
 30
0.0
 10
61.1207672358
 20
72.5673853175
 30
0.0
 10
61.3532063397
 20
72.665145871
 30
0.0
 10
61.4608792166
 20
72.7209895272
 30
0.0
  0
SPLINE
  5
40A
100
AcDbEntity
  8
0
100
AcDbSpline
 62
7
  6
CONTINUOUS
 70
0
 71
3
 72
14
 73
10
 74
0
 42
0.0000001
 43
0.0000001
 44
0.0000000001
 40
0.0
 40
0.0
 40
0.0
 40
0.0
 40
0.2892839386
 40
0.4225434953
 40
0.548497544
 40
0.6678972503
 40
0.7818707126
 40
0.8919533279
 40
1.0
 40
1.0
 40
1.0
 40
1.0
 10
49.442162998
 20
100.8505721473
 30
0.0
 10
49.003199949
 20
101.1040018484
 30
0.0
 10
48.3884651242
 20
101.5272442016
 30
0.0
 10
47.6929715207
 20
102.1928743823
 30
0.0
 10
47.2697032909
 20
102.7059727231
 30
0.0
 10
46.9350459233
 20
103.241606177
 30
0.0
 10
46.692834331
 20
103.7950885476
 30
0.0
 10
46.5461110459
 20
104.3607389366
 30
0.0
 10
46.5132087008
 20
104.7437000271
 30
0.0
 10
46.5132087036
 20
104.933013686
 30
0.0
  0
SPLINE
  5
40B
100
AcDbEntity
  8
0
100
AcDbSpline
 62
7
  6
CONTINUOUS
 70
0
 71
3
 72
15
 73
11
 74
0
 42
0.0000001
 43
0.0000001
 44
0.0000000001
 40
0.0
 40
0.0
 40
0.0
 40
0.0
 40
0.1141584021
 40
0.2373252831
 40
0.3669757617
 40
0.4999994786
 40
0.633023268
 40
0.7626739585
 40
0.8858411731
 40
1.0
 40
1.0
 40
1.0
 40
1.0
 10
68.6754886427
 20
97.9112727082
 30
0.0
 10
68.1914025409
 20
97.6317871354
 30
0.0
 10
67.1329027315
 20
97.1388741293
 30
0.0
 10
65.4091758623
 20
96.6150012213
 30
0.0
 10
63.5430071005
 20
96.2924945227
 30
0.0
 10
61.604432756
 20
96.1836877906
 30
0.0
 10
59.6658568619
 20
96.2924853219
 30
0.0
 10
57.7996835213
 20
96.6149831594
 30
0.0
 10
56.0759492319
 20
97.1388478737
 30
0.0
 10
55.0174429372
 20
97.6317555929
 30
0.0
 10
54.533353019
 20
97.9112387147
 30
0.0
  0
SPLINE
  5
40C
100
AcDbEntity
  8
0
100
AcDbSpline
 62
7
  6
CONTINUOUS
 70
0
 71
3
 72
14
 73
10
 74
0
 42
0.0000001
 43
0.0000001
 44
0.0000000001
 40
0.0
 40
0.0
 40
0.0
 40
0.0
 40
0.2892823528
 40
0.4225484467
 40
0.5484959445
 40
0.667894673
 40
0.7818698222
 40
0.8919536913
 40
1.0
 40
1.0
 40
1.0
 40
1.0
 10
50.1492138438
 20
108.6071804767
 30
0.0
 10
49.7541563855
 20
108.3790953083
 30
0.0
 10
49.2008950306
 20
107.9981786371
 30
0.0
 10
48.574973111
 20
107.3991092597
 30
0.0
 10
48.1940364144
 20
106.9373299218
 30
0.0
 10
47.8928683002
 20
106.455263496
 30
0.0
 10
47.674889488
 20
105.957133787
 30
0.0
 10
47.5427862925
 20
105.448060858
 30
0.0
 10
47.5132353216
 20
105.1033930444
 30
0.0
 10
47.5132353212
 20
104.933013686
 30
0.0
  0
SPLINE
  5
40D
100
AcDbEntity
  8
0
100
AcDbSpline
 62
7
  6
CONTINUOUS
 70
0
 71
3
 72
13
 73
9
 74
0
 42
0.0000001
 43
0.0000001
 44
0.0000000001
 40
0.0
 40
0.0
 40
0.0
 40
0.0
 40
0.1130314585
 40
0.2274011419
 40
0.3443723928
 40
0.465053194
 40
0.7207684282
 40
1.0
 40
1.0
 40
1.0
 40
1.0
 10
46.5132082158
 20
98.4009943494
 30
0.0
 10
46.513209351
 20
98.2517482116
 30
0.0
 10
46.5335216732
 20
97.951109746
 30
0.0
 10
46.6243480279
 20
97.5043032975
 30
0.0
 10
46.7750467165
 20
97.0632812557
 30
0.0
 10
47.0593599944
 20
96.4756114931
 30
0.0
 10
47.5690188426
 20
95.7673182713
 30
0.0
 10
48.0857542617
 20
95.2800522195
 30
0.0
 10
48.3723506663
 20
95.0481057672
 30
0.0
  0
SPLINE
  5
40E
100
AcDbEntity
  8
0
100
AcDbSpline
 62
7
  6
CONTINUOUS
 70
0
 71
3
 72
15
 73
11
 74
0
 42
0.0000001
 43
0.0000001
 44
0.0000000001
 40
0.0
 40
0.0
 40
0.0
 40
0.0
 40
0.1201843651
 40
0.2467464823
 40
0.3773511765
 40
0.5093799225
 40
0.6401336712
 40
0.7669929638
 40
0.8875846687
 40
1.0
 40
1.0
 40
1.0
 40
1.0
 10
55.7970025292
 20
90.761577941
 30
0.0
 10
56.2891205058
 20
90.5588979255
 30
0.0
 10
57.3281353818
 20
90.210263072
 30
0.0
 10
58.96573781
 20
89.8624599457
 30
0.0
 10
60.6830257506
 20
89.6833222252
 30
0.0
 10
62.4280141449
 20
89.6784270808
 30
0.0
 10
64.148179513
 20
89.8478136178
 30
0.0
 10
65.791867505
 20
90.1865354664
 30
0.0
 10
67.3094682811
 20
90.6842367166
 30
0.0
 10
68.2443659003
 20
91.1303460256
 30
0.0
 10
68.6754886427
 20
91.3792533712
 30
0.0
  0
SPLINE
  5
40F
100
AcDbEntity
  8
0
100
AcDbSpline
 62
7
  6
CONTINUOUS
 70
0
 71
3
 72
15
 73
11
 74
0
 42
0.0000001
 43
0.0000001
 44
0.0000000001
 40
0.0
 40
0.0
 40
0.0
 40
0.0
 40
0.1141545727
 40
0.237326136
 40
0.3669756042
 40
0.4999994969
 40
0.633023459
 40
0.7626731323
 40
0.885845015
 40
1.0
 40
1.0
 40
1.0
 40
1.0
 10
63.2307890962
 20
88.2357733864
 30
0.0
 10
62.9887541511
 20
88.0960352798
 30
0.0
 10
62.459501011
 20
87.8495822096
 30
0.0
 10
61.5976427551
 20
87.5876289028
 30
0.0
 10
60.6645462169
 20
87.426386572
 30
0.0
 10
59.6952610181
 20
87.3719839197
 30
0.0
 10
58.7259750622
 20
87.4263819975
 30
0.0
 10
57.7928762988
 20
87.5876199208
 30
0.0
 10
56.9310144153
 20
87.8495691199
 30
0.0
 10
56.4017580979
 20
88.0960195306
 30
0.0
 10
56.1597212715
 20
88.235756397
 30
0.0
  0
SPLINE
  5
410
100
AcDbEntity
  8
0
100
AcDbSpline
 62
7
  6
CONTINUOUS
 70
0
 71
3
 72
9
 73
5
 74
0
 42
0.0000001
 43
0.0000001
 44
0.0000000001
 40
0.0
 40
0.0
 40
0.0
 40
0.0
 40
0.4744342232
 40
1.0
 40
1.0
 40
1.0
 40
1.0
 10
52.273130433
 20
90.4796299006
 30
0.0
 10
52.2480353603
 20
90.4941182199
 30
0.0
 10
52.1896951145
 20
90.5152658067
 30
0.0
 10
52.128453537
 20
90.5219044432
 30
0.0
 10
52.0963534329
 20
90.521904366
 30
0.0
  0
SPLINE
  5
411
100
AcDbEntity
  8
0
100
AcDbSpline
 62
7
  6
CONTINUOUS
 70
0
 71
3
 72
9
 73
5
 74
0
 42
0.0000001
 43
0.0000001
 44
0.0000000001
 40
0.0
 40
0.0
 40
0.0
 40
0.0
 40
0.4862234924
 40
1.0
 40
1.0
 40
1.0
 40
1.0
 10
78.9586727775
 20
63.5664357002
 30
0.0
 10
79.0967189443
 20
63.6461298767
 30
0.0
 10
79.3564819545
 20
63.8552461626
 30
0.0
 10
79.5446936273
 20
64.1289409989
 30
0.0
 10
79.6233614732
 20
64.2778720735
 30
0.0
  0
SPLINE
  5
412
100
AcDbEntity
  8
0
100
AcDbSpline
 62
7
  6
CONTINUOUS
 70
0
 71
3
 72
9
 73
5
 74
0
 42
0.0000001
 43
0.0000001
 44
0.0000000001
 40
0.0
 40
0.0
 40
0.0
 40
0.0
 40
0.472427363
 40
1.0
 40
1.0
 40
1.0
 40
1.0
 10
79.6875571691
 20
64.4098268645
 30
0.0
 10
79.7744118342
 20
64.6041037563
 30
0.0
 10
79.9022230802
 20
65.0410520909
 30
0.0
 10
79.9376991571
 20
65.4927432302
 30
0.0
 10
79.9376991571
 20
65.7303917765
 30
0.0
  0
SPLINE
  5
413
100
AcDbEntity
  8
0
100
AcDbSpline
 62
7
  6
CONTINUOUS
 70
0
 71
3
 72
14
 73
10
 74
0
 42
0.0000001
 43
0.0000001
 44
0.0000000001
 40
0.0
 40
0.0
 40
0.0
 40
0.0
 40
0.1078797664
 40
0.218093555
 40
0.3323450354
 40
0.4520232248
 40
0.5781456617
 40
0.7114072736
 40
1.0
 40
1.0
 40
1.0
 40
1.0
 10
81.1208476688
 20
59.5945183487
 30
0.0
 10
80.9699117564
 20
59.5146190552
 30
0.0
 10
80.6506840773
 20
59.378341658
 30
0.0
 10
80.1377772528
 20
59.2521844228
 30
0.0
 10
79.5931482683
 20
59.2037673987
 30
0.0
 10
79.022258387
 20
59.2331005771
 30
0.0
 10
78.4301730447
 20
59.3394308194
 30
0.0
 10
77.5978483248
 20
59.5887067864
 30
0.0
 10
76.9908297738
 20
59.8790817604
 30
0.0
 10
76.5951776212
 20
60.1075064696
 30
0.0
  0
SPLINE
  5
414
100
AcDbEntity
  8
0
100
AcDbSpline
 62
7
  6
CONTINUOUS
 70
0
 71
3
 72
11
 73
7
 74
0
 42
0.0000001
 43
0.0000001
 44
0.0000000001
 40
0.0
 40
0.0
 40
0.0
 40
0.0
 40
0.2177839237
 40
0.4509111717
 40
0.7102971901
 40
1.0
 40
1.0
 40
1.0
 40
1.0
 10
108.832008111
 20
94.7146208351
 30
0.0
 10
108.7858283304
 20
94.7412821174
 30
0.0
 10
108.6797231869
 20
94.7797876088
 30
0.0
 10
108.5034847147
 20
94.7842484266
 30
0.0
 10
108.315656019
 20
94.7388894802
 30
0.0
 10
108.1934529627
 20
94.6807539628
 30
0.0
 10
108.1320234808
 20
94.6452878467
 30
0.0
  0
SPLINE
  5
415
100
AcDbEntity
  8
0
100
AcDbSpline
 62
7
  6
CONTINUOUS
 70
0
 71
3
 72
11
 73
7
 74
0
 42
0.0000001
 43
0.0000001
 44
0.0000000001
 40
0.0
 40
0.0
 40
0.0
 40
0.0
 40
0.2177839237
 40
0.4509111717
 40
0.7102971901
 40
1.0
 40
1.0
 40
1.0
 40
1.0
 10
106.0035633225
 20
97.9805711787
 30
0.0
 10
105.9573835419
 20
98.007232461
 30
0.0
 10
105.8512783983
 20
98.0457379524
 30
0.0
 10
105.6750399262
 20
98.0501987702
 30
0.0
 10
105.4872112305
 20
98.0048398238
 30
0.0
 10
105.3650081741
 20
97.9467043064
 30
0.0
 10
105.3035786923
 20
97.9112381903
 30
0.0
  0
SPLINE
  5
416
100
AcDbEntity
  8
0
100
AcDbSpline
 62
7
  6
CONTINUOUS
 70
0
 71
3
 72
11
 73
7
 74
0
 42
0.0000001
 43
0.0000001
 44
0.0000000001
 40
0.0
 40
0.0
 40
0.0
 40
0.0
 40
0.2177825102
 40
0.4509091639
 40
0.7102957096
 40
1.0
 40
1.0
 40
1.0
 40
1.0
 10
109.5391119482
 20
95.9393674061
 30
0.0
 10
109.5852932461
 20
95.9127052192
 30
0.0
 10
109.6716966758
 20
95.8400667046
 30
0.0
 10
109.763683245
 20
95.6896647813
 30
0.0
 10
109.8183178264
 20
95.5043131542
 30
0.0
 10
109.8290726901
 20
95.3694085714
 30
0.0
 10
109.8290726901
 20
95.2984728491
 30
0.0
  0
SPLINE
  5
417
100
AcDbEntity
  8
0
100
AcDbSpline
 62
7
  6
CONTINUOUS
 70
0
 71
3
 72
14
 73
10
 74
0
 42
0.0000001
 43
0.0000001
 44
0.0000000001
 40
0.0
 40
0.0
 40
0.0
 40
0.0
 40
0.1080460605
 40
0.21812972
 40
0.3321047289
 40
0.4515034045
 40
0.5774509436
 40
0.7107171718
 40
1.0
 40
1.0
 40
1.0
 40
1.0
 10
72.2620757014
 20
90.6445872778
 30
0.0
 10
72.262075701
 20
90.4742061114
 30
0.0
 10
72.2916273164
 20
90.1295345587
 30
0.0
 10
72.4237333373
 20
89.6204562822
 30
0.0
 10
72.6417167766
 20
89.1223215938
 30
0.0
 10
72.9428911696
 20
88.6402506941
 30
0.0
 10
73.3238356883
 20
88.1784675189
 30
0.0
 10
73.9497703469
 20
87.5793937714
 30
0.0
 10
74.5030423634
 20
87.1984755315
 30
0.0
 10
74.8981072153
 20
86.9703898929
 30
0.0
  0
SPLINE
  5
418
100
AcDbEntity
  8
0
100
AcDbSpline
 62
7
  6
CONTINUOUS
 70
0
 71
3
 72
14
 73
10
 74
0
 42
0.0000001
 43
0.0000001
 44
0.0000000001
 40
0.0
 40
0.0
 40
0.0
 40
0.0
 40
0.1080469168
 40
0.2181297392
 40
0.3321033402
 40
0.4515030983
 40
0.5774571041
 40
0.7107165297
 40
1.0
 40
1.0
 40
1.0
 40
1.0
 10
71.2620490838
 20
90.6445872778
 30
0.0
 10
71.2620490866
 20
90.8338989216
 30
0.0
 10
71.2949507068
 20
91.2168558466
 30
0.0
 10
71.4416708506
 20
91.7825002814
 30
0.0
 10
71.6838772952
 20
92.3359771109
 30
0.0
 10
72.0185276724
 20
92.8716055937
 30
0.0
 10
72.4417872082
 20
93.3846996737
 30
0.0
 10
73.1372666609
 20
94.0503250169
 30
0.0
 10
73.7519896543
 20
94.4735656381
 30
0.0
 10
74.1909444988
 20
94.726994823
 30
0.0
  0
SPLINE
  5
419
100
AcDbEntity
  8
0
100
AcDbSpline
 62
7
  6
CONTINUOUS
 70
0
 71
3
 72
12
 73
8
 74
0
 42
0.0000001
 43
0.0000001
 44
0.0000000001
 40
0.0
 40
0.0
 40
0.0
 40
0.0
 40
0.1081614247
 40
0.2183625642
 40
0.451364358
 40
0.7104179553
 40
1.0
 40
1.0
 40
1.0
 40
1.0
 10
67.2818021138
 20
83.0102917285
 30
0.0
 10
67.2818021209
 20
83.1049451718
 30
0.0
 10
67.2982948831
 20
83.2964292566
 30
0.0
 10
67.3977047092
 20
83.6803354643
 30
0.0
 10
67.6530869127
 20
84.1510445038
 30
0.0
 10
68.1286559446
 20
84.6505885454
 30
0.0
 10
68.5267400443
 20
84.9247650399
 30
0.0
 10
68.7462058827
 20
85.0514729444
 30
0.0
  0
SPLINE
  5
41A
100
AcDbEntity
  8
0
100
AcDbSpline
 62
7
  6
CONTINUOUS
 70
0
 71
3
 72
11
 73
7
 74
0
 42
0.0000001
 43
0.0000001
 44
0.0000000001
 40
0.0
 40
0.0
 40
0.0
 40
0.0
 40
0.2431707328
 40
0.4891647451
 40
0.7406514717
 40
1.0
 40
1.0
 40
1.0
 40
1.0
 10
80.9274166697
 20
57.3661146756
 30
0.0
 10
81.0579520328
 20
57.441467222
 30
0.0
 10
81.3107030545
 20
57.6108332123
 30
0.0
 10
81.6560719238
 20
57.915150971
 30
0.0
 10
81.9665680127
 20
58.2683585056
 30
0.0
 10
82.1459247774
 20
58.5303021595
 30
0.0
 10
82.2293073319
 20
58.6677361741
 30
0.0
  0
SPLINE
  5
41B
100
AcDbEntity
  8
0
100
AcDbSpline
 62
7
  6
CONTINUOUS
 70
0
 71
3
 72
10
 73
6
 74
0
 42
0.0000001
 43
0.0000001
 44
0.0000000001
 40
0.0
 40
0.0
 40
0.0
 40
0.0
 40
0.2408430284
 40
0.4865037759
 40
1.0
 40
1.0
 40
1.0
 40
1.0
 10
81.0225915936
 20
57.2666050609
 30
0.0
 10
81.144057218
 20
57.3555850446
 30
0.0
 10
81.3780276937
 20
57.5515208609
 30
0.0
 10
81.8042113161
 20
58.0105101176
 30
0.0
 10
82.0617400514
 20
58.4155008323
 30
0.0
 10
82.2060520506
 20
58.7022628597
 30
0.0
  0
SPLINE
  5
41C
100
AcDbEntity
  8
0
100
AcDbSpline
 62
7
  6
CONTINUOUS
 70
0
 71
3
 72
11
 73
7
 74
0
 42
0.0000001
 43
0.0000001
 44
0.0000000001
 40
0.0
 40
0.0
 40
0.0
 40
0.0
 40
0.2665327346
 40
0.5249724067
 40
0.7707071382
 40
1.0
 40
1.0
 40
1.0
 40
1.0
 10
84.9261682094
 20
60.459502441
 30
0.0
 10
85.2092011738
 20
60.4753314613
 30
0.0
 10
85.7655662745
 20
60.5340613624
 30
0.0
 10
86.5690043343
 20
60.7041408222
 30
0.0
 10
87.3109525973
 20
60.9504716794
 30
0.0
 10
87.7683137244
 20
61.1695570347
 30
0.0
 10
87.9795100727
 20
61.2914905754
 30
0.0
  0
SPLINE
  5
41D
100
AcDbEntity
  8
0
100
AcDbSpline
 62
7
  6
CONTINUOUS
 70
0
 71
3
 72
15
 73
11
 74
0
 42
0.0000001
 43
0.0000001
 44
0.0000000001
 40
0.0
 40
0.0
 40
0.0
 40
0.0
 40
0.148572154
 40
0.2895074914
 40
0.4227238102
 40
0.5486379983
 40
0.6679995274
 40
0.7819361728
 40
0.8919849438
 40
1.0
 40
1.0
 40
1.0
 40
1.0
 10
64.5743387894
 20
69.9054365457
 30
0.0
 10
64.5743387894
 20
70.2309489908
 30
0.0
 10
64.6006110051
 20
70.8656777432
 30
0.0
 10
64.7255128838
 20
71.7848487748
 30
0.0
 10
64.9342339304
 20
72.6380184634
 30
0.0
 10
65.2251208537
 20
73.4168507101
 30
0.0
 10
65.5958222159
 20
74.1139306227
 30
0.0
 10
66.0436134146
 20
74.7220709663
 30
0.0
 10
66.5642723931
 20
75.23444764
 30
0.0
 10
66.9582923869
 20
75.5094289292
 30
0.0
 10
67.1632411754
 20
75.6277558947
 30
0.0
  0
SPLINE
  5
41E
100
AcDbEntity
  8
0
100
AcDbSpline
 62
7
  6
CONTINUOUS
 70
0
 71
3
 72
9
 73
5
 74
0
 42
0.0000001
 43
0.0000001
 44
0.0000000001
 40
0.0
 40
0.0
 40
0.0
 40
0.0
 40
0.24556428
 40
1.0
 40
1.0
 40
1.0
 40
1.0
 10
81.1592092974
 20
59.5138713108
 30
0.0
 10
81.1646064273
 20
59.5790244452
 30
0.0
 10
81.1836917315
 20
59.8445792113
 30
0.0
 10
81.1914173304
 20
60.1109262635
 30
0.0
 10
81.1914173304
 20
60.3117788144
 30
0.0
  0
SPLINE
  5
41F
100
AcDbEntity
  8
0
100
AcDbSpline
 62
7
  6
CONTINUOUS
 70
0
 71
3
 72
11
 73
7
 74
0
 42
0.0000001
 43
0.0000001
 44
0.0000000001
 40
0.0
 40
0.0
 40
0.0
 40
0.0
 40
0.2313611218
 40
0.47679251
 40
0.7339360544
 40
1.0
 40
1.0
 40
1.0
 40
1.0
 10
81.1914173304
 20
60.3117788144
 30
0.0
 10
81.1914173304
 20
60.7432384303
 30
0.0
 10
81.1361688723
 20
61.6329419959
 30
0.0
 10
80.9078223756
 20
62.9846003075
 30
0.0
 10
80.5357340793
 20
64.3708872308
 30
0.0
 10
80.2009522363
 20
65.2888339343
 30
0.0
 10
80.0119712535
 20
65.7476115075
 30
0.0
  0
SPLINE
  5
420
100
AcDbEntity
  8
0
100
AcDbSpline
 62
7
  6
CONTINUOUS
 70
0
 71
3
 72
20
 73
16
 74
0
 42
0.0000001
 43
0.0000001
 44
0.0000000001
 40
0.0
 40
0.0
 40
0.0
 40
0.0
 40
0.1502554122
 40
0.3005734981
 40
0.4459719577
 40
0.5154496029
 40
0.5821047753
 40
0.6455613847
 40
0.7055590443
 40
0.7619778262
 40
0.8148726513
 40
0.864507345
 40
0.9113787971
 40
0.9562262758
 40
1.0
 40
1.0
 40
1.0
 40
1.0
 10
80.0119712535
 20
65.7476115075
 30
0.0
 10
79.7000901295
 20
66.5047462363
 30
0.0
 10
78.9732919192
 20
67.9789534096
 30
0.0
 10
77.6256932697
 20
70.0088890894
 30
0.0
 10
76.3114181747
 20
71.513074595
 30
0.0
 10
75.1785459277
 20
72.5497173108
 30
0.0
 10
74.3192380129
 20
73.218674608
 30
0.0
 10
73.4482838556
 20
73.7824241134
 30
0.0
 10
72.576282172
 20
74.2339641525
 30
0.0
 10
71.7137522051
 20
74.5674762119
 30
0.0
 10
70.8710119958
 20
74.7784282952
 30
0.0
 10
70.05821691
 20
74.8635535972
 30
0.0
 10
69.2853381149
 20
74.8205496657
 30
0.0
 10
68.5630665223
 20
74.6487234569
 30
0.0
 10
68.1198329486
 20
74.4479946002
 30
0.0
 10
67.9132449025
 20
74.3287037968
 30
0.0
  0
SPLINE
  5
421
100
AcDbEntity
  8
0
100
AcDbSpline
 62
7
  6
CONTINUOUS
 70
0
 71
3
 72
15
 73
11
 74
0
 42
0.0000001
 43
0.0000001
 44
0.0000000001
 40
0.0
 40
0.0
 40
0.0
 40
0.0
 40
0.1141581171
 40
0.2373254444
 40
0.3669768515
 40
0.5000005115
 40
0.6330241004
 40
0.7626752999
 40
0.8858423003
 40
1.0
 40
1.0
 40
1.0
 40
1.0
 10
79.9892972364
 20
84.0310564604
 30
0.0
 10
80.4249753479
 20
83.7795232758
 30
0.0
 10
81.3776271274
 20
83.335904829
 30
0.0
 10
82.9289889351
 20
82.8644287997
 30
0.0
 10
84.6085485603
 20
82.574182819
 30
0.0
 10
86.3532688747
 20
82.4762822946
 30
0.0
 10
88.0979878149
 20
82.5741910726
 30
0.0
 10
89.7775433778
 20
82.8644450121
 30
0.0
 10
91.3288985899
 20
83.3359284228
 30
0.0
 10
92.2815445928
 20
83.7795516479
 30
0.0
 10
92.7172192977
 20
84.0310870545
 30
0.0
  0
SPLINE
  5
422
100
AcDbEntity
  8
0
100
AcDbSpline
 62
7
  6
CONTINUOUS
 70
0
 71
3
 72
11
 73
7
 74
0
 42
0.0000001
 43
0.0000001
 44
0.0000000001
 40
0.0
 40
0.0
 40
0.0
 40
0.0
 40
0.2372435874
 40
0.5000004178
 40
0.762757037
 40
1.0
 40
1.0
 40
1.0
 40
1.0
 10
79.0700704911
 20
75.8252408516
 30
0.0
 10
79.095168135
 20
75.8107510479
 30
0.0
 10
79.1535323931
 20
75.789609674
 30
0.0
 10
79.2468471921
 20
75.7794799451
 30
0.0
 10
79.3401618785
 20
75.7896099802
 30
0.0
 10
79.3985259646
 20
75.8107515745
 30
0.0
 10
79.4236234499
 20
75.8252415003
 30
0.0
  0
SPLINE
  5
423
100
AcDbEntity
  8
0
100
AcDbSpline
 62
7
  6
CONTINUOUS
 70
0
 71
3
 72
9
 73
5
 74
0
 42
0.0000001
 43
0.0000001
 44
0.0000000001
 40
0.0
 40
0.0
 40
0.0
 40
0.0
 40
0.2407576429
 40
1.0
 40
1.0
 40
1.0
 40
1.0
 10
73.8392397243
 20
81.1742424819
 30
0.0
 10
73.9184559268
 20
81.1075390274
 30
0.0
 10
74.2543043559
 20
80.8386144997
 30
0.0
 10
74.6152787439
 20
80.6016579559
 30
0.0
 10
74.8981072153
 20
80.4383705559
 30
0.0
  0
SPLINE
  5
424
100
AcDbEntity
  8
0
100
AcDbSpline
 62
7
  6
CONTINUOUS
 70
0
 71
3
 72
9
 73
5
 74
0
 42
0.0000001
 43
0.0000001
 44
0.0000000001
 40
0.0
 40
0.0
 40
0.0
 40
0.0
 40
0.2417295349
 40
1.0
 40
1.0
 40
1.0
 40
1.0
 10
73.1211910464
 20
83.0902222083
 30
0.0
 10
73.2023431128
 20
83.0245447134
 30
0.0
 10
73.5439347091
 20
82.7601390596
 30
0.0
 10
73.9073913485
 20
82.5244090286
 30
0.0
 10
74.1910033781
 20
82.3606692512
 30
0.0
  0
SPLINE
  5
425
100
AcDbEntity
  8
0
100
AcDbSpline
 62
7
  6
CONTINUOUS
 70
0
 71
3
 72
9
 73
5
 74
0
 42
0.0000001
 43
0.0000001
 44
0.0000000001
 40
0.0
 40
0.0
 40
0.0
 40
0.0
 40
0.242916012
 40
1.0
 40
1.0
 40
1.0
 40
1.0
 10
79.2821933992
 20
79.4213358187
 30
0.0
 10
79.3808658121
 20
79.3643685633
 30
0.0
 10
79.7913026841
 20
79.1372290146
 30
0.0
 10
80.2175001384
 20
78.9389231779
 30
0.0
 10
80.5458431116
 20
78.8036943059
 30
0.0
  0
SPLINE
  5
426
100
AcDbEntity
  8
0
100
AcDbSpline
 62
7
  6
CONTINUOUS
 70
0
 71
3
 72
11
 73
7
 74
0
 42
0.0000001
 43
0.0000001
 44
0.0000000001
 40
0.0
 40
0.0
 40
0.0
 40
0.0
 40
0.2770074163
 40
0.5322899255
 40
0.770774252
 40
1.0
 40
1.0
 40
1.0
 40
1.0
 10
75.9211066991
 20
71.8296372243
 30
0.0
 10
75.7688926836
 20
71.8813232486
 30
0.0
 10
75.4681530202
 20
71.9589973192
 30
0.0
 10
75.0189212226
 20
71.9893328678
 30
0.0
 10
74.6004800008
 20
71.9262290776
 30
0.0
 10
74.3468820306
 20
71.8203841009
 30
0.0
 10
74.2316812606
 20
71.7538740434
 30
0.0
  0
SPLINE
  5
427
100
AcDbEntity
  8
0
100
AcDbSpline
 62
7
  6
CONTINUOUS
 70
0
 71
3
 72
11
 73
7
 74
0
 42
0.0000001
 43
0.0000001
 44
0.0000000001
 40
0.0
 40
0.0
 40
0.0
 40
0.0
 40
0.2782667209
 40
0.5370143164
 40
0.7767697877
 40
1.0
 40
1.0
 40
1.0
 40
1.0
 10
70.0544126636
 20
71.4363808073
 30
0.0
 10
70.0544126636
 20
71.7572973479
 30
0.0
 10
70.0884791911
 20
72.377442189
 30
0.0
 10
70.2541477915
 20
73.2607952239
 30
0.0
 10
70.5308477042
 20
74.0495056727
 30
0.0
 10
70.7957055696
 20
74.5175773793
 30
0.0
 10
70.9451660606
 20
74.7271943848
 30
0.0
  0
SPLINE
  5
428
100
AcDbEntity
  8
0
100
AcDbSpline
 62
7
  6
CONTINUOUS
 70
0
 71
3
 72
15
 73
11
 74
0
 42
0.0000001
 43
0.0000001
 44
0.0000000001
 40
0.0
 40
0.0
 40
0.0
 40
0.0
 40
0.1141577899
 40
0.2373246518
 40
0.3669755934
 40
0.4999989082
 40
0.6330223748
 40
0.7626737603
 40
0.8858413213
 40
1.0
 40
1.0
 40
1.0
 40
1.0
 10
76.5951776212
 20
60.1075064696
 30
0.0
 10
76.1473977993
 20
60.3660264218
 30
0.0
 10
75.2629743155
 20
60.9859775873
 30
0.0
 10
74.0460812694
 20
62.1245123171
 30
0.0
 10
72.9246203228
 20
63.4702909252
 30
0.0
 10
71.9408795427
 20
64.9729177828
 30
0.0
 10
71.1314283718
 20
66.5761736508
 30
0.0
 10
70.5266697109
 20
68.2202789008
 30
0.0
 10
70.1491038453
 20
69.8434130571
 30
0.0
 10
70.0544126636
 20
70.9193281046
 30
0.0
 10
70.0544126636
 20
71.4363808073
 30
0.0
  0
SPLINE
  5
429
100
AcDbEntity
  8
0
100
AcDbSpline
 62
7
  6
CONTINUOUS
 70
0
 71
3
 72
9
 73
5
 74
0
 42
0.0000001
 43
0.0000001
 44
0.0000000001
 40
0.0
 40
0.0
 40
0.0
 40
0.0
 40
0.5255657769
 40
1.0
 40
1.0
 40
1.0
 40
1.0
 10
76.34519377
 20
76.233476756
 30
0.0
 10
76.3130936734
 20
76.2334766804
 30
0.0
 10
76.2518521109
 20
76.2401153225
 30
0.0
 10
76.1935118798
 20
76.2612629055
 30
0.0
 10
76.1684168129
 20
76.2757512214
 30
0.0
  0
SPLINE
  5
42A
100
AcDbEntity
  8
0
100
AcDbSpline
 62
7
  6
CONTINUOUS
 70
0
 71
3
 72
11
 73
7
 74
0
 42
0.0000001
 43
0.0000001
 44
0.0000000001
 40
0.0
 40
0.0
 40
0.0
 40
0.0
 40
0.2897062278
 40
0.5490596134
 40
0.7822840493
 40
1.0
 40
1.0
 40
1.0
 40
1.0
 10
72.7793153948
 20
78.232405572
 30
0.0
 10
72.7683455603
 20
78.238738866
 30
0.0
 10
72.7484473542
 20
78.252448163
 30
0.0
 10
72.7246516618
 20
78.2774413086
 30
0.0
 10
72.7096167472
 20
78.3051004847
 30
0.0
 10
72.7060914342
 20
78.3249468257
 30
0.0
 10
72.7060913656
 20
78.3344660029
 30
0.0
  0
SPLINE
  5
42B
100
AcDbEntity
  8
0
100
AcDbSpline
 62
7
  6
CONTINUOUS
 70
0
 71
3
 72
11
 73
7
 74
0
 42
0.0000001
 43
0.0000001
 44
0.0000000001
 40
0.0
 40
0.0
 40
0.0
 40
0.0
 40
0.2177159471
 40
0.4509403815
 40
0.7102937689
 40
1.0
 40
1.0
 40
1.0
 40
1.0
 10
72.7060892839
 20
78.6231370106
 30
0.0
 10
72.7060892152
 20
78.6326561886
 30
0.0
 10
72.7025639016
 20
78.6525025313
 30
0.0
 10
72.6875289847
 20
78.6801617096
 30
0.0
 10
72.6637332882
 20
78.7051548565
 30
0.0
 10
72.6438350791
 20
78.7188641537
 30
0.0
 10
72.6328652433
 20
78.7251974481
 30
0.0
  0
SPLINE
  5
42C
100
AcDbEntity
  8
0
100
AcDbSpline
 62
7
  6
CONTINUOUS
 70
0
 71
3
 72
12
 73
8
 74
0
 42
0.0000001
 43
0.0000001
 44
0.0000000001
 40
0.0
 40
0.0
 40
0.0
 40
0.0
 40
0.289583155
 40
0.5486371596
 40
0.7816384907
 40
0.8918391456
 40
1.0
 40
1.0
 40
1.0
 40
1.0
 10
68.7462743818
 20
80.969070965
 30
0.0
 10
68.526800203
 20
81.095781575
 30
0.0
 10
68.1286968141
 20
81.3699575676
 30
0.0
 10
67.6531058856
 20
81.8695112548
 30
0.0
 10
67.3977105997
 20
82.3402311132
 30
0.0
 10
67.2982956679
 20
82.7241470189
 30
0.0
 10
67.2818021067
 20
82.9156359441
 30
0.0
 10
67.2818021138
 20
83.0102917285
 30
0.0
  0
SPLINE
  5
42D
100
AcDbEntity
  8
0
100
AcDbSpline
 62
7
  6
CONTINUOUS
 70
0
 71
3
 72
9
 73
5
 74
0
 42
0.0000001
 43
0.0000001
 44
0.0000000001
 40
0.0
 40
0.0
 40
0.0
 40
0.0
 40
0.2768037478
 40
1.0
 40
1.0
 40
1.0
 40
1.0
 10
74.6668637598
 20
70.4064041872
 30
0.0
 10
74.6668637598
 20
70.5549192442
 30
0.0
 10
74.6931298384
 20
71.089574261
 30
0.0
 10
74.8390363616
 20
71.6295787333
 30
0.0
 10
75.0393325767
 20
71.9619059
 30
0.0
  0
SPLINE
  5
42E
100
AcDbEntity
  8
0
100
AcDbSpline
 62
7
  6
CONTINUOUS
 70
0
 71
3
 72
9
 73
5
 74
0
 42
0.0000001
 43
0.0000001
 44
0.0000000001
 40
0.0
 40
0.0
 40
0.0
 40
0.0
 40
0.2584095814
 40
1.0
 40
1.0
 40
1.0
 40
1.0
 10
74.1910033781
 20
80.030126402
 30
0.0
 10
74.0943542348
 20
80.0859255486
 30
0.0
 10
73.7242319444
 20
80.3084642855
 30
0.0
 10
73.3701472
 20
80.5581956849
 30
0.0
 10
73.1211910464
 20
80.759679359
 30
0.0
  0
SPLINE
  5
42F
100
AcDbEntity
  8
0
100
AcDbSpline
 62
7
  6
CONTINUOUS
 70
0
 71
3
 72
9
 73
5
 74
0
 42
0.0000001
 43
0.0000001
 44
0.0000000001
 40
0.0
 40
0.0
 40
0.0
 40
0.0
 40
0.2665660903
 40
1.0
 40
1.0
 40
1.0
 40
1.0
 10
68.5782916427
 20
69.5666310954
 30
0.0
 10
68.5339320829
 20
69.5879141288
 30
0.0
 10
68.3702145597
 20
69.6729930716
 30
0.0
 10
68.2171304726
 20
69.7804176887
 30
0.0
 10
68.1186657206
 20
69.8733174569
 30
0.0
  0
SPLINE
  5
430
100
AcDbEntity
  8
0
100
AcDbSpline
 62
7
  6
CONTINUOUS
 70
0
 71
3
 72
9
 73
5
 74
0
 42
0.0000001
 43
0.0000001
 44
0.0000000001
 40
0.0
 40
0.0
 40
0.0
 40
0.0
 40
0.2570611456
 40
1.0
 40
1.0
 40
1.0
 40
1.0
 10
80.5458429189
 20
76.4731515384
 30
0.0
 10
80.4343587331
 20
76.5190665808
 30
0.0
 10
80.0034516062
 20
76.7042999663
 30
0.0
 10
79.5839701954
 20
76.9165659965
 30
0.0
 10
79.2821933992
 20
77.0907929695
 30
0.0
  0
SPLINE
  5
431
100
AcDbEntity
  8
0
100
AcDbSpline
 62
7
  6
CONTINUOUS
 70
0
 71
3
 72
23
 73
19
 74
0
 42
0.0000001
 43
0.0000001
 44
0.0000000001
 40
0.0
 40
0.0
 40
0.0
 40
0.0
 40
0.0649799896
 40
0.1333606929
 40
0.2043804511
 40
0.2771868568
 40
0.3508371728
 40
0.4243613228
 40
0.4967899691
 40
0.5671998983
 40
0.6347541113
 40
0.6987475958
 40
0.7586593512
 40
0.8142141835
 40
0.8654559977
 40
0.9128269832
 40
0.9572274803
 40
1.0
 40
1.0
 40
1.0
 40
1.0
 10
68.6531287639
 20
69.5234248408
 30
0.0
 10
68.6873764262
 20
69.1023407278
 30
0.0
 10
68.8070368904
 20
68.2416609788
 30
0.0
 10
69.1191024164
 20
66.9481531649
 30
0.0
 10
69.5628910483
 20
65.6398986762
 30
0.0
 10
70.1295338957
 20
64.3426960276
 30
0.0
 10
70.8080423752
 20
63.0818645676
 30
0.0
 10
71.5850500209
 20
61.8821514627
 30
0.0
 10
72.4453482308
 20
60.7670897555
 30
0.0
 10
73.3720895721
 20
59.7585287472
 30
0.0
 10
74.3472198273
 20
58.8761719964
 30
0.0
 10
75.3519037315
 20
58.1372127412
 30
0.0
 10
76.3670018487
 20
57.5560745883
 30
0.0
 10
77.3735760057
 20
57.1443525244
 30
0.0
 10
78.3531501939
 20
56.9109640044
 30
0.0
 10
79.287842899
 20
56.8627661252
 30
0.0
 10
80.1583292514
 20
57.0040235682
 30
0.0
 10
80.6865738139
 20
57.227086277
 30
0.0
 10
80.9274166697
 20
57.3661146756
 30
0.0
  0
SPLINE
  5
432
100
AcDbEntity
  8
0
100
AcDbSpline
 62
7
  6
CONTINUOUS
 70
0
 71
3
 72
15
 73
11
 74
0
 42
0.0000001
 43
0.0000001
 44
0.0000000001
 40
0.0
 40
0.0
 40
0.0
 40
0.0
 40
0.1141555516
 40
0.2373276756
 40
0.3669773296
 40
0.5000011
 40
0.6330247168
 40
0.7626739247
 40
0.885845342
 40
1.0
 40
1.0
 40
1.0
 40
1.0
 10
73.2526560853
 20
69.5899158795
 30
0.0
 10
73.2526560853
 20
69.3256940373
 30
0.0
 10
73.3010520749
 20
68.7758677226
 30
0.0
 10
73.4939817156
 20
67.946395024
 30
0.0
 10
73.8030438691
 20
67.1062057014
 30
0.0
 10
74.2166882665
 20
66.2868935629
 30
0.0
 10
74.7194142921
 20
65.5190141934
 30
0.0
 10
75.2925102273
 20
64.8312691912
 30
0.0
 10
75.914390101
 20
64.2494580408
 30
0.0
 10
76.3663552909
 20
63.9326385374
 30
0.0
 10
76.5951776212
 20
63.8005308921
 30
0.0
  0
SPLINE
  5
433
100
AcDbEntity
  8
0
100
AcDbSpline
 62
7
  6
CONTINUOUS
 70
0
 71
3
 72
17
 73
13
 74
0
 42
0.0000001
 43
0.0000001
 44
0.0000000001
 40
0.0
 40
0.0
 40
0.0
 40
0.0
 40
0.0948802187
 40
0.1479393007
 40
0.2047922749
 40
0.265254216
 40
0.3289530185
 40
0.4637869207
 40
0.6042050693
 40
0.7441981921
 40
0.8778079336
 40
1.0
 40
1.0
 40
1.0
 40
1.0
 10
79.5411558925
 20
64.1618296801
 30
0.0
 10
79.2706366561
 20
64.156944616
 30
0.0
 10
78.8459481066
 20
64.2339284693
 30
0.0
 10
78.3036677597
 20
64.4516745865
 30
0.0
 10
77.8766687452
 20
64.6861799455
 30
0.0
 10
77.45255667
 20
64.9818228462
 30
0.0
 10
76.8887075476
 20
65.4602681717
 30
0.0
 10
76.2364754894
 20
66.1798859319
 30
0.0
 10
75.5794050298
 20
67.1697821303
 30
0.0
 10
75.0737554852
 20
68.2416031996
 30
0.0
 10
74.7510717407
 20
69.3276796928
 30
0.0
 10
74.6668637598
 20
70.0579575447
 30
0.0
 10
74.6668637598
 20
70.4064041872
 30
0.0
  0
SPLINE
  5
434
100
AcDbEntity
  8
0
100
AcDbSpline
 62
7
  6
CONTINUOUS
 70
0
 71
3
 72
12
 73
8
 74
0
 42
0.0000001
 43
0.0000001
 44
0.0000000001
 40
0.0
 40
0.0
 40
0.0
 40
0.0
 40
0.2887128278
 40
0.5474550214
 40
0.7808172865
 40
0.8913944312
 40
1.0
 40
1.0
 40
1.0
 40
1.0
 10
76.6457143483
 20
63.7717953287
 30
0.0
 10
76.8492774538
 20
63.6578250589
 30
0.0
 10
77.2538653335
 20
63.4717141921
 30
0.0
 10
77.8739015398
 20
63.3295383325
 30
0.0
 10
78.368206259
 20
63.3471059654
 30
0.0
 10
78.721491692
 20
63.4468001408
 30
0.0
 10
78.8826692467
 20
63.5225587935
 30
0.0
 10
78.9586727775
 20
63.5664357002
 30
0.0
  0
SPLINE
  5
435
100
AcDbEntity
  8
0
100
AcDbSpline
 62
7
  6
CONTINUOUS
 70
0
 71
3
 72
16
 73
12
 74
0
 42
0.0000001
 43
0.0000001
 44
0.0000000001
 40
0.0
 40
0.0
 40
0.0
 40
0.0
 40
0.0492727434
 40
0.0990287726
 40
0.2016292151
 40
0.3110770999
 40
0.4294510141
 40
0.5577749045
 40
0.696155113
 40
0.8439622656
 40
1.0
 40
1.0
 40
1.0
 40
1.0
 10
67.1632411754
 20
75.6277558947
 30
0.0
 10
67.3101870791
 20
75.7125949562
 30
0.0
 10
67.6163494807
 20
75.8651121672
 30
0.0
 10
68.2719722015
 20
76.0979487447
 30
0.0
 10
69.1701401056
 20
76.2446613728
 30
0.0
 10
70.3136167736
 20
76.1862826803
 30
0.0
 10
71.5125626664
 20
75.9018204052
 30
0.0
 10
72.7444961257
 20
75.3992322361
 30
0.0
 10
73.9870866807
 20
74.6894733146
 30
0.0
 10
75.2170353456
 20
73.7867493978
 30
0.0
 10
75.9950372577
 20
73.0842411105
 30
0.0
 10
76.3772065772
 20
72.706509305
 30
0.0
  0
SPLINE
  5
436
100
AcDbEntity
  8
0
100
AcDbSpline
 62
7
  6
CONTINUOUS
 70
0
 71
3
 72
15
 73
11
 74
0
 42
0.0000001
 43
0.0000001
 44
0.0000000001
 40
0.0
 40
0.0
 40
0.0
 40
0.0
 40
0.1255772141
 40
0.2549345142
 40
0.3861095565
 40
0.5170513794
 40
0.6457191828
 40
0.7701871453
 40
0.8887428327
 40
1.0
 40
1.0
 40
1.0
 40
1.0
 10
76.3772065772
 20
72.706509305
 30
0.0
 10
76.8120368741
 20
72.2767279889
 30
0.0
 10
77.6504986942
 20
71.3584494076
 30
0.0
 10
78.7848637565
 20
69.8564481839
 30
0.0
 10
79.7948445856
 20
68.2371533833
 30
0.0
 10
80.6568460034
 20
66.5382725805
 30
0.0
 10
81.3509384529
 20
64.7991420003
 30
0.0
 10
81.8610705402
 20
63.0598285575
 30
0.0
 10
82.1753851064
 20
61.3607347068
 30
0.0
 10
82.2520819181
 20
60.2410824972
 30
0.0
 10
82.2520819181
 20
59.6994176827
 30
0.0
  0
SPLINE
  5
437
100
AcDbEntity
  8
0
100
AcDbSpline
 62
7
  6
CONTINUOUS
 70
0
 71
3
 72
9
 73
5
 74
0
 42
0.0000001
 43
0.0000001
 44
0.0000000001
 40
0.0
 40
0.0
 40
0.0
 40
0.0
 40
0.4973574674
 40
1.0
 40
1.0
 40
1.0
 40
1.0
 10
67.9132449025
 20
74.3287037968
 30
0.0
 10
67.7784722811
 20
74.2508816062
 30
0.0
 10
67.5172231052
 20
74.0769344205
 30
0.0
 10
67.2800182354
 20
73.8714767919
 30
0.0
 10
67.1675933311
 20
73.7614855871
 30
0.0
  0
SPLINE
  5
438
100
AcDbEntity
  8
0
100
AcDbSpline
 62
7
  6
CONTINUOUS
 70
0
 71
3
 72
12
 73
8
 74
0
 42
0.0000001
 43
0.0000001
 44
0.0000000001
 40
0.0
 40
0.0
 40
0.0
 40
0.0
 40
0.1081889573
 40
0.2198571844
 40
0.4568075871
 40
0.716257568
 40
1.0
 40
1.0
 40
1.0
 40
1.0
 10
67.1675933311
 20
73.7614855871
 30
0.0
 10
67.0427521038
 20
73.6393468397
 30
0.0
 10
66.8055056552
 20
73.373760788
 30
0.0
 10
66.3862387588
 20
72.7651923963
 30
0.0
 10
65.9786368337
 20
71.862711257
 30
0.0
 10
65.6927748378
 20
70.6299545295
 30
0.0
 10
65.6350033771
 20
69.7511266851
 30
0.0
 10
65.6350033771
 20
69.2930754139
 30
0.0
  0
SPLINE
  5
439
100
AcDbEntity
  8
0
100
AcDbSpline
 62
7
  6
CONTINUOUS
 70
0
 71
3
 72
12
 73
8
 74
0
 42
0.0000001
 43
0.0000001
 44
0.0000000001
 40
0.0
 40
0.0
 40
0.0
 40
0.0
 40
0.1081594591
 40
0.2183589149
 40
0.4513620313
 40
0.7104188771
 40
1.0
 40
1.0
 40
1.0
 40
1.0
 10
74.2316812606
 20
71.7538740434
 30
0.0
 10
74.1541812372
 20
71.7091301496
 30
0.0
 10
74.0051927315
 20
71.6051116388
 30
0.0
 10
73.7378529937
 20
71.342231203
 30
0.0
 10
73.4731618667
 20
70.9106121565
 30
0.0
 10
73.2889580378
 20
70.2850684072
 30
0.0
 10
73.2526560853
 20
69.8295094089
 30
0.0
 10
73.2526560853
 20
69.5899158795
 30
0.0
  0
SPLINE
  5
43A
100
AcDbEntity
  8
0
100
AcDbSpline
 62
7
  6
CONTINUOUS
 70
0
 71
3
 72
12
 73
8
 74
0
 42
0.0000001
 43
0.0000001
 44
0.0000000001
 40
0.0
 40
0.0
 40
0.0
 40
0.0
 40
0.2864558024
 40
0.5459699681
 40
0.7812886817
 40
0.892166309
 40
1.0
 40
1.0
 40
1.0
 40
1.0
 10
81.5449182222
 20
87.8683406464
 30
0.0
 10
81.1904617886
 20
87.6636963973
 30
0.0
 10
80.5410577556
 20
87.2240312611
 30
0.0
 10
79.7393246521
 20
86.4374814432
 30
0.0
 10
79.2657958267
 20
85.701199527
 30
0.0
 10
79.0330578081
 20
85.0936930296
 30
0.0
 10
78.9638598865
 20
84.7875595401
 30
0.0
 10
78.9413786316
 20
84.6351348485
 30
0.0
  0
SPLINE
  5
43B
100
AcDbEntity
  8
0
100
AcDbSpline
 62
7
  6
CONTINUOUS
 70
0
 71
3
 72
20
 73
16
 74
0
 42
0.0000001
 43
0.0000001
 44
0.0000000001
 40
0.0
 40
0.0
 40
0.0
 40
0.0
 40
0.0436541817
 40
0.0897167764
 40
0.1388345179
 40
0.1913904552
 40
0.2475269491
 40
0.3071800376
 40
0.3701189178
 40
0.435980062
 40
0.504294398
 40
0.57451228
 40
0.7181118376
 40
0.8616730065
 40
1.0
 40
1.0
 40
1.0
 40
1.0
 10
81.51635266
 20
57.8587960947
 30
0.0
 10
81.2823985027
 20
57.7993083134
 30
0.0
 10
80.7884560073
 20
57.7246961205
 30
0.0
 10
80.0176769407
 20
57.7462649166
 30
0.0
 10
79.2116787629
 20
57.8967315149
 30
0.0
 10
78.3814739954
 20
58.1731322638
 30
0.0
 10
77.5377821727
 20
58.5711337641
 30
0.0
 10
76.6916889616
 20
59.0850498063
 30
0.0
 10
75.8544019678
 20
59.7077916447
 30
0.0
 10
75.0371844091
 20
60.4308787024
 30
0.0
 10
74.2510517272
 20
61.2445115565
 30
0.0
 10
73.2515004053
 20
62.4438419918
 30
0.0
 10
72.1490754293
 20
64.0922715223
 30
0.0
 10
71.1105435212
 20
66.2106767975
 30
0.0
 10
70.6223756104
 20
67.6981963732
 30
0.0
 10
70.4428234799
 20
68.4417444509
 30
0.0
  0
SPLINE
  5
43C
100
AcDbEntity
  8
0
100
AcDbSpline
 62
7
  6
CONTINUOUS
 70
0
 71
3
 72
9
 73
5
 74
0
 42
0.0000001
 43
0.0000001
 44
0.0000000001
 40
0.0
 40
0.0
 40
0.0
 40
0.0
 40
0.2550971692
 40
1.0
 40
1.0
 40
1.0
 40
1.0
 10
70.2804042491
 20
69.209911193
 30
0.0
 10
70.2626253244
 20
69.3081920289
 30
0.0
 10
70.1973824729
 20
69.6942445472
 30
0.0
 10
70.1501785574
 20
70.0834065946
 30
0.0
 10
70.1265364891
 20
70.3740921098
 30
0.0
  0
SPLINE
  5
43D
100
AcDbEntity
  8
0
100
AcDbSpline
 62
7
  6
CONTINUOUS
 70
0
 71
3
 72
11
 73
7
 74
0
 42
0.0000001
 43
0.0000001
 44
0.0000000001
 40
0.0
 40
0.0
 40
0.0
 40
0.0
 40
0.2731759987
 40
0.5279001453
 40
0.7682370764
 40
1.0
 40
1.0
 40
1.0
 40
1.0
 10
72.6328652432
 20
76.7726055567
 30
0.0
 10
72.2837764939
 20
76.8708303926
 30
0.0
 10
71.594463772
 20
77.014120154
 30
0.0
 10
70.5699791386
 20
77.0527902786
 30
0.0
 10
69.6102244175
 20
76.9043375796
 30
0.0
 10
69.019537023
 20
76.6779687674
 30
0.0
 10
68.7462743885
 20
76.5365925263
 30
0.0
  0
SPLINE
  5
43E
100
AcDbEntity
  8
0
100
AcDbSpline
 62
7
  6
CONTINUOUS
 70
0
 71
3
 72
12
 73
8
 74
0
 42
0.0000001
 43
0.0000001
 44
0.0000000001
 40
0.0
 40
0.0
 40
0.0
 40
0.0
 40
0.105517949
 40
0.2135067265
 40
0.4444828518
 40
0.7055226302
 40
1.0
 40
1.0
 40
1.0
 40
1.0
 10
67.8026532874
 20
67.8674073443
 30
0.0
 10
67.8026595779
 20
67.8219267729
 30
0.0
 10
67.8115328754
 20
67.729667837
 30
0.0
 10
67.8652845742
 20
67.544784959
 30
0.0
 10
68.0032275493
 20
67.3203043867
 30
0.0
 10
68.2556172604
 20
67.0894889499
 30
0.0
 10
68.4638550737
 20
66.9679031424
 30
0.0
 10
68.5782916432
 20
66.9129982395
 30
0.0
  0
SPLINE
  5
43F
100
AcDbEntity
  8
0
100
AcDbSpline
 62
7
  6
CONTINUOUS
 70
0
 71
3
 72
11
 73
7
 74
0
 42
0.0000001
 43
0.0000001
 44
0.0000000001
 40
0.0
 40
0.0
 40
0.0
 40
0.0
 40
0.2026037499
 40
0.4238006338
 40
0.6866988477
 40
1.0
 40
1.0
 40
1.0
 40
1.0
 10
72.7060892839
 20
76.7064218388
 30
0.0
 10
72.7060892162
 20
76.713543352
 30
0.0
 10
72.7024461651
 20
76.7286542598
 30
0.0
 10
72.6866451554
 20
76.7476827807
 30
0.0
 10
72.6626366565
 20
76.7627132322
 30
0.0
 10
72.6434661128
 20
76.7696227373
 30
0.0
 10
72.6328652432
 20
76.7726055567
 30
0.0
  0
SPLINE
  5
440
100
AcDbEntity
  8
0
100
AcDbSpline
 62
7
  6
CONTINUOUS
 70
0
 71
3
 72
11
 73
7
 74
0
 42
0.0000001
 43
0.0000001
 44
0.0000000001
 40
0.0
 40
0.0
 40
0.0
 40
0.0
 40
0.310479908
 40
0.573403743
 40
0.7964127389
 40
1.0
 40
1.0
 40
1.0
 40
1.0
 10
72.7793154005
 20
76.4100793145
 30
0.0
 10
72.768619397
 20
76.4138419366
 30
0.0
 10
72.7492965423
 20
76.4222277721
 30
0.0
 10
72.7253373876
 20
76.4392167764
 30
0.0
 10
72.7097280054
 20
76.4596620174
 30
0.0
 10
72.7060914335
 20
76.4754271975
 30
0.0
 10
72.7060913656
 20
76.4828620627
 30
0.0
  0
SPLINE
  5
441
100
AcDbEntity
  8
0
100
AcDbSpline
 62
7
  6
CONTINUOUS
 70
0
 71
3
 72
9
 73
5
 74
0
 42
0.0000001
 43
0.0000001
 44
0.0000000001
 40
0.0
 40
0.0
 40
0.0
 40
0.0
 40
0.524020184
 40
1.0
 40
1.0
 40
1.0
 40
1.0
 10
76.1684168129
 20
74.4534249683
 30
0.0
 10
75.6335255855
 20
74.8828870646
 30
0.0
 10
74.5564370078
 20
75.635836321
 30
0.0
 10
73.3670851811
 20
76.2033146684
 30
0.0
 10
72.7793154024
 20
76.4100793137
 30
0.0
  0
SPLINE
  5
442
100
AcDbEntity
  8
0
100
AcDbSpline
 62
7
  6
CONTINUOUS
 70
0
 71
3
 72
9
 73
5
 74
0
 42
0.0000001
 43
0.0000001
 44
0.0000000001
 40
0.0
 40
0.0
 40
0.0
 40
0.0
 40
0.259401507
 40
1.0
 40
1.0
 40
1.0
 40
1.0
 10
76.3451937915
 20
74.3818728186
 30
0.0
 10
76.3287123187
 20
74.3838745251
 30
0.0
 10
76.2658431602
 20
74.3958233739
 30
0.0
 10
76.2053783722
 20
74.4237486754
 30
0.0
 10
76.1684168129
 20
74.4534249684
 30
0.0
  0
SPLINE
  5
443
100
AcDbEntity
  8
0
100
AcDbSpline
 62
7
  6
CONTINUOUS
 70
0
 71
3
 72
9
 73
5
 74
0
 42
0.0000001
 43
0.0000001
 44
0.0000000001
 40
0.0
 40
0.0
 40
0.0
 40
0.0
 40
0.2404654578
 40
1.0
 40
1.0
 40
1.0
 40
1.0
 10
77.0219708132
 20
74.2386116009
 30
0.0
 10
77.0102106805
 20
74.2488817184
 30
0.0
 10
76.9577979991
 20
74.2874789904
 30
0.0
 10
76.8940401649
 20
74.309970906
 30
0.0
 10
76.845193813
 20
74.316762786
 30
0.0
  0
SPLINE
  5
444
100
AcDbEntity
  8
0
100
AcDbSpline
 62
7
  6
CONTINUOUS
 70
0
 71
3
 72
20
 73
16
 74
0
 42
0.0000001
 43
0.0000001
 44
0.0000000001
 40
0.0
 40
0.0
 40
0.0
 40
0.0
 40
0.0432695344
 40
0.0881715171
 40
0.1356063437
 40
0.186210669
 40
0.2403530315
 40
0.2981599347
 40
0.3595508663
 40
0.4242774765
 40
0.4919589429
 40
0.5621092223
 40
0.7074025331
 40
0.85515513
 40
1.0
 40
1.0
 40
1.0
 40
1.0
 10
80.7163725662
 20
57.0837890432
 30
0.0
 10
80.5011573749
 20
56.9851195551
 30
0.0
 10
80.0407127335
 20
56.8288668945
 30
0.0
 10
79.3013141766
 20
56.7298081702
 30
0.0
 10
78.516281694
 20
56.7629739561
 30
0.0
 10
77.6968856169
 20
56.9265238832
 30
0.0
 10
76.8537871446
 20
57.2171659869
 30
0.0
 10
75.9979804321
 20
57.6304676529
 30
0.0
 10
75.1406536658
 20
58.1605732976
 30
0.0
 10
74.2931658297
 20
58.8001830357
 30
0.0
 10
73.466814566
 20
59.5406472997
 30
0.0
 10
72.3959954539
 20
60.6618669691
 30
0.0
 10
71.1851260871
 20
62.2467911314
 30
0.0
 10
69.9956923327
 20
64.3340819136
 30
0.0
 10
69.3950882443
 20
65.8250014599
 30
0.0
 10
69.1547118042
 20
66.580209433
 30
0.0
  0
SPLINE
  5
445
100
AcDbEntity
  8
0
100
AcDbSpline
 62
7
  6
CONTINUOUS
 70
0
 71
3
 72
10
 73
6
 74
0
 42
0.0000001
 43
0.0000001
 44
0.0000000001
 40
0.0
 40
0.0
 40
0.0
 40
0.0
 40
0.5116497899
 40
0.760023432
 40
1.0
 40
1.0
 40
1.0
 40
1.0
 10
80.908561658
 20
69.5148515614
 30
0.0
 10
80.37123484
 20
70.4132826247
 30
0.0
 10
79.4750202191
 20
71.6935449153
 30
0.0
 10
78.1151373969
 20
73.2241265335
 30
0.0
 10
77.3917972229
 20
73.9156424017
 30
0.0
 10
77.0219708132
 20
74.2386116009
 30
0.0
  0
SPLINE
  5
446
100
AcDbEntity
  8
0
100
AcDbSpline
 62
7
  6
CONTINUOUS
 70
0
 71
3
 72
20
 73
16
 74
0
 42
0.0000001
 43
0.0000001
 44
0.0000000001
 40
0.0
 40
0.0
 40
0.0
 40
0.0
 40
0.1462100055
 40
0.2952795562
 40
0.4414769643
 40
0.5118314072
 40
0.5795139968
 40
0.6440267931
 40
0.7049951305
 40
0.762200201
 40
0.8156181439
 40
0.8654653776
 40
0.9122379565
 40
0.9567296183
 40
1.0
 40
1.0
 40
1.0
 40
1.0
 10
68.8577281926
 20
66.4087468884
 30
0.0
 10
69.1051442364
 20
65.6314220851
 30
0.0
 10
69.7266105361
 20
64.0982219377
 30
0.0
 10
70.9619072799
 20
61.9592036493
 30
0.0
 10
72.2210438449
 20
60.3441379583
 30
0.0
 10
73.333350859
 20
59.2118528303
 30
0.0
 10
74.1890878866
 20
58.4716204972
 30
0.0
 10
75.0644705933
 20
57.8403514727
 30
0.0
 10
75.9471880512
 20
57.3270781741
 30
0.0
 10
76.8249177945
 20
56.9392844328
 30
0.0
 10
77.6856058658
 20
56.6829240354
 30
0.0
 10
78.5174129778
 20
56.5624537082
 30
0.0
 10
79.3087215855
 20
56.5810215958
 30
0.0
 10
80.0470843406
 20
56.7399820335
 30
0.0
 10
80.4984521691
 20
56.9404114862
 30
0.0
 10
80.7075374359
 20
57.0611025423
 30
0.0
  0
SPLINE
  5
447
100
AcDbEntity
  8
0
100
AcDbSpline
 62
7
  6
CONTINUOUS
 70
0
 71
3
 72
11
 73
7
 74
0
 42
0.0000001
 43
0.0000001
 44
0.0000000001
 40
0.0
 40
0.0
 40
0.0
 40
0.0
 40
0.2897042895
 40
0.5490907647
 40
0.7822174449
 40
1.0
 40
1.0
 40
1.0
 40
1.0
 10
109.1219688529
 20
94.0737262781
 30
0.0
 10
109.1219688529
 20
94.1446620005
 30
0.0
 10
109.1112140134
 20
94.2795665681
 30
0.0
 10
109.0565794181
 20
94.4649181843
 30
0.0
 10
108.964592852
 20
94.6153200986
 30
0.0
 10
108.878189431
 20
94.6879586641
 30
0.0
 10
108.832008111
 20
94.7146208351
 30
0.0
  0
SPLINE
  5
448
100
AcDbEntity
  8
0
100
AcDbSpline
 62
7
  6
CONTINUOUS
 70
0
 71
3
 72
11
 73
7
 74
0
 42
0.0000001
 43
0.0000001
 44
0.0000000001
 40
0.0
 40
0.0
 40
0.0
 40
0.0
 40
0.289702809
 40
0.549088757
 40
0.7822160314
 40
1.0
 40
1.0
 40
1.0
 40
1.0
 10
108.839127318
 20
95.8700344177
 30
0.0
 10
108.9005567999
 20
95.9055005339
 30
0.0
 10
109.022759831
 20
95.9636360646
 30
0.0
 10
109.2105885242
 20
96.0089949936
 30
0.0
 10
109.3868269871
 20
96.004534174
 30
0.0
 10
109.4929321703
 20
95.9660287155
 30
0.0
 10
109.5391119482
 20
95.9393674061
 30
0.0
  0
SPLINE
  5
449
100
AcDbEntity
  8
0
100
AcDbSpline
 62
7
  6
CONTINUOUS
 70
0
 71
3
 72
17
 73
13
 74
0
 42
0.0000001
 43
0.0000001
 44
0.0000000001
 40
0.0
 40
0.0
 40
0.0
 40
0.0
 40
0.139681928
 40
0.276471774
 40
0.408389288
 40
0.5346046792
 40
0.6551874907
 40
0.7712201544
 40
0.8282943208
 40
0.8852254029
 40
0.9423809298
 40
1.0
 40
1.0
 40
1.0
 40
1.0
 10
80.9085616582
 20
69.5148515608
 30
0.0
 10
81.1507222702
 20
69.1099497215
 30
0.0
 10
81.6521353277
 20
68.3218167056
 30
0.0
 10
82.4180653805
 20
67.1746905873
 30
0.0
 10
83.1536073091
 20
66.0618749003
 30
0.0
 10
83.8238094506
 20
64.9717383743
 30
0.0
 10
84.3932378009
 20
63.8849931236
 30
0.0
 10
84.746350516
 20
62.9533072907
 30
0.0
 10
84.9195174187
 20
62.1946252384
 30
0.0
 10
84.9890395199
 20
61.6195410265
 30
0.0
 10
84.9944979757
 20
61.0384563256
 30
0.0
 10
84.9555273569
 20
60.6518901353
 30
0.0
 10
84.9261682084
 20
60.4595024653
 30
0.0
  0
SPLINE
  5
44A
100
AcDbEntity
  8
0
100
AcDbSpline
 62
7
  6
CONTINUOUS
 70
0
 71
3
 72
10
 73
6
 74
0
 42
0.0000001
 43
0.0000001
 44
0.0000000001
 40
0.0
 40
0.0
 40
0.0
 40
0.0
 40
0.2733524064
 40
0.5311400841
 40
1.0
 40
1.0
 40
1.0
 40
1.0
 10
69.5240744818
 20
71.5384182602
 30
0.0
 10
69.5240744818
 20
71.8534560999
 30
0.0
 10
69.5520402747
 20
72.4664118371
 30
0.0
 10
69.7239022213
 20
73.6066531339
 30
0.0
 10
69.9925985229
 20
74.4137545002
 30
0.0
 10
70.2421736372
 20
74.8930256457
 30
0.0
  0
SPLINE
  5
44B
100
AcDbEntity
  8
0
100
AcDbSpline
 62
7
  6
CONTINUOUS
 70
0
 71
3
 72
15
 73
11
 74
0
 42
0.0000001
 43
0.0000001
 44
0.0000000001
 40
0.0
 40
0.0
 40
0.0
 40
0.0
 40
0.1135176169
 40
0.2358058156
 40
0.3644906059
 40
0.4967519819
 40
0.6294615792
 40
0.7594578184
 40
0.8838213131
 40
1.0
 40
1.0
 40
1.0
 40
1.0
 10
83.1862648879
 20
58.4792717507
 30
0.0
 10
83.2889021816
 20
58.4200154221
 30
0.0
 10
83.5127705418
 20
58.3149544534
 30
0.0
 10
83.876971037
 20
58.2014485866
 30
0.0
 10
84.2714175993
 20
58.1291339116
 30
0.0
 10
84.6822220044
 20
58.1004884923
 30
0.0
 10
85.0950733093
 20
58.1165606889
 30
0.0
 10
85.4955738744
 20
58.1767365096
 30
0.0
 10
85.8696076159
 20
58.2789589093
 30
0.0
 10
86.1020467199
 20
58.3767194628
 30
0.0
 10
86.2097195968
 20
58.432563119
 30
0.0
  0
SPLINE
  5
44C
100
AcDbEntity
  8
0
100
AcDbSpline
 62
7
  6
CONTINUOUS
 70
0
 71
3
 72
14
 73
10
 74
0
 42
0.0000001
 43
0.0000001
 44
0.0000000001
 40
0.0
 40
0.0
 40
0.0
 40
0.0
 40
0.2892839386
 40
0.4225434953
 40
0.548497544
 40
0.6678972503
 40
0.7818707126
 40
0.8919533279
 40
1.0
 40
1.0
 40
1.0
 40
1.0
 10
74.1910033781
 20
86.5621457391
 30
0.0
 10
73.7520403292
 20
86.8155754402
 30
0.0
 10
73.1373055044
 20
87.2388177934
 30
0.0
 10
72.4418119009
 20
87.9044479741
 30
0.0
 10
72.0185436711
 20
88.4175463149
 30
0.0
 10
71.6838863034
 20
88.9531797688
 30
0.0
 10
71.4416747112
 20
89.5066621393
 30
0.0
 10
71.2949514261
 20
90.0723125284
 30
0.0
 10
71.2620490809
 20
90.4552736189
 30
0.0
 10
71.2620490838
 20
90.6445872778
 30
0.0
  0
SPLINE
  5
44D
100
AcDbEntity
  8
0
100
AcDbSpline
 62
7
  6
CONTINUOUS
 70
0
 71
3
 72
15
 73
11
 74
0
 42
0.0000001
 43
0.0000001
 44
0.0000000001
 40
0.0
 40
0.0
 40
0.0
 40
0.0
 40
0.1141584021
 40
0.2373252831
 40
0.3669757617
 40
0.4999994786
 40
0.633023268
 40
0.7626739585
 40
0.8858411731
 40
1.0
 40
1.0
 40
1.0
 40
1.0
 10
93.4243290228
 20
83.6228463
 30
0.0
 10
92.9402429211
 20
83.3433607272
 30
0.0
 10
91.8817431116
 20
82.8504477211
 30
0.0
 10
90.1580162424
 20
82.326574813
 30
0.0
 10
88.2918474806
 20
82.0040681145
 30
0.0
 10
86.3532731361
 20
81.8952613824
 30
0.0
 10
84.4146972421
 20
82.0040589137
 30
0.0
 10
82.5485239014
 20
82.3265567512
 30
0.0
 10
80.8247896121
 20
82.8504214655
 30
0.0
 10
79.7662833174
 20
83.3433291847
 30
0.0
 10
79.2821933992
 20
83.6228123065
 30
0.0
  0
SPLINE
  5
44E
100
AcDbEntity
  8
0
100
AcDbSpline
 62
7
  6
CONTINUOUS
 70
0
 71
3
 72
14
 73
10
 74
0
 42
0.0000001
 43
0.0000001
 44
0.0000000001
 40
0.0
 40
0.0
 40
0.0
 40
0.0
 40
0.2892823528
 40
0.4225484467
 40
0.5484959445
 40
0.667894673
 40
0.7818698222
 40
0.8919536913
 40
1.0
 40
1.0
 40
1.0
 40
1.0
 10
74.8980542239
 20
94.3187540685
 30
0.0
 10
74.5029967656
 20
94.0906689
 30
0.0
 10
73.9497354108
 20
93.7097522289
 30
0.0
 10
73.3238134911
 20
93.1106828514
 30
0.0
 10
72.9428767946
 20
92.6489035136
 30
0.0
 10
72.6417086803
 20
92.1668370877
 30
0.0
 10
72.4237298681
 20
91.6687073788
 30
0.0
 10
72.2916266727
 20
91.1596344498
 30
0.0
 10
72.2620757018
 20
90.8149666362
 30
0.0
 10
72.2620757014
 20
90.6445872778
 30
0.0
  0
SPLINE
  5
44F
100
AcDbEntity
  8
0
100
AcDbSpline
 62
7
  6
CONTINUOUS
 70
0
 71
3
 72
13
 73
9
 74
0
 42
0.0000001
 43
0.0000001
 44
0.0000000001
 40
0.0
 40
0.0
 40
0.0
 40
0.0
 40
0.1130314585
 40
0.2274011419
 40
0.3443723928
 40
0.465053194
 40
0.7207684282
 40
1.0
 40
1.0
 40
1.0
 40
1.0
 10
71.262048596
 20
84.1125679412
 30
0.0
 10
71.2620497311
 20
83.9633218034
 30
0.0
 10
71.2823620534
 20
83.6626833378
 30
0.0
 10
71.3731884081
 20
83.2158768893
 30
0.0
 10
71.5238870967
 20
82.7748548475
 30
0.0
 10
71.8082003746
 20
82.1871850849
 30
0.0
 10
72.3178592228
 20
81.4788918631
 30
0.0
 10
72.8345946419
 20
80.9916258113
 30
0.0
 10
73.1211910464
 20
80.759679359
 30
0.0
  0
SPLINE
  5
450
100
AcDbEntity
  8
0
100
AcDbSpline
 62
7
  6
CONTINUOUS
 70
0
 71
3
 72
15
 73
11
 74
0
 42
0.0000001
 43
0.0000001
 44
0.0000000001
 40
0.0
 40
0.0
 40
0.0
 40
0.0
 40
0.1201843651
 40
0.2467464823
 40
0.3773511765
 40
0.5093799225
 40
0.6401336712
 40
0.7669929638
 40
0.8875846687
 40
1.0
 40
1.0
 40
1.0
 40
1.0
 10
80.5458429093
 20
76.4731515328
 30
0.0
 10
81.037960886
 20
76.2704715173
 30
0.0
 10
82.0769757619
 20
75.9218366638
 30
0.0
 10
83.7145781901
 20
75.5740335375
 30
0.0
 10
85.4318661308
 20
75.394895817
 30
0.0
 10
87.1768545251
 20
75.3900006726
 30
0.0
 10
88.8970198931
 20
75.5593872096
 30
0.0
 10
90.5407078852
 20
75.8981090582
 30
0.0
 10
92.0583086613
 20
76.3958103084
 30
0.0
 10
92.9932062804
 20
76.8419196174
 30
0.0
 10
93.4243290228
 20
77.090826963
 30
0.0
  0
SPLINE
  5
451
100
AcDbEntity
  8
0
100
AcDbSpline
 62
7
  6
CONTINUOUS
 70
0
 71
3
 72
15
 73
11
 74
0
 42
0.0000001
 43
0.0000001
 44
0.0000000001
 40
0.0
 40
0.0
 40
0.0
 40
0.0
 40
0.1141545727
 40
0.237326136
 40
0.3669756042
 40
0.4999994969
 40
0.633023459
 40
0.7626731323
 40
0.885845015
 40
1.0
 40
1.0
 40
1.0
 40
1.0
 10
87.9796294763
 20
73.9473469782
 30
0.0
 10
87.7375945312
 20
73.8076088716
 30
0.0
 10
87.2083413911
 20
73.5611558014
 30
0.0
 10
86.3464831352
 20
73.2992024946
 30
0.0
 10
85.413386597
 20
73.1379601638
 30
0.0
 10
84.4441013983
 20
73.0835575115
 30
0.0
 10
83.4748154424
 20
73.1379555893
 30
0.0
 10
82.5417166789
 20
73.2991935126
 30
0.0
 10
81.6798547954
 20
73.5611427117
 30
0.0
 10
81.1505984781
 20
73.8075931224
 30
0.0
 10
80.9085616516
 20
73.9473299888
 30
0.0
  0
SPLINE
  5
452
100
AcDbEntity
  8
0
100
AcDbSpline
 62
7
  6
CONTINUOUS
 70
0
 71
3
 72
9
 73
5
 74
0
 42
0.0000001
 43
0.0000001
 44
0.0000000001
 40
0.0
 40
0.0
 40
0.0
 40
0.0
 40
0.4744342232
 40
1.0
 40
1.0
 40
1.0
 40
1.0
 10
77.0219708132
 20
76.1912034924
 30
0.0
 10
76.9968757404
 20
76.2056918117
 30
0.0
 10
76.9385354946
 20
76.2268393985
 30
0.0
 10
76.8772939171
 20
76.233478035
 30
0.0
 10
76.8451938131
 20
76.2334779578
 30
0.0
  0
ELLIPSE
  5
453
100
AcDbEntity
  8
0
100
AcDbEllipse
 62
7
  6
CONTINUOUS
 10
23.2084257563
 20
92.9710357767
 30
0.0
 11
17.6776695295
 21
0.0000637383
 31
0.0
 40
0.577354396
 41
1.3344581637
 42
1.363453979
  0
ELLIPSE
  5
454
100
AcDbEntity
  8
0
100
AcDbEllipse
 62
7
  6
CONTINUOUS
 10
47.9572661364
 20
78.6826093685
 30
0.0
 11
17.6776695295
 21
0.0000637383
 31
0.0
 40
0.577354396
 41
1.3344581637
 42
1.363453979
  0
ELLIPSE
  5
455
100
AcDbEntity
  8
0
100
AcDbEllipse
 62
7
  6
CONTINUOUS
 10
72.7061065165
 20
64.3941829603
 30
0.0
 11
17.6776695295
 21
0.0000637383
 31
0.0
 40
0.577354396
 41
1.3344581637
 42
1.363453979
  0
ENDSEC
  0
SECTION
  2
OBJECTS
  0
DICTIONARY
  5
C
100
AcDbDictionary
280
0
281
1
  3
ACAD_GROUP
350
D
  3
ACAD_MLINESTYLE
350
17
  3
ACAD_LAYOUT
350
1A
  3
ACAD_PLOTSETTINGS
350
19
  3
ACAD_PLOTSTYLENAME
350
E
  0
DICTIONARY
  5
D
102
{ACAD_REACTORS
330
C
102
}
100
AcDbDictionary
280
0
281
1
  0
ACDBDICTIONARYWDFLT
  5
E
102
{ACAD_REACTORS
330
C
102
}
100
AcDbDictionary
281
1
  3
Normal
350
F
100
AcDbDictionaryWithDefault
340
F
  0
DICTIONARY
  5
17
102
{ACAD_REACTORS
330
C
102
}
100
AcDbDictionary
280
0
281
1
  3
Standard
350
18
  0
DICTIONARY
  5
19
102
{ACAD_REACTORS
330
C
102
}
100
AcDbDictionary
281
1
  0
DICTIONARY
  5
1A
102
{ACAD_REACTORS
330
C
102
}
100
AcDbDictionary
281
1
  3
Model
350
456
  3
Layout1
350
457
  0
ACDBPLACEHOLDER
  5
F
102
{ACAD_REACTORS
330
E
102
}
  0
MLINESTYLE
  5
18
102
{ACAD_REACTORS
330
17
102
}
100
AcDbMlineStyle
  2
STANDARD
 70
0
  3

 62
256
 51
90.0
 52
90.0
 71
2
 49
0.5
 62
256
  6
BYLAYER
 49
-0.5
 62
256
  6
BYLAYER
  0
LAYOUT
  5
456
102
{ACAD_REACTORS
330
1A
102
}
100
AcDbPlotSettings
  1

  2
none_device
  4

  6

 40
0.0
 41
0.0
 42
0.0
 43
0.0
 44
210.0
 45
297.0
 46
0.0
 47
0.0
 48
0.0
 49
0.0
140
0.0
141
0.0
142
1.0
143
1.0
 70
1024
 72
1
 73
0
 74
0
  7

 75
0
147
1.0
148
0.0
149
0.0
100
AcDbLayout
  1
Model
 70
0
 71
0
 10
0.0
 20
0.0
 11
210.0
 21
297.0
 12
0.0
 22
0.0
 32
0.0
 14
0.0
 24
0.0
 34
0.0
 15
0.0
 25
0.0
 35
0.0
146
0.0
 13
0.0
 23
0.0
 33
0.0
 16
1.0
 26
0.0
 36
0.0
 17
0.0
 27
1.0
 37
0.0
 76
0
330
210
345
0
346
0
  0
LAYOUT
  5
457
102
{ACAD_REACTORS
330
1A
102
}
100
AcDbPlotSettings
  1

  2
none_device
  4

  6

 40
0.0
 41
0.0
 42
0.0
 43
0.0
 44
210.0
 45
297.0
 46
0.0
 47
0.0
 48
0.0
 49
0.0
140
0.0
141
0.0
142
1.0
143
1.0
 70
0
 72
1
 73
0
 74
0
  7

 75
0
147
1.0
148
0.0
149
0.0
100
AcDbLayout
  1
Layout1
 70
0
 71
1
 10
0.0
 20
0.0
 11
210.0
 21
297.0
 12
0.0
 22
0.0
 32
0.0
 14
0.0
 24
0.0
 34
0.0
 15
0.0
 25
0.0
 35
0.0
146
0.0
 13
0.0
 23
0.0
 33
0.0
 16
1.0
 26
0.0
 36
0.0
 17
0.0
 27
1.0
 37
0.0
 76
0
330
211
345
0
346
0
  0
ENDSEC
  0
EOF
