999
DXF file: C:\Users\sesa63760\Dev\_Creo\CAD\MCADID0004253_3D-CAD\drw0001_7.dxf
999
Pro/ENGINEER 2019471 by Parametric Technology Corporation
  0
SECTION
  2
HEADER
  9
$ACADVER
  1
AC1024
  9
$DWGCODEPAGE
  3
ANSI_1252
  9
$EXTMAX
 10
262.7207597007
 20
371.562217291
 30
0.0
  9
$EXTMIN
 10
0.0
 20
0.0
 30
0.0
  9
$LIMMIN
 10
0.0
 20
0.0
  9
$LIMMAX
 10
262.7207597007
 20
371.562217291
  9
$VIEWCTR
 10
131.3603798504
 20
185.7811086455
  9
$VIEWSIZE
 40
371.562217291
  9
$CLAYER
  8
0
  9
$LTSCALE
 40
24.2203519419
  9
$CELTYPE
  6
BYLAYER
  9
$DIMSCALE
 40
1.0
  9
$DIMASZ
 40
3.1276280917
  9
$DIMEXO
 40
1.0
  9
$DIMDLI
 40
16.7340613417
  9
$DIMEXE
 40
1.0
  9
$DIMCEN
 40
3.9633303178
  9
$DIMLFAC
 40
1.0
  9
$DIMBLK
  1
_FILLED
  9
$DIMALT
 70
0
  9
$DIMALTF
 40
0.0393700787
  9
$DIMTXT
 40
4.3786793283
  9
$DIMTOL
 70
1
  9
$DIMLIM
 70
0
  9
$DIMTFAC
 40
1.0
  9
$DIMTP
 40
0.01
  9
$DIMTM
 40
0.01
  9
$DIMGAP
 40
0.625
  9
$DIMDSEP
 70
46
  9
$AUNITS
 70
0
  9
$PDMODE
 70
3
  9
$PDSIZE
 40
0.3125
  9
$HANDSEED
  5
89B
  9
$TILEMODE
 70
1
  9
$MEASUREMENT
 70
1
  9
$INSUNITS
 70
4
  0
ENDSEC
  0
SECTION
  2
CLASSES
  0
CLASS
  1
ACDBDICTIONARYWDFLT
  2
AcDbDictionaryWithDefault
  3
AutoCAD 2000
 90
0
 91
1
280
0
281
0
  0
CLASS
  1
ACDBPLACEHOLDER
  2
AcDbPlaceHolder
  3
AutoCAD 2000
 90
0
 91
1
280
0
281
0
  0
CLASS
  1
LAYOUT
  2
AcDbLayout
  3
AutoCAD 2000
 90
0
 91
0
280
0
281
0
  0
ENDSEC
  0
SECTION
  2
TABLES
  0
TABLE
  2
VPORT
  5
8
100
AcDbSymbolTable
 70
2
  0
VPORT
  5
1F4
100
AcDbSymbolTableRecord
100
AcDbViewportTableRecord
  2
*ACTIVE
 70
0
 10
0.0
 20
0.0
 11
1.0
 21
1.0
 12
131.3603798504
 22
185.7811086455
 13
0.0
 23
0.0
 14
1.0
 24
1.0
 15
0.0
 25
0.0
 16
0.0
 26
0.0
 36
1.0
 17
0.0
 27
0.0
 37
0.0
 40
371.562217291
 41
0.7070707071
 42
50.0
 43
0.0
 44
0.0
 50
0.0
 51
0.0
 71
0
 72
100
 73
1
 74
1
 75
0
 76
0
 77
0
 78
0
  0
ENDTAB
  0
TABLE
  2
LTYPE
  5
5
100
AcDbSymbolTable
 70
6
  0
LTYPE
  5
14
100
AcDbSymbolTableRecord
100
AcDbLinetypeTableRecord
  2
BYBLOCK
 70
0
  3

 72
65
 73
0
 40
0.0
  0
LTYPE
  5
15
100
AcDbSymbolTableRecord
100
AcDbLinetypeTableRecord
  2
BYLAYER
 70
0
  3

 72
65
 73
0
 40
0.0
  0
LTYPE
  5
16
100
AcDbSymbolTableRecord
100
AcDbLinetypeTableRecord
  2
CONTINUOUS
 70
64
  3
Solid line
 72
65
 73
0
 40
0.0
  0
LTYPE
  5
1F5
100
AcDbSymbolTableRecord
100
AcDbLinetypeTableRecord
  2
CENTER
 70
64
  3
____ _ ____ _ ____ _ ____ _ ____ _ ____ _ ____
 72
65
 73
4
 40
0.6
 49
0.375
 74
0
 49
-0.075
 74
0
 49
0.075
 74
0
 49
-0.075
 74
0
  0
LTYPE
  5
1F6
100
AcDbSymbolTableRecord
100
AcDbLinetypeTableRecord
  2
HIDDEN
 70
64
  3
- - - - - - - - - - - - - - - - - - - -
 72
65
 73
2
 40
0.2
 49
0.1
 74
0
 49
-0.1
 74
0
  0
LTYPE
  5
1F7
100
AcDbSymbolTableRecord
100
AcDbLinetypeTableRecord
  2
PHANTOM
 70
64
  3
_____ _ _ _____ _ _ _____ _ _ _____
 72
65
 73
6
 40
0.8
 49
0.45
 74
0
 49
-0.05
 74
0
 49
0.1
 74
0
 49
-0.05
 74
0
 49
0.1
 74
0
 49
-0.05
 74
0
  0
LTYPE
  5
1F8
100
AcDbSymbolTableRecord
100
AcDbLinetypeTableRecord
  2
DOT
 70
64
  3
. . . . . . . . . . . . . . . . . . . .
 72
65
 73
2
 40
0.2
 49
0.1
 74
0
 49
-0.1
 74
0
  0
LTYPE
  5
1F9
100
AcDbSymbolTableRecord
100
AcDbLinetypeTableRecord
  2
DASHED
 70
64
  3
- - - - - - - - - - - - - - - - - - - -
 72
65
 73
2
 40
0.2
 49
0.1
 74
0
 49
-0.1
 74
0
  0
ENDTAB
  0
TABLE
  2
LAYER
  5
2
100
AcDbSymbolTable
 70
36
  0
LAYER
  5
10
100
AcDbSymbolTableRecord
100
AcDbLayerTableRecord
  2
0
 70
0
 62
7
  6
CONTINUOUS
370
-3
390
F
  0
LAYER
  5
1FA
100
AcDbSymbolTableRecord
100
AcDbLayerTableRecord
  2
DEFAULT_1
 70
0
 62
7
  6
CENTER
370
-3
390
F
  0
LAYER
  5
1FB
100
AcDbSymbolTableRecord
100
AcDbLayerTableRecord
  2
DEFAULT_2
 70
0
 62
7
  6
HIDDEN
370
-3
390
F
  0
LAYER
  5
1FC
100
AcDbSymbolTableRecord
100
AcDbLayerTableRecord
  2
DEFAULT_3
 70
0
 62
7
  6
PHANTOM
370
-3
390
F
  0
LAYER
  5
1FD
100
AcDbSymbolTableRecord
100
AcDbLayerTableRecord
  2
00_COMPONENTS
 70
0
 62
7
  6
CONTINUOUS
370
-3
390
F
  0
LAYER
  5
1FE
100
AcDbSymbolTableRecord
100
AcDbLayerTableRecord
  2
01_1_DEFAULT_DATUMS
 70
0
 62
7
  6
CONTINUOUS
370
-3
390
F
  0
LAYER
  5
1FF
100
AcDbSymbolTableRecord
100
AcDbLayerTableRecord
  2
01_PLANES
 70
0
 62
7
  6
CONTINUOUS
370
-3
390
F
  0
LAYER
  5
200
100
AcDbSymbolTableRecord
100
AcDbLayerTableRecord
  2
02_COORD_SYS
 70
0
 62
7
  6
CONTINUOUS
370
-3
390
F
  0
LAYER
  5
201
100
AcDbSymbolTableRecord
100
AcDbLayerTableRecord
  2
03_AXES
 70
0
 62
7
  6
CONTINUOUS
370
-3
390
F
  0
LAYER
  5
202
100
AcDbSymbolTableRecord
100
AcDbLayerTableRecord
  2
04_POINTS
 70
0
 62
7
  6
CONTINUOUS
370
-3
390
F
  0
LAYER
  5
203
100
AcDbSymbolTableRecord
100
AcDbLayerTableRecord
  2
05_CURVES
 70
0
 62
7
  6
CONTINUOUS
370
-3
390
F
  0
LAYER
  5
204
100
AcDbSymbolTableRecord
100
AcDbLayerTableRecord
  2
06_SURFS
 70
0
 62
7
  6
CONTINUOUS
370
-3
390
F
  0
LAYER
  5
205
100
AcDbSymbolTableRecord
100
AcDbLayerTableRecord
  2
07_COSMETICS
 70
0
 62
7
  6
CONTINUOUS
370
-3
390
F
  0
LAYER
  5
206
100
AcDbSymbolTableRecord
100
AcDbLayerTableRecord
  2
10_NOTES
 70
0
 62
7
  6
CONTINUOUS
370
-3
390
F
  0
LAYER
  5
207
100
AcDbSymbolTableRecord
100
AcDbLayerTableRecord
  2
11_NOTES_PUB
 70
0
 62
7
  6
CONTINUOUS
370
-3
390
F
  0
LAYER
  5
208
100
AcDbSymbolTableRecord
100
AcDbLayerTableRecord
  2
13_REF_GTOL
 70
0
 62
7
  6
CONTINUOUS
370
-3
390
F
  0
LAYER
  5
209
100
AcDbSymbolTableRecord
100
AcDbLayerTableRecord
  2
16_MISC
 70
0
 62
7
  6
CONTINUOUS
370
-3
390
F
  0
LAYER
  5
20A
100
AcDbSymbolTableRecord
100
AcDbLayerTableRecord
  2
17_NO_PRINT
 70
0
 62
7
  6
CONTINUOUS
370
-3
390
F
  0
LAYER
  5
20B
100
AcDbSymbolTableRecord
100
AcDbLayerTableRecord
  2
18_DATUM_CAMS_JOINTS
 70
0
 62
7
  6
CONTINUOUS
370
-3
390
F
  0
LAYER
  5
20C
100
AcDbSymbolTableRecord
100
AcDbLayerTableRecord
  2
19_DATUM_FUNCTIONAL
 70
0
 62
7
  6
CONTINUOUS
370
-3
390
F
  0
LAYER
  5
20D
100
AcDbSymbolTableRecord
100
AcDbLayerTableRecord
  2
20_DATUM_KINEMATIC_SCHEME
 70
0
 62
7
  6
CONTINUOUS
370
-3
390
F
  0
LAYER
  5
20E
100
AcDbSymbolTableRecord
100
AcDbLayerTableRecord
  2
3
 70
0
 62
7
  6
CONTINUOUS
370
-3
390
F
  0
LAYER
  5
20F
100
AcDbSymbolTableRecord
100
AcDbLayerTableRecord
  2
4
 70
0
 62
7
  6
CONTINUOUS
370
-3
390
F
  0
ENDTAB
  0
TABLE
  2
STYLE
  5
3
100
AcDbSymbolTable
 70
1
  0
STYLE
  5
11
100
AcDbSymbolTableRecord
100
AcDbTextStyleTableRecord
  2
STANDARD
 70
0
 40
0.0
 41
1.0
 50
0.0
 71
0
 42
0.2
  3
ARIAL.TTF
  4

  0
STYLE
  5
210
100
AcDbSymbolTableRecord
100
AcDbTextStyleTableRecord
  2
TEXTSTYLE_1
 70
0
 40
0.0
 41
0.8
 50
0.0
 71
0
 42
0.2
  3
gdt
  4

  0
ENDTAB
  0
TABLE
  2
VIEW
  5
6
100
AcDbSymbolTable
 70
0
  0
ENDTAB
  0
TABLE
  2
UCS
  5
7
100
AcDbSymbolTable
 70
0
  0
ENDTAB
  0
TABLE
  2
APPID
  5
9
100
AcDbSymbolTable
 70
1
  0
APPID
  5
211
100
AcDbSymbolTableRecord
100
AcDbRegAppTableRecord
  2
ACAD
 70
0
  0
ENDTAB
  0
TABLE
  2
BLOCK_RECORD
  5
1
100
AcDbSymbolTable
 70
0
  0
BLOCK_RECORD
  5
212
100
AcDbSymbolTableRecord
100
AcDbBlockTableRecord
  2
*Model_Space
  0
BLOCK_RECORD
  5
213
100
AcDbSymbolTableRecord
100
AcDbBlockTableRecord
  2
*Paper_Space
  0
BLOCK_RECORD
  5
214
100
AcDbSymbolTableRecord
100
AcDbBlockTableRecord
  2
_FILLED
  0
ENDTAB
  0
TABLE
  2
DIMSTYLE
  5
A
100
AcDbSymbolTable
 70
1
100
AcDbDimStyleTable
 71
0
  0
DIMSTYLE
105
215
100
AcDbSymbolTableRecord
100
AcDbDimStyleTableRecord
  2
STANDARD
 70
0
  3

  4

 40
1.0
 41
3.1276280917
 42
1.0
 43
0.38
 44
1.0
 45
0.0
 46
0.0
 47
0.01
 48
0.01
140
4.3786793283
141
0.09
142
0.0
143
25.4
144
1.0
145
0.0
146
1.0
147
0.625
 71
1
 72
0
 73
0
 74
0
 75
0
 76
0
 77
1
 78
8
 79
2
170
0
171
1
172
0
173
0
174
0
175
0
176
0
177
0
178
0
270
2
179
2
271
2
272
2
273
2
274
2
275
0
280
0
281
0
282
0
283
1
284
8
285
0
286
0
287
3
288
0
340
11
278
46
341
214
342
214
343
214
344
214
  0
ENDTAB
  0
ENDSEC
  0
SECTION
  2
BLOCKS
  0
BLOCK
  5
20
100
AcDbEntity
  8
0
100
AcDbBlockBegin
  2
*Model_Space
 70
0
 10
0.0
 20
0.0
 30
0.0
  3
*Model_Space
  1

  0
ENDBLK
  5
21
100
AcDbEntity
  8
0
100
AcDbBlockEnd
  0
BLOCK
  5
1C
100
AcDbEntity
  8
0
100
AcDbBlockBegin
  2
*Paper_Space
 70
0
 10
0.0
 20
0.0
 30
0.0
  3
*Paper_Space
  1

  0
ENDBLK
  5
1D
100
AcDbEntity
  8
0
100
AcDbBlockEnd
  0
BLOCK
  5
216
100
AcDbEntity
  8
0
100
AcDbBlockBegin
  2
_FILLED
 70
64
 10
0.0
 20
0.0
  3
_FILLED
  1

  0
SOLID
  5
217
100
AcDbEntity
  8
0
  6
BYBLOCK
 62
0
100
AcDbTrace
 10
0.0
 20
0.0
 11
-1.0
 21
0.25
 12
-1.0
 22
-0.25
 13
-1.0
 23
-0.25
  0
ENDBLK
  5
218
100
AcDbEntity
  8
0
  6
BYBLOCK
 62
0
100
AcDbBlockEnd
  0
ENDSEC
  0
SECTION
  2
ENTITIES
  0
LINE
  5
219
100
AcDbEntity
  8
0
100
AcDbLine
 62
7
  6
BYLAYER
 10
28.281480913
 20
139.7316208152
 11
29.4822753197
 21
135.5288403919
  0
LINE
  5
21A
100
AcDbEntity
  8
0
100
AcDbLine
 62
7
  6
BYLAYER
 10
29.4044026932
 20
139.4414495292
 11
30.4437992673
 21
135.8035615199
  0
LINE
  5
21B
100
AcDbEntity
  8
3
100
AcDbLine
 62
7
  6
BYLAYER
 10
27.8964676215
 20
147.5782826477
 11
27.8964676215
 21
149.0782826477
  0
LINE
  5
21C
100
AcDbEntity
  8
3
100
AcDbLine
 62
7
  6
BYLAYER
 10
27.8964676215
 20
180.0782826477
 11
27.8964676215
 21
181.5782826477
  0
LINE
  5
21D
100
AcDbEntity
  8
0
100
AcDbLine
 62
7
  6
BYLAYER
 10
27.8967203894
 20
157.0782826477
 11
27.8967203894
 21
142.4788320941
  0
LINE
  5
21E
100
AcDbEntity
  8
0
100
AcDbLine
 62
7
  6
BYLAYER
 10
27.8967203894
 20
166.0782826477
 11
27.8967203894
 21
185.0782826477
  0
LINE
  5
21F
100
AcDbEntity
  8
0
100
AcDbLine
 62
7
  6
BYLAYER
 10
28.3967203894
 20
142.4788320942
 11
28.3967203895
 21
143.2455210023
  0
LINE
  5
220
100
AcDbEntity
  8
0
100
AcDbLine
 62
7
  6
BYLAYER
 10
28.3967203896
 20
145.9392110838
 11
28.3967203897
 21
147.5782826477
  0
LINE
  5
221
100
AcDbEntity
  8
0
100
AcDbLine
 62
7
  6
BYLAYER
 10
28.3967203896
 20
181.5782826477
 11
28.3967203894
 21
185.0782826477
  0
LINE
  5
222
100
AcDbEntity
  8
0
100
AcDbLine
 62
7
  6
BYLAYER
 10
28.8967377446
 20
166.5782999917
 11
28.8967203894
 21
181.0782826477
  0
LINE
  5
223
100
AcDbEntity
  8
0
100
AcDbLine
 62
7
  6
BYLAYER
 10
28.8967203894
 20
148.0782826477
 11
28.8967361628
 21
156.5782668842
  0
LINE
  5
224
100
AcDbEntity
  8
0
100
AcDbLine
 62
7
  6
BYLAYER
 10
29.3967203894
 20
169.0782826477
 11
29.3967203894
 21
165.5782826477
  0
LINE
  5
225
100
AcDbEntity
  8
0
100
AcDbLine
 62
7
  6
BYLAYER
 10
29.3967203894
 20
157.5782826477
 11
29.3967203894
 21
154.0782826477
  0
LINE
  5
226
100
AcDbEntity
  8
0
100
AcDbLine
 62
7
  6
BYLAYER
 10
29.8853153657
 20
140.0782826477
 11
29.8853153657
 21
141.5782826477
  0
LINE
  5
227
100
AcDbEntity
  8
0
100
AcDbLine
 62
7
  6
BYLAYER
 10
29.8967203894
 20
144.1782826477
 11
29.8967203894
 21
144.9782826477
  0
LINE
  5
228
100
AcDbEntity
  8
0
100
AcDbLine
 62
7
  6
BYLAYER
 10
29.8967203894
 20
154.0782826477
 11
29.8967203894
 21
157.0782826477
  0
LINE
  5
229
100
AcDbEntity
  8
0
100
AcDbLine
 62
7
  6
BYLAYER
 10
29.8967203894
 20
166.0782826477
 11
29.8967203894
 21
169.0782826477
  0
LINE
  5
22A
100
AcDbEntity
  8
0
100
AcDbLine
 62
7
  6
BYLAYER
 10
30.3967203894
 20
153.0782826477
 11
30.3967203894
 21
153.5782826477
  0
LINE
  5
22B
100
AcDbEntity
  8
0
100
AcDbLine
 62
7
  6
BYLAYER
 10
30.3967203894
 20
169.5782826477
 11
30.3967203894
 21
170.0782826477
  0
LINE
  5
22C
100
AcDbEntity
  8
0
100
AcDbLine
 62
7
  6
BYLAYER
 10
30.8967203894
 20
184.1782826477
 11
30.8967203894
 21
184.9782826477
  0
LINE
  5
22D
100
AcDbEntity
  8
0
100
AcDbLine
 62
7
  6
BYLAYER
 10
30.9967203894
 20
143.0782826477
 11
30.9967203894
 21
144.1782826477
  0
LINE
  5
22E
100
AcDbEntity
  8
0
100
AcDbLine
 62
7
  6
BYLAYER
 10
30.9967203894
 20
144.9782826477
 11
30.9967203894
 21
146.0782826477
  0
LINE
  5
22F
100
AcDbEntity
  8
0
100
AcDbLine
 62
7
  6
BYLAYER
 10
31.3967203894
 20
149.0782826477
 11
31.3967203894
 21
147.8696506906
  0
LINE
  5
230
100
AcDbEntity
  8
0
100
AcDbLine
 62
7
  6
BYLAYER
 10
31.3967203894
 20
141.2869146048
 11
31.3967203894
 21
140.0782826477
  0
LINE
  5
231
100
AcDbEntity
  8
0
100
AcDbLine
 62
7
  6
BYLAYER
 10
31.4053232149
 20
134.0782826477
 11
31.4053232149
 21
135.0782826477
  0
LINE
  5
232
100
AcDbEntity
  8
0
100
AcDbLine
 62
7
  6
BYLAYER
 10
31.6606524119
 20
135.0782826477
 11
31.6606524119
 21
134.0782826477
  0
LINE
  5
233
100
AcDbEntity
  8
0
100
AcDbLine
 62
7
  6
BYLAYER
 10
31.7967203894
 20
146.0782826477
 11
31.7967203894
 21
144.9782826477
  0
LINE
  5
234
100
AcDbEntity
  8
0
100
AcDbLine
 62
7
  6
BYLAYER
 10
31.7967203894
 20
144.1782826477
 11
31.7967203894
 21
143.0782826477
  0
LINE
  5
235
100
AcDbEntity
  8
0
100
AcDbLine
 62
7
  6
BYLAYER
 10
31.8967203894
 20
170.0782826477
 11
31.8967203894
 21
169.5782826477
  0
LINE
  5
236
100
AcDbEntity
  8
0
100
AcDbLine
 62
7
  6
BYLAYER
 10
31.8967203894
 20
153.5782826477
 11
31.8967203894
 21
153.0782826477
  0
LINE
  5
237
100
AcDbEntity
  8
0
100
AcDbLine
 62
7
  6
BYLAYER
 10
31.8967203894
 20
188.5782826477
 11
31.8967203894
 21
189.0782826477
  0
LINE
  5
238
100
AcDbEntity
  8
0
100
AcDbLine
 62
7
  6
BYLAYER
 10
32.8967203894
 20
137.4282826477
 11
33.8967200476
 21
136.4282826477
  0
LINE
  5
239
100
AcDbEntity
  8
0
100
AcDbLine
 62
7
  6
BYLAYER
 10
28.8523866286
 20
140.6659674477
 11
28.5080770496
 21
141.0285290477
  0
LINE
  5
23A
100
AcDbEntity
  8
0
100
AcDbLine
 62
7
  6
BYLAYER
 10
28.3967116925
 20
157.5782826477
 11
28.8967282808
 21
156.5782826477
  0
LINE
  5
23B
100
AcDbEntity
  8
0
100
AcDbLine
 62
7
  6
BYLAYER
 10
31.9967203894
 20
183.0782826477
 11
31.9967203894
 21
184.1782826477
  0
LINE
  5
23C
100
AcDbEntity
  8
0
100
AcDbLine
 62
7
  6
BYLAYER
 10
31.9967203894
 20
184.9782826477
 11
31.9967203894
 21
186.0782826477
  0
LINE
  5
23D
100
AcDbEntity
  8
0
100
AcDbLine
 62
7
  6
BYLAYER
 10
32.3967203894
 20
181.2869146048
 11
32.3967203894
 21
180.0782826477
  0
LINE
  5
23E
100
AcDbEntity
  8
0
100
AcDbLine
 62
7
  6
BYLAYER
 10
32.3967203894
 20
169.0782826477
 11
32.3967203894
 21
154.0782826477
  0
LINE
  5
23F
100
AcDbEntity
  8
0
100
AcDbLine
 62
7
  6
BYLAYER
 10
32.7967203894
 20
186.0782826477
 11
32.7967203894
 21
184.9782826477
  0
LINE
  5
240
100
AcDbEntity
  8
0
100
AcDbLine
 62
7
  6
BYLAYER
 10
32.7967203894
 20
184.1782826477
 11
32.7967203894
 21
183.0782826477
  0
LINE
  5
241
100
AcDbEntity
  8
0
100
AcDbLine
 62
7
  6
BYLAYER
 10
32.8967203894
 20
144.9782826477
 11
32.8967203894
 21
144.1782826477
  0
LINE
  5
242
100
AcDbEntity
  8
0
100
AcDbLine
 62
7
  6
BYLAYER
 10
32.8967203894
 20
154.0782826477
 11
32.8967203894
 21
169.0782826477
  0
LINE
  5
243
100
AcDbEntity
  8
0
100
AcDbLine
 62
7
  6
BYLAYER
 10
32.8967203894
 20
137.4282826477
 11
32.8967040877
 21
136.3143544605
  0
LINE
  5
244
100
AcDbEntity
  8
0
100
AcDbLine
 62
7
  6
BYLAYER
 10
33.8967203894
 20
184.9782826477
 11
33.8967203894
 21
184.1782826477
  0
LINE
  5
245
100
AcDbEntity
  8
0
100
AcDbLine
 62
7
  6
BYLAYER
 10
33.8967203894
 20
136.1963166365
 11
33.8967203894
 21
136.4282826477
  0
LINE
  5
246
100
AcDbEntity
  8
0
100
AcDbLine
 62
7
  6
BYLAYER
 10
35.3967203169
 20
189.0782826477
 11
35.3967203894
 21
185.9110442931
  0
LINE
  5
247
100
AcDbEntity
  8
0
100
AcDbLine
 62
7
  6
BYLAYER
 10
35.8967203894
 20
188.0782826477
 11
35.8967203894
 21
184.5782826477
  0
LINE
  5
248
100
AcDbEntity
  8
0
100
AcDbLine
 62
7
  6
BYLAYER
 10
36.8967203894
 20
184.5782826477
 11
36.8967203894
 21
189.0782826477
  0
LINE
  5
249
100
AcDbEntity
  8
3
100
AcDbLine
 62
7
  6
BYLAYER
 10
38.0852133049
 20
192.3199434628
 11
38.0852133049
 21
189.3199434628
  0
LINE
  5
24A
100
AcDbEntity
  8
0
100
AcDbLine
 62
7
  6
BYLAYER
 10
43.599127076
 20
149.5245111647
 11
43.536627076
 21
149.6096175375
  0
LINE
  5
24B
100
AcDbEntity
  8
0
100
AcDbLine
 62
7
  6
BYLAYER
 10
44.1407937253
 20
149.9925962675
 11
44.2032937215
 21
149.9074898872
  0
LINE
  5
24C
100
AcDbEntity
  8
0
100
AcDbLine
 62
7
  6
BYLAYER
 10
40.6699603894
 20
149.711745173
 11
40.711627076
 21
149.6479153934
  0
LINE
  5
24D
100
AcDbEntity
  8
0
100
AcDbLine
 62
7
  6
BYLAYER
 10
40.6199603894
 20
151.911745173
 11
40.661627076
 21
151.8479153934
  0
LINE
  5
24E
100
AcDbEntity
  8
0
100
AcDbLine
 62
7
  6
BYLAYER
 10
40.5574603894
 20
152.2096175375
 11
40.5157937029
 21
152.2734473172
  0
LINE
  5
24F
100
AcDbEntity
  8
0
100
AcDbLine
 62
7
  6
BYLAYER
 10
41.1824603894
 20
152.5713196668
 11
41.2241270555
 21
152.5074898872
  0
LINE
  5
250
100
AcDbEntity
  8
0
100
AcDbLine
 62
7
  6
BYLAYER
 10
43.6199603894
 20
149.6734473172
 11
43.661627076
 21
149.6096175375
  0
LINE
  5
251
100
AcDbEntity
  8
0
100
AcDbLine
 62
7
  6
BYLAYER
 10
40.599127076
 20
152.3585537198
 11
40.6407937029
 21
152.2734473172
  0
LINE
  5
252
100
AcDbEntity
  8
0
100
AcDbLine
 62
7
  6
BYLAYER
 10
41.1407937253
 20
152.4436600926
 11
41.1199603894
 21
152.4862132791
  0
LINE
  5
253
100
AcDbEntity
  8
0
100
AcDbLine
 62
7
  6
BYLAYER
 10
44.1199603894
 20
149.8223834994
 11
44.0782937178
 21
149.9074898872
  0
LINE
  5
254
100
AcDbEntity
  8
0
100
AcDbLine
 62
7
  6
BYLAYER
 10
44.2032937215
 20
149.9074898872
 11
44.2449603894
 21
149.8223834994
  0
LINE
  5
255
100
AcDbEntity
  8
0
100
AcDbLine
 62
7
  6
BYLAYER
 10
43.536627076
 20
149.6096175375
 11
43.4949603894
 21
149.7160005334
  0
LINE
  5
256
100
AcDbEntity
  8
0
100
AcDbLine
 62
7
  6
BYLAYER
 10
41.2241270555
 20
152.5074898872
 11
41.2449603894
 21
152.4436600926
  0
LINE
  5
257
100
AcDbEntity
  8
0
100
AcDbLine
 62
7
  6
BYLAYER
 10
43.599127076
 20
149.7372771266
 11
43.6199603894
 21
149.6734473172
  0
LINE
  5
258
100
AcDbEntity
  8
0
100
AcDbLine
 62
7
  6
BYLAYER
 10
40.5657937029
 20
149.6266388002
 11
40.5449603894
 21
149.711745173
  0
LINE
  5
259
100
AcDbEntity
  8
0
100
AcDbLine
 62
7
  6
BYLAYER
 10
40.536627076
 20
151.8266388002
 11
40.5157937029
 21
151.911745173
  0
LINE
  5
25A
100
AcDbEntity
  8
0
100
AcDbLine
 62
7
  6
BYLAYER
 10
40.5157937029
 20
152.2734473172
 11
40.4949603894
 21
152.3585537198
  0
LINE
  5
25B
100
AcDbEntity
  8
0
100
AcDbLine
 62
7
  6
BYLAYER
 10
40.494516458
 20
172.1986032216
 11
40.4788447846
 21
172.2732004882
  0
LINE
  5
25C
100
AcDbEntity
  8
0
100
AcDbLine
 62
7
  6
BYLAYER
 10
47.0096153267
 20
174.6696530586
 11
46.9926898688
 21
174.8633552117
  0
LINE
  5
25D
100
AcDbEntity
  8
0
100
AcDbLine
 62
7
  6
BYLAYER
 10
47.1130484976
 20
174.7429965829
 11
47.1299739134
 21
174.5492944719
  0
LINE
  5
25E
100
AcDbEntity
  8
0
100
AcDbLine
 62
7
  6
BYLAYER
 10
45.4686491045
 20
176.8116600448
 11
45.5213059862
 21
176.0518963819
  0
LINE
  5
25F
100
AcDbEntity
  8
0
100
AcDbLine
 62
7
  6
BYLAYER
 10
45.4009473995
 20
176.1722549686
 11
45.3655293691
 21
176.7085403093
  0
LINE
  5
260
100
AcDbEntity
  8
0
100
AcDbLine
 62
7
  6
BYLAYER
 10
40.5825914017
 20
172.3167678119
 11
40.5832182623
 21
172.2572153581
  0
LINE
  5
261
100
AcDbEntity
  8
0
100
AcDbLine
 62
7
  6
BYLAYER
 10
40.9279954778
 20
172.0302892447
 11
40.92862237
 21
171.9707368436
  0
LINE
  5
262
100
AcDbEntity
  8
0
100
AcDbLine
 62
7
  6
BYLAYER
 10
41.4620868038
 20
172.2033047262
 11
41.4633405329
 21
172.0841998687
  0
LINE
  5
263
100
AcDbEntity
  8
0
100
AcDbLine
 62
7
  6
BYLAYER
 10
43.0530770615
 20
170.6830251467
 11
43.0543307906
 21
170.5639202891
  0
LINE
  5
264
100
AcDbEntity
  8
0
100
AcDbLine
 62
7
  6
BYLAYER
 10
40.4949603894
 20
152.4436600926
 11
40.4949603894
 21
152.3585537198
  0
LINE
  5
265
100
AcDbEntity
  8
0
100
AcDbLine
 62
7
  6
BYLAYER
 10
40.5157937029
 20
151.954298419
 11
40.5157937029
 21
151.911745173
  0
LINE
  5
266
100
AcDbEntity
  8
0
100
AcDbLine
 62
7
  6
BYLAYER
 10
40.5449603894
 20
150.4777026477
 11
40.5449603894
 21
150.3713196668
  0
LINE
  5
267
100
AcDbEntity
  8
0
100
AcDbLine
 62
7
  6
BYLAYER
 10
40.5449603894
 20
149.754298419
 11
40.5449603894
 21
149.711745173
  0
LINE
  5
268
100
AcDbEntity
  8
0
100
AcDbLine
 62
7
  6
BYLAYER
 10
40.599127076
 20
152.3585537198
 11
40.599127076
 21
152.4436600926
  0
LINE
  5
269
100
AcDbEntity
  8
0
100
AcDbLine
 62
7
  6
BYLAYER
 10
40.6199603894
 20
151.911745173
 11
40.6199603894
 21
151.954298419
  0
LINE
  5
26A
100
AcDbEntity
  8
0
100
AcDbLine
 62
7
  6
BYLAYER
 10
40.6699603894
 20
149.711745173
 11
40.6699603894
 21
149.754298419
  0
LINE
  5
26B
100
AcDbEntity
  8
0
100
AcDbLine
 62
7
  6
BYLAYER
 10
40.9116270462
 20
152.1245111647
 11
40.9116270462
 21
152.2096175375
  0
LINE
  5
26C
100
AcDbEntity
  8
0
100
AcDbLine
 62
7
  6
BYLAYER
 10
41.2949603894
 20
150.3713196668
 11
41.2949603894
 21
150.4777026477
  0
LINE
  5
26D
100
AcDbEntity
  8
3
100
AcDbLine
 62
7
  6
BYLAYER
 10
43.0852133049
 20
189.3199434628
 11
43.0852133049
 21
192.3199434628
  0
LINE
  5
26E
100
AcDbEntity
  8
0
100
AcDbLine
 62
7
  6
BYLAYER
 10
43.1949603894
 20
147.0125304497
 11
43.1949603894
 21
147.6277026477
  0
LINE
  5
26F
100
AcDbEntity
  8
0
100
AcDbLine
 62
7
  6
BYLAYER
 10
43.4949603894
 20
149.8011069062
 11
43.4949603894
 21
149.7160005334
  0
LINE
  5
270
100
AcDbEntity
  8
0
100
AcDbLine
 62
7
  6
BYLAYER
 10
43.536627076
 20
149.1840856138
 11
43.536627076
 21
149.0777026477
  0
LINE
  5
271
100
AcDbEntity
  8
0
100
AcDbLine
 62
7
  6
BYLAYER
 10
43.599127076
 20
149.7372771266
 11
43.599127076
 21
149.779830313
  0
LINE
  5
272
100
AcDbEntity
  8
0
100
AcDbLine
 62
7
  6
BYLAYER
 10
44.1407937253
 20
149.5245111647
 11
44.1407937253
 21
149.1840856138
  0
LINE
  5
273
100
AcDbEntity
  8
0
100
AcDbLine
 62
7
  6
BYLAYER
 10
44.2449603894
 20
149.0777026477
 11
44.2449603894
 21
149.6308941308
  0
LINE
  5
274
100
AcDbEntity
  8
0
100
AcDbLine
 62
7
  6
BYLAYER
 10
44.3967203894
 20
186.5782826477
 11
44.3967203894
 21
185.0782826477
  0
LINE
  5
275
100
AcDbEntity
  8
0
100
AcDbLine
 62
7
  6
BYLAYER
 10
44.5949603894
 20
147.0125304497
 11
44.5949603894
 21
147.6277026477
  0
LINE
  5
276
100
AcDbEntity
  8
0
100
AcDbLine
 62
7
  6
BYLAYER
 10
44.8967203894
 20
185.0782826477
 11
44.8967203894
 21
186.5782826477
  0
LINE
  5
277
100
AcDbEntity
  8
3
100
AcDbLine
 62
7
  6
BYLAYER
 10
45.3959925799
 20
187.030598488
 11
45.3959925799
 21
185.030598488
  0
LINE
  5
278
100
AcDbEntity
  8
0
100
AcDbLine
 62
7
  6
BYLAYER
 10
45.3967203894
 20
184.0782826477
 11
45.3967203894
 21
184.5782826477
  0
LINE
  5
279
100
AcDbEntity
  8
0
100
AcDbLine
 62
7
  6
BYLAYER
 10
45.3967203894
 20
187.0782826477
 11
45.3967203894
 21
187.5782826477
  0
LINE
  5
27A
100
AcDbEntity
  8
0
100
AcDbLine
 62
7
  6
BYLAYER
 10
46.461627076
 20
152.379830313
 11
46.461627076
 21
152.252170724
  0
LINE
  5
27B
100
AcDbEntity
  8
3
100
AcDbLine
 62
7
  6
BYLAYER
 10
46.5434925799
 20
193.6566581466
 11
46.5434925799
 21
192.4120588848
  0
LINE
  5
27C
100
AcDbEntity
  8
0
100
AcDbLine
 62
7
  6
BYLAYER
 10
46.6699603894
 20
152.6777026477
 11
46.6699603894
 21
152.379830313
  0
LINE
  5
27D
100
AcDbEntity
  8
0
100
AcDbLine
 62
7
  6
BYLAYER
 10
46.6699603894
 20
152.252170724
 11
46.6699603894
 21
151.6777026477
  0
LINE
  5
27E
100
AcDbEntity
  8
0
100
AcDbLine
 62
7
  6
BYLAYER
 10
46.7449603894
 20
150.4777026477
 11
46.7449603894
 21
149.4777026477
  0
LINE
  5
27F
100
AcDbEntity
  8
0
100
AcDbLine
 62
7
  6
BYLAYER
 10
46.7949603894
 20
151.8479153934
 11
46.7949603894
 21
152.252170724
  0
LINE
  5
280
100
AcDbEntity
  8
0
100
AcDbLine
 62
7
  6
BYLAYER
 10
46.7949603894
 20
152.379830313
 11
46.7949603894
 21
152.6777026477
  0
LINE
  5
281
100
AcDbEntity
  8
0
100
AcDbLine
 62
7
  6
BYLAYER
 10
46.8699603894
 20
149.6479153934
 11
46.8699603894
 21
150.4777026477
  0
LINE
  5
282
100
AcDbEntity
  8
0
100
AcDbLine
 62
7
  6
BYLAYER
 10
46.9949603894
 20
149.6266388002
 11
46.9949603894
 21
149.7968516055
  0
LINE
  5
283
100
AcDbEntity
  8
0
100
AcDbLine
 62
7
  6
BYLAYER
 10
47.2949603894
 20
152.252170724
 11
47.2949603894
 21
152.379830313
  0
LINE
  5
284
100
AcDbEntity
  8
0
100
AcDbLine
 62
7
  6
BYLAYER
 10
42.5559709543
 20
171.2390568207
 11
42.5196126277
 21
170.450457264
  0
LINE
  5
285
100
AcDbEntity
  8
0
100
AcDbLine
 62
7
  6
BYLAYER
 10
42.4008211873
 20
170.4219347636
 11
42.4381198206
 21
171.121205687
  0
LINE
  5
286
100
AcDbEntity
  8
0
100
AcDbLine
 62
7
  6
BYLAYER
 10
40.8245623068
 20
171.9569457204
 11
40.83835343
 21
172.0610057836
  0
LINE
  5
287
100
AcDbEntity
  8
0
100
AcDbLine
 62
7
  6
BYLAYER
 10
40.4788447846
 20
172.2732004882
 11
40.4929493064
 21
172.347484314
  0
LINE
  5
288
100
AcDbEntity
  8
0
100
AcDbLine
 62
7
  6
BYLAYER
 10
41.344549103
 20
172.0556773788
 11
41.3586536302
 21
172.1299611993
  0
LINE
  5
289
100
AcDbEntity
  8
0
100
AcDbLine
 62
7
  6
BYLAYER
 10
33.4495067939
 20
135.1838554567
 11
32.5550796029
 21
135.6310690522
  0
LINE
  5
28A
100
AcDbEntity
  8
0
100
AcDbLine
 62
7
  6
BYLAYER
 10
40.649127076
 20
149.5415324274
 11
40.5657937029
 21
149.6266388002
  0
LINE
  5
28B
100
AcDbEntity
  8
0
100
AcDbLine
 62
7
  6
BYLAYER
 10
40.6199603894
 20
151.7415324274
 11
40.536627076
 21
151.8266388002
  0
LINE
  5
28C
100
AcDbEntity
  8
0
100
AcDbLine
 62
7
  6
BYLAYER
 10
41.1199603894
 20
152.4862132791
 11
41.0782937178
 21
152.5287664804
  0
LINE
  5
28D
100
AcDbEntity
  8
0
100
AcDbLine
 62
7
  6
BYLAYER
 10
40.8856818964
 20
171.8074377832
 11
40.8402340224
 21
171.8823484959
  0
LINE
  5
28E
100
AcDbEntity
  8
0
100
AcDbLine
 62
7
  6
BYLAYER
 10
42.4619407768
 20
170.2724268264
 11
42.4164928607
 21
170.347337497
  0
LINE
  5
28F
100
AcDbEntity
  8
0
100
AcDbLine
 62
7
  6
BYLAYER
 10
41.4166389021
 20
172.2782154113
 11
41.4620868038
 21
172.2033047262
  0
LINE
  5
290
100
AcDbEntity
  8
0
100
AcDbLine
 62
7
  6
BYLAYER
 10
40.5249195613
 20
172.1387373638
 11
40.494516458
 21
172.1986032216
  0
LINE
  5
291
100
AcDbEntity
  8
0
100
AcDbLine
 62
7
  6
BYLAYER
 10
44.5148071826
 20
172.3914904296
 11
44.469045852
 21
172.4961773534
  0
LINE
  5
292
100
AcDbEntity
  8
0
100
AcDbLine
 62
7
  6
BYLAYER
 10
40.5832182623
 20
172.2572153581
 11
40.5985765317
 21
172.2123943342
  0
LINE
  5
293
100
AcDbEntity
  8
0
100
AcDbLine
 62
7
  6
BYLAYER
 10
40.92862237
 20
171.9707368436
 11
40.9593388668
 21
171.8810947536
  0
LINE
  5
294
100
AcDbEntity
  8
0
100
AcDbLine
 62
7
  6
BYLAYER
 10
42.5196126277
 20
170.450457264
 11
42.5503291245
 21
170.3608151741
  0
LINE
  5
295
100
AcDbEntity
  8
0
100
AcDbLine
 62
7
  6
BYLAYER
 10
40.8402340224
 20
171.8823484959
 11
40.8245623068
 21
171.9569457204
  0
LINE
  5
296
100
AcDbEntity
  8
0
100
AcDbLine
 62
7
  6
BYLAYER
 10
41.3586536302
 20
172.1299611993
 11
41.3429819462
 21
172.2045584554
  0
LINE
  5
297
100
AcDbEntity
  8
0
100
AcDbLine
 62
7
  6
BYLAYER
 10
42.4164928607
 20
170.347337497
 11
42.4008211873
 21
170.4219347636
  0
LINE
  5
298
100
AcDbEntity
  8
0
100
AcDbLine
 62
7
  6
BYLAYER
 10
42.9496438878
 20
170.6096816197
 11
42.9339722039
 21
170.6842788758
  0
LINE
  5
299
100
AcDbEntity
  8
0
100
AcDbLine
 62
7
  6
BYLAYER
 10
44.5574341996
 20
172.5845657011
 11
44.5731058836
 21
172.5099684239
  0
LINE
  5
29A
100
AcDbEntity
  8
0
100
AcDbLine
 62
7
  6
BYLAYER
 10
44.469045852
 20
172.4961773534
 11
44.4530607272
 21
172.6005508259
  0
LINE
  5
29B
100
AcDbEntity
  8
3
100
AcDbLine
 62
7
  6
BYLAYER
 10
47.4959925799
 20
193.7601430806
 11
47.4959925799
 21
196.7601430806
  0
LINE
  5
29C
100
AcDbEntity
  8
0
100
AcDbLine
 62
7
  6
BYLAYER
 10
47.8967046259
 20
188.0782668744
 11
47.8967203894
 21
187.0782826477
  0
LINE
  5
29D
100
AcDbEntity
  8
0
100
AcDbLine
 62
7
  6
BYLAYER
 10
48.8967203894
 20
187.5782826477
 11
48.8967203894
 21
188.5782826477
  0
LINE
  5
29E
100
AcDbEntity
  8
3
100
AcDbLine
 62
7
  6
BYLAYER
 10
49.8959925799
 20
201.030598488
 11
49.8959925799
 21
196.7601430806
  0
LINE
  5
29F
100
AcDbEntity
  8
3
100
AcDbLine
 62
7
  6
BYLAYER
 10
49.8959925799
 20
193.7601430806
 11
49.8959925799
 21
193.6566581466
  0
LINE
  5
2A0
100
AcDbEntity
  8
3
100
AcDbLine
 62
7
  6
BYLAYER
 10
49.8959925799
 20
192.4120588848
 11
49.8959925799
 21
192.3199434628
  0
LINE
  5
2A1
100
AcDbEntity
  8
3
100
AcDbLine
 62
7
  6
BYLAYER
 10
49.8959925799
 20
189.3199434628
 11
49.8959925799
 21
187.030598488
  0
LINE
  5
2A2
100
AcDbEntity
  8
3
100
AcDbLine
 62
7
  6
BYLAYER
 10
50.1959925799
 20
193.7601430806
 11
50.1959925799
 21
196.7601430806
  0
LINE
  5
2A3
100
AcDbEntity
  8
0
100
AcDbLine
 62
7
  6
BYLAYER
 10
45.0485850388
 20
172.5942821302
 11
45.0623761409
 21
172.6983421723
  0
LINE
  5
2A4
100
AcDbEntity
  8
0
100
AcDbLine
 62
7
  6
BYLAYER
 10
42.9355393607
 20
170.5353977992
 11
42.9496438878
 21
170.6096816197
  0
LINE
  5
2A5
100
AcDbEntity
  8
0
100
AcDbLine
 62
7
  6
BYLAYER
 10
44.5715387268
 20
172.6588495216
 11
44.5574341996
 21
172.5845657011
  0
LINE
  5
2A6
100
AcDbEntity
  8
0
100
AcDbLine
 62
7
  6
BYLAYER
 10
44.4530607272
 20
172.6005508259
 11
44.4815831815
 21
172.7193422281
  0
LINE
  5
2A7
100
AcDbEntity
  8
0
100
AcDbLine
 62
7
  6
BYLAYER
 10
45.1670630384
 20
172.6525808364
 11
45.1385405538
 21
172.5337894118
  0
LINE
  5
2A8
100
AcDbEntity
  8
0
100
AcDbLine
 62
7
  6
BYLAYER
 10
40.5157937029
 20
151.954298419
 11
40.536627076
 21
152.0394047919
  0
LINE
  5
2A9
100
AcDbEntity
  8
0
100
AcDbLine
 62
7
  6
BYLAYER
 10
40.5449603894
 20
149.754298419
 11
40.5657937029
 21
149.8394047919
  0
LINE
  5
2AA
100
AcDbEntity
  8
0
100
AcDbLine
 62
7
  6
BYLAYER
 10
41.2241270555
 20
151.911745173
 11
41.2032937215
 21
151.8266388002
  0
LINE
  5
2AB
100
AcDbEntity
  8
0
100
AcDbLine
 62
7
  6
BYLAYER
 10
41.2741270555
 20
149.711745173
 11
41.2532937215
 21
149.6266388002
  0
LINE
  5
2AC
100
AcDbEntity
  8
0
100
AcDbLine
 62
7
  6
BYLAYER
 10
40.4929493064
 20
172.347484314
 11
40.5217852069
 21
172.4364995156
  0
LINE
  5
2AD
100
AcDbEntity
  8
0
100
AcDbLine
 62
7
  6
BYLAYER
 10
40.5970093328
 20
172.3612753897
 11
40.5825914017
 21
172.3167678119
  0
LINE
  5
2AE
100
AcDbEntity
  8
0
100
AcDbLine
 62
7
  6
BYLAYER
 10
41.4633405329
 20
172.0841998687
 11
41.434504618
 21
171.9951846604
  0
LINE
  5
2AF
100
AcDbEntity
  8
0
100
AcDbLine
 62
7
  6
BYLAYER
 10
43.0543307906
 20
170.5639202891
 11
43.0254948757
 21
170.4749050809
  0
LINE
  5
2B0
100
AcDbEntity
  8
0
100
AcDbLine
 62
7
  6
BYLAYER
 10
28.3967109422
 20
165.5782826477
 11
28.8967290724
 21
166.5782826477
  0
LINE
  5
2B1
100
AcDbEntity
  8
0
100
AcDbLine
 62
7
  6
BYLAYER
 10
33.8439529148
 20
135.9727476985
 11
32.8967195234
 21
136.3143488932
  0
LINE
  5
2B2
100
AcDbEntity
  8
0
100
AcDbLine
 62
7
  6
BYLAYER
 10
43.7032937029
 20
149.4606813851
 11
43.599127076
 21
149.5245111647
  0
LINE
  5
2B3
100
AcDbEntity
  8
0
100
AcDbLine
 62
7
  6
BYLAYER
 10
44.0366270611
 20
150.0564260527
 11
44.1407937253
 21
149.9925962675
  0
LINE
  5
2B4
100
AcDbEntity
  8
0
100
AcDbLine
 62
7
  6
BYLAYER
 10
40.711627076
 20
149.6479153934
 11
40.774127076
 21
149.605362207
  0
LINE
  5
2B5
100
AcDbEntity
  8
0
100
AcDbLine
 62
7
  6
BYLAYER
 10
43.661627076
 20
149.6096175375
 11
43.724127076
 21
149.5670643511
  0
LINE
  5
2B6
100
AcDbEntity
  8
0
100
AcDbLine
 62
7
  6
BYLAYER
 10
40.661627076
 20
151.8479153934
 11
40.724127076
 21
151.805362207
  0
LINE
  5
2B7
100
AcDbEntity
  8
0
100
AcDbLine
 62
7
  6
BYLAYER
 10
44.0782937178
 20
149.9074898872
 11
44.0157937178
 21
149.9500430736
  0
LINE
  5
2B8
100
AcDbEntity
  8
0
100
AcDbLine
 62
7
  6
BYLAYER
 10
40.6407937029
 20
152.2734473172
 11
40.7032937029
 21
152.2308941308
  0
LINE
  5
2B9
100
AcDbEntity
  8
0
100
AcDbLine
 62
7
  6
BYLAYER
 10
41.1199603894
 20
152.6138728607
 11
41.1824603894
 21
152.5713196668
  0
LINE
  5
2BA
100
AcDbEntity
  8
0
100
AcDbLine
 62
7
  6
BYLAYER
 10
43.0076291598
 20
170.7579358318
 11
43.0530770615
 21
170.6830251467
  0
LINE
  5
2BB
100
AcDbEntity
  8
0
100
AcDbLine
 62
7
  6
BYLAYER
 10
44.5731058836
 20
172.5099684239
 11
44.6035089764
 21
172.4501025767
  0
LINE
  5
2BC
100
AcDbEntity
  8
3
100
AcDbLine
 62
7
  6
BYLAYER
 10
55.5959925799
 20
193.7601430806
 11
55.5959925799
 21
196.7601430806
  0
LINE
  5
2BD
100
AcDbEntity
  8
3
100
AcDbLine
 62
7
  6
BYLAYER
 10
55.8959925799
 20
201.030598488
 11
55.8959925799
 21
196.7601430806
  0
LINE
  5
2BE
100
AcDbEntity
  8
3
100
AcDbLine
 62
7
  6
BYLAYER
 10
55.8959925799
 20
193.7601430806
 11
55.8959925799
 21
193.6566581466
  0
LINE
  5
2BF
100
AcDbEntity
  8
3
100
AcDbLine
 62
7
  6
BYLAYER
 10
55.8959925799
 20
192.4120588848
 11
55.8959925799
 21
192.3199434628
  0
LINE
  5
2C0
100
AcDbEntity
  8
3
100
AcDbLine
 62
7
  6
BYLAYER
 10
55.8959925799
 20
189.3199434628
 11
55.8959925799
 21
187.030598488
  0
LINE
  5
2C1
100
AcDbEntity
  8
0
100
AcDbLine
 62
7
  6
BYLAYER
 10
56.8967203894
 20
188.5782826477
 11
56.8967203894
 21
187.5782826477
  0
LINE
  5
2C2
100
AcDbEntity
  8
0
100
AcDbLine
 62
7
  6
BYLAYER
 10
57.8967203894
 20
187.0782826477
 11
57.8967377334
 21
188.0782652926
  0
LINE
  5
2C3
100
AcDbEntity
  8
3
100
AcDbLine
 62
7
  6
BYLAYER
 10
58.2959925799
 20
193.7601430806
 11
58.2959925799
 21
196.7601430806
  0
LINE
  5
2C4
100
AcDbEntity
  8
3
100
AcDbLine
 62
7
  6
BYLAYER
 10
59.2484925799
 20
193.6566581466
 11
59.2484925799
 21
192.4120588848
  0
LINE
  5
2C5
100
AcDbEntity
  8
3
100
AcDbLine
 62
7
  6
BYLAYER
 10
60.3959925799
 20
187.030598488
 11
60.3959925799
 21
185.030598488
  0
LINE
  5
2C6
100
AcDbEntity
  8
0
100
AcDbLine
 62
7
  6
BYLAYER
 10
60.3967203894
 20
187.5782826477
 11
60.3967203894
 21
187.0782826477
  0
LINE
  5
2C7
100
AcDbEntity
  8
0
100
AcDbLine
 62
7
  6
BYLAYER
 10
60.3967203894
 20
184.5782826477
 11
60.3967203894
 21
184.0782826477
  0
LINE
  5
2C8
100
AcDbEntity
  8
0
100
AcDbLine
 62
7
  6
BYLAYER
 10
60.8967203894
 20
186.5782826477
 11
60.8967203894
 21
185.0782826477
  0
LINE
  5
2C9
100
AcDbEntity
  8
0
100
AcDbLine
 62
7
  6
BYLAYER
 10
61.2959403894
 20
147.5281326477
 11
61.2959403894
 21
146.9717351999
  0
LINE
  5
2CA
100
AcDbEntity
  8
0
100
AcDbLine
 62
7
  6
BYLAYER
 10
61.3967203894
 20
185.0782826477
 11
61.3967203894
 21
186.5782826477
  0
LINE
  5
2CB
100
AcDbEntity
  8
0
100
AcDbLine
 62
7
  6
BYLAYER
 10
62.4959403894
 20
146.9717351999
 11
62.4959403894
 21
147.5281326477
  0
LINE
  5
2CC
100
AcDbEntity
  8
0
100
AcDbLine
 62
7
  6
BYLAYER
 10
58.514553263
 20
174.7859370144
 11
58.5158069632
 21
174.905041901
  0
LINE
  5
2CD
100
AcDbEntity
  8
0
100
AcDbLine
 62
7
  6
BYLAYER
 10
60.0495642198
 20
176.3621958949
 11
60.0508179621
 21
176.4813007393
  0
LINE
  5
2CE
100
AcDbEntity
  8
0
100
AcDbLine
 62
7
  6
BYLAYER
 10
60.9296864904
 20
176.5352113843
 11
60.9303133616
 21
176.5947638276
  0
LINE
  5
2CF
100
AcDbEntity
  8
0
100
AcDbLine
 62
7
  6
BYLAYER
 10
58.6496432269
 20
174.8915642239
 11
58.6339715535
 21
174.8169669573
  0
LINE
  5
2D0
100
AcDbEntity
  8
0
100
AcDbLine
 62
7
  6
BYLAYER
 10
40.4949603894
 20
152.4436600926
 11
40.5157937029
 21
152.5074898872
  0
LINE
  5
2D1
100
AcDbEntity
  8
0
100
AcDbLine
 62
7
  6
BYLAYER
 10
43.6199603894
 20
149.8436600926
 11
43.599127076
 21
149.779830313
  0
LINE
  5
2D2
100
AcDbEntity
  8
0
100
AcDbLine
 62
7
  6
BYLAYER
 10
40.9862941999
 20
172.1487672601
 11
40.9279954778
 21
172.0302892447
  0
LINE
  5
2D3
100
AcDbEntity
  8
0
100
AcDbLine
 62
7
  6
BYLAYER
 10
47.8967125127
 20
188.0782826477
 11
48.3967116852
 21
189.0782826477
  0
LINE
  5
2D4
100
AcDbEntity
  8
0
100
AcDbLine
 62
7
  6
BYLAYER
 10
40.5217852069
 20
172.4364995156
 11
40.5656659543
 21
172.5104699124
  0
LINE
  5
2D5
100
AcDbEntity
  8
0
100
AcDbLine
 62
7
  6
BYLAYER
 10
28.8967233107
 20
156.5782806135
 11
27.8967203894
 21
157.0782821069
  0
LINE
  5
2D6
100
AcDbEntity
  8
0
100
AcDbLine
 62
7
  6
BYLAYER
 10
40.7324603894
 20
149.4989792409
 11
40.649127076
 21
149.5415324274
  0
LINE
  5
2D7
100
AcDbEntity
  8
0
100
AcDbLine
 62
7
  6
BYLAYER
 10
40.7032937029
 20
151.6989792409
 11
40.6199603894
 21
151.7415324274
  0
LINE
  5
2D8
100
AcDbEntity
  8
0
100
AcDbLine
 62
7
  6
BYLAYER
 10
41.0782937178
 20
152.5287664804
 11
41.0366270611
 21
152.5500430736
  0
LINE
  5
2D9
100
AcDbEntity
  8
0
100
AcDbLine
 62
7
  6
BYLAYER
 10
41.0366270611
 20
152.6564260527
 11
41.1199603894
 21
152.6138728607
  0
LINE
  5
2DA
100
AcDbEntity
  8
0
100
AcDbLine
 62
7
  6
BYLAYER
 10
40.5249195613
 20
172.1387373638
 11
40.5850988546
 21
172.0785580705
  0
LINE
  5
2DB
100
AcDbEntity
  8
0
100
AcDbLine
 62
7
  6
BYLAYER
 10
40.8856818964
 20
171.8074377832
 11
40.9157715852
 21
171.7773480944
  0
LINE
  5
2DC
100
AcDbEntity
  8
0
100
AcDbLine
 62
7
  6
BYLAYER
 10
41.9504167412
 20
170.783950862
 11
42.0256408684
 21
170.7087267348
  0
LINE
  5
2DD
100
AcDbEntity
  8
0
100
AcDbLine
 62
7
  6
BYLAYER
 10
42.4619407768
 20
170.2724268264
 11
42.4920304656
 21
170.2423371376
  0
LINE
  5
2DE
100
AcDbEntity
  8
0
100
AcDbLine
 62
7
  6
BYLAYER
 10
40.6587558251
 20
172.1522150409
 11
40.5985765317
 21
172.2123943342
  0
LINE
  5
2DF
100
AcDbEntity
  8
0
100
AcDbLine
 62
7
  6
BYLAYER
 10
40.9894285556
 20
171.8510050648
 11
40.9593388668
 21
171.8810947536
  0
LINE
  5
2E0
100
AcDbEntity
  8
0
100
AcDbLine
 62
7
  6
BYLAYER
 10
42.5804188133
 20
170.3307254852
 11
42.5503291245
 21
170.3608151741
  0
LINE
  5
2E1
100
AcDbEntity
  8
0
100
AcDbLine
 62
7
  6
BYLAYER
 10
41.0452197509
 20
172.2076928111
 11
40.9850404576
 21
172.2678721045
  0
LINE
  5
2E2
100
AcDbEntity
  8
0
100
AcDbLine
 62
7
  6
BYLAYER
 10
42.5559709543
 20
171.2390568207
 11
42.4807468271
 21
171.3142809479
  0
LINE
  5
2E3
100
AcDbEntity
  8
0
100
AcDbLine
 62
7
  6
BYLAYER
 10
46.2744964706
 20
170.207537073
 11
45.8395040377
 21
170.6425295058
  0
LINE
  5
2E4
100
AcDbEntity
  8
0
100
AcDbLine
 62
7
  6
BYLAYER
 10
44.5148071826
 20
172.3914904296
 11
44.574986476
 21
172.3313111363
  0
LINE
  5
2E5
100
AcDbEntity
  8
0
100
AcDbLine
 62
7
  6
BYLAYER
 10
44.9805699192
 20
171.9846532862
 11
45.0557940359
 21
171.9094291695
  0
LINE
  5
2E6
100
AcDbEntity
  8
0
100
AcDbLine
 62
7
  6
BYLAYER
 10
44.6335986231
 20
172.42001293
 11
44.6035089764
 21
172.4501025767
  0
LINE
  5
2E7
100
AcDbEntity
  8
0
100
AcDbLine
 62
7
  6
BYLAYER
 10
45.1670630384
 20
172.6525808364
 11
45.4077802539
 21
172.4118636209
  0
LINE
  5
2E8
100
AcDbEntity
  8
0
100
AcDbLine
 62
7
  6
BYLAYER
 10
45.5566613252
 20
172.4102964588
 11
45.1654958763
 21
172.8014619077
  0
LINE
  5
2E9
100
AcDbEntity
  8
0
100
AcDbLine
 62
7
  6
BYLAYER
 10
47.2644459642
 20
171.1974865666
 11
46.8294535314
 21
171.6324789995
  0
LINE
  5
2EA
100
AcDbEntity
  8
0
100
AcDbLine
 62
7
  6
BYLAYER
 10
44.7891245064
 20
176.3126733689
 11
44.8793934675
 21
176.2224044078
  0
LINE
  5
2EB
100
AcDbEntity
  8
0
100
AcDbLine
 62
7
  6
BYLAYER
 10
71.9495067939
 20
135.9727098387
 11
72.3439339849
 21
135.1838554567
  0
LINE
  5
2EC
100
AcDbEntity
  8
0
100
AcDbLine
 62
7
  6
BYLAYER
 10
72.8967368952
 20
136.3143545085
 11
73.2383611759
 21
135.6310690522
  0
LINE
  5
2ED
100
AcDbEntity
  8
0
100
AcDbLine
 62
7
  6
BYLAYER
 10
60.3799235253
 20
176.6336296072
 11
60.3363562015
 21
176.7373762243
  0
LINE
  5
2EE
100
AcDbEntity
  8
0
100
AcDbLine
 62
7
  6
BYLAYER
 10
58.5433891674
 20
174.6969218167
 11
58.514553263
 21
174.7859370144
  0
LINE
  5
2EF
100
AcDbEntity
  8
0
100
AcDbLine
 62
7
  6
BYLAYER
 10
60.0784001241
 20
176.2731806971
 11
60.0495642198
 21
176.3621958949
  0
LINE
  5
2F0
100
AcDbEntity
  8
0
100
AcDbLine
 62
7
  6
BYLAYER
 10
60.9303133616
 20
176.5947638276
 11
60.9158954094
 21
176.6392714264
  0
LINE
  5
2F1
100
AcDbEntity
  8
0
100
AcDbLine
 62
7
  6
BYLAYER
 10
60.9911195353
 20
176.7144955524
 11
61.0199554463
 21
176.6254803401
  0
LINE
  5
2F2
100
AcDbEntity
  8
0
100
AcDbLine
 62
7
  6
BYLAYER
 10
60.6170048755
 20
172.5691447614
 11
60.5884824173
 21
172.6879361597
  0
LINE
  5
2F3
100
AcDbEntity
  8
0
100
AcDbLine
 62
7
  6
BYLAYER
 10
61.2739622478
 20
172.7546975777
 11
61.3024847284
 21
172.6359061491
  0
LINE
  5
2F4
100
AcDbEntity
  8
0
100
AcDbLine
 62
7
  6
BYLAYER
 10
58.6339715535
 20
174.8169669573
 11
58.6480760807
 21
174.7426831368
  0
LINE
  5
2F5
100
AcDbEntity
  8
0
100
AcDbLine
 62
7
  6
BYLAYER
 10
60.6928558844
 20
172.7039212792
 11
60.7069604116
 21
172.6296374587
  0
LINE
  5
2F6
100
AcDbEntity
  8
0
100
AcDbLine
 62
7
  6
BYLAYER
 10
60.1542511331
 20
176.4079572149
 11
60.1683556602
 21
176.3336733944
  0
LINE
  5
2F7
100
AcDbEntity
  8
0
100
AcDbLine
 62
7
  6
BYLAYER
 10
61.1981112507
 20
172.6199210296
 11
61.1840067236
 21
172.6942048501
  0
LINE
  5
2F8
100
AcDbEntity
  8
0
100
AcDbLine
 62
7
  6
BYLAYER
 10
60.4404162226
 20
176.7235851432
 11
60.4545207497
 21
176.6493013227
  0
LINE
  5
2F9
100
AcDbEntity
  8
0
100
AcDbLine
 62
7
  6
BYLAYER
 10
61.0199554463
 20
176.6254803401
 11
61.0340599681
 21
176.5511965144
  0
LINE
  5
2FA
100
AcDbEntity
  8
0
100
AcDbLine
 62
7
  6
BYLAYER
 10
68.8967203894
 20
189.0782826477
 11
68.8967203894
 21
184.5782826477
  0
LINE
  5
2FB
100
AcDbEntity
  8
0
100
AcDbLine
 62
7
  6
BYLAYER
 10
69.8967203894
 20
184.5782826477
 11
69.8967203894
 21
188.0782826477
  0
LINE
  5
2FC
100
AcDbEntity
  8
0
100
AcDbLine
 62
7
  6
BYLAYER
 10
70.3967203894
 20
185.9392110835
 11
70.3967204623
 21
189.0782826477
  0
LINE
  5
2FD
100
AcDbEntity
  8
0
100
AcDbLine
 62
7
  6
BYLAYER
 10
60.5884824173
 20
172.6879361597
 11
60.6044675368
 21
172.7923096268
  0
LINE
  5
2FE
100
AcDbEntity
  8
0
100
AcDbLine
 62
7
  6
BYLAYER
 10
61.3024847284
 20
172.6359061491
 11
61.286499601
 21
172.5315326793
  0
LINE
  5
2FF
100
AcDbEntity
  8
0
100
AcDbLine
 62
7
  6
BYLAYER
 10
60.1699228065
 20
176.4825544816
 11
60.1542511331
 21
176.4079572149
  0
LINE
  5
300
100
AcDbEntity
  8
0
100
AcDbLine
 62
7
  6
BYLAYER
 10
60.3363562015
 20
176.7373762243
 11
60.352027875
 21
176.8119734909
  0
LINE
  5
301
100
AcDbEntity
  8
0
100
AcDbLine
 62
7
  6
BYLAYER
 10
61.0340599681
 20
176.5511965144
 11
61.0183882802
 21
176.4765992623
  0
LINE
  5
302
100
AcDbEntity
  8
0
100
AcDbLine
 62
7
  6
BYLAYER
 10
60.7085275578
 20
172.7785185458
 11
60.6928558844
 21
172.7039212792
  0
LINE
  5
303
100
AcDbEntity
  8
0
100
AcDbLine
 62
7
  6
BYLAYER
 10
60.4711327826
 20
176.8132272121
 11
60.4404162226
 21
176.7235851432
  0
LINE
  5
304
100
AcDbEntity
  8
0
100
AcDbLine
 62
7
  6
BYLAYER
 10
60.9143282368
 20
176.4903903446
 11
60.9296864904
 21
176.5352113843
  0
LINE
  5
305
100
AcDbEntity
  8
0
100
AcDbLine
 62
7
  6
BYLAYER
 10
61.1673947329
 20
172.5302789397
 11
61.1981112507
 21
172.6199210296
  0
LINE
  5
306
100
AcDbEntity
  8
0
100
AcDbLine
 62
7
  6
BYLAYER
 10
61.286499601
 20
172.5315326793
 11
61.2557830805
 21
172.441890592
  0
LINE
  5
307
100
AcDbEntity
  8
0
100
AcDbLine
 62
7
  6
BYLAYER
 10
43.4949603894
 20
149.8011069062
 11
43.536627076
 21
149.9074898872
  0
LINE
  5
308
100
AcDbEntity
  8
0
100
AcDbLine
 62
7
  6
BYLAYER
 10
40.6199603894
 20
152.4862132791
 11
40.599127076
 21
152.4436600926
  0
LINE
  5
309
100
AcDbEntity
  8
0
100
AcDbLine
 62
7
  6
BYLAYER
 10
40.661627076
 20
152.0394047919
 11
40.6199603894
 21
151.954298419
  0
LINE
  5
30A
100
AcDbEntity
  8
0
100
AcDbLine
 62
7
  6
BYLAYER
 10
40.711627076
 20
149.8394047919
 11
40.6699603894
 21
149.754298419
  0
LINE
  5
30B
100
AcDbEntity
  8
0
100
AcDbLine
 62
7
  6
BYLAYER
 10
32.5550796029
 20
135.6310690522
 11
32.8967040877
 21
136.3143544605
  0
LINE
  5
30C
100
AcDbEntity
  8
0
100
AcDbLine
 62
7
  6
BYLAYER
 10
33.4495067939
 20
135.1838554567
 11
33.8439339849
 21
135.9727098387
  0
LINE
  5
30D
100
AcDbEntity
  8
0
100
AcDbLine
 62
7
  6
BYLAYER
 10
44.6154194545
 20
172.732819896
 11
44.5715387268
 21
172.6588495216
  0
LINE
  5
30E
100
AcDbEntity
  8
0
100
AcDbLine
 62
7
  6
BYLAYER
 10
45.0047043005
 20
172.5203117452
 11
45.0485850388
 21
172.5942821302
  0
LINE
  5
30F
100
AcDbEntity
  8
0
100
AcDbLine
 62
7
  6
BYLAYER
 10
40.6556214799
 20
172.4499771835
 11
40.5970093328
 21
172.3612753897
  0
LINE
  5
310
100
AcDbEntity
  8
0
100
AcDbLine
 62
7
  6
BYLAYER
 10
41.2859369665
 20
171.9669755956
 11
41.344549103
 21
172.0556773788
  0
LINE
  5
311
100
AcDbEntity
  8
0
100
AcDbLine
 62
7
  6
BYLAYER
 10
42.8769272241
 20
170.446696016
 11
42.9355393607
 21
170.5353977992
  0
LINE
  5
312
100
AcDbEntity
  8
0
100
AcDbLine
 62
7
  6
BYLAYER
 10
44.4815831815
 20
172.7193422281
 11
44.5401953273
 21
172.8080440232
  0
LINE
  5
313
100
AcDbEntity
  8
0
100
AcDbLine
 62
7
  6
BYLAYER
 10
45.1385405538
 20
172.5337894118
 11
45.0799284172
 21
172.4450876286
  0
LINE
  5
314
100
AcDbEntity
  8
0
100
AcDbLine
 62
7
  6
BYLAYER
 10
41.434504618
 20
171.9951846604
 11
41.3464297059
 21
171.8770201017
  0
LINE
  5
315
100
AcDbEntity
  8
0
100
AcDbLine
 62
7
  6
BYLAYER
 10
43.0254948757
 20
170.4749050809
 11
42.9374199636
 21
170.3567405221
  0
LINE
  5
316
100
AcDbEntity
  8
0
100
AcDbLine
 62
7
  6
BYLAYER
 10
32.8967203894
 20
136.3143525363
 11
33.8967203894
 21
136.1963166365
  0
LINE
  5
317
100
AcDbEntity
  8
0
100
AcDbLine
 62
7
  6
BYLAYER
 10
76.3111654592
 20
135.5288403919
 11
75.3496415116
 21
135.8035615198
  0
LINE
  5
318
100
AcDbEntity
  8
0
100
AcDbLine
 62
7
  6
BYLAYER
 10
40.661627076
 20
152.1670643511
 11
40.5574603894
 21
152.2096175375
  0
LINE
  5
319
100
AcDbEntity
  8
0
100
AcDbLine
 62
7
  6
BYLAYER
 10
44.7258108573
 20
176.6706148154
 11
44.9364384051
 21
176.4599872676
  0
LINE
  5
31A
100
AcDbEntity
  8
0
100
AcDbLine
 62
7
  6
BYLAYER
 10
45.0267073662
 20
176.3697183065
 11
45.4329176385
 21
175.9635080342
  0
LINE
  5
31B
100
AcDbEntity
  8
0
100
AcDbLine
 62
7
  6
BYLAYER
 10
46.3344787845
 20
175.1680129054
 11
47.0415855657
 21
174.4609061242
  0
LINE
  5
31C
100
AcDbEntity
  8
0
100
AcDbLine
 62
7
  6
BYLAYER
 10
45.4009473995
 20
176.1722549686
 11
45.1150957139
 21
176.4581066542
  0
LINE
  5
31D
100
AcDbEntity
  8
0
100
AcDbLine
 62
7
  6
BYLAYER
 10
45.0248267528
 20
176.5483756153
 11
44.814199205
 21
176.7590031631
  0
LINE
  5
31E
100
AcDbEntity
  8
0
100
AcDbLine
 62
7
  6
BYLAYER
 10
47.0096153267
 20
174.6696530586
 11
46.4228671322
 21
175.2564012531
  0
LINE
  5
31F
100
AcDbEntity
  8
0
100
AcDbLine
 62
7
  6
BYLAYER
 10
47.1130484976
 20
174.7429965829
 11
46.9926898688
 21
174.8633552117
  0
LINE
  5
320
100
AcDbEntity
  8
0
100
AcDbLine
 62
7
  6
BYLAYER
 10
45.4686491045
 20
176.8116600448
 11
45.3783801434
 21
176.9019290059
  0
LINE
  5
321
100
AcDbEntity
  8
0
100
AcDbLine
 62
7
  6
BYLAYER
 10
60.1664750468
 20
176.1550161278
 11
60.0784001241
 21
176.2731806971
  0
LINE
  5
322
100
AcDbEntity
  8
0
100
AcDbLine
 62
7
  6
BYLAYER
 10
58.6167326917
 20
174.5934886457
 11
58.5433891674
 21
174.6969218167
  0
LINE
  5
323
100
AcDbEntity
  8
0
100
AcDbLine
 62
7
  6
BYLAYER
 10
60.4545207497
 20
176.6493013227
 11
60.5278642951
 21
176.5458681307
  0
LINE
  5
324
100
AcDbEntity
  8
0
100
AcDbLine
 62
7
  6
BYLAYER
 10
58.6480760807
 20
174.7426831368
 11
58.7066882067
 21
174.6539813641
  0
LINE
  5
325
100
AcDbEntity
  8
0
100
AcDbLine
 62
7
  6
BYLAYER
 10
60.6756170226
 20
172.4804429676
 11
60.6170048755
 21
172.5691447614
  0
LINE
  5
326
100
AcDbEntity
  8
0
100
AcDbLine
 62
7
  6
BYLAYER
 10
61.2153501125
 20
172.8433993623
 11
61.2739622478
 21
172.7546975777
  0
LINE
  5
327
100
AcDbEntity
  8
0
100
AcDbLine
 62
7
  6
BYLAYER
 10
60.1683556602
 20
176.3336733944
 11
60.2269677862
 21
176.2449716218
  0
LINE
  5
328
100
AcDbEntity
  8
0
100
AcDbLine
 62
7
  6
BYLAYER
 10
60.9158954094
 20
176.6392714264
 11
60.8572832728
 21
176.7279732097
  0
LINE
  5
329
100
AcDbEntity
  8
0
100
AcDbLine
 62
7
  6
BYLAYER
 10
60.7069604116
 20
172.6296374587
 11
60.7508411393
 21
172.5556670843
  0
LINE
  5
32A
100
AcDbEntity
  8
0
100
AcDbLine
 62
7
  6
BYLAYER
 10
61.1840067236
 20
172.6942048501
 11
61.1401259853
 21
172.768175235
  0
LINE
  5
32B
100
AcDbEntity
  8
0
100
AcDbLine
 62
7
  6
BYLAYER
 10
60.9472387984
 20
176.7884659386
 11
60.9911195353
 21
176.7144955524
  0
LINE
  5
32C
100
AcDbEntity
  8
0
100
AcDbLine
 62
7
  6
BYLAYER
 10
57.3967218126
 20
189.0782826477
 11
57.8967233303
 21
188.0782797851
  0
LINE
  5
32D
100
AcDbEntity
  8
0
100
AcDbLine
 62
7
  6
BYLAYER
 10
71.8967203894
 20
136.4282826477
 11
71.8967203894
 21
136.1963166365
  0
LINE
  5
32E
100
AcDbEntity
  8
0
100
AcDbLine
 62
7
  6
BYLAYER
 10
71.8967203894
 20
184.1782826477
 11
71.8967203894
 21
184.9782826477
  0
LINE
  5
32F
100
AcDbEntity
  8
0
100
AcDbLine
 62
7
  6
BYLAYER
 10
72.8967368952
 20
136.3143545085
 11
72.8967203894
 21
137.4282826477
  0
LINE
  5
330
100
AcDbEntity
  8
0
100
AcDbLine
 62
7
  6
BYLAYER
 10
72.8967203894
 20
169.0782826477
 11
72.8967203894
 21
154.0782826477
  0
LINE
  5
331
100
AcDbEntity
  8
0
100
AcDbLine
 62
7
  6
BYLAYER
 10
72.8967203894
 20
144.1782826477
 11
72.8967203894
 21
144.9782826477
  0
LINE
  5
332
100
AcDbEntity
  8
0
100
AcDbLine
 62
7
  6
BYLAYER
 10
72.9967203894
 20
183.0782826477
 11
72.9967203894
 21
184.1782826477
  0
LINE
  5
333
100
AcDbEntity
  8
0
100
AcDbLine
 62
7
  6
BYLAYER
 10
72.9967203894
 20
184.9782826477
 11
72.9967203894
 21
186.0782826477
  0
LINE
  5
334
100
AcDbEntity
  8
0
100
AcDbLine
 62
7
  6
BYLAYER
 10
73.3967203894
 20
154.0782826477
 11
73.3967203894
 21
169.0782826477
  0
LINE
  5
335
100
AcDbEntity
  8
0
100
AcDbLine
 62
7
  6
BYLAYER
 10
73.3967203894
 20
180.0782826477
 11
73.3967203894
 21
181.2869146048
  0
LINE
  5
336
100
AcDbEntity
  8
0
100
AcDbLine
 62
7
  6
BYLAYER
 10
73.7967203894
 20
186.0782826477
 11
73.7967203894
 21
184.9782826477
  0
LINE
  5
337
100
AcDbEntity
  8
0
100
AcDbLine
 62
7
  6
BYLAYER
 10
73.7967203894
 20
184.1782826477
 11
73.7967203894
 21
183.0782826477
  0
LINE
  5
338
100
AcDbEntity
  8
0
100
AcDbLine
 62
7
  6
BYLAYER
 10
73.8967203894
 20
189.0782826477
 11
73.8967203894
 21
188.5782826477
  0
LINE
  5
339
100
AcDbEntity
  8
0
100
AcDbLine
 62
7
  6
BYLAYER
 10
73.8967203894
 20
153.0782826477
 11
73.8967203894
 21
153.5782826477
  0
LINE
  5
33A
100
AcDbEntity
  8
0
100
AcDbLine
 62
7
  6
BYLAYER
 10
73.8967203894
 20
169.5782826477
 11
73.8967203894
 21
170.0782826477
  0
LINE
  5
33B
100
AcDbEntity
  8
0
100
AcDbLine
 62
7
  6
BYLAYER
 10
73.9967203894
 20
143.0782826477
 11
73.9967203894
 21
144.1782826477
  0
LINE
  5
33C
100
AcDbEntity
  8
0
100
AcDbLine
 62
7
  6
BYLAYER
 10
73.9967203894
 20
144.9782826477
 11
73.9967203894
 21
146.0782826477
  0
LINE
  5
33D
100
AcDbEntity
  8
0
100
AcDbLine
 62
7
  6
BYLAYER
 10
74.1327883669
 20
134.0782826477
 11
74.1327883669
 21
135.0782826477
  0
LINE
  5
33E
100
AcDbEntity
  8
0
100
AcDbLine
 62
7
  6
BYLAYER
 10
74.3881175639
 20
135.0782826477
 11
74.3881175639
 21
134.0782826477
  0
LINE
  5
33F
100
AcDbEntity
  8
0
100
AcDbLine
 62
7
  6
BYLAYER
 10
74.3967203894
 20
140.0782826477
 11
74.3967203894
 21
141.2869146048
  0
LINE
  5
340
100
AcDbEntity
  8
0
100
AcDbLine
 62
7
  6
BYLAYER
 10
74.3967203894
 20
147.8696506906
 11
74.3967203894
 21
149.0782826477
  0
LINE
  5
341
100
AcDbEntity
  8
0
100
AcDbLine
 62
7
  6
BYLAYER
 10
74.7967203894
 20
146.0782826477
 11
74.7967203894
 21
144.9782826477
  0
LINE
  5
342
100
AcDbEntity
  8
0
100
AcDbLine
 62
7
  6
BYLAYER
 10
74.7967203894
 20
144.1782826477
 11
74.7967203894
 21
143.0782826477
  0
LINE
  5
343
100
AcDbEntity
  8
0
100
AcDbLine
 62
7
  6
BYLAYER
 10
74.8967203894
 20
184.9782826477
 11
74.8967203894
 21
184.1782826477
  0
LINE
  5
344
100
AcDbEntity
  8
0
100
AcDbLine
 62
7
  6
BYLAYER
 10
75.3967203894
 20
170.0782826477
 11
75.3967203894
 21
169.5782826477
  0
LINE
  5
345
100
AcDbEntity
  8
0
100
AcDbLine
 62
7
  6
BYLAYER
 10
75.3967203894
 20
153.5782826477
 11
75.3967203894
 21
153.0782826477
  0
LINE
  5
346
100
AcDbEntity
  8
0
100
AcDbLine
 62
7
  6
BYLAYER
 10
75.8967203894
 20
144.9782826477
 11
75.8967203894
 21
144.1782826477
  0
LINE
  5
347
100
AcDbEntity
  8
0
100
AcDbLine
 62
7
  6
BYLAYER
 10
75.8967203894
 20
154.0782826477
 11
75.8967203894
 21
157.0782826477
  0
LINE
  5
348
100
AcDbEntity
  8
0
100
AcDbLine
 62
7
  6
BYLAYER
 10
75.8967203894
 20
166.0782826477
 11
75.8967203894
 21
169.0782826477
  0
LINE
  5
349
100
AcDbEntity
  8
0
100
AcDbLine
 62
7
  6
BYLAYER
 10
75.9081254132
 20
141.5782826477
 11
75.9081254132
 21
140.0782826477
  0
LINE
  5
34A
100
AcDbEntity
  8
0
100
AcDbLine
 62
7
  6
BYLAYER
 10
76.3967203894
 20
154.0782826477
 11
76.3967203894
 21
157.5782826477
  0
LINE
  5
34B
100
AcDbEntity
  8
0
100
AcDbLine
 62
7
  6
BYLAYER
 10
76.3967203894
 20
165.5782826477
 11
76.3967203894
 21
169.0782826477
  0
LINE
  5
34C
100
AcDbEntity
  8
0
100
AcDbLine
 62
7
  6
BYLAYER
 10
76.8967030343
 20
156.5782653038
 11
76.8967203894
 21
148.0782826477
  0
LINE
  5
34D
100
AcDbEntity
  8
0
100
AcDbLine
 62
7
  6
BYLAYER
 10
76.8967203894
 20
181.0782826477
 11
76.8967046161
 21
166.5782984113
  0
LINE
  5
34E
100
AcDbEntity
  8
0
100
AcDbLine
 62
7
  6
BYLAYER
 10
77.3967203894
 20
185.0782826477
 11
77.3967203892
 21
181.5782826477
  0
LINE
  5
34F
100
AcDbEntity
  8
0
100
AcDbLine
 62
7
  6
BYLAYER
 10
77.3967203892
 20
147.5782826477
 11
77.3967203893
 21
145.9110442933
  0
LINE
  5
350
100
AcDbEntity
  8
0
100
AcDbLine
 62
7
  6
BYLAYER
 10
77.3967203894
 20
143.2173542119
 11
77.3967203894
 21
142.4788320941
  0
LINE
  5
351
100
AcDbEntity
  8
3
100
AcDbLine
 62
7
  6
BYLAYER
 10
77.8964676215
 20
148.0782826477
 11
77.8964676215
 21
147.5782826477
  0
LINE
  5
352
100
AcDbEntity
  8
0
100
AcDbLine
 62
7
  6
BYLAYER
 10
77.8967203894
 20
142.4788320941
 11
77.8967203894
 21
157.0782826477
  0
LINE
  5
353
100
AcDbEntity
  8
0
100
AcDbLine
 62
7
  6
BYLAYER
 10
77.8967203894
 20
166.0782826477
 11
77.8967203894
 21
185.0782826477
  0
LINE
  5
354
100
AcDbEntity
  8
0
100
AcDbLine
 62
7
  6
BYLAYER
 10
60.6044675368
 20
172.7923096268
 11
60.650228878
 21
172.8969965612
  0
LINE
  5
355
100
AcDbEntity
  8
0
100
AcDbLine
 62
7
  6
BYLAYER
 10
61.0183882802
 20
176.4765992623
 11
60.9879851914
 21
176.41673339
  0
LINE
  5
356
100
AcDbEntity
  8
0
100
AcDbLine
 62
7
  6
BYLAYER
 10
60.7389306717
 20
172.8383844141
 11
60.7085275578
 21
172.7785185458
  0
LINE
  5
357
100
AcDbEntity
  8
0
100
AcDbLine
 62
7
  6
BYLAYER
 10
58.5158069632
 20
174.905041901
 11
58.5612548793
 21
174.9799525715
  0
LINE
  5
358
100
AcDbEntity
  8
0
100
AcDbLine
 62
7
  6
BYLAYER
 10
60.0508179621
 20
176.4813007393
 11
60.0962658361
 21
176.556211452
  0
LINE
  5
359
100
AcDbEntity
  8
0
100
AcDbLine
 62
7
  6
BYLAYER
 10
60.352027875
 20
176.8119734909
 11
60.3974758122
 21
176.8868841825
  0
LINE
  5
35A
100
AcDbEntity
  8
0
100
AcDbLine
 62
7
  6
BYLAYER
 10
40.5157937029
 20
152.5074898872
 11
40.5574603894
 21
152.5713196668
  0
LINE
  5
35B
100
AcDbEntity
  8
0
100
AcDbLine
 62
7
  6
BYLAYER
 10
40.536627076
 20
152.0394047919
 11
40.5782937029
 21
152.1032345715
  0
LINE
  5
35C
100
AcDbEntity
  8
0
100
AcDbLine
 62
7
  6
BYLAYER
 10
41.0782937178
 20
151.8479153934
 11
41.1199603894
 21
151.911745173
  0
LINE
  5
35D
100
AcDbEntity
  8
0
100
AcDbLine
 62
7
  6
BYLAYER
 10
40.5657937029
 20
149.8394047919
 11
40.6074603894
 21
149.9032345715
  0
LINE
  5
35E
100
AcDbEntity
  8
0
100
AcDbLine
 62
7
  6
BYLAYER
 10
41.1282937178
 20
149.6479153934
 11
41.1699603894
 21
149.711745173
  0
LINE
  5
35F
100
AcDbEntity
  8
0
100
AcDbLine
 62
7
  6
BYLAYER
 10
43.661627076
 20
149.9074898872
 11
43.6199603894
 21
149.8436600926
  0
LINE
  5
360
100
AcDbEntity
  8
0
100
AcDbLine
 62
7
  6
BYLAYER
 10
44.814199205
 20
176.7590031631
 11
44.7258108573
 21
176.6706148154
  0
LINE
  5
361
100
AcDbEntity
  8
0
100
AcDbLine
 62
7
  6
BYLAYER
 10
40.6835170986
 20
172.6283210567
 11
40.5656659543
 21
172.5104699124
  0
LINE
  5
362
100
AcDbEntity
  8
0
100
AcDbLine
 62
7
  6
BYLAYER
 10
40.6556214799
 20
172.4499771835
 11
40.7440098275
 21
172.5383655311
  0
LINE
  5
363
100
AcDbEntity
  8
0
100
AcDbLine
 62
7
  6
BYLAYER
 10
40.9815926926
 20
172.5954104951
 11
41.0552496472
 21
172.6690674497
  0
LINE
  5
364
100
AcDbEntity
  8
0
100
AcDbLine
 62
7
  6
BYLAYER
 10
45.3783801434
 20
176.9019290059
 11
45.0248267528
 21
176.5483756153
  0
LINE
  5
365
100
AcDbEntity
  8
0
100
AcDbLine
 62
7
  6
BYLAYER
 10
44.9364384051
 20
176.4599872676
 11
44.7891245064
 21
176.3126733689
  0
LINE
  5
366
100
AcDbEntity
  8
0
100
AcDbLine
 62
7
  6
BYLAYER
 10
44.8793934675
 20
176.2224044078
 11
45.0267073662
 21
176.3697183065
  0
LINE
  5
367
100
AcDbEntity
  8
0
100
AcDbLine
 62
7
  6
BYLAYER
 10
45.1150957139
 20
176.4581066542
 11
45.3655293691
 21
176.7085403093
  0
LINE
  5
368
100
AcDbEntity
  8
0
100
AcDbLine
 62
7
  6
BYLAYER
 10
40.9850404576
 20
172.2678721045
 11
40.9261149065
 21
172.2089465534
  0
LINE
  5
369
100
AcDbEntity
  8
0
100
AcDbLine
 62
7
  6
BYLAYER
 10
40.9862941999
 20
172.1487672601
 11
41.0452197509
 21
172.2076928111
  0
LINE
  5
36A
100
AcDbEntity
  8
0
100
AcDbLine
 62
7
  6
BYLAYER
 10
41.4166389021
 20
172.2782154113
 11
41.3429819462
 21
172.2045584554
  0
LINE
  5
36B
100
AcDbEntity
  8
0
100
AcDbLine
 62
7
  6
BYLAYER
 10
41.2859369665
 20
171.9669755956
 11
41.2270114154
 21
171.9080500445
  0
LINE
  5
36C
100
AcDbEntity
  8
0
100
AcDbLine
 62
7
  6
BYLAYER
 10
41.3169669093
 20
171.8475573051
 11
41.3464297059
 21
171.8770201017
  0
LINE
  5
36D
100
AcDbEntity
  8
0
100
AcDbLine
 62
7
  6
BYLAYER
 10
45.4329176385
 20
175.9635080342
 11
45.5213059862
 21
176.0518963819
  0
LINE
  5
36E
100
AcDbEntity
  8
0
100
AcDbLine
 62
7
  6
BYLAYER
 10
219.545851278
 20
136.1963164046
 11
220.545851278
 21
136.3143525602
  0
LINE
  5
36F
100
AcDbEntity
  8
0
100
AcDbLine
 62
7
  6
BYLAYER
 10
40.774127076
 20
149.605362207
 11
40.8782937327
 21
149.5840856138
  0
LINE
  5
370
100
AcDbEntity
  8
0
100
AcDbLine
 62
7
  6
BYLAYER
 10
43.8074603894
 20
149.4394047919
 11
43.7032937029
 21
149.4606813851
  0
LINE
  5
371
100
AcDbEntity
  8
0
100
AcDbLine
 62
7
  6
BYLAYER
 10
43.9324603894
 20
150.0777026477
 11
44.0366270611
 21
150.0564260527
  0
LINE
  5
372
100
AcDbEntity
  8
0
100
AcDbLine
 62
7
  6
BYLAYER
 10
43.724127076
 20
149.5670643511
 11
43.8074603894
 21
149.5457877579
  0
LINE
  5
373
100
AcDbEntity
  8
0
100
AcDbLine
 62
7
  6
BYLAYER
 10
44.0157937178
 20
149.9500430736
 11
43.9324603894
 21
149.9713196668
  0
LINE
  5
374
100
AcDbEntity
  8
0
100
AcDbLine
 62
7
  6
BYLAYER
 10
40.9532937327
 20
152.6777026477
 11
41.0366270611
 21
152.6564260527
  0
LINE
  5
375
100
AcDbEntity
  8
0
100
AcDbLine
 62
7
  6
BYLAYER
 10
76.388887387
 20
139.4409220838
 11
77.3504113346
 21
139.1662009559
  0
LINE
  5
376
100
AcDbEntity
  8
0
100
AcDbLine
 62
7
  6
BYLAYER
 10
77.4694589851
 20
139.7437639239
 11
77.5119598658
 21
139.7316208152
  0
LINE
  5
377
100
AcDbEntity
  8
0
100
AcDbLine
 62
7
  6
BYLAYER
 10
40.9953837749
 20
172.6994705385
 11
41.0552496472
 21
172.6690674497
  0
LINE
  5
378
100
AcDbEntity
  8
0
100
AcDbLine
 62
7
  6
BYLAYER
 10
42.5669411362
 20
170.1968892215
 11
42.4920304656
 21
170.2423371376
  0
LINE
  5
379
100
AcDbEntity
  8
0
100
AcDbLine
 62
7
  6
BYLAYER
 10
40.9906822979
 20
171.7319002204
 11
40.9157715852
 21
171.7773480944
  0
LINE
  5
37A
100
AcDbEntity
  8
0
100
AcDbLine
 62
7
  6
BYLAYER
 10
40.6600095463
 20
172.0331101333
 11
40.5850988546
 21
172.0785580705
  0
LINE
  5
37B
100
AcDbEntity
  8
0
100
AcDbLine
 62
7
  6
BYLAYER
 10
58.7938228226
 20
174.4464881615
 11
58.6756582638
 21
174.5345630736
  0
LINE
  5
37C
100
AcDbEntity
  8
0
100
AcDbLine
 62
7
  6
BYLAYER
 10
60.2283469112
 20
172.4161890012
 11
60.7292142005
 21
171.9153217119
  0
LINE
  5
37D
100
AcDbEntity
  8
0
100
AcDbLine
 62
7
  6
BYLAYER
 10
60.7307813626
 20
172.0642027833
 11
60.3035710279
 21
172.4914131179
  0
LINE
  5
37E
100
AcDbEntity
  8
0
100
AcDbLine
 62
7
  6
BYLAYER
 10
60.6756170226
 20
172.4804429676
 11
60.7640053703
 21
172.39205462
  0
LINE
  5
37F
100
AcDbEntity
  8
0
100
AcDbLine
 62
7
  6
BYLAYER
 10
58.6167326917
 20
174.5934886457
 11
58.6756582638
 21
174.5345630736
  0
LINE
  5
380
100
AcDbEntity
  8
0
100
AcDbLine
 62
7
  6
BYLAYER
 10
62.7798238659
 20
170.4303974715
 11
62.8682122136
 21
170.3420091238
  0
LINE
  5
381
100
AcDbEntity
  8
0
100
AcDbLine
 62
7
  6
BYLAYER
 10
60.8392294869
 20
172.4672787367
 11
60.7508411393
 21
172.5556670843
  0
LINE
  5
382
100
AcDbEntity
  8
0
100
AcDbLine
 62
7
  6
BYLAYER
 10
58.7656137577
 20
174.595055813
 11
58.7066882067
 21
174.6539813641
  0
LINE
  5
383
100
AcDbEntity
  8
0
100
AcDbLine
 62
7
  6
BYLAYER
 10
61.1203796494
 20
172.3064871609
 11
61.017259914
 21
172.4096068963
  0
LINE
  5
384
100
AcDbEntity
  8
0
100
AcDbLine
 62
7
  6
BYLAYER
 10
59.0768535735
 20
174.4643538774
 11
59.0031966175
 21
174.5380108333
  0
LINE
  5
385
100
AcDbEntity
  8
0
100
AcDbLine
 62
7
  6
BYLAYER
 10
61.1673947329
 20
172.5302789397
 11
61.2557830805
 21
172.441890592
  0
LINE
  5
386
100
AcDbEntity
  8
0
100
AcDbLine
 62
7
  6
BYLAYER
 10
61.0517376377
 20
172.8565635827
 11
61.1401259853
 21
172.768175235
  0
LINE
  5
387
100
AcDbEntity
  8
0
100
AcDbLine
 62
7
  6
BYLAYER
 10
61.2153501125
 20
172.8433993623
 11
61.1269617649
 21
172.9317877099
  0
LINE
  5
388
100
AcDbEntity
  8
0
100
AcDbLine
 62
7
  6
BYLAYER
 10
59.0276444765
 20
175.4463421688
 11
59.4401234287
 21
175.0338632166
  0
LINE
  5
389
100
AcDbEntity
  8
0
100
AcDbLine
 62
7
  6
BYLAYER
 10
63.5753189948
 20
171.049115905
 11
63.4869306471
 21
171.1375042526
  0
LINE
  5
38A
100
AcDbEntity
  8
0
100
AcDbLine
 62
7
  6
BYLAYER
 10
59.6331986896
 20
174.9912362101
 11
59.1028686037
 21
175.521566296
  0
LINE
  5
38B
100
AcDbEntity
  8
0
100
AcDbLine
 62
7
  6
BYLAYER
 10
60.1664750468
 20
176.1550161278
 11
60.1959378434
 21
176.1255533312
  0
LINE
  5
38C
100
AcDbEntity
  8
0
100
AcDbLine
 62
7
  6
BYLAYER
 10
64.2824257759
 20
172.0390653987
 11
64.3708141236
 21
171.950677051
  0
LINE
  5
38D
100
AcDbEntity
  8
0
100
AcDbLine
 62
7
  6
BYLAYER
 10
60.2858933373
 20
176.1860460707
 11
60.2269677862
 21
176.2449716218
  0
LINE
  5
38E
100
AcDbEntity
  8
0
100
AcDbLine
 62
7
  6
BYLAYER
 10
60.597133153
 20
176.055344135
 11
60.5234761971
 21
176.129001091
  0
LINE
  5
38F
100
AcDbEntity
  8
0
100
AcDbLine
 62
7
  6
BYLAYER
 10
60.4676850018
 20
176.4856888373
 11
60.5266105528
 21
176.4267632863
  0
LINE
  5
390
100
AcDbEntity
  8
0
100
AcDbLine
 62
7
  6
BYLAYER
 10
60.5867898462
 20
176.4869425796
 11
60.5278642951
 21
176.5458681307
  0
LINE
  5
391
100
AcDbEntity
  8
0
100
AcDbLine
 62
7
  6
BYLAYER
 10
64.7770243959
 20
172.3568873233
 11
65.027458051
 21
172.1064536681
  0
LINE
  5
392
100
AcDbEntity
  8
0
100
AcDbLine
 62
7
  6
BYLAYER
 10
64.5413221495
 20
172.5925895696
 11
64.6886360482
 21
172.4452756709
  0
LINE
  5
393
100
AcDbEntity
  8
0
100
AcDbLine
 62
7
  6
BYLAYER
 10
65.2208467476
 20
172.0936028938
 11
64.867293357
 21
172.4471562844
  0
LINE
  5
394
100
AcDbEntity
  8
0
100
AcDbLine
 62
7
  6
BYLAYER
 10
64.7789050093
 20
172.535544632
 11
64.6315911106
 21
172.6828585307
  0
LINE
  5
395
100
AcDbEntity
  8
0
100
AcDbLine
 62
7
  6
BYLAYER
 10
60.9143282368
 20
176.4903903446
 11
60.9879851914
 21
176.41673339
  0
LINE
  5
396
100
AcDbEntity
  8
0
100
AcDbLine
 62
7
  6
BYLAYER
 10
60.7688949252
 20
176.8163615573
 11
60.8572832728
 21
176.7279732097
  0
LINE
  5
397
100
AcDbEntity
  8
0
100
AcDbLine
 62
7
  6
BYLAYER
 10
65.0779209048
 20
172.6577838322
 11
64.9895325571
 21
172.7461721798
  0
LINE
  5
398
100
AcDbEntity
  8
0
100
AcDbLine
 62
7
  6
BYLAYER
 10
60.9472387984
 20
176.7884659386
 11
60.8293876541
 21
176.9063170828
  0
LINE
  5
399
100
AcDbEntity
  8
0
100
AcDbLine
 62
7
  6
BYLAYER
 10
77.3967290864
 20
165.5782826477
 11
76.8967124981
 21
166.5782826477
  0
LINE
  5
39A
100
AcDbEntity
  8
3
100
AcDbLine
 62
7
  6
BYLAYER
 10
85.0852133049
 20
196.3199434628
 11
85.0852133049
 21
239.3199434628
  0
LINE
  5
39B
100
AcDbEntity
  8
0
100
AcDbLine
 62
7
  6
BYLAYER
 10
43.536627076
 20
149.9074898872
 11
43.599127076
 21
149.9925962675
  0
LINE
  5
39C
100
AcDbEntity
  8
0
100
AcDbLine
 62
7
  6
BYLAYER
 10
46.4228671322
 20
175.2564012531
 11
46.3344787845
 21
175.1680129054
  0
LINE
  5
39D
100
AcDbEntity
  8
0
100
AcDbLine
 62
7
  6
BYLAYER
 10
42.4807468271
 20
171.3142809479
 11
41.9504167412
 21
170.783950862
  0
LINE
  5
39E
100
AcDbEntity
  8
0
100
AcDbLine
 62
7
  6
BYLAYER
 10
42.0256408684
 20
170.7087267348
 11
42.4381198206
 21
171.121205687
  0
LINE
  5
39F
100
AcDbEntity
  8
0
100
AcDbLine
 62
7
  6
BYLAYER
 10
44.6285836749
 20
172.8964323708
 11
44.5401953273
 21
172.8080440232
  0
LINE
  5
3A0
100
AcDbEntity
  8
0
100
AcDbLine
 62
7
  6
BYLAYER
 10
44.6154194545
 20
172.732819896
 11
44.7038078021
 21
172.8212082436
  0
LINE
  5
3A1
100
AcDbEntity
  8
0
100
AcDbLine
 62
7
  6
BYLAYER
 10
44.9417040975
 20
172.8484769912
 11
45.0300924452
 21
172.9368653388
  0
LINE
  5
3A2
100
AcDbEntity
  8
0
100
AcDbLine
 62
7
  6
BYLAYER
 10
43.0076291598
 20
170.7579358318
 11
42.9339722039
 21
170.6842788758
  0
LINE
  5
3A3
100
AcDbEntity
  8
0
100
AcDbLine
 62
7
  6
BYLAYER
 10
45.1654958763
 20
172.8014619077
 11
45.0623761409
 21
172.6983421723
  0
LINE
  5
3A4
100
AcDbEntity
  8
0
100
AcDbLine
 62
7
  6
BYLAYER
 10
42.8769272241
 20
170.446696016
 11
42.8180016731
 21
170.387770465
  0
LINE
  5
3A5
100
AcDbEntity
  8
0
100
AcDbLine
 62
7
  6
BYLAYER
 10
45.0047043005
 20
172.5203117452
 11
44.9163159529
 21
172.4319233976
  0
LINE
  5
3A6
100
AcDbEntity
  8
0
100
AcDbLine
 62
7
  6
BYLAYER
 10
42.8784943915
 20
170.29781495
 11
42.9374199636
 21
170.3567405221
  0
LINE
  5
3A7
100
AcDbEntity
  8
0
100
AcDbLine
 62
7
  6
BYLAYER
 10
47.0415855657
 20
174.4609061242
 11
47.1299739134
 21
174.5492944719
  0
LINE
  5
3A8
100
AcDbEntity
  8
0
100
AcDbLine
 62
7
  6
BYLAYER
 10
44.9915400696
 20
172.3566992809
 11
45.0799284172
 21
172.4450876286
  0
LINE
  5
3A9
100
AcDbEntity
  8
0
100
AcDbLine
 62
7
  6
BYLAYER
 10
45.4077802539
 20
172.4118636209
 11
44.9805699192
 21
171.9846532862
  0
LINE
  5
3AA
100
AcDbEntity
  8
0
100
AcDbLine
 62
7
  6
BYLAYER
 10
45.0557940359
 20
171.9094291695
 11
45.5566613252
 21
172.4102964588
  0
LINE
  5
3AB
100
AcDbEntity
  8
0
100
AcDbLine
 62
7
  6
BYLAYER
 10
31.4053232149
 20
134.0782826477
 11
31.6606524119
 21
134.0782826477
  0
LINE
  5
3AC
100
AcDbEntity
  8
0
100
AcDbLine
 62
7
  6
BYLAYER
 10
74.1327883669
 20
134.0782826477
 11
74.3881175639
 21
134.0782826477
  0
LINE
  5
3AD
100
AcDbEntity
  8
0
100
AcDbLine
 62
7
  6
BYLAYER
 10
179.0544541035
 20
134.0782826477
 11
179.3097833005
 21
134.0782826477
  0
LINE
  5
3AE
100
AcDbEntity
  8
0
100
AcDbLine
 62
7
  6
BYLAYER
 10
221.7819192555
 20
134.0782826477
 11
222.0372484524
 21
134.0782826477
  0
LINE
  5
3AF
100
AcDbEntity
  8
0
100
AcDbLine
 62
7
  6
BYLAYER
 10
222.0372484524
 20
135.0782826477
 11
221.7819192555
 21
135.0782826477
  0
LINE
  5
3B0
100
AcDbEntity
  8
0
100
AcDbLine
 62
7
  6
BYLAYER
 10
179.3097833005
 20
135.0782826477
 11
179.0544541035
 21
135.0782826477
  0
LINE
  5
3B1
100
AcDbEntity
  8
0
100
AcDbLine
 62
7
  6
BYLAYER
 10
74.3881175639
 20
135.0782826477
 11
74.1327883669
 21
135.0782826477
  0
LINE
  5
3B2
100
AcDbEntity
  8
0
100
AcDbLine
 62
7
  6
BYLAYER
 10
31.6606524119
 20
135.0782826477
 11
31.4053232149
 21
135.0782826477
  0
LINE
  5
3B3
100
AcDbEntity
  8
0
100
AcDbLine
 62
7
  6
BYLAYER
 10
33.8967203894
 20
136.4282826477
 11
71.8967203894
 21
136.4282826477
  0
LINE
  5
3B4
100
AcDbEntity
  8
0
100
AcDbLine
 62
7
  6
BYLAYER
 10
181.545851278
 20
136.4282826477
 11
219.545851278
 21
136.4282826477
  0
LINE
  5
3B5
100
AcDbEntity
  8
0
100
AcDbLine
 62
7
  6
BYLAYER
 10
220.545851278
 20
137.4282826477
 11
180.545851278
 21
137.4282826477
  0
LINE
  5
3B6
100
AcDbEntity
  8
0
100
AcDbLine
 62
7
  6
BYLAYER
 10
72.8967203894
 20
137.4282826477
 11
32.8967203894
 21
137.4282826477
  0
LINE
  5
3B7
100
AcDbEntity
  8
0
100
AcDbLine
 62
7
  6
BYLAYER
 10
29.8853153657
 20
140.0782826477
 11
31.3967203894
 21
140.0782826477
  0
LINE
  5
3B8
100
AcDbEntity
  8
0
100
AcDbLine
 62
7
  6
BYLAYER
 10
74.3967203894
 20
140.0782826477
 11
75.9086739647
 21
140.0782826477
  0
LINE
  5
3B9
100
AcDbEntity
  8
0
100
AcDbLine
 62
7
  6
BYLAYER
 10
177.5344462542
 20
140.0782826477
 11
179.045851278
 21
140.0782826477
  0
LINE
  5
3BA
100
AcDbEntity
  8
0
100
AcDbLine
 62
7
  6
BYLAYER
 10
222.045851278
 20
140.0782826477
 11
223.5578048532
 21
140.0782826477
  0
LINE
  5
3BB
100
AcDbEntity
  8
0
100
AcDbLine
 62
7
  6
BYLAYER
 10
223.5572563017
 20
141.0782826477
 11
222.045851278
 21
141.0782826477
  0
LINE
  5
3BC
100
AcDbEntity
  8
0
100
AcDbLine
 62
7
  6
BYLAYER
 10
179.045851278
 20
141.0782826477
 11
177.5344462542
 21
141.0782826477
  0
LINE
  5
3BD
100
AcDbEntity
  8
0
100
AcDbLine
 62
7
  6
BYLAYER
 10
75.9081254132
 20
141.0782826477
 11
74.3967203894
 21
141.0782826477
  0
LINE
  5
3BE
100
AcDbEntity
  8
0
100
AcDbLine
 62
7
  6
BYLAYER
 10
31.3967203894
 20
141.0782826477
 11
29.8853153657
 21
141.0782826477
  0
LINE
  5
3BF
100
AcDbEntity
  8
0
100
AcDbLine
 62
7
  6
BYLAYER
 10
40.8491270462
 20
151.6777026477
 11
40.7032937029
 21
151.6989792409
  0
LINE
  5
3C0
100
AcDbEntity
  8
0
100
AcDbLine
 62
7
  6
BYLAYER
 10
40.8574603894
 20
149.4777026477
 11
40.7324603894
 21
149.4989792409
  0
LINE
  5
3C1
100
AcDbEntity
  8
0
100
AcDbLine
 62
7
  6
BYLAYER
 10
40.7032937029
 20
152.2308941308
 11
40.8282937327
 21
152.2096175375
  0
LINE
  5
3C2
100
AcDbEntity
  8
0
100
AcDbLine
 62
7
  6
BYLAYER
 10
40.724127076
 20
151.805362207
 11
40.8282937327
 21
151.7840856138
  0
LINE
  5
3C3
100
AcDbEntity
  8
0
100
AcDbLine
 62
7
  6
BYLAYER
 10
41.0366270611
 20
152.5500430736
 11
40.9324603894
 21
152.5713196668
  0
LINE
  5
3C4
100
AcDbEntity
  8
0
100
AcDbLine
 62
7
  6
BYLAYER
 10
44.6796734103
 20
172.2855497951
 11
44.574986476
 21
172.3313111363
  0
LINE
  5
3C5
100
AcDbEntity
  8
0
100
AcDbLine
 62
7
  6
BYLAYER
 10
44.6335986231
 20
172.42001293
 11
44.6934644914
 21
172.3896098162
  0
LINE
  5
3C6
100
AcDbEntity
  8
0
100
AcDbLine
 62
7
  6
BYLAYER
 10
60.8392294869
 20
172.4672787367
 11
60.9131998719
 21
172.4233979984
  0
LINE
  5
3C7
100
AcDbEntity
  8
0
100
AcDbLine
 62
7
  6
BYLAYER
 10
61.0517376377
 20
172.8565635827
 11
60.9777672633
 21
172.9004443104
  0
LINE
  5
3C8
100
AcDbEntity
  8
0
100
AcDbLine
 62
7
  6
BYLAYER
 10
60.8527071535
 20
172.3334424834
 11
60.7640053703
 21
172.39205462
  0
LINE
  5
3C9
100
AcDbEntity
  8
0
100
AcDbLine
 62
7
  6
BYLAYER
 10
61.0382599698
 20
172.9903998557
 11
61.1269617649
 21
172.9317877099
  0
LINE
  5
3CA
100
AcDbEntity
  8
0
100
AcDbLine
 62
7
  6
BYLAYER
 10
58.7656137577
 20
174.595055813
 11
58.8543155409
 21
174.5364436765
  0
LINE
  5
3CB
100
AcDbEntity
  8
0
100
AcDbLine
 62
7
  6
BYLAYER
 10
60.2858933373
 20
176.1860460707
 11
60.3745951205
 21
176.1274339342
  0
LINE
  5
3CC
100
AcDbEntity
  8
0
100
AcDbLine
 62
7
  6
BYLAYER
 10
60.7688949252
 20
176.8163615573
 11
60.6801931314
 21
176.8749737044
  0
LINE
  5
3CD
100
AcDbEntity
  8
0
100
AcDbLine
 62
7
  6
BYLAYER
 10
60.3141024021
 20
176.0374784192
 11
60.1959378434
 21
176.1255533312
  0
LINE
  5
3CE
100
AcDbEntity
  8
3
100
AcDbLine
 62
7
  6
BYLAYER
 10
88.0852133049
 20
196.3199434628
 11
88.0852133049
 21
239.3199434628
  0
LINE
  5
3CF
100
AcDbEntity
  8
0
100
AcDbLine
 62
7
  6
BYLAYER
 10
75.3496415116
 20
135.8035615198
 11
76.388887387
 21
139.4409220838
  0
LINE
  5
3D0
100
AcDbEntity
  8
0
100
AcDbLine
 62
7
  6
BYLAYER
 10
76.3111654592
 20
135.5288403919
 11
77.5119598658
 21
139.7316208152
  0
LINE
  5
3D1
100
AcDbEntity
  8
0
100
AcDbLine
 62
7
  6
BYLAYER
 10
46.8699603894
 20
149.6479153934
 11
46.9949603894
 21
149.7968516055
  0
LINE
  5
3D2
100
AcDbEntity
  8
0
100
AcDbLine
 62
7
  6
BYLAYER
 10
46.9949603894
 20
149.6266388002
 11
46.8699603894
 21
149.4777026477
  0
LINE
  5
3D3
100
AcDbEntity
  8
0
100
AcDbLine
 62
7
  6
BYLAYER
 10
47.2949603894
 20
152.252170724
 11
46.7949603894
 21
151.6777026477
  0
LINE
  5
3D4
100
AcDbEntity
  8
0
100
AcDbLine
 62
7
  6
BYLAYER
 10
46.7949603894
 20
151.8479153934
 11
47.1491270611
 21
152.252170724
  0
LINE
  5
3D5
100
AcDbEntity
  8
0
100
AcDbLine
 62
7
  6
BYLAYER
 10
40.661627076
 20
152.5287664804
 11
40.6199603894
 21
152.4862132791
  0
LINE
  5
3D6
100
AcDbEntity
  8
0
100
AcDbLine
 62
7
  6
BYLAYER
 10
40.7032937029
 20
152.0819579783
 11
40.661627076
 21
152.0394047919
  0
LINE
  5
3D7
100
AcDbEntity
  8
0
100
AcDbLine
 62
7
  6
BYLAYER
 10
41.2032937215
 20
151.8266388002
 11
41.1199603894
 21
151.7415324274
  0
LINE
  5
3D8
100
AcDbEntity
  8
0
100
AcDbLine
 62
7
  6
BYLAYER
 10
41.2532937215
 20
149.6266388002
 11
41.1699603894
 21
149.5415324274
  0
LINE
  5
3D9
100
AcDbEntity
  8
0
100
AcDbLine
 62
7
  6
BYLAYER
 10
60.4576551055
 20
176.9470634759
 11
60.3974758122
 21
176.8868841825
  0
LINE
  5
3DA
100
AcDbEntity
  8
0
100
AcDbLine
 62
7
  6
BYLAYER
 10
60.1263555249
 20
176.5863011408
 11
60.0962658361
 21
176.556211452
  0
LINE
  5
3DB
100
AcDbEntity
  8
0
100
AcDbLine
 62
7
  6
BYLAYER
 10
59.1028686037
 20
175.521566296
 11
59.0276444765
 21
175.4463421688
  0
LINE
  5
3DC
100
AcDbEntity
  8
0
100
AcDbLine
 62
7
  6
BYLAYER
 10
58.5913445681
 20
175.0100422604
 11
58.5612548793
 21
174.9799525715
  0
LINE
  5
3DD
100
AcDbEntity
  8
0
100
AcDbLine
 62
7
  6
BYLAYER
 10
60.4711327826
 20
176.8132272121
 11
60.5313120759
 21
176.8734065055
  0
LINE
  5
3DE
100
AcDbEntity
  8
0
100
AcDbLine
 62
7
  6
BYLAYER
 10
60.1699228065
 20
176.4825544816
 11
60.2000124953
 21
176.5126441704
  0
LINE
  5
3DF
100
AcDbEntity
  8
0
100
AcDbLine
 62
7
  6
BYLAYER
 10
58.6496432269
 20
174.8915642239
 11
58.6797329158
 21
174.9216539127
  0
LINE
  5
3E0
100
AcDbEntity
  8
0
100
AcDbLine
 62
7
  6
BYLAYER
 10
60.5266105528
 20
176.4267632863
 11
60.5867898462
 21
176.4869425796
  0
LINE
  5
3E1
100
AcDbEntity
  8
0
100
AcDbLine
 62
7
  6
BYLAYER
 10
59.5579745624
 20
174.9160120829
 11
59.6331986896
 21
174.9912362101
  0
LINE
  5
3E2
100
AcDbEntity
  8
0
100
AcDbLine
 62
7
  6
BYLAYER
 10
58.5264548147
 20
171.1974865666
 11
58.9614472475
 21
171.6324789995
  0
LINE
  5
3E3
100
AcDbEntity
  8
0
100
AcDbLine
 62
7
  6
BYLAYER
 10
60.7104081713
 20
172.9571758546
 11
60.650228878
 21
172.8969965612
  0
LINE
  5
3E4
100
AcDbEntity
  8
0
100
AcDbLine
 62
7
  6
BYLAYER
 10
60.3035710279
 20
172.4914131179
 11
60.2283469112
 21
172.4161890012
  0
LINE
  5
3E5
100
AcDbEntity
  8
0
100
AcDbLine
 62
7
  6
BYLAYER
 10
60.7389306717
 20
172.8383844141
 11
60.7690203184
 21
172.8684740608
  0
LINE
  5
3E6
100
AcDbEntity
  8
0
100
AcDbLine
 62
7
  6
BYLAYER
 10
60.9714985781
 20
172.3049199988
 11
60.7307813625
 21
172.0642027833
  0
LINE
  5
3E7
100
AcDbEntity
  8
0
100
AcDbLine
 62
7
  6
BYLAYER
 10
60.7292142005
 20
171.9153217119
 11
61.1203796494
 21
172.3064871609
  0
LINE
  5
3E8
100
AcDbEntity
  8
0
100
AcDbLine
 62
7
  6
BYLAYER
 10
59.5164043083
 20
170.207537073
 11
59.9513967412
 21
170.6425295058
  0
LINE
  5
3E9
100
AcDbEntity
  8
0
100
AcDbLine
 62
7
  6
BYLAYER
 10
41.3169669093
 20
171.8475573051
 11
41.19880234
 21
171.7594823825
  0
LINE
  5
3EA
100
AcDbEntity
  8
0
100
AcDbLine
 62
7
  6
BYLAYER
 10
40.8226817144
 20
172.1356030081
 11
40.9261149065
 21
172.2089465534
  0
LINE
  5
3EB
100
AcDbEntity
  8
0
100
AcDbLine
 62
7
  6
BYLAYER
 10
42.8784943915
 20
170.29781495
 11
42.7750612205
 21
170.2244714257
  0
LINE
  5
3EC
100
AcDbEntity
  8
0
100
AcDbLine
 62
7
  6
BYLAYER
 10
40.8327116107
 20
172.5969776677
 11
40.7440098275
 21
172.5383655311
  0
LINE
  5
3ED
100
AcDbEntity
  8
0
100
AcDbLine
 62
7
  6
BYLAYER
 10
48.8967203894
 20
188.5782913447
 11
47.8967203894
 21
188.0782747564
  0
LINE
  5
3EE
100
AcDbEntity
  8
0
100
AcDbLine
 62
7
  6
BYLAYER
 10
71.8967203894
 20
136.1963164046
 11
72.8967203894
 21
136.3143525602
  0
LINE
  5
3EF
100
AcDbEntity
  8
0
100
AcDbLine
 62
7
  6
BYLAYER
 10
223.5572563017
 20
141.5782826477
 11
223.3653422868
 21
141.5782826477
  0
LINE
  5
3F0
100
AcDbEntity
  8
0
100
AcDbLine
 62
7
  6
BYLAYER
 10
177.6992678641
 20
141.5782826477
 11
177.5344462542
 21
141.5782826477
  0
LINE
  5
3F1
100
AcDbEntity
  8
0
100
AcDbLine
 62
7
  6
BYLAYER
 10
75.9081254132
 20
141.5782826477
 11
75.7162113982
 21
141.5782826477
  0
LINE
  5
3F2
100
AcDbEntity
  8
0
100
AcDbLine
 62
7
  6
BYLAYER
 10
30.0501369755
 20
141.5782826477
 11
29.8853153657
 21
141.5782826477
  0
LINE
  5
3F3
100
AcDbEntity
  8
0
100
AcDbLine
 62
7
  6
BYLAYER
 10
225.545851278
 20
142.4788320941
 11
225.045851278
 21
142.4788320941
  0
LINE
  5
3F4
100
AcDbEntity
  8
0
100
AcDbLine
 62
7
  6
BYLAYER
 10
176.045851278
 20
142.4788320941
 11
175.545851278
 21
142.4788320941
  0
LINE
  5
3F5
100
AcDbEntity
  8
0
100
AcDbLine
 62
7
  6
BYLAYER
 10
77.8967203894
 20
142.4788320941
 11
77.3967203894
 21
142.4788320941
  0
LINE
  5
3F6
100
AcDbEntity
  8
0
100
AcDbLine
 62
7
  6
BYLAYER
 10
28.3967203894
 20
142.4788320941
 11
27.8967203894
 21
142.4788320941
  0
LINE
  5
3F7
100
AcDbEntity
  8
0
100
AcDbLine
 62
7
  6
BYLAYER
 10
222.445851278
 20
143.0782826477
 11
221.645851278
 21
143.0782826477
  0
LINE
  5
3F8
100
AcDbEntity
  8
0
100
AcDbLine
 62
7
  6
BYLAYER
 10
179.4458512779
 20
143.0782826477
 11
178.6458512779
 21
143.0782826477
  0
LINE
  5
3F9
100
AcDbEntity
  8
0
100
AcDbLine
 62
7
  6
BYLAYER
 10
74.7967203894
 20
143.0782826477
 11
73.9967203894
 21
143.0782826477
  0
LINE
  5
3FA
100
AcDbEntity
  8
0
100
AcDbLine
 62
7
  6
BYLAYER
 10
31.7967203894
 20
143.0782826477
 11
30.9967203894
 21
143.0782826477
  0
LINE
  5
3FB
100
AcDbEntity
  8
0
100
AcDbLine
 62
7
  6
BYLAYER
 10
223.545851278
 20
144.1782826477
 11
222.445851278
 21
144.1782826477
  0
LINE
  5
3FC
100
AcDbEntity
  8
0
100
AcDbLine
 62
7
  6
BYLAYER
 10
221.645851278
 20
144.1782826477
 11
220.545851278
 21
144.1782826477
  0
LINE
  5
3FD
100
AcDbEntity
  8
0
100
AcDbLine
 62
7
  6
BYLAYER
 10
180.5458512779
 20
144.1782826477
 11
179.4458512779
 21
144.1782826477
  0
LINE
  5
3FE
100
AcDbEntity
  8
0
100
AcDbLine
 62
7
  6
BYLAYER
 10
178.6458512779
 20
144.1782826477
 11
177.5458512779
 21
144.1782826477
  0
LINE
  5
3FF
100
AcDbEntity
  8
0
100
AcDbLine
 62
7
  6
BYLAYER
 10
75.8967203894
 20
144.1782826477
 11
74.7967203894
 21
144.1782826477
  0
LINE
  5
400
100
AcDbEntity
  8
0
100
AcDbLine
 62
7
  6
BYLAYER
 10
73.9967203894
 20
144.1782826477
 11
72.8967203894
 21
144.1782826477
  0
LINE
  5
401
100
AcDbEntity
  8
0
100
AcDbLine
 62
7
  6
BYLAYER
 10
32.8967203894
 20
144.1782826477
 11
31.7967203894
 21
144.1782826477
  0
LINE
  5
402
100
AcDbEntity
  8
0
100
AcDbLine
 62
7
  6
BYLAYER
 10
30.9967203894
 20
144.1782826477
 11
29.8967203894
 21
144.1782826477
  0
LINE
  5
403
100
AcDbEntity
  8
0
100
AcDbLine
 62
7
  6
BYLAYER
 10
29.8967203894
 20
144.9782826477
 11
30.9967203894
 21
144.9782826477
  0
LINE
  5
404
100
AcDbEntity
  8
0
100
AcDbLine
 62
7
  6
BYLAYER
 10
31.7967203894
 20
144.9782826477
 11
32.8967203894
 21
144.9782826477
  0
LINE
  5
405
100
AcDbEntity
  8
0
100
AcDbLine
 62
7
  6
BYLAYER
 10
72.8967203894
 20
144.9782826477
 11
73.9967203894
 21
144.9782826477
  0
LINE
  5
406
100
AcDbEntity
  8
0
100
AcDbLine
 62
7
  6
BYLAYER
 10
74.7967203894
 20
144.9782826477
 11
75.8967203894
 21
144.9782826477
  0
LINE
  5
407
100
AcDbEntity
  8
0
100
AcDbLine
 62
7
  6
BYLAYER
 10
177.5458512779
 20
144.9782826477
 11
178.6458512779
 21
144.9782826477
  0
LINE
  5
408
100
AcDbEntity
  8
0
100
AcDbLine
 62
7
  6
BYLAYER
 10
179.4458512779
 20
144.9782826477
 11
180.5458512779
 21
144.9782826477
  0
LINE
  5
409
100
AcDbEntity
  8
0
100
AcDbLine
 62
7
  6
BYLAYER
 10
220.545851278
 20
144.9782826477
 11
221.645851278
 21
144.9782826477
  0
LINE
  5
40A
100
AcDbEntity
  8
0
100
AcDbLine
 62
7
  6
BYLAYER
 10
222.445851278
 20
144.9782826477
 11
223.545851278
 21
144.9782826477
  0
LINE
  5
40B
100
AcDbEntity
  8
0
100
AcDbLine
 62
7
  6
BYLAYER
 10
30.9967203894
 20
146.0782826477
 11
31.7967203894
 21
146.0782826477
  0
LINE
  5
40C
100
AcDbEntity
  8
0
100
AcDbLine
 62
7
  6
BYLAYER
 10
73.9967203894
 20
146.0782826477
 11
74.7967203894
 21
146.0782826477
  0
LINE
  5
40D
100
AcDbEntity
  8
0
100
AcDbLine
 62
7
  6
BYLAYER
 10
178.6458512779
 20
146.0782826477
 11
179.4458512779
 21
146.0782826477
  0
LINE
  5
40E
100
AcDbEntity
  8
0
100
AcDbLine
 62
7
  6
BYLAYER
 10
221.645851278
 20
146.0782826477
 11
222.445851278
 21
146.0782826477
  0
LINE
  5
40F
100
AcDbEntity
  8
0
100
AcDbLine
 62
7
  6
BYLAYER
 10
27.8967203894
 20
147.5782825802
 11
30.0772293806
 21
147.5782826477
  0
LINE
  5
410
100
AcDbEntity
  8
0
100
AcDbLine
 62
7
  6
BYLAYER
 10
75.7433038033
 20
147.5782826477
 11
77.8967203894
 21
147.5782825749
  0
LINE
  5
411
100
AcDbEntity
  8
0
100
AcDbLine
 62
7
  6
BYLAYER
 10
175.545851278
 20
147.5782825802
 11
177.7263602691
 21
147.5782826477
  0
LINE
  5
412
100
AcDbEntity
  8
0
100
AcDbLine
 62
7
  6
BYLAYER
 10
223.3924346918
 20
147.5782826477
 11
225.545851278
 21
147.5782825749
  0
LINE
  5
413
100
AcDbEntity
  8
0
100
AcDbLine
 62
7
  6
BYLAYER
 10
28.8967203894
 20
148.0782826477
 11
31.3967203894
 21
148.0782826477
  0
LINE
  5
414
100
AcDbEntity
  8
0
100
AcDbLine
 62
7
  6
BYLAYER
 10
74.3967203894
 20
148.0782826477
 11
76.8967203894
 21
148.0782826477
  0
LINE
  5
415
100
AcDbEntity
  8
0
100
AcDbLine
 62
7
  6
BYLAYER
 10
176.545851278
 20
148.0782826477
 11
179.045851278
 21
148.0782826477
  0
LINE
  5
416
100
AcDbEntity
  8
0
100
AcDbLine
 62
7
  6
BYLAYER
 10
222.045851278
 20
148.0782826477
 11
224.545851278
 21
148.0782826477
  0
LINE
  5
417
100
AcDbEntity
  8
0
100
AcDbLine
 62
7
  6
BYLAYER
 10
180.545851278
 20
136.3143525363
 11
181.545851278
 21
136.1963166365
  0
LINE
  5
418
100
AcDbEntity
  8
0
100
AcDbLine
 62
7
  6
BYLAYER
 10
40.6587558251
 20
172.1522150409
 11
40.7483978939
 21
172.1214984809
  0
LINE
  5
419
100
AcDbEntity
  8
0
100
AcDbLine
 62
7
  6
BYLAYER
 10
40.9815926926
 20
172.5954104951
 11
40.9367716529
 21
172.6107687487
  0
LINE
  5
41A
100
AcDbEntity
  8
0
100
AcDbLine
 62
7
  6
BYLAYER
 10
44.9417040975
 20
172.8484769912
 11
44.8520620076
 21
172.879193509
  0
LINE
  5
41B
100
AcDbEntity
  8
0
100
AcDbLine
 62
7
  6
BYLAYER
 10
44.9404503579
 20
172.9675818593
 11
45.0300924452
 21
172.9368653388
  0
LINE
  5
41C
100
AcDbEntity
  8
0
100
AcDbLine
 62
7
  6
BYLAYER
 10
60.4676850018
 20
176.4856888373
 11
60.3492069864
 21
176.5439875594
  0
LINE
  5
41D
100
AcDbEntity
  8
0
100
AcDbLine
 62
7
  6
BYLAYER
 10
76.896717422
 20
166.5782845896
 11
77.8967203895
 21
166.0782830797
  0
LINE
  5
41E
100
AcDbEntity
  8
0
100
AcDbLine
 62
7
  6
BYLAYER
 10
60.7554172573
 20
176.9501978303
 11
60.8293876541
 21
176.9063170828
  0
LINE
  5
41F
100
AcDbEntity
  8
0
100
AcDbLine
 62
7
  6
BYLAYER
 10
77.3967298367
 20
157.5782826477
 11
76.8967117065
 21
156.5782826477
  0
LINE
  5
420
100
AcDbEntity
  8
0
100
AcDbLine
 62
7
  6
BYLAYER
 10
64.6315911106
 20
172.6828585307
 11
64.5413221495
 21
172.5925895696
  0
LINE
  5
421
100
AcDbEntity
  8
0
100
AcDbLine
 62
7
  6
BYLAYER
 10
64.9895325571
 20
172.7461721798
 11
64.7789050093
 21
172.535544632
  0
LINE
  5
422
100
AcDbEntity
  8
0
100
AcDbLine
 62
7
  6
BYLAYER
 10
64.6886360482
 20
172.4452756709
 11
64.2824257759
 21
172.0390653987
  0
LINE
  5
423
100
AcDbEntity
  8
0
100
AcDbLine
 62
7
  6
BYLAYER
 10
63.4869306471
 20
171.1375042526
 11
62.7798238659
 21
170.4303974715
  0
LINE
  5
424
100
AcDbEntity
  8
0
100
AcDbLine
 62
7
  6
BYLAYER
 10
64.4911727103
 20
172.0710356377
 11
64.7770243959
 21
172.3568873233
  0
LINE
  5
425
100
AcDbEntity
  8
0
100
AcDbLine
 62
7
  6
BYLAYER
 10
64.867293357
 20
172.4471562844
 11
65.0779209048
 21
172.6577838322
  0
LINE
  5
426
100
AcDbEntity
  8
0
100
AcDbLine
 62
7
  6
BYLAYER
 10
62.9885708003
 20
170.4623677105
 11
63.5753189948
 21
171.049115905
  0
LINE
  5
427
100
AcDbEntity
  8
0
100
AcDbLine
 62
7
  6
BYLAYER
 10
63.0619143246
 20
170.3589345395
 11
63.1822729534
 21
170.4792931684
  0
LINE
  5
428
100
AcDbEntity
  8
0
100
AcDbLine
 62
7
  6
BYLAYER
 10
65.1305777865
 20
172.0033339327
 11
65.2208467476
 21
172.0936028938
  0
LINE
  5
429
100
AcDbEntity
  8
0
100
AcDbLine
 62
7
  6
BYLAYER
 10
41.2949603894
 20
150.3713196668
 11
40.711627076
 21
149.8394047919
  0
LINE
  5
42A
100
AcDbEntity
  8
0
100
AcDbLine
 62
7
  6
BYLAYER
 10
40.6074603894
 20
149.9032345715
 11
41.1282937178
 21
150.3713196668
  0
LINE
  5
42B
100
AcDbEntity
  8
0
100
AcDbLine
 62
7
  6
BYLAYER
 10
41.1383096427
 20
171.8494379185
 11
41.2270114154
 21
171.9080500445
  0
LINE
  5
42C
100
AcDbEntity
  8
0
100
AcDbLine
 62
7
  6
BYLAYER
 10
44.6285836749
 20
172.8964323708
 11
44.7172854595
 21
172.9550445061
  0
LINE
  5
42D
100
AcDbEntity
  8
0
100
AcDbLine
 62
7
  6
BYLAYER
 10
44.9915400696
 20
172.3566992809
 11
44.9028382758
 21
172.2980871338
  0
LINE
  5
42E
100
AcDbEntity
  8
0
100
AcDbLine
 62
7
  6
BYLAYER
 10
42.7292999004
 20
170.329158339
 11
42.8180016731
 21
170.387770465
  0
LINE
  5
42F
100
AcDbEntity
  8
0
100
AcDbLine
 62
7
  6
BYLAYER
 10
40.6835170986
 20
172.6283210567
 11
40.7574874848
 21
172.6722017936
  0
LINE
  5
430
100
AcDbEntity
  8
0
100
AcDbLine
 62
7
  6
BYLAYER
 10
44.7777781871
 20
172.8650889819
 11
44.7038078021
 21
172.8212082436
  0
LINE
  5
431
100
AcDbEntity
  8
0
100
AcDbLine
 62
7
  6
BYLAYER
 10
44.8423455785
 20
172.3880426699
 11
44.9163159529
 21
172.4319233976
  0
LINE
  5
432
100
AcDbEntity
  8
0
100
AcDbLine
 62
7
  6
BYLAYER
 10
218.0458334131
 20
151.0957096755
 11
217.4406256563
 21
151.0944688526
  0
LINE
  5
433
100
AcDbEntity
  8
0
100
AcDbLine
 62
7
  6
BYLAYER
 10
201.0458691428
 20
151.0608556199
 11
201.6510768996
 21
151.0620964428
  0
LINE
  5
434
100
AcDbEntity
  8
0
100
AcDbLine
 62
7
  6
BYLAYER
 10
200.0458334131
 20
151.0957096755
 11
199.4406256563
 21
151.0944688526
  0
LINE
  5
435
100
AcDbEntity
  8
0
100
AcDbLine
 62
7
  6
BYLAYER
 10
183.0458691428
 20
151.0608556199
 11
183.6510768996
 21
151.0620964428
  0
LINE
  5
436
100
AcDbEntity
  8
0
100
AcDbLine
 62
7
  6
BYLAYER
 10
70.3967025246
 20
151.0957096755
 11
69.7914947678
 21
151.0944688526
  0
LINE
  5
437
100
AcDbEntity
  8
0
100
AcDbLine
 62
7
  6
BYLAYER
 10
53.3967382542
 20
151.0608556199
 11
54.0019460111
 21
151.0620964428
  0
LINE
  5
438
100
AcDbEntity
  8
0
100
AcDbLine
 62
7
  6
BYLAYER
 10
52.3967025246
 20
151.0957096755
 11
51.7914947678
 21
151.0944688526
  0
LINE
  5
439
100
AcDbEntity
  8
0
100
AcDbLine
 62
7
  6
BYLAYER
 10
35.3967382542
 20
151.0608556199
 11
36.0019460111
 21
151.0620964428
  0
LINE
  5
43A
100
AcDbEntity
  8
0
100
AcDbLine
 62
7
  6
BYLAYER
 10
43.536627076
 20
149.0777026477
 11
44.2449603894
 21
149.0777026477
  0
LINE
  5
43B
100
AcDbEntity
  8
0
100
AcDbLine
 62
7
  6
BYLAYER
 10
225.545851278
 20
149.0782826477
 11
222.045851278
 21
149.0782826477
  0
LINE
  5
43C
100
AcDbEntity
  8
0
100
AcDbLine
 62
7
  6
BYLAYER
 10
179.045851278
 20
149.0782826477
 11
175.545851278
 21
149.0782826477
  0
LINE
  5
43D
100
AcDbEntity
  8
0
100
AcDbLine
 62
7
  6
BYLAYER
 10
77.8967203894
 20
149.0782826477
 11
74.3967203894
 21
149.0782826477
  0
LINE
  5
43E
100
AcDbEntity
  8
0
100
AcDbLine
 62
7
  6
BYLAYER
 10
31.3967203894
 20
149.0782826477
 11
27.8967203894
 21
149.0782826477
  0
LINE
  5
43F
100
AcDbEntity
  8
0
100
AcDbLine
 62
7
  6
BYLAYER
 10
44.1407937253
 20
149.1840856138
 11
43.536627076
 21
149.1840856138
  0
LINE
  5
440
100
AcDbEntity
  8
0
100
AcDbLine
 62
7
  6
BYLAYER
 10
43.8074603894
 20
149.4394047919
 11
43.9324603894
 21
149.4394047919
  0
LINE
  5
441
100
AcDbEntity
  8
0
100
AcDbLine
 62
7
  6
BYLAYER
 10
40.8574603894
 20
149.4777026477
 11
40.9407937327
 21
149.4777026477
  0
LINE
  5
442
100
AcDbEntity
  8
0
100
AcDbLine
 62
7
  6
BYLAYER
 10
46.7449603894
 20
149.4777026477
 11
46.8699603894
 21
149.4777026477
  0
LINE
  5
443
100
AcDbEntity
  8
0
100
AcDbLine
 62
7
  6
BYLAYER
 10
43.9324603894
 20
149.5457877579
 11
43.8074603894
 21
149.5457877579
  0
LINE
  5
444
100
AcDbEntity
  8
0
100
AcDbLine
 62
7
  6
BYLAYER
 10
40.9616270462
 20
149.5840856138
 11
40.8782937327
 21
149.5840856138
  0
LINE
  5
445
100
AcDbEntity
  8
0
100
AcDbLine
 62
7
  6
BYLAYER
 10
44.2449603894
 20
149.6308941308
 11
44.0991270611
 21
149.6308941308
  0
LINE
  5
446
100
AcDbEntity
  8
0
100
AcDbLine
 62
7
  6
BYLAYER
 10
41.2741270555
 20
149.711745173
 11
41.1699603894
 21
149.711745173
  0
LINE
  5
447
100
AcDbEntity
  8
0
100
AcDbLine
 62
7
  6
BYLAYER
 10
44.1199603894
 20
149.8223834994
 11
44.2449603894
 21
149.8223834994
  0
LINE
  5
448
100
AcDbEntity
  8
0
100
AcDbLine
 62
7
  6
BYLAYER
 10
43.8074603894
 20
149.9713196668
 11
43.9324603894
 21
149.9713196668
  0
LINE
  5
449
100
AcDbEntity
  8
0
100
AcDbLine
 62
7
  6
BYLAYER
 10
43.9324603894
 20
150.0777026477
 11
43.8074603894
 21
150.0777026477
  0
LINE
  5
44A
100
AcDbEntity
  8
0
100
AcDbLine
 62
7
  6
BYLAYER
 10
40.5449603894
 20
150.3713196668
 11
41.1282937178
 21
150.3713196668
  0
LINE
  5
44B
100
AcDbEntity
  8
0
100
AcDbLine
 62
7
  6
BYLAYER
 10
46.8699603894
 20
150.4777026477
 11
46.7449603894
 21
150.4777026477
  0
LINE
  5
44C
100
AcDbEntity
  8
0
100
AcDbLine
 62
7
  6
BYLAYER
 10
41.2949603894
 20
150.4777026477
 11
40.5449603894
 21
150.4777026477
  0
LINE
  5
44D
100
AcDbEntity
  8
0
100
AcDbLine
 62
7
  6
BYLAYER
 10
40.8491270462
 20
151.6777026477
 11
40.8907937327
 21
151.6777026477
  0
LINE
  5
44E
100
AcDbEntity
  8
0
100
AcDbLine
 62
7
  6
BYLAYER
 10
46.6699603894
 20
151.6777026477
 11
46.7949603894
 21
151.6777026477
  0
LINE
  5
44F
100
AcDbEntity
  8
0
100
AcDbLine
 62
7
  6
BYLAYER
 10
40.9116270462
 20
151.7840856138
 11
40.8282937327
 21
151.7840856138
  0
LINE
  5
450
100
AcDbEntity
  8
0
100
AcDbLine
 62
7
  6
BYLAYER
 10
41.2241270555
 20
151.911745173
 11
41.1199603894
 21
151.911745173
  0
LINE
  5
451
100
AcDbEntity
  8
0
100
AcDbLine
 62
7
  6
BYLAYER
 10
40.8282937327
 20
152.1245111647
 11
40.9116270462
 21
152.1245111647
  0
LINE
  5
452
100
AcDbEntity
  8
0
100
AcDbLine
 62
7
  6
BYLAYER
 10
40.9116270462
 20
152.2096175375
 11
40.8282937327
 21
152.2096175375
  0
LINE
  5
453
100
AcDbEntity
  8
0
100
AcDbLine
 62
7
  6
BYLAYER
 10
46.7949603894
 20
152.252170724
 11
47.1491270611
 21
152.252170724
  0
LINE
  5
454
100
AcDbEntity
  8
0
100
AcDbLine
 62
7
  6
BYLAYER
 10
46.461627076
 20
152.252170724
 11
46.6699603894
 21
152.252170724
  0
LINE
  5
455
100
AcDbEntity
  8
0
100
AcDbLine
 62
7
  6
BYLAYER
 10
47.2949603894
 20
152.379830313
 11
46.7949603894
 21
152.379830313
  0
LINE
  5
456
100
AcDbEntity
  8
0
100
AcDbLine
 62
7
  6
BYLAYER
 10
46.6699603894
 20
152.379830313
 11
46.461627076
 21
152.379830313
  0
LINE
  5
457
100
AcDbEntity
  8
0
100
AcDbLine
 62
7
  6
BYLAYER
 10
41.1407937253
 20
152.4436600926
 11
41.2449603894
 21
152.4436600926
  0
LINE
  5
458
100
AcDbEntity
  8
0
100
AcDbLine
 62
7
  6
BYLAYER
 10
40.8074603894
 20
152.5713196668
 11
40.9324603894
 21
152.5713196668
  0
LINE
  5
459
100
AcDbEntity
  8
0
100
AcDbLine
 62
7
  6
BYLAYER
 10
46.7949603894
 20
152.6777026477
 11
46.6699603894
 21
152.6777026477
  0
LINE
  5
45A
100
AcDbEntity
  8
0
100
AcDbLine
 62
7
  6
BYLAYER
 10
40.9532937327
 20
152.6777026477
 11
40.7866270462
 21
152.6777026477
  0
LINE
  5
45B
100
AcDbEntity
  8
0
100
AcDbLine
 62
7
  6
BYLAYER
 10
30.3967203894
 20
153.0782826477
 11
31.8967203894
 21
153.0782826477
  0
LINE
  5
45C
100
AcDbEntity
  8
0
100
AcDbLine
 62
7
  6
BYLAYER
 10
73.8967203894
 20
153.0782826477
 11
75.3967203894
 21
153.0782826477
  0
LINE
  5
45D
100
AcDbEntity
  8
0
100
AcDbLine
 62
7
  6
BYLAYER
 10
178.045851278
 20
153.0782826477
 11
179.545851278
 21
153.0782826477
  0
LINE
  5
45E
100
AcDbEntity
  8
0
100
AcDbLine
 62
7
  6
BYLAYER
 10
221.545851278
 20
153.0782826477
 11
223.045851278
 21
153.0782826477
  0
LINE
  5
45F
100
AcDbEntity
  8
0
100
AcDbLine
 62
7
  6
BYLAYER
 10
223.045851278
 20
153.5782826477
 11
221.545851278
 21
153.5782826477
  0
LINE
  5
460
100
AcDbEntity
  8
0
100
AcDbLine
 62
7
  6
BYLAYER
 10
179.545851278
 20
153.5782826477
 11
178.045851278
 21
153.5782826477
  0
LINE
  5
461
100
AcDbEntity
  8
0
100
AcDbLine
 62
7
  6
BYLAYER
 10
75.3967203894
 20
153.5782826477
 11
73.8967203894
 21
153.5782826477
  0
LINE
  5
462
100
AcDbEntity
  8
0
100
AcDbLine
 62
7
  6
BYLAYER
 10
31.8967203894
 20
153.5782826477
 11
30.3967203894
 21
153.5782826477
  0
LINE
  5
463
100
AcDbEntity
  8
0
100
AcDbLine
 62
7
  6
BYLAYER
 10
224.045851278
 20
154.0782826477
 11
223.545851278
 21
154.0782826477
  0
LINE
  5
464
100
AcDbEntity
  8
0
100
AcDbLine
 62
7
  6
BYLAYER
 10
221.045851278
 20
154.0782826477
 11
220.545851278
 21
154.0782826477
  0
LINE
  5
465
100
AcDbEntity
  8
0
100
AcDbLine
 62
7
  6
BYLAYER
 10
180.545851278
 20
154.0782826477
 11
180.045851278
 21
154.0782826477
  0
LINE
  5
466
100
AcDbEntity
  8
0
100
AcDbLine
 62
7
  6
BYLAYER
 10
177.545851278
 20
154.0782826477
 11
177.045851278
 21
154.0782826477
  0
LINE
  5
467
100
AcDbEntity
  8
0
100
AcDbLine
 62
7
  6
BYLAYER
 10
76.3967203894
 20
154.0782826477
 11
75.8967203894
 21
154.0782826477
  0
LINE
  5
468
100
AcDbEntity
  8
0
100
AcDbLine
 62
7
  6
BYLAYER
 10
73.3967203894
 20
154.0782826477
 11
72.8967203894
 21
154.0782826477
  0
LINE
  5
469
100
AcDbEntity
  8
0
100
AcDbLine
 62
7
  6
BYLAYER
 10
32.8967203894
 20
154.0782826477
 11
32.3967203894
 21
154.0782826477
  0
LINE
  5
46A
100
AcDbEntity
  8
0
100
AcDbLine
 62
7
  6
BYLAYER
 10
29.8967203894
 20
154.0782826477
 11
29.3967203894
 21
154.0782826477
  0
LINE
  5
46B
100
AcDbEntity
  8
0
100
AcDbLine
 62
7
  6
BYLAYER
 10
76.3967203894
 20
156.5782826477
 11
76.8967030343
 21
156.5782653038
  0
LINE
  5
46C
100
AcDbEntity
  8
0
100
AcDbLine
 62
7
  6
BYLAYER
 10
29.3967203894
 20
156.5782826477
 11
29.8967203894
 21
156.5782826477
  0
LINE
  5
46D
100
AcDbEntity
  8
0
100
AcDbLine
 62
7
  6
BYLAYER
 10
75.8967203894
 20
156.5782826477
 11
76.3967203894
 21
156.5782826477
  0
LINE
  5
46E
100
AcDbEntity
  8
0
100
AcDbLine
 62
7
  6
BYLAYER
 10
176.5458670513
 20
156.5782668842
 11
177.545851278
 21
156.5782826477
  0
LINE
  5
46F
100
AcDbEntity
  8
0
100
AcDbLine
 62
7
  6
BYLAYER
 10
223.545851278
 20
156.5782826477
 11
224.045851278
 21
156.5782826477
  0
LINE
  5
470
100
AcDbEntity
  8
0
100
AcDbLine
 62
7
  6
BYLAYER
 10
224.045851278
 20
156.5782826477
 11
224.5458339228
 21
156.5782653038
  0
LINE
  5
471
100
AcDbEntity
  8
0
100
AcDbLine
 62
7
  6
BYLAYER
 10
28.8967361628
 20
156.5782668842
 11
29.3967203894
 21
156.5782826477
  0
LINE
  5
472
100
AcDbEntity
  8
0
100
AcDbLine
 62
7
  6
BYLAYER
 10
42.5804188133
 20
170.3307254852
 11
42.6550160799
 21
170.3150538118
  0
LINE
  5
473
100
AcDbEntity
  8
0
100
AcDbLine
 62
7
  6
BYLAYER
 10
40.9894285556
 20
171.8510050648
 11
41.0640258222
 21
171.8353333914
  0
LINE
  5
474
100
AcDbEntity
  8
0
100
AcDbLine
 62
7
  6
BYLAYER
 10
40.7346068129
 20
172.0174384598
 11
40.6600095463
 21
172.0331101333
  0
LINE
  5
475
100
AcDbEntity
  8
0
100
AcDbLine
 62
7
  6
BYLAYER
 10
40.9207865228
 20
172.7151422264
 11
40.9953837749
 21
172.6994705385
  0
LINE
  5
476
100
AcDbEntity
  8
0
100
AcDbLine
 62
7
  6
BYLAYER
 10
44.6934644914
 20
172.3896098162
 11
44.768061758
 21
172.3739381427
  0
LINE
  5
477
100
AcDbEntity
  8
0
100
AcDbLine
 62
7
  6
BYLAYER
 10
60.9714985781
 20
172.3049199988
 11
60.8527071535
 21
172.3334424834
  0
LINE
  5
478
100
AcDbEntity
  8
0
100
AcDbLine
 62
7
  6
BYLAYER
 10
58.8828380308
 20
174.4176522466
 11
58.7938228226
 21
174.4464881615
  0
LINE
  5
479
100
AcDbEntity
  8
0
100
AcDbLine
 62
7
  6
BYLAYER
 10
60.4031176104
 20
176.0086425043
 11
60.3141024021
 21
176.0374784192
  0
LINE
  5
47A
100
AcDbEntity
  8
0
100
AcDbLine
 62
7
  6
BYLAYER
 10
60.6801931314
 20
176.8749737044
 11
60.6356855536
 21
176.8893916355
  0
LINE
  5
47B
100
AcDbEntity
  8
0
100
AcDbLine
 62
7
  6
BYLAYER
 10
60.6664020557
 20
176.9790337307
 11
60.7554172573
 21
176.9501978303
  0
LINE
  5
47C
100
AcDbEntity
  8
0
100
AcDbLine
 62
7
  6
BYLAYER
 10
181.4930838033
 20
135.9727476985
 11
180.545850412
 21
136.3143488932
  0
LINE
  5
47D
100
AcDbEntity
  8
0
100
AcDbLine
 62
7
  6
BYLAYER
 10
56.8967203894
 20
188.578292095
 11
57.8967203894
 21
188.0782739648
  0
LINE
  5
47E
100
AcDbEntity
  8
0
100
AcDbLine
 62
7
  6
BYLAYER
 10
40.5782937029
 20
152.1032345715
 11
40.661627076
 21
152.1670643511
  0
LINE
  5
47F
100
AcDbEntity
  8
0
100
AcDbLine
 62
7
  6
BYLAYER
 10
44.0157937178
 20
149.5670643511
 11
44.0991270611
 21
149.6308941308
  0
LINE
  5
480
100
AcDbEntity
  8
0
100
AcDbLine
 62
7
  6
BYLAYER
 10
40.5574603894
 20
152.5713196668
 11
40.6199603894
 21
152.6138728607
  0
LINE
  5
481
100
AcDbEntity
  8
0
100
AcDbLine
 62
7
  6
BYLAYER
 10
41.0157937178
 20
151.805362207
 11
41.0782937178
 21
151.8479153934
  0
LINE
  5
482
100
AcDbEntity
  8
0
100
AcDbLine
 62
7
  6
BYLAYER
 10
60.1263555249
 20
176.5863011408
 11
60.2012662376
 21
176.6317490148
  0
LINE
  5
483
100
AcDbEntity
  8
0
100
AcDbLine
 62
7
  6
BYLAYER
 10
58.5913445681
 20
175.0100422604
 11
58.6662552387
 21
175.0554901765
  0
LINE
  5
484
100
AcDbEntity
  8
0
100
AcDbLine
 62
7
  6
BYLAYER
 10
60.597133153
 20
176.055344135
 11
60.5222224679
 21
176.0098962334
  0
LINE
  5
485
100
AcDbEntity
  8
0
100
AcDbLine
 62
7
  6
BYLAYER
 10
59.0768535735
 20
174.4643538774
 11
59.0019428884
 21
174.4189059757
  0
LINE
  5
486
100
AcDbEntity
  8
0
100
AcDbLine
 62
7
  6
BYLAYER
 10
60.4576551055
 20
176.9470634759
 11
60.5175209633
 21
176.9774665792
  0
LINE
  5
487
100
AcDbEntity
  8
0
100
AcDbLine
 62
7
  6
BYLAYER
 10
27.8967203894
 20
166.0782865676
 11
28.8967203894
 21
166.5782913139
  0
LINE
  5
488
100
AcDbEntity
  8
0
100
AcDbLine
 62
7
  6
BYLAYER
 10
192.5519691643
 20
172.2980871338
 11
192.433177766
 21
172.2695646756
  0
LINE
  5
489
100
AcDbEntity
  8
0
100
AcDbLine
 62
7
  6
BYLAYER
 10
192.366416348
 20
172.9550445061
 11
192.4852077766
 21
172.9835669867
  0
LINE
  5
48A
100
AcDbEntity
  8
0
100
AcDbLine
 62
7
  6
BYLAYER
 10
208.5526143313
 20
172.9145488375
 11
208.4780170541
 21
172.8988771536
  0
LINE
  5
48B
100
AcDbEntity
  8
0
100
AcDbLine
 62
7
  6
BYLAYER
 10
206.57773025
 20
174.5223391493
 11
206.652327506
 21
174.5380108333
  0
LINE
  5
48C
100
AcDbEntity
  8
0
100
AcDbLine
 62
7
  6
BYLAYER
 10
206.3153861272
 20
175.0554901765
 11
206.3899833938
 21
175.0711618499
  0
LINE
  5
48D
100
AcDbEntity
  8
0
100
AcDbLine
 62
7
  6
BYLAYER
 10
208.0980098295
 20
176.113329407
 11
208.1726070856
 21
176.129001091
  0
LINE
  5
48E
100
AcDbEntity
  8
0
100
AcDbLine
 62
7
  6
BYLAYER
 10
207.8503971261
 20
176.6317490148
 11
207.9249943506
 21
176.6474207303
  0
LINE
  5
48F
100
AcDbEntity
  8
0
100
AcDbLine
 62
7
  6
BYLAYER
 10
208.1666518518
 20
176.9774665792
 11
208.2412491184
 21
176.9931382526
  0
LINE
  5
490
100
AcDbEntity
  8
0
100
AcDbLine
 62
7
  6
BYLAYER
 10
190.3041469684
 20
170.3150538118
 11
190.3784307889
 21
170.329158339
  0
LINE
  5
491
100
AcDbEntity
  8
0
100
AcDbLine
 62
7
  6
BYLAYER
 10
192.4171926465
 20
172.3739381427
 11
192.491476467
 21
172.3880426699
  0
LINE
  5
492
100
AcDbEntity
  8
0
100
AcDbLine
 62
7
  6
BYLAYER
 10
188.7131567107
 20
171.8353333914
 11
188.7874405312
 21
171.8494379185
  0
LINE
  5
493
100
AcDbEntity
  8
0
100
AcDbLine
 62
7
  6
BYLAYER
 10
192.5011928961
 20
172.879193509
 11
192.4269090756
 21
172.8650889819
  0
LINE
  5
494
100
AcDbEntity
  8
0
100
AcDbLine
 62
7
  6
BYLAYER
 10
188.3975287825
 20
172.1214984809
 11
188.471812603
 21
172.1356030081
  0
LINE
  5
495
100
AcDbEntity
  8
0
100
AcDbLine
 62
7
  6
BYLAYER
 10
188.4956335855
 20
172.7010377046
 11
188.5699174113
 21
172.7151422264
  0
LINE
  5
496
100
AcDbEntity
  8
0
100
AcDbLine
 62
7
  6
BYLAYER
 10
208.4642259836
 20
173.0029371852
 11
208.5685994561
 21
173.01892231
  0
LINE
  5
497
100
AcDbEntity
  8
0
100
AcDbLine
 62
7
  6
BYLAYER
 10
41.0866270611
 20
149.4989792409
 11
40.9407937327
 21
149.4777026477
  0
LINE
  5
498
100
AcDbEntity
  8
0
100
AcDbLine
 62
7
  6
BYLAYER
 10
210.7110452131
 20
170.3589345395
 11
210.5173431021
 21
170.3420091238
  0
LINE
  5
499
100
AcDbEntity
  8
0
100
AcDbLine
 62
7
  6
BYLAYER
 10
210.6377016888
 20
170.4623677105
 11
210.8314038419
 21
170.4792931684
  0
LINE
  5
49A
100
AcDbEntity
  8
0
100
AcDbLine
 62
7
  6
BYLAYER
 10
225.0458512779
 20
157.5782826477
 11
224.045851278
 21
157.5782826477
  0
LINE
  5
49B
100
AcDbEntity
  8
0
100
AcDbLine
 62
7
  6
BYLAYER
 10
177.045851278
 20
157.5782826477
 11
176.045851278
 21
157.5782826477
  0
LINE
  5
49C
100
AcDbEntity
  8
0
100
AcDbLine
 62
7
  6
BYLAYER
 10
77.3967203894
 20
157.5782826477
 11
76.3967203894
 21
157.5782826477
  0
LINE
  5
49D
100
AcDbEntity
  8
0
100
AcDbLine
 62
7
  6
BYLAYER
 10
29.3967203894
 20
157.5782826477
 11
28.3967203894
 21
157.5782826477
  0
LINE
  5
49E
100
AcDbEntity
  8
0
100
AcDbLine
 62
7
  6
BYLAYER
 10
60.9131998719
 20
172.4233979984
 11
61.017259914
 21
172.4096068963
  0
LINE
  5
49F
100
AcDbEntity
  8
0
100
AcDbLine
 62
7
  6
BYLAYER
 10
44.7840468775
 20
172.2695646756
 11
44.6796734103
 21
172.2855497951
  0
LINE
  5
4A0
100
AcDbEntity
  8
0
100
AcDbLine
 62
7
  6
BYLAYER
 10
44.836076888
 20
172.9835669867
 11
44.9404503579
 21
172.9675818593
  0
LINE
  5
4A1
100
AcDbEntity
  8
0
100
AcDbLine
 62
7
  6
BYLAYER
 10
60.9777672633
 20
172.9004443104
 11
60.9034834428
 21
172.9145488375
  0
LINE
  5
4A2
100
AcDbEntity
  8
0
100
AcDbLine
 62
7
  6
BYLAYER
 10
58.8543155409
 20
174.5364436765
 11
58.9285993614
 21
174.5223391493
  0
LINE
  5
4A3
100
AcDbEntity
  8
0
100
AcDbLine
 62
7
  6
BYLAYER
 10
60.3745951205
 20
176.1274339342
 11
60.448878941
 21
176.113329407
  0
LINE
  5
4A4
100
AcDbEntity
  8
0
100
AcDbLine
 62
7
  6
BYLAYER
 10
60.5921182299
 20
176.9931382526
 11
60.6664020557
 21
176.9790337307
  0
LINE
  5
4A5
100
AcDbEntity
  8
0
100
AcDbLine
 62
7
  6
BYLAYER
 10
60.9194685676
 20
173.01892231
 11
61.0382599698
 21
172.9903998557
  0
LINE
  5
4A6
100
AcDbEntity
  8
0
100
AcDbLine
 62
7
  6
BYLAYER
 10
223.9602963477
 20
135.5288403919
 11
222.9987724001
 21
135.8035615198
  0
LINE
  5
4A7
100
AcDbEntity
  8
0
100
AcDbLine
 62
7
  6
BYLAYER
 10
181.0986376825
 20
135.1838554567
 11
180.2042104915
 21
135.6310690522
  0
LINE
  5
4A8
100
AcDbEntity
  8
0
100
AcDbLine
 62
7
  6
BYLAYER
 10
41.0657937178
 20
149.605362207
 11
41.1282937178
 21
149.6479153934
  0
LINE
  5
4A9
100
AcDbEntity
  8
0
100
AcDbLine
 62
7
  6
BYLAYER
 10
43.724127076
 20
149.9500430736
 11
43.661627076
 21
149.9074898872
  0
LINE
  5
4AA
100
AcDbEntity
  8
0
100
AcDbLine
 62
7
  6
BYLAYER
 10
43.599127076
 20
149.9925962675
 11
43.7032937029
 21
150.0564260527
  0
LINE
  5
4AB
100
AcDbEntity
  8
0
100
AcDbLine
 62
7
  6
BYLAYER
 10
60.8288861656
 20
172.8988771536
 11
60.7690203184
 21
172.8684740608
  0
LINE
  5
4AC
100
AcDbEntity
  8
0
100
AcDbLine
 62
7
  6
BYLAYER
 10
60.7104081713
 20
172.9571758546
 11
60.8150950951
 21
173.0029371852
  0
LINE
  5
4AD
100
AcDbEntity
  8
0
100
AcDbLine
 62
7
  6
BYLAYER
 10
40.83835343
 20
172.0610057836
 11
40.7346068129
 21
172.0174384598
  0
LINE
  5
4AE
100
AcDbEntity
  8
0
100
AcDbLine
 62
7
  6
BYLAYER
 10
40.7574874848
 20
172.6722017936
 11
40.846502697
 21
172.7010377046
  0
LINE
  5
4AF
100
AcDbEntity
  8
0
100
AcDbLine
 62
7
  6
BYLAYER
 10
40.8772192096
 20
172.6113956199
 11
40.8327116107
 21
172.5969776677
  0
LINE
  5
4B0
100
AcDbEntity
  8
0
100
AcDbLine
 62
7
  6
BYLAYER
 10
44.0366270611
 20
149.4606813851
 11
43.9324603894
 21
149.4394047919
  0
LINE
  5
4B1
100
AcDbEntity
  8
0
100
AcDbLine
 62
7
  6
BYLAYER
 10
43.7032937029
 20
150.0564260527
 11
43.8074603894
 21
150.0777026477
  0
LINE
  5
4B2
100
AcDbEntity
  8
0
100
AcDbLine
 62
7
  6
BYLAYER
 10
40.9616270462
 20
149.5840856138
 11
41.0657937178
 21
149.605362207
  0
LINE
  5
4B3
100
AcDbEntity
  8
0
100
AcDbLine
 62
7
  6
BYLAYER
 10
40.9116270462
 20
151.7840856138
 11
41.0157937178
 21
151.805362207
  0
LINE
  5
4B4
100
AcDbEntity
  8
0
100
AcDbLine
 62
7
  6
BYLAYER
 10
40.8074603894
 20
152.5713196668
 11
40.7032937029
 21
152.5500430736
  0
LINE
  5
4B5
100
AcDbEntity
  8
0
100
AcDbLine
 62
7
  6
BYLAYER
 10
41.0366270611
 20
151.6989792409
 11
40.8907937327
 21
151.6777026477
  0
LINE
  5
4B6
100
AcDbEntity
  8
0
100
AcDbLine
 62
7
  6
BYLAYER
 10
212.779708675
 20
172.0033339327
 11
212.0199450121
 21
171.950677051
  0
LINE
  5
4B7
100
AcDbEntity
  8
0
100
AcDbLine
 62
7
  6
BYLAYER
 10
212.1403035988
 20
172.0710356377
 11
212.6765889396
 21
172.1064536681
  0
LINE
  5
4B8
100
AcDbEntity
  8
0
100
AcDbLine
 62
7
  6
BYLAYER
 10
28.3967203894
 20
165.5782826477
 11
29.3967203894
 21
165.5782826477
  0
LINE
  5
4B9
100
AcDbEntity
  8
0
100
AcDbLine
 62
7
  6
BYLAYER
 10
76.3967203894
 20
165.5782826477
 11
77.3967203894
 21
165.5782826477
  0
LINE
  5
4BA
100
AcDbEntity
  8
0
100
AcDbLine
 62
7
  6
BYLAYER
 10
176.045851278
 20
165.5782826477
 11
177.045851278
 21
165.5782826477
  0
LINE
  5
4BB
100
AcDbEntity
  8
0
100
AcDbLine
 62
7
  6
BYLAYER
 10
224.045851278
 20
165.5782826477
 11
225.0458512779
 21
165.5782826477
  0
LINE
  5
4BC
100
AcDbEntity
  8
0
100
AcDbLine
 62
7
  6
BYLAYER
 10
29.3967203894
 20
166.5782826477
 11
28.8967377446
 21
166.5782999917
  0
LINE
  5
4BD
100
AcDbEntity
  8
0
100
AcDbLine
 62
7
  6
BYLAYER
 10
224.5458355046
 20
166.5782984113
 11
224.045851278
 21
166.5782826477
  0
LINE
  5
4BE
100
AcDbEntity
  8
0
100
AcDbLine
 62
7
  6
BYLAYER
 10
224.045851278
 20
166.5782826477
 11
223.545851278
 21
166.5782826477
  0
LINE
  5
4BF
100
AcDbEntity
  8
0
100
AcDbLine
 62
7
  6
BYLAYER
 10
177.545851278
 20
166.5782826477
 11
177.045851278
 21
166.5782826477
  0
LINE
  5
4C0
100
AcDbEntity
  8
0
100
AcDbLine
 62
7
  6
BYLAYER
 10
76.3967203894
 20
166.5782826477
 11
75.8967203894
 21
166.5782826477
  0
LINE
  5
4C1
100
AcDbEntity
  8
0
100
AcDbLine
 62
7
  6
BYLAYER
 10
29.8967203894
 20
166.5782826477
 11
29.3967203894
 21
166.5782826477
  0
LINE
  5
4C2
100
AcDbEntity
  8
0
100
AcDbLine
 62
7
  6
BYLAYER
 10
177.045851278
 20
166.5782826477
 11
176.5458686331
 21
166.5782999917
  0
LINE
  5
4C3
100
AcDbEntity
  8
0
100
AcDbLine
 62
7
  6
BYLAYER
 10
76.8967046161
 20
166.5782984113
 11
76.3967203894
 21
166.5782826477
  0
LINE
  5
4C4
100
AcDbEntity
  8
0
100
AcDbLine
 62
7
  6
BYLAYER
 10
29.3967203894
 20
169.0782826477
 11
29.8967203894
 21
169.0782826477
  0
LINE
  5
4C5
100
AcDbEntity
  8
0
100
AcDbLine
 62
7
  6
BYLAYER
 10
32.3967203894
 20
169.0782826477
 11
32.8967203894
 21
169.0782826477
  0
LINE
  5
4C6
100
AcDbEntity
  8
0
100
AcDbLine
 62
7
  6
BYLAYER
 10
72.8967203894
 20
169.0782826477
 11
73.3967203894
 21
169.0782826477
  0
LINE
  5
4C7
100
AcDbEntity
  8
0
100
AcDbLine
 62
7
  6
BYLAYER
 10
75.8967203894
 20
169.0782826477
 11
76.3967203894
 21
169.0782826477
  0
LINE
  5
4C8
100
AcDbEntity
  8
0
100
AcDbLine
 62
7
  6
BYLAYER
 10
177.045851278
 20
169.0782826477
 11
177.545851278
 21
169.0782826477
  0
LINE
  5
4C9
100
AcDbEntity
  8
0
100
AcDbLine
 62
7
  6
BYLAYER
 10
180.045851278
 20
169.0782826477
 11
180.545851278
 21
169.0782826477
  0
LINE
  5
4CA
100
AcDbEntity
  8
0
100
AcDbLine
 62
7
  6
BYLAYER
 10
220.545851278
 20
169.0782826477
 11
221.045851278
 21
169.0782826477
  0
LINE
  5
4CB
100
AcDbEntity
  8
0
100
AcDbLine
 62
7
  6
BYLAYER
 10
223.545851278
 20
169.0782826477
 11
224.045851278
 21
169.0782826477
  0
LINE
  5
4CC
100
AcDbEntity
  8
0
100
AcDbLine
 62
7
  6
BYLAYER
 10
30.3967203894
 20
169.5782826477
 11
31.8967203894
 21
169.5782826477
  0
LINE
  5
4CD
100
AcDbEntity
  8
0
100
AcDbLine
 62
7
  6
BYLAYER
 10
73.8967203894
 20
169.5782826477
 11
75.3967203894
 21
169.5782826477
  0
LINE
  5
4CE
100
AcDbEntity
  8
0
100
AcDbLine
 62
7
  6
BYLAYER
 10
178.045851278
 20
169.5782826477
 11
179.545851278
 21
169.5782826477
  0
LINE
  5
4CF
100
AcDbEntity
  8
0
100
AcDbLine
 62
7
  6
BYLAYER
 10
221.545851278
 20
169.5782826477
 11
223.045851278
 21
169.5782826477
  0
LINE
  5
4D0
100
AcDbEntity
  8
0
100
AcDbLine
 62
7
  6
BYLAYER
 10
223.045851278
 20
170.0782826477
 11
221.545851278
 21
170.0782826477
  0
LINE
  5
4D1
100
AcDbEntity
  8
0
100
AcDbLine
 62
7
  6
BYLAYER
 10
179.545851278
 20
170.0782826477
 11
178.045851278
 21
170.0782826477
  0
LINE
  5
4D2
100
AcDbEntity
  8
0
100
AcDbLine
 62
7
  6
BYLAYER
 10
75.3967203894
 20
170.0782826477
 11
73.8967203894
 21
170.0782826477
  0
LINE
  5
4D3
100
AcDbEntity
  8
0
100
AcDbLine
 62
7
  6
BYLAYER
 10
31.8967203894
 20
170.0782826477
 11
30.3967203894
 21
170.0782826477
  0
LINE
  5
4D4
100
AcDbEntity
  8
0
100
AcDbLine
 62
7
  6
BYLAYER
 10
42.6860460228
 20
170.1956355213
 11
42.5669411362
 21
170.1968892215
  0
LINE
  5
4D5
100
AcDbEntity
  8
0
100
AcDbLine
 62
7
  6
BYLAYER
 10
41.1097871423
 20
171.7306464781
 11
40.9906822979
 21
171.7319002204
  0
LINE
  5
4D6
100
AcDbEntity
  8
0
100
AcDbLine
 62
7
  6
BYLAYER
 10
190.3351769113
 20
170.1956355213
 11
190.2160720247
 21
170.1968892215
  0
LINE
  5
4D7
100
AcDbEntity
  8
0
100
AcDbLine
 62
7
  6
BYLAYER
 10
40.9367716529
 20
172.6107687487
 11
40.8772192096
 21
172.6113956199
  0
LINE
  5
4D8
100
AcDbEntity
  8
0
100
AcDbLine
 62
7
  6
BYLAYER
 10
59.5579745624
 20
174.9160120829
 11
58.7693750057
 21
174.9523704095
  0
LINE
  5
4D9
100
AcDbEntity
  8
0
100
AcDbLine
 62
7
  6
BYLAYER
 10
58.7408525053
 20
175.0711618499
 11
59.4401234287
 21
175.0338632166
  0
LINE
  5
4DA
100
AcDbEntity
  8
0
100
AcDbLine
 62
7
  6
BYLAYER
 10
60.2758634621
 20
176.6474207303
 11
60.3799235253
 21
176.6336296072
  0
LINE
  5
4DB
100
AcDbEntity
  8
0
100
AcDbLine
 62
7
  6
BYLAYER
 10
224.0380182755
 20
139.4409220838
 11
224.9995422231
 21
139.1662009559
  0
LINE
  5
4DC
100
AcDbEntity
  8
0
100
AcDbLine
 62
7
  6
BYLAYER
 10
225.1185898737
 20
139.7437639239
 11
225.1610907544
 21
139.7316208152
  0
LINE
  5
4DD
100
AcDbEntity
  8
0
100
AcDbLine
 62
7
  6
BYLAYER
 10
77.2853637079
 20
141.028529068
 11
76.9410541342
 21
140.6659674629
  0
LINE
  5
4DE
100
AcDbEntity
  8
0
100
AcDbLine
 62
7
  6
BYLAYER
 10
72.8967203894
 20
137.4282826477
 11
71.8967203894
 21
136.4282829896
  0
LINE
  5
4DF
100
AcDbEntity
  8
0
100
AcDbLine
 62
7
  6
BYLAYER
 10
44.1407937253
 20
149.5245111647
 11
44.0366270611
 21
149.4606813851
  0
LINE
  5
4E0
100
AcDbEntity
  8
0
100
AcDbLine
 62
7
  6
BYLAYER
 10
40.6199603894
 20
152.6138728607
 11
40.7032937029
 21
152.6564260527
  0
LINE
  5
4E1
100
AcDbEntity
  8
0
100
AcDbLine
 62
7
  6
BYLAYER
 10
40.7032937029
 20
152.5500430736
 11
40.661627076
 21
152.5287664804
  0
LINE
  5
4E2
100
AcDbEntity
  8
0
100
AcDbLine
 62
7
  6
BYLAYER
 10
41.1199603894
 20
151.7415324274
 11
41.0366270611
 21
151.6989792409
  0
LINE
  5
4E3
100
AcDbEntity
  8
0
100
AcDbLine
 62
7
  6
BYLAYER
 10
41.1699603894
 20
149.5415324274
 11
41.0866270611
 21
149.4989792409
  0
LINE
  5
4E4
100
AcDbEntity
  8
0
100
AcDbLine
 62
7
  6
BYLAYER
 10
60.5761330998
 20
176.8887647749
 11
60.5313120759
 21
176.8734065055
  0
LINE
  5
4E5
100
AcDbEntity
  8
0
100
AcDbLine
 62
7
  6
BYLAYER
 10
60.2896545853
 20
176.5433606671
 11
60.2000124953
 21
176.5126441704
  0
LINE
  5
4E6
100
AcDbEntity
  8
0
100
AcDbLine
 62
7
  6
BYLAYER
 10
58.7693750057
 20
174.9523704095
 11
58.6797329158
 21
174.9216539127
  0
LINE
  5
4E7
100
AcDbEntity
  8
0
100
AcDbLine
 62
7
  6
BYLAYER
 10
41.19880234
 20
171.7594823825
 11
41.1097871423
 21
171.7306464781
  0
LINE
  5
4E8
100
AcDbEntity
  8
0
100
AcDbLine
 62
7
  6
BYLAYER
 10
42.7750612205
 20
170.2244714257
 11
42.6860460228
 21
170.1956355213
  0
LINE
  5
4E9
100
AcDbEntity
  8
0
100
AcDbLine
 62
7
  6
BYLAYER
 10
43.9324603894
 20
149.5457877579
 11
44.0157937178
 21
149.5670643511
  0
LINE
  5
4EA
100
AcDbEntity
  8
0
100
AcDbLine
 62
7
  6
BYLAYER
 10
43.8074603894
 20
149.9713196668
 11
43.724127076
 21
149.9500430736
  0
LINE
  5
4EB
100
AcDbEntity
  8
0
100
AcDbLine
 62
7
  6
BYLAYER
 10
40.7032937029
 20
152.6564260527
 11
40.7866270462
 21
152.6777026477
  0
LINE
  5
4EC
100
AcDbEntity
  8
0
100
AcDbLine
 62
7
  6
BYLAYER
 10
63.0619143246
 20
170.3589345395
 11
62.8682122136
 21
170.3420091238
  0
LINE
  5
4ED
100
AcDbEntity
  8
0
100
AcDbLine
 62
7
  6
BYLAYER
 10
62.9885708003
 20
170.4623677105
 11
63.1822729534
 21
170.4792931684
  0
LINE
  5
4EE
100
AcDbEntity
  8
0
100
AcDbLine
 62
7
  6
BYLAYER
 10
65.1305777865
 20
172.0033339327
 11
64.3708141236
 21
171.950677051
  0
LINE
  5
4EF
100
AcDbEntity
  8
0
100
AcDbLine
 62
7
  6
BYLAYER
 10
64.4911727103
 20
172.0710356377
 11
65.027458051
 21
172.1064536681
  0
LINE
  5
4F0
100
AcDbEntity
  8
0
100
AcDbLine
 62
7
  6
BYLAYER
 10
206.6510737769
 20
174.4189059757
 11
206.5319689193
 21
174.4176522466
  0
LINE
  5
4F1
100
AcDbEntity
  8
0
100
AcDbLine
 62
7
  6
BYLAYER
 10
59.0019428884
 20
174.4189059757
 11
58.8828380308
 21
174.4176522466
  0
LINE
  5
4F2
100
AcDbEntity
  8
0
100
AcDbLine
 62
7
  6
BYLAYER
 10
208.1713533565
 20
176.0098962334
 11
208.0522484989
 21
176.0086425043
  0
LINE
  5
4F3
100
AcDbEntity
  8
0
100
AcDbLine
 62
7
  6
BYLAYER
 10
207.9983378749
 20
176.5439875594
 11
207.9387854738
 21
176.5433606671
  0
LINE
  5
4F4
100
AcDbEntity
  8
0
100
AcDbLine
 62
7
  6
BYLAYER
 10
208.2848164422
 20
176.8893916355
 11
208.2252639883
 21
176.8887647749
  0
LINE
  5
4F5
100
AcDbEntity
  8
0
100
AcDbLine
 62
7
  6
BYLAYER
 10
60.5222224679
 20
176.0098962334
 11
60.4031176104
 21
176.0086425043
  0
LINE
  5
4F6
100
AcDbEntity
  8
0
100
AcDbLine
 62
7
  6
BYLAYER
 10
60.3492069864
 20
176.5439875594
 11
60.2896545853
 21
176.5433606671
  0
LINE
  5
4F7
100
AcDbEntity
  8
0
100
AcDbLine
 62
7
  6
BYLAYER
 10
60.6356855536
 20
176.8893916355
 11
60.5761330998
 21
176.8887647749
  0
LINE
  5
4F8
100
AcDbEntity
  8
0
100
AcDbLine
 62
7
  6
BYLAYER
 10
218.0458334131
 20
173.5957096755
 11
217.4403400255
 21
173.594468267
  0
LINE
  5
4F9
100
AcDbEntity
  8
0
100
AcDbLine
 62
7
  6
BYLAYER
 10
201.0458691428
 20
173.5608556199
 11
201.6513625304
 21
173.5620970284
  0
LINE
  5
4FA
100
AcDbEntity
  8
0
100
AcDbLine
 62
7
  6
BYLAYER
 10
200.0458334131
 20
173.5957096755
 11
199.4405382007
 21
173.5944686733
  0
LINE
  5
4FB
100
AcDbEntity
  8
0
100
AcDbLine
 62
7
  6
BYLAYER
 10
183.0458691428
 20
173.5608556199
 11
183.6511643552
 21
173.5620966221
  0
LINE
  5
4FC
100
AcDbEntity
  8
0
100
AcDbLine
 62
7
  6
BYLAYER
 10
70.3967025246
 20
173.5957096755
 11
69.791209137
 21
173.594468267
  0
LINE
  5
4FD
100
AcDbEntity
  8
0
100
AcDbLine
 62
7
  6
BYLAYER
 10
53.3967382542
 20
173.5608556199
 11
54.0022316418
 21
173.5620970284
  0
LINE
  5
4FE
100
AcDbEntity
  8
0
100
AcDbLine
 62
7
  6
BYLAYER
 10
52.3967025246
 20
173.5957096755
 11
51.7914073122
 21
173.5944686733
  0
LINE
  5
4FF
100
AcDbEntity
  8
0
100
AcDbLine
 62
7
  6
BYLAYER
 10
35.3967382542
 20
173.5608556199
 11
36.0020334667
 21
173.5620966221
  0
LINE
  5
500
100
AcDbEntity
  8
0
100
AcDbLine
 62
7
  6
BYLAYER
 10
188.7589180308
 20
171.7306464781
 11
188.6398131864
 21
171.7319002204
  0
LINE
  5
501
100
AcDbEntity
  8
0
100
AcDbLine
 62
7
  6
BYLAYER
 10
188.5859025414
 20
172.6107687487
 11
188.5263500981
 21
172.6113956199
  0
LINE
  5
502
100
AcDbEntity
  8
0
100
AcDbLine
 62
7
  6
BYLAYER
 10
207.2071054509
 20
174.9160120829
 11
206.4185058942
 21
174.9523704095
  0
LINE
  5
503
100
AcDbEntity
  8
0
100
AcDbLine
 62
7
  6
BYLAYER
 10
206.3899833938
 20
175.0711618499
 11
207.0892543172
 21
175.0338632166
  0
LINE
  5
504
100
AcDbEntity
  8
0
100
AcDbLine
 62
7
  6
BYLAYER
 10
176.545851278
 20
156.578274771
 11
175.545851278
 21
157.0782739435
  0
LINE
  5
505
100
AcDbEntity
  8
0
100
AcDbLine
 62
7
  6
BYLAYER
 10
42.6550160799
 20
170.3150538118
 11
42.7292999004
 21
170.329158339
  0
LINE
  5
506
100
AcDbEntity
  8
0
100
AcDbLine
 62
7
  6
BYLAYER
 10
60.8150950951
 20
173.0029371852
 11
60.9194685676
 21
173.01892231
  0
LINE
  5
507
100
AcDbEntity
  8
0
100
AcDbLine
 62
7
  6
BYLAYER
 10
27.8967203894
 20
180.0782826477
 11
32.3967203894
 21
180.0782826477
  0
LINE
  5
508
100
AcDbEntity
  8
0
100
AcDbLine
 62
7
  6
BYLAYER
 10
73.3967203894
 20
180.0782826477
 11
77.8967203894
 21
180.0782826477
  0
LINE
  5
509
100
AcDbEntity
  8
0
100
AcDbLine
 62
7
  6
BYLAYER
 10
175.545851278
 20
180.0782826477
 11
180.045851278
 21
180.0782826477
  0
LINE
  5
50A
100
AcDbEntity
  8
0
100
AcDbLine
 62
7
  6
BYLAYER
 10
221.045851278
 20
180.0782826477
 11
225.545851278
 21
180.0782826477
  0
LINE
  5
50B
100
AcDbEntity
  8
0
100
AcDbLine
 62
7
  6
BYLAYER
 10
224.545851278
 20
181.0782826477
 11
221.045851278
 21
181.0782826477
  0
LINE
  5
50C
100
AcDbEntity
  8
0
100
AcDbLine
 62
7
  6
BYLAYER
 10
180.045851278
 20
181.0782826477
 11
176.545851278
 21
181.0782826477
  0
LINE
  5
50D
100
AcDbEntity
  8
0
100
AcDbLine
 62
7
  6
BYLAYER
 10
76.8967203894
 20
181.0782826477
 11
73.3967203894
 21
181.0782826477
  0
LINE
  5
50E
100
AcDbEntity
  8
0
100
AcDbLine
 62
7
  6
BYLAYER
 10
32.3967203894
 20
181.0782826477
 11
28.8967203894
 21
181.0782826477
  0
LINE
  5
50F
100
AcDbEntity
  8
0
100
AcDbLine
 62
7
  6
BYLAYER
 10
225.545851278
 20
181.5782827203
 11
222.3653422868
 21
181.5782826477
  0
LINE
  5
510
100
AcDbEntity
  8
0
100
AcDbLine
 62
7
  6
BYLAYER
 10
178.6992678641
 20
181.5782826477
 11
175.545851278
 21
181.5782827206
  0
LINE
  5
511
100
AcDbEntity
  8
0
100
AcDbLine
 62
7
  6
BYLAYER
 10
77.8967203894
 20
181.5782827203
 11
74.7162113982
 21
181.5782826477
  0
LINE
  5
512
100
AcDbEntity
  8
0
100
AcDbLine
 62
7
  6
BYLAYER
 10
31.0501369755
 20
181.5782826477
 11
27.8967203894
 21
181.5782827206
  0
LINE
  5
513
100
AcDbEntity
  8
0
100
AcDbLine
 62
7
  6
BYLAYER
 10
221.445851278
 20
183.0782826477
 11
220.645851278
 21
183.0782826477
  0
LINE
  5
514
100
AcDbEntity
  8
0
100
AcDbLine
 62
7
  6
BYLAYER
 10
180.4458512779
 20
183.0782826477
 11
179.6458512779
 21
183.0782826477
  0
LINE
  5
515
100
AcDbEntity
  8
0
100
AcDbLine
 62
7
  6
BYLAYER
 10
73.7967203894
 20
183.0782826477
 11
72.9967203894
 21
183.0782826477
  0
LINE
  5
516
100
AcDbEntity
  8
0
100
AcDbLine
 62
7
  6
BYLAYER
 10
32.7967203894
 20
183.0782826477
 11
31.9967203894
 21
183.0782826477
  0
LINE
  5
517
100
AcDbEntity
  8
0
100
AcDbLine
 62
7
  6
BYLAYER
 10
45.3967203894
 20
184.0782826477
 11
60.3967203894
 21
184.0782826477
  0
LINE
  5
518
100
AcDbEntity
  8
0
100
AcDbLine
 62
7
  6
BYLAYER
 10
193.045851278
 20
184.0782826477
 11
208.045851278
 21
184.0782826477
  0
LINE
  5
519
100
AcDbEntity
  8
0
100
AcDbLine
 62
7
  6
BYLAYER
 10
222.545851278
 20
184.1782826477
 11
221.445851278
 21
184.1782826477
  0
LINE
  5
51A
100
AcDbEntity
  8
0
100
AcDbLine
 62
7
  6
BYLAYER
 10
220.645851278
 20
184.1782826477
 11
219.545851278
 21
184.1782826477
  0
LINE
  5
51B
100
AcDbEntity
  8
0
100
AcDbLine
 62
7
  6
BYLAYER
 10
181.5458512779
 20
184.1782826477
 11
180.4458512779
 21
184.1782826477
  0
LINE
  5
51C
100
AcDbEntity
  8
0
100
AcDbLine
 62
7
  6
BYLAYER
 10
179.6458512779
 20
184.1782826477
 11
178.5458512779
 21
184.1782826477
  0
LINE
  5
51D
100
AcDbEntity
  8
0
100
AcDbLine
 62
7
  6
BYLAYER
 10
74.8967203894
 20
184.1782826477
 11
73.7967203894
 21
184.1782826477
  0
LINE
  5
51E
100
AcDbEntity
  8
0
100
AcDbLine
 62
7
  6
BYLAYER
 10
72.9967203894
 20
184.1782826477
 11
71.8967203894
 21
184.1782826477
  0
LINE
  5
51F
100
AcDbEntity
  8
0
100
AcDbLine
 62
7
  6
BYLAYER
 10
33.8967203894
 20
184.1782826477
 11
32.7967203894
 21
184.1782826477
  0
LINE
  5
520
100
AcDbEntity
  8
0
100
AcDbLine
 62
7
  6
BYLAYER
 10
31.9967203894
 20
184.1782826477
 11
30.8967203894
 21
184.1782826477
  0
LINE
  5
521
100
AcDbEntity
  8
0
100
AcDbLine
 62
7
  6
BYLAYER
 10
217.745851278
 20
184.5782826477
 11
216.545851278
 21
184.5782826477
  0
LINE
  5
522
100
AcDbEntity
  8
0
100
AcDbLine
 62
7
  6
BYLAYER
 10
208.045851278
 20
184.5782826477
 11
193.045851278
 21
184.5782826477
  0
LINE
  5
523
100
AcDbEntity
  8
0
100
AcDbLine
 62
7
  6
BYLAYER
 10
184.545851278
 20
184.5782826477
 11
183.3458512779
 21
184.5782826477
  0
LINE
  5
524
100
AcDbEntity
  8
0
100
AcDbLine
 62
7
  6
BYLAYER
 10
70.0967203894
 20
184.5782826477
 11
68.8967203894
 21
184.5782826477
  0
LINE
  5
525
100
AcDbEntity
  8
0
100
AcDbLine
 62
7
  6
BYLAYER
 10
60.3967203894
 20
184.5782826477
 11
45.3967203894
 21
184.5782826477
  0
LINE
  5
526
100
AcDbEntity
  8
0
100
AcDbLine
 62
7
  6
BYLAYER
 10
36.8967203894
 20
184.5782826477
 11
35.6967203894
 21
184.5782826477
  0
LINE
  5
527
100
AcDbEntity
  8
0
100
AcDbLine
 62
7
  6
BYLAYER
 10
30.8967203894
 20
184.9782826477
 11
31.9967203894
 21
184.9782826477
  0
LINE
  5
528
100
AcDbEntity
  8
0
100
AcDbLine
 62
7
  6
BYLAYER
 10
32.7967203894
 20
184.9782826477
 11
33.8967203894
 21
184.9782826477
  0
LINE
  5
529
100
AcDbEntity
  8
0
100
AcDbLine
 62
7
  6
BYLAYER
 10
71.8967203894
 20
184.9782826477
 11
72.9967203894
 21
184.9782826477
  0
LINE
  5
52A
100
AcDbEntity
  8
0
100
AcDbLine
 62
7
  6
BYLAYER
 10
73.7967203894
 20
184.9782826477
 11
74.8967203894
 21
184.9782826477
  0
LINE
  5
52B
100
AcDbEntity
  8
0
100
AcDbLine
 62
7
  6
BYLAYER
 10
178.5458512779
 20
184.9782826477
 11
179.6458512779
 21
184.9782826477
  0
LINE
  5
52C
100
AcDbEntity
  8
0
100
AcDbLine
 62
7
  6
BYLAYER
 10
180.4458512779
 20
184.9782826477
 11
181.5458512779
 21
184.9782826477
  0
LINE
  5
52D
100
AcDbEntity
  8
0
100
AcDbLine
 62
7
  6
BYLAYER
 10
219.545851278
 20
184.9782826477
 11
220.645851278
 21
184.9782826477
  0
LINE
  5
52E
100
AcDbEntity
  8
0
100
AcDbLine
 62
7
  6
BYLAYER
 10
221.445851278
 20
184.9782826477
 11
222.545851278
 21
184.9782826477
  0
LINE
  5
52F
100
AcDbEntity
  8
4
100
AcDbLine
 62
7
  6
BYLAYER
 10
208.0451234684
 20
185.030598488
 11
193.0451234684
 21
185.030598488
  0
LINE
  5
530
100
AcDbEntity
  8
3
100
AcDbLine
 62
7
  6
BYLAYER
 10
60.3959925799
 20
185.030598488
 11
45.3959925799
 21
185.030598488
  0
LINE
  5
531
100
AcDbEntity
  8
0
100
AcDbLine
 62
7
  6
BYLAYER
 10
209.045851278
 20
185.0782826477
 11
208.545851278
 21
185.0782826477
  0
LINE
  5
532
100
AcDbEntity
  8
0
100
AcDbLine
 62
7
  6
BYLAYER
 10
192.545851278
 20
185.0782826477
 11
192.045851278
 21
185.0782826477
  0
LINE
  5
533
100
AcDbEntity
  8
0
100
AcDbLine
 62
7
  6
BYLAYER
 10
61.3967203894
 20
185.0782826477
 11
60.8967203894
 21
185.0782826477
  0
LINE
  5
534
100
AcDbEntity
  8
0
100
AcDbLine
 62
7
  6
BYLAYER
 10
44.8967203894
 20
185.0782826477
 11
44.3967203894
 21
185.0782826477
  0
LINE
  5
535
100
AcDbEntity
  8
0
100
AcDbLine
 62
7
  6
BYLAYER
 10
27.8967203894
 20
185.0782826477
 11
28.3967203894
 21
185.0782826477
  0
LINE
  5
536
100
AcDbEntity
  8
0
100
AcDbLine
 62
7
  6
BYLAYER
 10
77.3967203894
 20
185.0782826477
 11
77.8967203894
 21
185.0782826477
  0
LINE
  5
537
100
AcDbEntity
  8
0
100
AcDbLine
 62
7
  6
BYLAYER
 10
175.545851278
 20
185.0782826477
 11
176.045851278
 21
185.0782826477
  0
LINE
  5
538
100
AcDbEntity
  8
0
100
AcDbLine
 62
7
  6
BYLAYER
 10
225.045851278
 20
185.0782826477
 11
225.545851278
 21
185.0782826477
  0
LINE
  5
539
100
AcDbEntity
  8
0
100
AcDbLine
 62
7
  6
BYLAYER
 10
31.9967203894
 20
186.0782826477
 11
32.7967203894
 21
186.0782826477
  0
LINE
  5
53A
100
AcDbEntity
  8
0
100
AcDbLine
 62
7
  6
BYLAYER
 10
72.9967203894
 20
186.0782826477
 11
73.7967203894
 21
186.0782826477
  0
LINE
  5
53B
100
AcDbEntity
  8
0
100
AcDbLine
 62
7
  6
BYLAYER
 10
179.6458512779
 20
186.0782826477
 11
180.4458512779
 21
186.0782826477
  0
LINE
  5
53C
100
AcDbEntity
  8
0
100
AcDbLine
 62
7
  6
BYLAYER
 10
220.645851278
 20
186.0782826477
 11
221.445851278
 21
186.0782826477
  0
LINE
  5
53D
100
AcDbEntity
  8
0
100
AcDbLine
 62
7
  6
BYLAYER
 10
44.3967203894
 20
186.5782826477
 11
44.8967203894
 21
186.5782826477
  0
LINE
  5
53E
100
AcDbEntity
  8
0
100
AcDbLine
 62
7
  6
BYLAYER
 10
60.8967203894
 20
186.5782826477
 11
61.3967203894
 21
186.5782826477
  0
LINE
  5
53F
100
AcDbEntity
  8
0
100
AcDbLine
 62
7
  6
BYLAYER
 10
192.045851278
 20
186.5782826477
 11
192.545851278
 21
186.5782826477
  0
LINE
  5
540
100
AcDbEntity
  8
0
100
AcDbLine
 62
7
  6
BYLAYER
 10
208.545851278
 20
186.5782826477
 11
209.045851278
 21
186.5782826477
  0
LINE
  5
541
100
AcDbEntity
  8
4
100
AcDbLine
 62
7
  6
BYLAYER
 10
205.04559851
 20
187.030598488
 11
196.04559851
 21
187.030598488
  0
LINE
  5
542
100
AcDbEntity
  8
3
100
AcDbLine
 62
7
  6
BYLAYER
 10
57.3964676215
 20
187.030598488
 11
48.3964676215
 21
187.030598488
  0
LINE
  5
543
100
AcDbEntity
  8
0
100
AcDbLine
 62
7
  6
BYLAYER
 10
45.3967203894
 20
187.0782826477
 11
48.3967203894
 21
187.0782826477
  0
LINE
  5
544
100
AcDbEntity
  8
0
100
AcDbLine
 62
7
  6
BYLAYER
 10
57.3967203894
 20
187.0782826477
 11
60.3967203894
 21
187.0782826477
  0
LINE
  5
545
100
AcDbEntity
  8
0
100
AcDbLine
 62
7
  6
BYLAYER
 10
193.045851278
 20
187.0782826477
 11
196.045851278
 21
187.0782826477
  0
LINE
  5
546
100
AcDbEntity
  8
0
100
AcDbLine
 62
7
  6
BYLAYER
 10
205.045851278
 20
187.0782826477
 11
208.045851278
 21
187.0782826477
  0
LINE
  5
547
100
AcDbEntity
  8
0
100
AcDbLine
 62
7
  6
BYLAYER
 10
208.045851278
 20
187.5782826477
 11
204.545851278
 21
187.5782826477
  0
LINE
  5
548
100
AcDbEntity
  8
0
100
AcDbLine
 62
7
  6
BYLAYER
 10
196.545851278
 20
187.5782826477
 11
193.045851278
 21
187.5782826477
  0
LINE
  5
549
100
AcDbEntity
  8
0
100
AcDbLine
 62
7
  6
BYLAYER
 10
60.3967203894
 20
187.5782826477
 11
56.8967203894
 21
187.5782826477
  0
LINE
  5
54A
100
AcDbEntity
  8
0
100
AcDbLine
 62
7
  6
BYLAYER
 10
48.8967203894
 20
187.5782826477
 11
45.3967203894
 21
187.5782826477
  0
LINE
  5
54B
100
AcDbEntity
  8
0
100
AcDbLine
 62
7
  6
BYLAYER
 10
208.5623307604
 20
172.4233979984
 11
208.6663908025
 21
172.4096068963
  0
LINE
  5
54C
100
AcDbEntity
  8
0
100
AcDbLine
 62
7
  6
BYLAYER
 10
207.9249943506
 20
176.6474207303
 11
208.0290544138
 21
176.6336296072
  0
LINE
  5
54D
100
AcDbEntity
  8
0
100
AcDbLine
 62
7
  6
BYLAYER
 10
192.433177766
 20
172.2695646756
 11
192.3288042988
 21
172.2855497951
  0
LINE
  5
54E
100
AcDbEntity
  8
0
100
AcDbLine
 62
7
  6
BYLAYER
 10
192.4852077766
 20
172.9835669867
 11
192.5895812464
 21
172.9675818593
  0
LINE
  5
54F
100
AcDbEntity
  8
0
100
AcDbLine
 62
7
  6
BYLAYER
 10
208.6268981518
 20
172.9004443104
 11
208.5526143313
 21
172.9145488375
  0
LINE
  5
550
100
AcDbEntity
  8
0
100
AcDbLine
 62
7
  6
BYLAYER
 10
190.2295497018
 20
170.3307254852
 11
190.3041469684
 21
170.3150538118
  0
LINE
  5
551
100
AcDbEntity
  8
0
100
AcDbLine
 62
7
  6
BYLAYER
 10
188.6385594441
 20
171.8510050648
 11
188.7131567107
 21
171.8353333914
  0
LINE
  5
552
100
AcDbEntity
  8
0
100
AcDbLine
 62
7
  6
BYLAYER
 10
188.3837377014
 20
172.0174384598
 11
188.3091404348
 21
172.0331101333
  0
LINE
  5
553
100
AcDbEntity
  8
0
100
AcDbLine
 62
7
  6
BYLAYER
 10
188.5699174113
 20
172.7151422264
 11
188.6445146634
 21
172.6994705385
  0
LINE
  5
554
100
AcDbEntity
  8
0
100
AcDbLine
 62
7
  6
BYLAYER
 10
192.3425953799
 20
172.3896098162
 11
192.4171926465
 21
172.3739381427
  0
LINE
  5
555
100
AcDbEntity
  8
0
100
AcDbLine
 62
7
  6
BYLAYER
 10
180.545851278
 20
137.4282826477
 11
181.5458509361
 21
136.4282826477
  0
LINE
  5
556
100
AcDbEntity
  8
0
100
AcDbLine
 62
7
  6
BYLAYER
 10
176.5015175171
 20
140.6659674477
 11
176.1572079381
 21
141.0285290477
  0
LINE
  5
557
100
AcDbEntity
  8
0
100
AcDbLine
 62
7
  6
BYLAYER
 10
77.8967203894
 20
157.0782796902
 11
76.8967203894
 21
156.5782739816
  0
LINE
  5
558
100
AcDbEntity
  8
0
100
AcDbLine
 62
7
  6
BYLAYER
 10
40.8282937327
 20
152.1245111647
 11
40.7032937029
 21
152.0819579783
  0
LINE
  5
559
100
AcDbEntity
  8
0
100
AcDbLine
 62
7
  6
BYLAYER
 10
44.9028382758
 20
172.2980871338
 11
44.7840468775
 21
172.2695646756
  0
LINE
  5
55A
100
AcDbEntity
  8
0
100
AcDbLine
 62
7
  6
BYLAYER
 10
44.7172854595
 20
172.9550445061
 11
44.836076888
 21
172.9835669867
  0
LINE
  5
55B
100
AcDbEntity
  8
0
100
AcDbLine
 62
7
  6
BYLAYER
 10
60.9034834428
 20
172.9145488375
 11
60.8288861656
 21
172.8988771536
  0
LINE
  5
55C
100
AcDbEntity
  8
0
100
AcDbLine
 62
7
  6
BYLAYER
 10
58.9285993614
 20
174.5223391493
 11
59.0031966175
 21
174.5380108333
  0
LINE
  5
55D
100
AcDbEntity
  8
0
100
AcDbLine
 62
7
  6
BYLAYER
 10
58.6662552387
 20
175.0554901765
 11
58.7408525053
 21
175.0711618499
  0
LINE
  5
55E
100
AcDbEntity
  8
0
100
AcDbLine
 62
7
  6
BYLAYER
 10
60.448878941
 20
176.113329407
 11
60.5234761971
 21
176.129001091
  0
LINE
  5
55F
100
AcDbEntity
  8
0
100
AcDbLine
 62
7
  6
BYLAYER
 10
60.2012662376
 20
176.6317490148
 11
60.2758634621
 21
176.6474207303
  0
LINE
  5
560
100
AcDbEntity
  8
0
100
AcDbLine
 62
7
  6
BYLAYER
 10
60.5175209633
 20
176.9774665792
 11
60.5921182299
 21
176.9931382526
  0
LINE
  5
561
100
AcDbEntity
  8
0
100
AcDbLine
 62
7
  6
BYLAYER
 10
44.768061758
 20
172.3739381427
 11
44.8423455785
 21
172.3880426699
  0
LINE
  5
562
100
AcDbEntity
  8
0
100
AcDbLine
 62
7
  6
BYLAYER
 10
41.0640258222
 20
171.8353333914
 11
41.1383096427
 21
171.8494379185
  0
LINE
  5
563
100
AcDbEntity
  8
0
100
AcDbLine
 62
7
  6
BYLAYER
 10
44.8520620076
 20
172.879193509
 11
44.7777781871
 21
172.8650889819
  0
LINE
  5
564
100
AcDbEntity
  8
0
100
AcDbLine
 62
7
  6
BYLAYER
 10
40.7483978939
 20
172.1214984809
 11
40.8226817144
 21
172.1356030081
  0
LINE
  5
565
100
AcDbEntity
  8
0
100
AcDbLine
 62
7
  6
BYLAYER
 10
40.846502697
 20
172.7010377046
 11
40.9207865228
 21
172.7151422264
  0
LINE
  5
566
100
AcDbEntity
  8
0
100
AcDbLine
 62
7
  6
BYLAYER
 10
35.8967203894
 20
188.0782826477
 11
47.8967046259
 21
188.0782668744
  0
LINE
  5
567
100
AcDbEntity
  8
0
100
AcDbLine
 62
7
  6
BYLAYER
 10
205.5458686219
 20
188.0782652926
 11
217.545851278
 21
188.0782826477
  0
LINE
  5
568
100
AcDbEntity
  8
0
100
AcDbLine
 62
7
  6
BYLAYER
 10
183.545851278
 20
188.0782826477
 11
195.5458355144
 21
188.0782668744
  0
LINE
  5
569
100
AcDbEntity
  8
0
100
AcDbLine
 62
7
  6
BYLAYER
 10
57.8967377334
 20
188.0782652926
 11
69.8967203894
 21
188.0782826477
  0
LINE
  5
56A
100
AcDbEntity
  8
0
100
AcDbLine
 62
7
  6
BYLAYER
 10
31.8967203894
 20
188.5782826477
 11
35.3967203894
 21
188.5782826475
  0
LINE
  5
56B
100
AcDbEntity
  8
0
100
AcDbLine
 62
7
  6
BYLAYER
 10
70.3967203894
 20
188.5782826475
 11
73.8967203894
 21
188.5782826477
  0
LINE
  5
56C
100
AcDbEntity
  8
0
100
AcDbLine
 62
7
  6
BYLAYER
 10
179.5458512779
 20
188.5782826477
 11
183.045851278
 21
188.5782826475
  0
LINE
  5
56D
100
AcDbEntity
  8
0
100
AcDbLine
 62
7
  6
BYLAYER
 10
218.045851278
 20
188.5782826475
 11
221.545851278
 21
188.5782826477
  0
LINE
  5
56E
100
AcDbEntity
  8
3
100
AcDbLine
 62
7
  6
BYLAYER
 10
69.8967203894
 20
189.0780419106
 11
70.3967203894
 21
189.0780419106
  0
LINE
  5
56F
100
AcDbEntity
  8
3
100
AcDbLine
 62
7
  6
BYLAYER
 10
217.545851278
 20
189.0780419106
 11
218.045851278
 21
189.0780419106
  0
LINE
  5
570
100
AcDbEntity
  8
0
100
AcDbLine
 62
7
  6
BYLAYER
 10
196.045851278
 20
189.0782826477
 11
179.545851278
 21
189.0782826477
  0
LINE
  5
571
100
AcDbEntity
  8
0
100
AcDbLine
 62
7
  6
BYLAYER
 10
48.3967203894
 20
189.0782826477
 11
31.8967203894
 21
189.0782826477
  0
LINE
  5
572
100
AcDbEntity
  8
0
100
AcDbLine
 62
7
  6
BYLAYER
 10
57.3967203894
 20
189.0782826477
 11
73.8967203894
 21
189.0782826477
  0
LINE
  5
573
100
AcDbEntity
  8
0
100
AcDbLine
 62
7
  6
BYLAYER
 10
205.045851278
 20
189.0782826477
 11
221.545851278
 21
189.0782826477
  0
LINE
  5
574
100
AcDbEntity
  8
3
100
AcDbLine
 62
7
  6
BYLAYER
 10
38.0852133049
 20
189.3199434628
 11
81.0852133049
 21
189.3199434628
  0
LINE
  5
575
100
AcDbEntity
  8
4
100
AcDbLine
 62
7
  6
BYLAYER
 10
185.7343441934
 20
189.3199434628
 11
228.7343441934
 21
189.3199434628
  0
LINE
  5
576
100
AcDbEntity
  8
3
100
AcDbLine
 62
7
  6
BYLAYER
 10
38.0852133049
 20
192.3199434628
 11
81.0852133049
 21
192.3199434628
  0
LINE
  5
577
100
AcDbEntity
  8
4
100
AcDbLine
 62
7
  6
BYLAYER
 10
185.7343441934
 20
192.3199434628
 11
228.7343441934
 21
192.3199434628
  0
LINE
  5
578
100
AcDbEntity
  8
4
100
AcDbLine
 62
7
  6
BYLAYER
 10
206.8975709503
 20
192.4120588848
 11
194.1926759864
 21
192.4120588848
  0
LINE
  5
579
100
AcDbEntity
  8
3
100
AcDbLine
 62
7
  6
BYLAYER
 10
59.2484400618
 20
192.4120588848
 11
46.5435450979
 21
192.4120588848
  0
LINE
  5
57A
100
AcDbEntity
  8
3
100
AcDbLine
 62
7
  6
BYLAYER
 10
46.5435450979
 20
193.6566581466
 11
59.2484400618
 21
193.6566581466
  0
LINE
  5
57B
100
AcDbEntity
  8
4
100
AcDbLine
 62
7
  6
BYLAYER
 10
194.1926759864
 20
193.6566581466
 11
206.8975709503
 21
193.6566581466
  0
LINE
  5
57C
100
AcDbEntity
  8
3
100
AcDbLine
 62
7
  6
BYLAYER
 10
47.4959925799
 20
193.7601430806
 11
58.2959925799
 21
193.7601430806
  0
LINE
  5
57D
100
AcDbEntity
  8
4
100
AcDbLine
 62
7
  6
BYLAYER
 10
195.1451234684
 20
193.7601430806
 11
205.9451234684
 21
193.7601430806
  0
LINE
  5
57E
100
AcDbEntity
  8
0
100
AcDbLine
 62
7
  6
BYLAYER
 10
206.5034464295
 20
174.5364436765
 11
206.57773025
 21
174.5223391493
  0
LINE
  5
57F
100
AcDbEntity
  8
0
100
AcDbLine
 62
7
  6
BYLAYER
 10
208.023726009
 20
176.1274339342
 11
208.0980098295
 21
176.113329407
  0
LINE
  5
580
100
AcDbEntity
  8
0
100
AcDbLine
 62
7
  6
BYLAYER
 10
208.2412491184
 20
176.9931382526
 11
208.3155329442
 21
176.9790337307
  0
LINE
  5
581
100
AcDbEntity
  8
0
100
AcDbLine
 62
7
  6
BYLAYER
 10
208.6206294666
 20
172.3049199988
 11
208.501838042
 21
172.3334424834
  0
LINE
  5
582
100
AcDbEntity
  8
0
100
AcDbLine
 62
7
  6
BYLAYER
 10
208.5685994561
 20
173.01892231
 11
208.6873908583
 21
172.9903998557
  0
LINE
  5
583
100
AcDbEntity
  8
0
100
AcDbLine
 62
7
  6
BYLAYER
 10
188.3078867136
 20
172.1522150409
 11
188.3975287825
 21
172.1214984809
  0
LINE
  5
584
100
AcDbEntity
  8
0
100
AcDbLine
 62
7
  6
BYLAYER
 10
188.6307235811
 20
172.5954104951
 11
188.5859025414
 21
172.6107687487
  0
LINE
  5
585
100
AcDbEntity
  8
0
100
AcDbLine
 62
7
  6
BYLAYER
 10
192.590834986
 20
172.8484769912
 11
192.5011928961
 21
172.879193509
  0
LINE
  5
586
100
AcDbEntity
  8
0
100
AcDbLine
 62
7
  6
BYLAYER
 10
192.5895812464
 20
172.9675818593
 11
192.6792233337
 21
172.9368653388
  0
LINE
  5
587
100
AcDbEntity
  8
3
100
AcDbLine
 62
7
  6
BYLAYER
 10
47.4959925799
 20
196.7601430806
 11
58.2959925799
 21
196.7601430806
  0
LINE
  5
588
100
AcDbEntity
  8
4
100
AcDbLine
 62
7
  6
BYLAYER
 10
195.1451234684
 20
196.7601430806
 11
205.9451234684
 21
196.7601430806
  0
LINE
  5
589
100
AcDbEntity
  8
3
100
AcDbLine
 62
7
  6
BYLAYER
 10
49.8959925799
 20
201.030598488
 11
55.8959925799
 21
201.030598488
  0
LINE
  5
58A
100
AcDbEntity
  8
4
100
AcDbLine
 62
7
  6
BYLAYER
 10
197.5451234684
 20
201.030598488
 11
203.5451234684
 21
201.030598488
  0
LINE
  5
58B
100
AcDbEntity
  8
0
100
AcDbLine
 62
7
  6
BYLAYER
 10
206.5319689193
 20
174.4176522466
 11
206.4429537111
 21
174.4464881615
  0
LINE
  5
58C
100
AcDbEntity
  8
0
100
AcDbLine
 62
7
  6
BYLAYER
 10
208.0522484989
 20
176.0086425043
 11
207.9632332906
 21
176.0374784192
  0
LINE
  5
58D
100
AcDbEntity
  8
0
100
AcDbLine
 62
7
  6
BYLAYER
 10
208.3293240199
 20
176.8749737044
 11
208.2848164422
 21
176.8893916355
  0
LINE
  5
58E
100
AcDbEntity
  8
0
100
AcDbLine
 62
7
  6
BYLAYER
 10
208.3155329442
 20
176.9790337307
 11
208.4045481459
 21
176.9501978303
  0
LINE
  5
58F
100
AcDbEntity
  8
0
100
AcDbLine
 62
7
  6
BYLAYER
 10
192.3288042988
 20
172.2855497951
 11
192.2241173645
 21
172.3313111363
  0
LINE
  5
590
100
AcDbEntity
  8
0
100
AcDbLine
 62
7
  6
BYLAYER
 10
188.6445146634
 20
172.6994705385
 11
188.7043805357
 21
172.6690674497
  0
LINE
  5
591
100
AcDbEntity
  8
0
100
AcDbLine
 62
7
  6
BYLAYER
 10
192.2827295116
 20
172.42001293
 11
192.3425953799
 21
172.3896098162
  0
LINE
  5
592
100
AcDbEntity
  8
0
100
AcDbLine
 62
7
  6
BYLAYER
 10
190.2160720247
 20
170.1968892215
 11
190.1411613542
 21
170.2423371376
  0
LINE
  5
593
100
AcDbEntity
  8
0
100
AcDbLine
 62
7
  6
BYLAYER
 10
73.2383611759
 20
135.6310690522
 11
72.3439339849
 21
135.1838554567
  0
LINE
  5
594
100
AcDbEntity
  8
0
100
AcDbLine
 62
7
  6
BYLAYER
 10
28.281480913
 20
139.7316208152
 11
28.3239817937
 21
139.7437639239
  0
LINE
  5
595
100
AcDbEntity
  8
0
100
AcDbLine
 62
7
  6
BYLAYER
 10
28.4430294443
 20
139.1662009559
 11
29.4045533919
 21
139.4409220838
  0
LINE
  5
596
100
AcDbEntity
  8
0
100
AcDbLine
 62
7
  6
BYLAYER
 10
30.4437992673
 20
135.8035615198
 11
29.4822753197
 21
135.5288403919
  0
LINE
  5
597
100
AcDbEntity
  8
0
100
AcDbLine
 62
7
  6
BYLAYER
 10
224.545851278
 20
166.5782905244
 11
225.545851278
 21
166.0782954195
  0
LINE
  5
598
100
AcDbEntity
  8
0
100
AcDbLine
 62
7
  6
BYLAYER
 10
188.6398131864
 20
171.7319002204
 11
188.5649024737
 21
171.7773480944
  0
LINE
  5
599
100
AcDbEntity
  8
0
100
AcDbLine
 62
7
  6
BYLAYER
 10
188.3091404348
 20
172.0331101333
 11
188.2342297432
 21
172.0785580705
  0
LINE
  5
59A
100
AcDbEntity
  8
0
100
AcDbLine
 62
7
  6
BYLAYER
 10
196.545851278
 20
188.5782913447
 11
195.545851278
 21
188.0782747564
  0
LINE
  5
59B
100
AcDbEntity
  8
0
100
AcDbLine
 62
7
  6
BYLAYER
 10
72.8967212663
 20
136.3143488716
 11
71.9494879522
 21
135.9727475222
  0
LINE
  5
59C
100
AcDbEntity
  8
0
100
AcDbLine
 62
7
  6
BYLAYER
 10
188.4066183733
 20
172.6722017936
 11
188.4956335855
 21
172.7010377046
  0
LINE
  5
59D
100
AcDbEntity
  8
0
100
AcDbLine
 62
7
  6
BYLAYER
 10
188.5263500981
 20
172.6113956199
 11
188.4818424992
 21
172.5969776677
  0
LINE
  5
59E
100
AcDbEntity
  8
0
100
AcDbLine
 62
7
  6
BYLAYER
 10
188.8479332286
 20
171.7594823825
 11
188.7589180308
 21
171.7306464781
  0
LINE
  5
59F
100
AcDbEntity
  8
0
100
AcDbLine
 62
7
  6
BYLAYER
 10
208.1168158903
 20
176.4856888373
 11
207.9983378749
 21
176.5439875594
  0
LINE
  5
5A0
100
AcDbEntity
  8
0
100
AcDbLine
 62
7
  6
BYLAYER
 10
208.4883603755
 20
172.4672787367
 11
208.5623307604
 21
172.4233979984
  0
LINE
  5
5A1
100
AcDbEntity
  8
0
100
AcDbLine
 62
7
  6
BYLAYER
 10
208.7008685262
 20
172.8565635827
 11
208.6268981518
 21
172.9004443104
  0
LINE
  5
5A2
100
AcDbEntity
  8
0
100
AcDbLine
 62
7
  6
BYLAYER
 10
208.4045481459
 20
176.9501978303
 11
208.4785185426
 21
176.9063170828
  0
LINE
  5
5A3
100
AcDbEntity
  8
0
100
AcDbLine
 62
7
  6
BYLAYER
 10
208.501838042
 20
172.3334424834
 11
208.4131362588
 21
172.39205462
  0
LINE
  5
5A4
100
AcDbEntity
  8
0
100
AcDbLine
 62
7
  6
BYLAYER
 10
208.6873908583
 20
172.9903998557
 11
208.7760926534
 21
172.9317877099
  0
LINE
  5
5A5
100
AcDbEntity
  8
0
100
AcDbLine
 62
7
  6
BYLAYER
 10
206.4147446462
 20
174.595055813
 11
206.5034464295
 21
174.5364436765
  0
LINE
  5
5A6
100
AcDbEntity
  8
0
100
AcDbLine
 62
7
  6
BYLAYER
 10
188.1740504498
 20
172.1387373638
 11
188.2342297432
 21
172.0785580705
  0
LINE
  5
5A7
100
AcDbEntity
  8
0
100
AcDbLine
 62
7
  6
BYLAYER
 10
188.5348127849
 20
171.8074377832
 11
188.5649024737
 21
171.7773480944
  0
LINE
  5
5A8
100
AcDbEntity
  8
0
100
AcDbLine
 62
7
  6
BYLAYER
 10
189.5995476297
 20
170.783950862
 11
189.6747717569
 21
170.7087267348
  0
LINE
  5
5A9
100
AcDbEntity
  8
0
100
AcDbLine
 62
7
  6
BYLAYER
 10
190.1110716653
 20
170.2724268264
 11
190.1411613542
 21
170.2423371376
  0
LINE
  5
5AA
100
AcDbEntity
  8
0
100
AcDbLine
 62
7
  6
BYLAYER
 10
188.3078867136
 20
172.1522150409
 11
188.2477074202
 21
172.2123943342
  0
LINE
  5
5AB
100
AcDbEntity
  8
0
100
AcDbLine
 62
7
  6
BYLAYER
 10
188.6385594441
 20
171.8510050648
 11
188.6084697553
 21
171.8810947536
  0
LINE
  5
5AC
100
AcDbEntity
  8
0
100
AcDbLine
 62
7
  6
BYLAYER
 10
190.2295497018
 20
170.3307254852
 11
190.199460013
 21
170.3608151741
  0
LINE
  5
5AD
100
AcDbEntity
  8
0
100
AcDbLine
 62
7
  6
BYLAYER
 10
188.6943506394
 20
172.2076928111
 11
188.6341713461
 21
172.2678721045
  0
LINE
  5
5AE
100
AcDbEntity
  8
0
100
AcDbLine
 62
7
  6
BYLAYER
 10
190.2051018428
 20
171.2390568207
 11
190.1298777156
 21
171.3142809479
  0
LINE
  5
5AF
100
AcDbEntity
  8
0
100
AcDbLine
 62
7
  6
BYLAYER
 10
176.045842581
 20
157.5782826477
 11
176.5458591693
 21
156.5782826477
  0
LINE
  5
5B0
100
AcDbEntity
  8
0
100
AcDbLine
 62
7
  6
BYLAYER
 10
175.9306118015
 20
139.7316208152
 11
177.1314062082
 21
135.5288403919
  0
LINE
  5
5B1
100
AcDbEntity
  8
0
100
AcDbLine
 62
7
  6
BYLAYER
 10
177.0535335817
 20
139.4414495292
 11
178.0929301558
 21
135.8035615199
  0
LINE
  5
5B2
100
AcDbEntity
  8
0
100
AcDbLine
 62
7
  6
BYLAYER
 10
175.545851278
 20
166.0782840709
 11
176.5458541406
 21
166.5782855886
  0
LINE
  5
5B3
100
AcDbEntity
  8
0
100
AcDbLine
 62
7
  6
BYLAYER
 10
188.4874843185
 20
172.0610057836
 11
188.3837377014
 21
172.0174384598
  0
LINE
  5
5B4
100
AcDbEntity
  8
0
100
AcDbLine
 62
7
  6
BYLAYER
 10
208.2252639883
 20
176.8887647749
 11
208.1804429644
 21
176.8734065055
  0
LINE
  5
5B5
100
AcDbEntity
  8
0
100
AcDbLine
 62
7
  6
BYLAYER
 10
207.9387854738
 20
176.5433606671
 11
207.8491433838
 21
176.5126441704
  0
LINE
  5
5B6
100
AcDbEntity
  8
0
100
AcDbLine
 62
7
  6
BYLAYER
 10
206.4185058942
 20
174.9523704095
 11
206.3288638043
 21
174.9216539127
  0
LINE
  5
5B7
100
AcDbEntity
  8
0
100
AcDbLine
 62
7
  6
BYLAYER
 10
190.424192109
 20
170.2244714257
 11
190.3351769113
 21
170.1956355213
  0
LINE
  5
5B8
100
AcDbEntity
  8
0
100
AcDbLine
 62
7
  6
BYLAYER
 10
204.545851278
 20
188.578292095
 11
205.545851278
 21
188.0782739648
  0
LINE
  5
5B9
100
AcDbEntity
  8
0
100
AcDbLine
 62
7
  6
BYLAYER
 10
207.9350242258
 20
176.1860460707
 11
208.023726009
 21
176.1274339342
  0
LINE
  5
5BA
100
AcDbEntity
  8
0
100
AcDbLine
 62
7
  6
BYLAYER
 10
208.4180258137
 20
176.8163615573
 11
208.3293240199
 21
176.8749737044
  0
LINE
  5
5BB
100
AcDbEntity
  8
0
100
AcDbLine
 62
7
  6
BYLAYER
 10
206.4429537111
 20
174.4464881615
 11
206.3247891523
 21
174.5345630736
  0
LINE
  5
5BC
100
AcDbEntity
  8
0
100
AcDbLine
 62
7
  6
BYLAYER
 10
207.9632332906
 20
176.0374784192
 11
207.8450687319
 21
176.1255533312
  0
LINE
  5
5BD
100
AcDbEntity
  8
0
100
AcDbLine
 62
7
  6
BYLAYER
 10
193.9236273591
 20
170.207537073
 11
193.4886349262
 21
170.6425295058
  0
LINE
  5
5BE
100
AcDbEntity
  8
0
100
AcDbLine
 62
7
  6
BYLAYER
 10
192.1639380711
 20
172.3914904296
 11
192.2241173645
 21
172.3313111363
  0
LINE
  5
5BF
100
AcDbEntity
  8
0
100
AcDbLine
 62
7
  6
BYLAYER
 10
192.6297008078
 20
171.9846532862
 11
192.7049249244
 21
171.9094291695
  0
LINE
  5
5C0
100
AcDbEntity
  8
0
100
AcDbLine
 62
7
  6
BYLAYER
 10
192.2827295116
 20
172.42001293
 11
192.2526398649
 21
172.4501025767
  0
LINE
  5
5C1
100
AcDbEntity
  8
0
100
AcDbLine
 62
7
  6
BYLAYER
 10
192.8161939269
 20
172.6525808364
 11
193.0569111424
 21
172.4118636209
  0
LINE
  5
5C2
100
AcDbEntity
  8
0
100
AcDbLine
 62
7
  6
BYLAYER
 10
193.2057922137
 20
172.4102964588
 11
192.8146267648
 21
172.8014619077
  0
LINE
  5
5C3
100
AcDbEntity
  8
0
100
AcDbLine
 62
7
  6
BYLAYER
 10
194.9135768527
 20
171.1974865666
 11
194.4785844199
 21
171.6324789995
  0
LINE
  5
5C4
100
AcDbEntity
  8
0
100
AcDbLine
 62
7
  6
BYLAYER
 10
192.438255395
 20
176.3126733689
 11
192.5285243561
 21
176.2224044078
  0
LINE
  5
5C5
100
AcDbEntity
  8
0
100
AcDbLine
 62
7
  6
BYLAYER
 10
192.3749417458
 20
176.6706148154
 11
192.5855692937
 21
176.4599872676
  0
LINE
  5
5C6
100
AcDbEntity
  8
0
100
AcDbLine
 62
7
  6
BYLAYER
 10
192.6758382548
 20
176.3697183065
 11
193.082048527
 21
175.9635080342
  0
LINE
  5
5C7
100
AcDbEntity
  8
0
100
AcDbLine
 62
7
  6
BYLAYER
 10
193.983609673
 20
175.1680129054
 11
194.6907164542
 21
174.4609061242
  0
LINE
  5
5C8
100
AcDbEntity
  8
0
100
AcDbLine
 62
7
  6
BYLAYER
 10
193.050078288
 20
176.1722549686
 11
192.7642266024
 21
176.4581066542
  0
LINE
  5
5C9
100
AcDbEntity
  8
0
100
AcDbLine
 62
7
  6
BYLAYER
 10
192.6739576413
 20
176.5483756153
 11
192.4633300935
 21
176.7590031631
  0
LINE
  5
5CA
100
AcDbEntity
  8
0
100
AcDbLine
 62
7
  6
BYLAYER
 10
194.6587462152
 20
174.6696530586
 11
194.0719980207
 21
175.2564012531
  0
LINE
  5
5CB
100
AcDbEntity
  8
0
100
AcDbLine
 62
7
  6
BYLAYER
 10
194.7621793862
 20
174.7429965829
 11
194.6418207573
 21
174.8633552117
  0
LINE
  5
5CC
100
AcDbEntity
  8
0
100
AcDbLine
 62
7
  6
BYLAYER
 10
193.117779993
 20
176.8116600448
 11
193.0275110319
 21
176.9019290059
  0
LINE
  5
5CD
100
AcDbEntity
  8
3
100
AcDbLine
 62
7
  6
BYLAYER
 10
175.54559851
 20
147.5782826477
 11
175.54559851
 21
149.0782826477
  0
LINE
  5
5CE
100
AcDbEntity
  8
3
100
AcDbLine
 62
7
  6
BYLAYER
 10
175.54559851
 20
180.0782826477
 11
175.54559851
 21
181.5782826477
  0
LINE
  5
5CF
100
AcDbEntity
  8
0
100
AcDbLine
 62
7
  6
BYLAYER
 10
175.545851278
 20
157.0782826477
 11
175.545851278
 21
142.4788320941
  0
LINE
  5
5D0
100
AcDbEntity
  8
0
100
AcDbLine
 62
7
  6
BYLAYER
 10
175.545851278
 20
166.0782826477
 11
175.545851278
 21
185.0782826477
  0
LINE
  5
5D1
100
AcDbEntity
  8
0
100
AcDbLine
 62
7
  6
BYLAYER
 10
176.0458512779
 20
142.4788320942
 11
176.045851278
 21
143.2455210023
  0
LINE
  5
5D2
100
AcDbEntity
  8
0
100
AcDbLine
 62
7
  6
BYLAYER
 10
176.0458512782
 20
145.9392110838
 11
176.0458512783
 21
147.5782826477
  0
LINE
  5
5D3
100
AcDbEntity
  8
0
100
AcDbLine
 62
7
  6
BYLAYER
 10
176.0458512781
 20
181.5782826477
 11
176.045851278
 21
185.0782826477
  0
LINE
  5
5D4
100
AcDbEntity
  8
0
100
AcDbLine
 62
7
  6
BYLAYER
 10
176.5458686331
 20
166.5782999917
 11
176.545851278
 21
181.0782826477
  0
LINE
  5
5D5
100
AcDbEntity
  8
0
100
AcDbLine
 62
7
  6
BYLAYER
 10
176.545851278
 20
148.0782826477
 11
176.5458670513
 21
156.5782668842
  0
LINE
  5
5D6
100
AcDbEntity
  8
0
100
AcDbLine
 62
7
  6
BYLAYER
 10
177.045851278
 20
169.0782826477
 11
177.045851278
 21
165.5782826477
  0
LINE
  5
5D7
100
AcDbEntity
  8
0
100
AcDbLine
 62
7
  6
BYLAYER
 10
177.045851278
 20
157.5782826477
 11
177.045851278
 21
154.0782826477
  0
LINE
  5
5D8
100
AcDbEntity
  8
0
100
AcDbLine
 62
7
  6
BYLAYER
 10
177.5344462542
 20
140.0782826477
 11
177.5344462542
 21
141.5782826477
  0
LINE
  5
5D9
100
AcDbEntity
  8
0
100
AcDbLine
 62
7
  6
BYLAYER
 10
177.5458512779
 20
144.1782826477
 11
177.5458512779
 21
144.9782826477
  0
LINE
  5
5DA
100
AcDbEntity
  8
0
100
AcDbLine
 62
7
  6
BYLAYER
 10
177.545851278
 20
154.0782826477
 11
177.545851278
 21
157.0782826477
  0
LINE
  5
5DB
100
AcDbEntity
  8
0
100
AcDbLine
 62
7
  6
BYLAYER
 10
177.545851278
 20
166.0782826477
 11
177.545851278
 21
169.0782826477
  0
LINE
  5
5DC
100
AcDbEntity
  8
0
100
AcDbLine
 62
7
  6
BYLAYER
 10
178.045851278
 20
153.0782826477
 11
178.045851278
 21
153.5782826477
  0
LINE
  5
5DD
100
AcDbEntity
  8
0
100
AcDbLine
 62
7
  6
BYLAYER
 10
178.045851278
 20
169.5782826477
 11
178.045851278
 21
170.0782826477
  0
LINE
  5
5DE
100
AcDbEntity
  8
0
100
AcDbLine
 62
7
  6
BYLAYER
 10
178.5458512779
 20
184.1782826477
 11
178.5458512779
 21
184.9782826477
  0
LINE
  5
5DF
100
AcDbEntity
  8
0
100
AcDbLine
 62
7
  6
BYLAYER
 10
178.6458512779
 20
143.0782826477
 11
178.6458512779
 21
144.1782826477
  0
LINE
  5
5E0
100
AcDbEntity
  8
0
100
AcDbLine
 62
7
  6
BYLAYER
 10
178.6458512779
 20
144.9782826477
 11
178.6458512779
 21
146.0782826477
  0
LINE
  5
5E1
100
AcDbEntity
  8
0
100
AcDbLine
 62
7
  6
BYLAYER
 10
179.045851278
 20
149.0782826477
 11
179.045851278
 21
147.8696506906
  0
LINE
  5
5E2
100
AcDbEntity
  8
0
100
AcDbLine
 62
7
  6
BYLAYER
 10
179.045851278
 20
141.2869146048
 11
179.045851278
 21
140.0782826477
  0
LINE
  5
5E3
100
AcDbEntity
  8
0
100
AcDbLine
 62
7
  6
BYLAYER
 10
179.0544541035
 20
134.0782826477
 11
179.0544541035
 21
135.0782826477
  0
LINE
  5
5E4
100
AcDbEntity
  8
0
100
AcDbLine
 62
7
  6
BYLAYER
 10
179.3097833005
 20
135.0782826477
 11
179.3097833005
 21
134.0782826477
  0
LINE
  5
5E5
100
AcDbEntity
  8
0
100
AcDbLine
 62
7
  6
BYLAYER
 10
179.4458512779
 20
146.0782826477
 11
179.4458512779
 21
144.9782826477
  0
LINE
  5
5E6
100
AcDbEntity
  8
0
100
AcDbLine
 62
7
  6
BYLAYER
 10
179.4458512779
 20
144.1782826477
 11
179.4458512779
 21
143.0782826477
  0
LINE
  5
5E7
100
AcDbEntity
  8
0
100
AcDbLine
 62
7
  6
BYLAYER
 10
188.9660977978
 20
171.8475573051
 11
188.8479332286
 21
171.7594823825
  0
LINE
  5
5E8
100
AcDbEntity
  8
0
100
AcDbLine
 62
7
  6
BYLAYER
 10
188.471812603
 20
172.1356030081
 11
188.575245795
 21
172.2089465534
  0
LINE
  5
5E9
100
AcDbEntity
  8
0
100
AcDbLine
 62
7
  6
BYLAYER
 10
190.52762528
 20
170.29781495
 11
190.424192109
 21
170.2244714257
  0
LINE
  5
5EA
100
AcDbEntity
  8
0
100
AcDbLine
 62
7
  6
BYLAYER
 10
188.4818424992
 20
172.5969776677
 11
188.393140716
 21
172.5383655311
  0
LINE
  5
5EB
100
AcDbEntity
  8
0
100
AcDbLine
 62
7
  6
BYLAYER
 10
188.7874405312
 20
171.8494379185
 11
188.8761423039
 21
171.9080500445
  0
LINE
  5
5EC
100
AcDbEntity
  8
0
100
AcDbLine
 62
7
  6
BYLAYER
 10
192.2777145634
 20
172.8964323708
 11
192.366416348
 21
172.9550445061
  0
LINE
  5
5ED
100
AcDbEntity
  8
0
100
AcDbLine
 62
7
  6
BYLAYER
 10
192.6406709581
 20
172.3566992809
 11
192.5519691643
 21
172.2980871338
  0
LINE
  5
5EE
100
AcDbEntity
  8
0
100
AcDbLine
 62
7
  6
BYLAYER
 10
190.3784307889
 20
170.329158339
 11
190.4671325616
 21
170.387770465
  0
LINE
  5
5EF
100
AcDbEntity
  8
0
100
AcDbLine
 62
7
  6
BYLAYER
 10
188.3326479871
 20
172.6283210567
 11
188.4066183733
 21
172.6722017936
  0
LINE
  5
5F0
100
AcDbEntity
  8
0
100
AcDbLine
 62
7
  6
BYLAYER
 10
192.4269090756
 20
172.8650889819
 11
192.3529386907
 21
172.8212082436
  0
LINE
  5
5F1
100
AcDbEntity
  8
0
100
AcDbLine
 62
7
  6
BYLAYER
 10
192.491476467
 20
172.3880426699
 11
192.5654468414
 21
172.4319233976
  0
LINE
  5
5F2
100
AcDbEntity
  8
0
100
AcDbLine
 62
7
  6
BYLAYER
 10
208.106785994
 20
176.9470634759
 11
208.1666518518
 21
176.9774665792
  0
LINE
  5
5F3
100
AcDbEntity
  8
0
100
AcDbLine
 62
7
  6
BYLAYER
 10
208.4780170541
 20
172.8988771536
 11
208.4181512069
 21
172.8684740608
  0
LINE
  5
5F4
100
AcDbEntity
  8
0
100
AcDbLine
 62
7
  6
BYLAYER
 10
208.3595390598
 20
172.9571758546
 11
208.4642259836
 21
173.0029371852
  0
LINE
  5
5F5
100
AcDbEntity
  8
3
100
AcDbLine
 62
7
  6
BYLAYER
 10
85.0852133049
 20
234.3199434628
 11
88.0852133049
 21
234.3199434628
  0
LINE
  5
5F6
100
AcDbEntity
  8
4
100
AcDbLine
 62
7
  6
BYLAYER
 10
232.7343441934
 20
234.3199434628
 11
235.7343441934
 21
234.3199434628
  0
LINE
  5
5F7
100
AcDbEntity
  8
0
100
AcDbLine
 62
7
  6
BYLAYER
 10
207.8774777997
 20
172.4161890012
 11
208.378345089
 21
171.9153217119
  0
LINE
  5
5F8
100
AcDbEntity
  8
0
100
AcDbLine
 62
7
  6
BYLAYER
 10
208.3799122511
 20
172.0642027833
 11
207.9527019164
 21
172.4914131179
  0
LINE
  5
5F9
100
AcDbEntity
  8
0
100
AcDbLine
 62
7
  6
BYLAYER
 10
208.3247479111
 20
172.4804429676
 11
208.4131362588
 21
172.39205462
  0
LINE
  5
5FA
100
AcDbEntity
  8
0
100
AcDbLine
 62
7
  6
BYLAYER
 10
206.2658635802
 20
174.5934886457
 11
206.3247891523
 21
174.5345630736
  0
LINE
  5
5FB
100
AcDbEntity
  8
0
100
AcDbLine
 62
7
  6
BYLAYER
 10
210.4289547544
 20
170.4303974715
 11
210.5173431021
 21
170.3420091238
  0
LINE
  5
5FC
100
AcDbEntity
  8
0
100
AcDbLine
 62
7
  6
BYLAYER
 10
208.4883603755
 20
172.4672787367
 11
208.3999720278
 21
172.5556670843
  0
LINE
  5
5FD
100
AcDbEntity
  8
0
100
AcDbLine
 62
7
  6
BYLAYER
 10
206.4147446462
 20
174.595055813
 11
206.3558190952
 21
174.6539813641
  0
LINE
  5
5FE
100
AcDbEntity
  8
0
100
AcDbLine
 62
7
  6
BYLAYER
 10
208.7695105379
 20
172.3064871609
 11
208.6663908025
 21
172.4096068963
  0
LINE
  5
5FF
100
AcDbEntity
  8
0
100
AcDbLine
 62
7
  6
BYLAYER
 10
206.725984462
 20
174.4643538774
 11
206.652327506
 21
174.5380108333
  0
LINE
  5
600
100
AcDbEntity
  8
0
100
AcDbLine
 62
7
  6
BYLAYER
 10
208.8165256214
 20
172.5302789397
 11
208.904913969
 21
172.441890592
  0
LINE
  5
601
100
AcDbEntity
  8
0
100
AcDbLine
 62
7
  6
BYLAYER
 10
208.7008685262
 20
172.8565635827
 11
208.7892568738
 21
172.768175235
  0
LINE
  5
602
100
AcDbEntity
  8
0
100
AcDbLine
 62
7
  6
BYLAYER
 10
208.8644810011
 20
172.8433993623
 11
208.7760926534
 21
172.9317877099
  0
LINE
  5
603
100
AcDbEntity
  8
0
100
AcDbLine
 62
7
  6
BYLAYER
 10
206.676775365
 20
175.4463421688
 11
207.0892543172
 21
175.0338632166
  0
LINE
  5
604
100
AcDbEntity
  8
0
100
AcDbLine
 62
7
  6
BYLAYER
 10
211.2244498833
 20
171.049115905
 11
211.1360615356
 21
171.1375042526
  0
LINE
  5
605
100
AcDbEntity
  8
0
100
AcDbLine
 62
7
  6
BYLAYER
 10
207.2823295782
 20
174.9912362101
 11
206.7519994923
 21
175.521566296
  0
LINE
  5
606
100
AcDbEntity
  8
0
100
AcDbLine
 62
7
  6
BYLAYER
 10
207.8156059353
 20
176.1550161278
 11
207.8450687319
 21
176.1255533312
  0
LINE
  5
607
100
AcDbEntity
  8
0
100
AcDbLine
 62
7
  6
BYLAYER
 10
211.9315566645
 20
172.0390653987
 11
212.0199450121
 21
171.950677051
  0
LINE
  5
608
100
AcDbEntity
  8
0
100
AcDbLine
 62
7
  6
BYLAYER
 10
207.9350242258
 20
176.1860460707
 11
207.8760986747
 21
176.2449716218
  0
LINE
  5
609
100
AcDbEntity
  8
0
100
AcDbLine
 62
7
  6
BYLAYER
 10
208.2462640415
 20
176.055344135
 11
208.1726070856
 21
176.129001091
  0
LINE
  5
60A
100
AcDbEntity
  8
0
100
AcDbLine
 62
7
  6
BYLAYER
 10
208.1168158903
 20
176.4856888373
 11
208.1757414413
 21
176.4267632863
  0
LINE
  5
60B
100
AcDbEntity
  8
0
100
AcDbLine
 62
7
  6
BYLAYER
 10
208.2359207347
 20
176.4869425796
 11
208.1769951836
 21
176.5458681307
  0
LINE
  5
60C
100
AcDbEntity
  8
0
100
AcDbLine
 62
7
  6
BYLAYER
 10
212.4261552844
 20
172.3568873233
 11
212.6765889396
 21
172.1064536681
  0
LINE
  5
60D
100
AcDbEntity
  8
0
100
AcDbLine
 62
7
  6
BYLAYER
 10
212.190453038
 20
172.5925895696
 11
212.3377669367
 21
172.4452756709
  0
LINE
  5
60E
100
AcDbEntity
  8
0
100
AcDbLine
 62
7
  6
BYLAYER
 10
212.8699776361
 20
172.0936028938
 11
212.5164242455
 21
172.4471562844
  0
LINE
  5
60F
100
AcDbEntity
  8
0
100
AcDbLine
 62
7
  6
BYLAYER
 10
212.4280358978
 20
172.535544632
 11
212.2807219991
 21
172.6828585307
  0
LINE
  5
610
100
AcDbEntity
  8
0
100
AcDbLine
 62
7
  6
BYLAYER
 10
208.5634591253
 20
176.4903903446
 11
208.6371160799
 21
176.41673339
  0
LINE
  5
611
100
AcDbEntity
  8
0
100
AcDbLine
 62
7
  6
BYLAYER
 10
208.4180258137
 20
176.8163615573
 11
208.5064141614
 21
176.7279732097
  0
LINE
  5
612
100
AcDbEntity
  8
0
100
AcDbLine
 62
7
  6
BYLAYER
 10
212.7270517933
 20
172.6577838322
 11
212.6386634456
 21
172.7461721798
  0
LINE
  5
613
100
AcDbEntity
  8
0
100
AcDbLine
 62
7
  6
BYLAYER
 10
208.5963696869
 20
176.7884659386
 11
208.4785185426
 21
176.9063170828
  0
LINE
  5
614
100
AcDbEntity
  8
0
100
AcDbLine
 62
7
  6
BYLAYER
 10
188.5348127849
 20
171.8074377832
 11
188.4893649109
 21
171.8823484959
  0
LINE
  5
615
100
AcDbEntity
  8
0
100
AcDbLine
 62
7
  6
BYLAYER
 10
190.1110716653
 20
170.2724268264
 11
190.0656237492
 21
170.347337497
  0
LINE
  5
616
100
AcDbEntity
  8
0
100
AcDbLine
 62
7
  6
BYLAYER
 10
189.0657697907
 20
172.2782154113
 11
189.1112176923
 21
172.2033047262
  0
LINE
  5
617
100
AcDbEntity
  8
0
100
AcDbLine
 62
7
  6
BYLAYER
 10
190.6567600483
 20
170.7579358318
 11
190.70220795
 21
170.6830251467
  0
LINE
  5
618
100
AcDbEntity
  8
0
100
AcDbLine
 62
7
  6
BYLAYER
 10
188.1740504498
 20
172.1387373638
 11
188.1436473465
 21
172.1986032216
  0
LINE
  5
619
100
AcDbEntity
  8
0
100
AcDbLine
 62
7
  6
BYLAYER
 10
192.2222367721
 20
172.5099684239
 11
192.2526398649
 21
172.4501025767
  0
LINE
  5
61A
100
AcDbEntity
  8
0
100
AcDbLine
 62
7
  6
BYLAYER
 10
179.545851278
 20
170.0782826477
 11
179.545851278
 21
169.5782826477
  0
LINE
  5
61B
100
AcDbEntity
  8
0
100
AcDbLine
 62
7
  6
BYLAYER
 10
179.545851278
 20
153.5782826477
 11
179.545851278
 21
153.0782826477
  0
LINE
  5
61C
100
AcDbEntity
  8
0
100
AcDbLine
 62
7
  6
BYLAYER
 10
179.545851278
 20
188.5782826477
 11
179.545851278
 21
189.0782826477
  0
LINE
  5
61D
100
AcDbEntity
  8
0
100
AcDbLine
 62
7
  6
BYLAYER
 10
179.6458512779
 20
183.0782826477
 11
179.6458512779
 21
184.1782826477
  0
LINE
  5
61E
100
AcDbEntity
  8
0
100
AcDbLine
 62
7
  6
BYLAYER
 10
179.6458512779
 20
184.9782826477
 11
179.6458512779
 21
186.0782826477
  0
LINE
  5
61F
100
AcDbEntity
  8
0
100
AcDbLine
 62
7
  6
BYLAYER
 10
180.045851278
 20
181.2869146048
 11
180.045851278
 21
180.0782826477
  0
LINE
  5
620
100
AcDbEntity
  8
0
100
AcDbLine
 62
7
  6
BYLAYER
 10
180.045851278
 20
169.0782826477
 11
180.045851278
 21
154.0782826477
  0
LINE
  5
621
100
AcDbEntity
  8
0
100
AcDbLine
 62
7
  6
BYLAYER
 10
180.4458512779
 20
186.0782826477
 11
180.4458512779
 21
184.9782826477
  0
LINE
  5
622
100
AcDbEntity
  8
0
100
AcDbLine
 62
7
  6
BYLAYER
 10
180.4458512779
 20
184.1782826477
 11
180.4458512779
 21
183.0782826477
  0
LINE
  5
623
100
AcDbEntity
  8
0
100
AcDbLine
 62
7
  6
BYLAYER
 10
180.5458512779
 20
144.9782826477
 11
180.5458512779
 21
144.1782826477
  0
LINE
  5
624
100
AcDbEntity
  8
0
100
AcDbLine
 62
7
  6
BYLAYER
 10
180.545851278
 20
154.0782826477
 11
180.545851278
 21
169.0782826477
  0
LINE
  5
625
100
AcDbEntity
  8
0
100
AcDbLine
 62
7
  6
BYLAYER
 10
180.545851278
 20
137.4282826477
 11
180.5458349762
 21
136.3143544605
  0
LINE
  5
626
100
AcDbEntity
  8
0
100
AcDbLine
 62
7
  6
BYLAYER
 10
181.5458512779
 20
184.9782826477
 11
181.5458512779
 21
184.1782826477
  0
LINE
  5
627
100
AcDbEntity
  8
0
100
AcDbLine
 62
7
  6
BYLAYER
 10
181.545851278
 20
136.1963166365
 11
181.545851278
 21
136.4282826477
  0
LINE
  5
628
100
AcDbEntity
  8
0
100
AcDbLine
 62
7
  6
BYLAYER
 10
183.0458512054
 20
189.0782826477
 11
183.045851278
 21
185.9110442931
  0
LINE
  5
629
100
AcDbEntity
  8
0
100
AcDbLine
 62
7
  6
BYLAYER
 10
183.545851278
 20
188.0782826477
 11
183.545851278
 21
184.5782826477
  0
LINE
  5
62A
100
AcDbEntity
  8
0
100
AcDbLine
 62
7
  6
BYLAYER
 10
184.545851278
 20
184.5782826477
 11
184.545851278
 21
189.0782826477
  0
LINE
  5
62B
100
AcDbEntity
  8
4
100
AcDbLine
 62
7
  6
BYLAYER
 10
185.7343441934
 20
192.3199434628
 11
185.7343441934
 21
189.3199434628
  0
LINE
  5
62C
100
AcDbEntity
  8
0
100
AcDbLine
 62
7
  6
BYLAYER
 10
176.0458418307
 20
165.5782826477
 11
176.5458599609
 21
166.5782826477
  0
LINE
  5
62D
100
AcDbEntity
  8
0
100
AcDbLine
 62
7
  6
BYLAYER
 10
188.3047523684
 20
172.4499771835
 11
188.2461402213
 21
172.3612753897
  0
LINE
  5
62E
100
AcDbEntity
  8
0
100
AcDbLine
 62
7
  6
BYLAYER
 10
189.0836355065
 20
171.9951846604
 11
188.9955605944
 21
171.8770201017
  0
LINE
  5
62F
100
AcDbEntity
  8
0
100
AcDbLine
 62
7
  6
BYLAYER
 10
192.4633300935
 20
176.7590031631
 11
192.3749417458
 21
176.6706148154
  0
LINE
  5
630
100
AcDbEntity
  8
0
100
AcDbLine
 62
7
  6
BYLAYER
 10
188.3326479871
 20
172.6283210567
 11
188.2147968428
 21
172.5104699124
  0
LINE
  5
631
100
AcDbEntity
  8
0
100
AcDbLine
 62
7
  6
BYLAYER
 10
188.3047523684
 20
172.4499771835
 11
188.393140716
 21
172.5383655311
  0
LINE
  5
632
100
AcDbEntity
  8
0
100
AcDbLine
 62
7
  6
BYLAYER
 10
188.6307235811
 20
172.5954104951
 11
188.7043805357
 21
172.6690674497
  0
LINE
  5
633
100
AcDbEntity
  8
0
100
AcDbLine
 62
7
  6
BYLAYER
 10
193.0275110319
 20
176.9019290059
 11
192.6739576413
 21
176.5483756153
  0
LINE
  5
634
100
AcDbEntity
  8
0
100
AcDbLine
 62
7
  6
BYLAYER
 10
192.5855692937
 20
176.4599872676
 11
192.438255395
 21
176.3126733689
  0
LINE
  5
635
100
AcDbEntity
  8
0
100
AcDbLine
 62
7
  6
BYLAYER
 10
192.5285243561
 20
176.2224044078
 11
192.6758382548
 21
176.3697183065
  0
LINE
  5
636
100
AcDbEntity
  8
0
100
AcDbLine
 62
7
  6
BYLAYER
 10
192.7642266024
 20
176.4581066542
 11
193.0146602576
 21
176.7085403093
  0
LINE
  5
637
100
AcDbEntity
  8
0
100
AcDbLine
 62
7
  6
BYLAYER
 10
188.6341713461
 20
172.2678721045
 11
188.575245795
 21
172.2089465534
  0
LINE
  5
638
100
AcDbEntity
  8
0
100
AcDbLine
 62
7
  6
BYLAYER
 10
188.6354250884
 20
172.1487672601
 11
188.6943506394
 21
172.2076928111
  0
LINE
  5
639
100
AcDbEntity
  8
0
100
AcDbLine
 62
7
  6
BYLAYER
 10
189.0657697907
 20
172.2782154113
 11
188.9921128347
 21
172.2045584554
  0
LINE
  5
63A
100
AcDbEntity
  8
0
100
AcDbLine
 62
7
  6
BYLAYER
 10
188.935067855
 20
171.9669755956
 11
188.8761423039
 21
171.9080500445
  0
LINE
  5
63B
100
AcDbEntity
  8
0
100
AcDbLine
 62
7
  6
BYLAYER
 10
188.9660977979
 20
171.8475573051
 11
188.9955605944
 21
171.8770201017
  0
LINE
  5
63C
100
AcDbEntity
  8
0
100
AcDbLine
 62
7
  6
BYLAYER
 10
193.082048527
 20
175.9635080342
 11
193.1704368747
 21
176.0518963819
  0
LINE
  5
63D
100
AcDbEntity
  8
0
100
AcDbLine
 62
7
  6
BYLAYER
 10
194.0719980207
 20
175.2564012531
 11
193.983609673
 21
175.1680129054
  0
LINE
  5
63E
100
AcDbEntity
  8
0
100
AcDbLine
 62
7
  6
BYLAYER
 10
190.1298777156
 20
171.3142809479
 11
189.5995476297
 21
170.783950862
  0
LINE
  5
63F
100
AcDbEntity
  8
0
100
AcDbLine
 62
7
  6
BYLAYER
 10
189.6747717569
 20
170.7087267348
 11
190.0872507091
 21
171.121205687
  0
LINE
  5
640
100
AcDbEntity
  8
0
100
AcDbLine
 62
7
  6
BYLAYER
 10
192.2777145634
 20
172.8964323708
 11
192.1893262158
 21
172.8080440232
  0
LINE
  5
641
100
AcDbEntity
  8
0
100
AcDbLine
 62
7
  6
BYLAYER
 10
192.264550343
 20
172.732819896
 11
192.3529386907
 21
172.8212082436
  0
LINE
  5
642
100
AcDbEntity
  8
0
100
AcDbLine
 62
7
  6
BYLAYER
 10
192.590834986
 20
172.8484769912
 11
192.6792233337
 21
172.9368653388
  0
LINE
  5
643
100
AcDbEntity
  8
0
100
AcDbLine
 62
7
  6
BYLAYER
 10
190.6567600483
 20
170.7579358318
 11
190.5831030924
 21
170.6842788758
  0
LINE
  5
644
100
AcDbEntity
  8
0
100
AcDbLine
 62
7
  6
BYLAYER
 10
192.8146267648
 20
172.8014619077
 11
192.7115070294
 21
172.6983421723
  0
LINE
  5
645
100
AcDbEntity
  8
0
100
AcDbLine
 62
7
  6
BYLAYER
 10
190.5260581127
 20
170.446696016
 11
190.4671325616
 21
170.387770465
  0
LINE
  5
646
100
AcDbEntity
  8
0
100
AcDbLine
 62
7
  6
BYLAYER
 10
192.653835189
 20
172.5203117452
 11
192.5654468414
 21
172.4319233976
  0
LINE
  5
647
100
AcDbEntity
  8
0
100
AcDbLine
 62
7
  6
BYLAYER
 10
190.52762528
 20
170.29781495
 11
190.5865508521
 21
170.3567405221
  0
LINE
  5
648
100
AcDbEntity
  8
0
100
AcDbLine
 62
7
  6
BYLAYER
 10
194.6907164542
 20
174.4609061242
 11
194.7791048019
 21
174.5492944719
  0
LINE
  5
649
100
AcDbEntity
  8
0
100
AcDbLine
 62
7
  6
BYLAYER
 10
192.6406709581
 20
172.3566992809
 11
192.7290593057
 21
172.4450876286
  0
LINE
  5
64A
100
AcDbEntity
  8
0
100
AcDbLine
 62
7
  6
BYLAYER
 10
193.0569111424
 20
172.4118636209
 11
192.6297008078
 21
171.9846532862
  0
LINE
  5
64B
100
AcDbEntity
  8
0
100
AcDbLine
 62
7
  6
BYLAYER
 10
192.7049249244
 20
171.9094291695
 11
193.2057922137
 21
172.4102964588
  0
LINE
  5
64C
100
AcDbEntity
  8
0
100
AcDbLine
 62
7
  6
BYLAYER
 10
207.7754864134
 20
176.5863011408
 11
207.8503971261
 21
176.6317490148
  0
LINE
  5
64D
100
AcDbEntity
  8
0
100
AcDbLine
 62
7
  6
BYLAYER
 10
206.2404754566
 20
175.0100422604
 11
206.3153861272
 21
175.0554901765
  0
LINE
  5
64E
100
AcDbEntity
  8
0
100
AcDbLine
 62
7
  6
BYLAYER
 10
208.2462640415
 20
176.055344135
 11
208.1713533565
 21
176.0098962334
  0
LINE
  5
64F
100
AcDbEntity
  8
0
100
AcDbLine
 62
7
  6
BYLAYER
 10
206.725984462
 20
174.4643538774
 11
206.6510737769
 21
174.4189059757
  0
LINE
  5
650
100
AcDbEntity
  8
4
100
AcDbLine
 62
7
  6
BYLAYER
 10
235.7343441934
 20
239.3199434628
 11
232.7343441934
 21
239.3199434628
  0
LINE
  5
651
100
AcDbEntity
  8
3
100
AcDbLine
 62
7
  6
BYLAYER
 10
88.0852133049
 20
239.3199434628
 11
85.0852133049
 21
239.3199434628
  0
LINE
  5
652
100
AcDbEntity
  8
0
100
AcDbLine
 62
7
  6
BYLAYER
 10
207.8156059353
 20
176.1550161278
 11
207.7275310127
 21
176.2731806971
  0
LINE
  5
653
100
AcDbEntity
  8
0
100
AcDbLine
 62
7
  6
BYLAYER
 10
206.2658635802
 20
174.5934886457
 11
206.1925200559
 21
174.6969218167
  0
LINE
  5
654
100
AcDbEntity
  8
0
100
AcDbLine
 62
7
  6
BYLAYER
 10
192.1639380711
 20
172.3914904296
 11
192.1181767405
 21
172.4961773534
  0
LINE
  5
655
100
AcDbEntity
  8
0
100
AcDbLine
 62
7
  6
BYLAYER
 10
188.2323491508
 20
172.2572153581
 11
188.2477074202
 21
172.2123943342
  0
LINE
  5
656
100
AcDbEntity
  8
0
100
AcDbLine
 62
7
  6
BYLAYER
 10
188.5777532586
 20
171.9707368436
 11
188.6084697553
 21
171.8810947536
  0
LINE
  5
657
100
AcDbEntity
  8
0
100
AcDbLine
 62
7
  6
BYLAYER
 10
190.1687435162
 20
170.450457264
 11
190.199460013
 21
170.3608151741
  0
LINE
  5
658
100
AcDbEntity
  8
0
100
AcDbLine
 62
7
  6
BYLAYER
 10
188.1436473465
 20
172.1986032216
 11
188.1279756731
 21
172.2732004882
  0
LINE
  5
659
100
AcDbEntity
  8
0
100
AcDbLine
 62
7
  6
BYLAYER
 10
188.4893649109
 20
171.8823484959
 11
188.4736931953
 21
171.9569457204
  0
LINE
  5
65A
100
AcDbEntity
  8
0
100
AcDbLine
 62
7
  6
BYLAYER
 10
189.0077845187
 20
172.1299611993
 11
188.9921128347
 21
172.2045584554
  0
LINE
  5
65B
100
AcDbEntity
  8
0
100
AcDbLine
 62
7
  6
BYLAYER
 10
190.0656237492
 20
170.347337497
 11
190.0499520758
 21
170.4219347636
  0
LINE
  5
65C
100
AcDbEntity
  8
0
100
AcDbLine
 62
7
  6
BYLAYER
 10
190.5987747763
 20
170.6096816197
 11
190.5831030924
 21
170.6842788758
  0
LINE
  5
65D
100
AcDbEntity
  8
0
100
AcDbLine
 62
7
  6
BYLAYER
 10
194.6587462152
 20
174.6696530586
 11
194.6418207573
 21
174.8633552117
  0
LINE
  5
65E
100
AcDbEntity
  8
0
100
AcDbLine
 62
7
  6
BYLAYER
 10
194.7621793862
 20
174.7429965829
 11
194.7791048019
 21
174.5492944719
  0
LINE
  5
65F
100
AcDbEntity
  8
0
100
AcDbLine
 62
7
  6
BYLAYER
 10
193.117779993
 20
176.8116600448
 11
193.1704368747
 21
176.0518963819
  0
LINE
  5
660
100
AcDbEntity
  8
0
100
AcDbLine
 62
7
  6
BYLAYER
 10
193.050078288
 20
176.1722549686
 11
193.0146602576
 21
176.7085403093
  0
LINE
  5
661
100
AcDbEntity
  8
0
100
AcDbLine
 62
7
  6
BYLAYER
 10
188.2317222902
 20
172.3167678119
 11
188.2323491508
 21
172.2572153581
  0
LINE
  5
662
100
AcDbEntity
  8
0
100
AcDbLine
 62
7
  6
BYLAYER
 10
188.5771263663
 20
172.0302892447
 11
188.5777532586
 21
171.9707368436
  0
LINE
  5
663
100
AcDbEntity
  8
0
100
AcDbLine
 62
7
  6
BYLAYER
 10
189.1112176923
 20
172.2033047262
 11
189.1124714214
 21
172.0841998687
  0
LINE
  5
664
100
AcDbEntity
  8
0
100
AcDbLine
 62
7
  6
BYLAYER
 10
190.70220795
 20
170.6830251467
 11
190.7034616791
 21
170.5639202891
  0
LINE
  5
665
100
AcDbEntity
  8
4
100
AcDbLine
 62
7
  6
BYLAYER
 10
190.7343441934
 20
189.3199434628
 11
190.7343441934
 21
192.3199434628
  0
LINE
  5
666
100
AcDbEntity
  8
0
100
AcDbLine
 62
7
  6
BYLAYER
 10
192.045851278
 20
186.5782826477
 11
192.045851278
 21
185.0782826477
  0
LINE
  5
667
100
AcDbEntity
  8
0
100
AcDbLine
 62
7
  6
BYLAYER
 10
192.545851278
 20
185.0782826477
 11
192.545851278
 21
186.5782826477
  0
LINE
  5
668
100
AcDbEntity
  8
4
100
AcDbLine
 62
7
  6
BYLAYER
 10
193.0451234684
 20
187.030598488
 11
193.0451234684
 21
185.030598488
  0
LINE
  5
669
100
AcDbEntity
  8
0
100
AcDbLine
 62
7
  6
BYLAYER
 10
193.045851278
 20
184.0782826477
 11
193.045851278
 21
184.5782826477
  0
LINE
  5
66A
100
AcDbEntity
  8
0
100
AcDbLine
 62
7
  6
BYLAYER
 10
193.045851278
 20
187.0782826477
 11
193.045851278
 21
187.5782826477
  0
LINE
  5
66B
100
AcDbEntity
  8
4
100
AcDbLine
 62
7
  6
BYLAYER
 10
194.1926234684
 20
193.6566581466
 11
194.1926234684
 21
192.4120588848
  0
LINE
  5
66C
100
AcDbEntity
  8
0
100
AcDbLine
 62
7
  6
BYLAYER
 10
190.2051018428
 20
171.2390568207
 11
190.1687435162
 21
170.450457264
  0
LINE
  5
66D
100
AcDbEntity
  8
0
100
AcDbLine
 62
7
  6
BYLAYER
 10
190.0499520758
 20
170.4219347636
 11
190.0872507091
 21
171.121205687
  0
LINE
  5
66E
100
AcDbEntity
  8
0
100
AcDbLine
 62
7
  6
BYLAYER
 10
188.4736931953
 20
171.9569457204
 11
188.4874843185
 21
172.0610057836
  0
LINE
  5
66F
100
AcDbEntity
  8
0
100
AcDbLine
 62
7
  6
BYLAYER
 10
192.6977159273
 20
172.5942821302
 11
192.7115070294
 21
172.6983421723
  0
LINE
  5
670
100
AcDbEntity
  8
0
100
AcDbLine
 62
7
  6
BYLAYER
 10
188.1279756731
 20
172.2732004882
 11
188.1420801949
 21
172.347484314
  0
LINE
  5
671
100
AcDbEntity
  8
0
100
AcDbLine
 62
7
  6
BYLAYER
 10
188.9936799915
 20
172.0556773788
 11
189.0077845187
 21
172.1299611993
  0
LINE
  5
672
100
AcDbEntity
  8
0
100
AcDbLine
 62
7
  6
BYLAYER
 10
190.5846702492
 20
170.5353977992
 11
190.5987747763
 21
170.6096816197
  0
LINE
  5
673
100
AcDbEntity
  8
0
100
AcDbLine
 62
7
  6
BYLAYER
 10
192.2206696153
 20
172.6588495216
 11
192.2065650882
 21
172.5845657011
  0
LINE
  5
674
100
AcDbEntity
  8
0
100
AcDbLine
 62
7
  6
BYLAYER
 10
192.1021916157
 20
172.6005508259
 11
192.13071407
 21
172.7193422281
  0
LINE
  5
675
100
AcDbEntity
  8
0
100
AcDbLine
 62
7
  6
BYLAYER
 10
192.8161939269
 20
172.6525808364
 11
192.7876714423
 21
172.5337894118
  0
LINE
  5
676
100
AcDbEntity
  8
0
100
AcDbLine
 62
7
  6
BYLAYER
 10
188.1420801949
 20
172.347484314
 11
188.1709160954
 21
172.4364995156
  0
LINE
  5
677
100
AcDbEntity
  8
0
100
AcDbLine
 62
7
  6
BYLAYER
 10
188.2461402213
 20
172.3612753897
 11
188.2317222902
 21
172.3167678119
  0
LINE
  5
678
100
AcDbEntity
  8
0
100
AcDbLine
 62
7
  6
BYLAYER
 10
189.1124714214
 20
172.0841998687
 11
189.0836355065
 21
171.9951846604
  0
LINE
  5
679
100
AcDbEntity
  8
0
100
AcDbLine
 62
7
  6
BYLAYER
 10
190.7034616791
 20
170.5639202891
 11
190.6746257642
 21
170.4749050809
  0
LINE
  5
67A
100
AcDbEntity
  8
0
100
AcDbLine
 62
7
  6
BYLAYER
 10
188.6354250884
 20
172.1487672601
 11
188.5771263663
 21
172.0302892447
  0
LINE
  5
67B
100
AcDbEntity
  8
0
100
AcDbLine
 62
7
  6
BYLAYER
 10
195.5458492437
 20
188.0782797265
 11
196.0458507371
 21
189.0782826478
  0
LINE
  5
67C
100
AcDbEntity
  8
0
100
AcDbLine
 62
7
  6
BYLAYER
 10
188.1709160954
 20
172.4364995156
 11
188.2147968428
 21
172.5104699124
  0
LINE
  5
67D
100
AcDbEntity
  8
0
100
AcDbLine
 62
7
  6
BYLAYER
 10
192.264550343
 20
172.732819896
 11
192.2206696153
 21
172.6588495216
  0
LINE
  5
67E
100
AcDbEntity
  8
0
100
AcDbLine
 62
7
  6
BYLAYER
 10
192.653835189
 20
172.5203117452
 11
192.6977159273
 21
172.5942821302
  0
LINE
  5
67F
100
AcDbEntity
  8
0
100
AcDbLine
 62
7
  6
BYLAYER
 10
188.935067855
 20
171.9669755956
 11
188.9936799915
 21
172.0556773788
  0
LINE
  5
680
100
AcDbEntity
  8
0
100
AcDbLine
 62
7
  6
BYLAYER
 10
190.5260581127
 20
170.446696016
 11
190.5846702492
 21
170.5353977992
  0
LINE
  5
681
100
AcDbEntity
  8
0
100
AcDbLine
 62
7
  6
BYLAYER
 10
192.13071407
 20
172.7193422281
 11
192.1893262158
 21
172.8080440232
  0
LINE
  5
682
100
AcDbEntity
  8
0
100
AcDbLine
 62
7
  6
BYLAYER
 10
192.7876714423
 20
172.5337894118
 11
192.7290593057
 21
172.4450876286
  0
LINE
  5
683
100
AcDbEntity
  8
0
100
AcDbLine
 62
7
  6
BYLAYER
 10
190.6746257642
 20
170.4749050809
 11
190.5865508521
 21
170.3567405221
  0
LINE
  5
684
100
AcDbEntity
  8
0
100
AcDbLine
 62
7
  6
BYLAYER
 10
208.106785994
 20
176.9470634759
 11
208.0466067007
 21
176.8868841825
  0
LINE
  5
685
100
AcDbEntity
  8
0
100
AcDbLine
 62
7
  6
BYLAYER
 10
207.7754864134
 20
176.5863011408
 11
207.7453967246
 21
176.556211452
  0
LINE
  5
686
100
AcDbEntity
  8
0
100
AcDbLine
 62
7
  6
BYLAYER
 10
206.7519994923
 20
175.521566296
 11
206.676775365
 21
175.4463421688
  0
LINE
  5
687
100
AcDbEntity
  8
0
100
AcDbLine
 62
7
  6
BYLAYER
 10
206.2404754566
 20
175.0100422604
 11
206.2103857678
 21
174.9799525715
  0
LINE
  5
688
100
AcDbEntity
  8
0
100
AcDbLine
 62
7
  6
BYLAYER
 10
208.1202636711
 20
176.8132272121
 11
208.1804429644
 21
176.8734065055
  0
LINE
  5
689
100
AcDbEntity
  8
0
100
AcDbLine
 62
7
  6
BYLAYER
 10
207.819053695
 20
176.4825544816
 11
207.8491433838
 21
176.5126441704
  0
LINE
  5
68A
100
AcDbEntity
  8
0
100
AcDbLine
 62
7
  6
BYLAYER
 10
206.2987741154
 20
174.8915642239
 11
206.3288638043
 21
174.9216539127
  0
LINE
  5
68B
100
AcDbEntity
  8
0
100
AcDbLine
 62
7
  6
BYLAYER
 10
208.1757414413
 20
176.4267632863
 11
208.2359207347
 21
176.4869425796
  0
LINE
  5
68C
100
AcDbEntity
  8
0
100
AcDbLine
 62
7
  6
BYLAYER
 10
207.2071054509
 20
174.9160120829
 11
207.2823295782
 21
174.9912362101
  0
LINE
  5
68D
100
AcDbEntity
  8
0
100
AcDbLine
 62
7
  6
BYLAYER
 10
175.9306118015
 20
139.7316208152
 11
175.9731126822
 21
139.7437639239
  0
LINE
  5
68E
100
AcDbEntity
  8
0
100
AcDbLine
 62
7
  6
BYLAYER
 10
176.0921603328
 20
139.1662009559
 11
177.0536842804
 21
139.4409220838
  0
LINE
  5
68F
100
AcDbEntity
  8
0
100
AcDbLine
 62
7
  6
BYLAYER
 10
178.0929301558
 20
135.8035615198
 11
177.1314062082
 21
135.5288403919
  0
LINE
  5
690
100
AcDbEntity
  8
0
100
AcDbLine
 62
7
  6
BYLAYER
 10
208.1036516383
 20
176.6493013227
 11
208.1769951836
 21
176.5458681307
  0
LINE
  5
691
100
AcDbEntity
  8
0
100
AcDbLine
 62
7
  6
BYLAYER
 10
206.2972069692
 20
174.7426831368
 11
206.3558190952
 21
174.6539813641
  0
LINE
  5
692
100
AcDbEntity
  8
0
100
AcDbLine
 62
7
  6
BYLAYER
 10
208.3247479111
 20
172.4804429676
 11
208.266135764
 21
172.5691447614
  0
LINE
  5
693
100
AcDbEntity
  8
0
100
AcDbLine
 62
7
  6
BYLAYER
 10
208.8644810011
 20
172.8433993623
 11
208.9230931363
 21
172.7546975777
  0
LINE
  5
694
100
AcDbEntity
  8
0
100
AcDbLine
 62
7
  6
BYLAYER
 10
207.8174865487
 20
176.3336733944
 11
207.8760986747
 21
176.2449716218
  0
LINE
  5
695
100
AcDbEntity
  8
0
100
AcDbLine
 62
7
  6
BYLAYER
 10
208.5650262979
 20
176.6392714264
 11
208.5064141614
 21
176.7279732097
  0
LINE
  5
696
100
AcDbEntity
  8
0
100
AcDbLine
 62
7
  6
BYLAYER
 10
208.3560913001
 20
172.6296374587
 11
208.3999720278
 21
172.5556670843
  0
LINE
  5
697
100
AcDbEntity
  8
0
100
AcDbLine
 62
7
  6
BYLAYER
 10
208.8331376121
 20
172.6942048501
 11
208.7892568738
 21
172.768175235
  0
LINE
  5
698
100
AcDbEntity
  8
0
100
AcDbLine
 62
7
  6
BYLAYER
 10
208.5963696869
 20
176.7884659386
 11
208.6402504238
 21
176.7144955524
  0
LINE
  5
699
100
AcDbEntity
  8
0
100
AcDbLine
 62
7
  6
BYLAYER
 10
219.5986376825
 20
135.9727098387
 11
219.9930648735
 21
135.1838554567
  0
LINE
  5
69A
100
AcDbEntity
  8
0
100
AcDbLine
 62
7
  6
BYLAYER
 10
220.5458677837
 20
136.3143545085
 11
220.8874920644
 21
135.6310690522
  0
LINE
  5
69B
100
AcDbEntity
  8
0
100
AcDbLine
 62
7
  6
BYLAYER
 10
192.2065650882
 20
172.5845657011
 11
192.2222367721
 21
172.5099684239
  0
LINE
  5
69C
100
AcDbEntity
  8
0
100
AcDbLine
 62
7
  6
BYLAYER
 10
192.1181767405
 20
172.4961773534
 11
192.1021916157
 21
172.6005508259
  0
LINE
  5
69D
100
AcDbEntity
  8
4
100
AcDbLine
 62
7
  6
BYLAYER
 10
195.1451234684
 20
193.7601430806
 11
195.1451234684
 21
196.7601430806
  0
LINE
  5
69E
100
AcDbEntity
  8
0
100
AcDbLine
 62
7
  6
BYLAYER
 10
195.5458355144
 20
188.0782668744
 11
195.545851278
 21
187.0782826477
  0
LINE
  5
69F
100
AcDbEntity
  8
0
100
AcDbLine
 62
7
  6
BYLAYER
 10
196.545851278
 20
187.5782826477
 11
196.545851278
 21
188.5782826477
  0
LINE
  5
6A0
100
AcDbEntity
  8
4
100
AcDbLine
 62
7
  6
BYLAYER
 10
197.5451234684
 20
201.030598488
 11
197.5451234684
 21
196.7601430806
  0
LINE
  5
6A1
100
AcDbEntity
  8
4
100
AcDbLine
 62
7
  6
BYLAYER
 10
197.5451234684
 20
193.7601430806
 11
197.5451234684
 21
193.6566581466
  0
LINE
  5
6A2
100
AcDbEntity
  8
4
100
AcDbLine
 62
7
  6
BYLAYER
 10
197.5451234684
 20
192.4120588848
 11
197.5451234684
 21
192.3199434628
  0
LINE
  5
6A3
100
AcDbEntity
  8
4
100
AcDbLine
 62
7
  6
BYLAYER
 10
197.5451234684
 20
189.3199434628
 11
197.5451234684
 21
187.030598488
  0
LINE
  5
6A4
100
AcDbEntity
  8
4
100
AcDbLine
 62
7
  6
BYLAYER
 10
197.8451234684
 20
193.7601430806
 11
197.8451234684
 21
196.7601430806
  0
LINE
  5
6A5
100
AcDbEntity
  8
0
100
AcDbLine
 62
7
  6
BYLAYER
 10
180.2042104915
 20
135.6310690522
 11
180.5458349762
 21
136.3143544605
  0
LINE
  5
6A6
100
AcDbEntity
  8
0
100
AcDbLine
 62
7
  6
BYLAYER
 10
181.0986376825
 20
135.1838554567
 11
181.4930648735
 21
135.9727098387
  0
LINE
  5
6A7
100
AcDbEntity
  8
0
100
AcDbLine
 62
7
  6
BYLAYER
 10
206.1649378517
 20
174.905041901
 11
206.2103857678
 21
174.9799525715
  0
LINE
  5
6A8
100
AcDbEntity
  8
0
100
AcDbLine
 62
7
  6
BYLAYER
 10
207.6999488506
 20
176.4813007393
 11
207.7453967246
 21
176.556211452
  0
LINE
  5
6A9
100
AcDbEntity
  8
0
100
AcDbLine
 62
7
  6
BYLAYER
 10
208.0011587635
 20
176.8119734909
 11
208.0466067007
 21
176.8868841825
  0
LINE
  5
6AA
100
AcDbEntity
  8
0
100
AcDbLine
 62
7
  6
BYLAYER
 10
206.1755857032
 20
171.1974865666
 11
206.610578136
 21
171.6324789995
  0
LINE
  5
6AB
100
AcDbEntity
  8
0
100
AcDbLine
 62
7
  6
BYLAYER
 10
208.3595390598
 20
172.9571758546
 11
208.2993597665
 21
172.8969965612
  0
LINE
  5
6AC
100
AcDbEntity
  8
0
100
AcDbLine
 62
7
  6
BYLAYER
 10
207.9527019164
 20
172.4914131179
 11
207.8774777997
 21
172.4161890012
  0
LINE
  5
6AD
100
AcDbEntity
  8
0
100
AcDbLine
 62
7
  6
BYLAYER
 10
208.3880615602
 20
172.8383844141
 11
208.4181512069
 21
172.8684740608
  0
LINE
  5
6AE
100
AcDbEntity
  8
0
100
AcDbLine
 62
7
  6
BYLAYER
 10
208.6206294666
 20
172.3049199988
 11
208.3799122511
 21
172.0642027833
  0
LINE
  5
6AF
100
AcDbEntity
  8
0
100
AcDbLine
 62
7
  6
BYLAYER
 10
208.378345089
 20
171.9153217119
 11
208.7695105379
 21
172.3064871609
  0
LINE
  5
6B0
100
AcDbEntity
  8
0
100
AcDbLine
 62
7
  6
BYLAYER
 10
207.1655351968
 20
170.207537073
 11
207.6005276297
 21
170.6425295058
  0
LINE
  5
6B1
100
AcDbEntity
  8
0
100
AcDbLine
 62
7
  6
BYLAYER
 10
212.2807219991
 20
172.6828585307
 11
212.190453038
 21
172.5925895696
  0
LINE
  5
6B2
100
AcDbEntity
  8
0
100
AcDbLine
 62
7
  6
BYLAYER
 10
212.6386634456
 20
172.7461721798
 11
212.4280358978
 21
172.535544632
  0
LINE
  5
6B3
100
AcDbEntity
  8
0
100
AcDbLine
 62
7
  6
BYLAYER
 10
212.3377669367
 20
172.4452756709
 11
211.9315566645
 21
172.0390653987
  0
LINE
  5
6B4
100
AcDbEntity
  8
0
100
AcDbLine
 62
7
  6
BYLAYER
 10
211.1360615356
 20
171.1375042526
 11
210.4289547544
 21
170.4303974715
  0
LINE
  5
6B5
100
AcDbEntity
  8
0
100
AcDbLine
 62
7
  6
BYLAYER
 10
212.1403035988
 20
172.0710356377
 11
212.4261552844
 21
172.3568873233
  0
LINE
  5
6B6
100
AcDbEntity
  8
0
100
AcDbLine
 62
7
  6
BYLAYER
 10
212.5164242455
 20
172.4471562844
 11
212.7270517933
 21
172.6577838322
  0
LINE
  5
6B7
100
AcDbEntity
  8
0
100
AcDbLine
 62
7
  6
BYLAYER
 10
210.6377016888
 20
170.4623677105
 11
211.2244498833
 21
171.049115905
  0
LINE
  5
6B8
100
AcDbEntity
  8
0
100
AcDbLine
 62
7
  6
BYLAYER
 10
210.7110452131
 20
170.3589345395
 11
210.8314038419
 21
170.4792931684
  0
LINE
  5
6B9
100
AcDbEntity
  8
0
100
AcDbLine
 62
7
  6
BYLAYER
 10
212.779708675
 20
172.0033339327
 11
212.8699776361
 21
172.0936028938
  0
LINE
  5
6BA
100
AcDbEntity
  8
0
100
AcDbLine
 62
7
  6
BYLAYER
 10
225.5458512779
 20
157.07828134
 11
224.5458483663
 21
156.5782798049
  0
LINE
  5
6BB
100
AcDbEntity
  8
0
100
AcDbLine
 62
7
  6
BYLAYER
 10
205.0458551978
 20
189.0782826477
 11
205.5458599441
 21
188.0782826477
  0
LINE
  5
6BC
100
AcDbEntity
  8
0
100
AcDbLine
 62
7
  6
BYLAYER
 10
208.0290544138
 20
176.6336296072
 11
207.9854870901
 21
176.7373762243
  0
LINE
  5
6BD
100
AcDbEntity
  8
0
100
AcDbLine
 62
7
  6
BYLAYER
 10
206.1925200559
 20
174.6969218167
 11
206.1636841515
 21
174.7859370144
  0
LINE
  5
6BE
100
AcDbEntity
  8
0
100
AcDbLine
 62
7
  6
BYLAYER
 10
207.7275310127
 20
176.2731806971
 11
207.6986951083
 21
176.3621958949
  0
LINE
  5
6BF
100
AcDbEntity
  8
0
100
AcDbLine
 62
7
  6
BYLAYER
 10
208.5794442501
 20
176.5947638276
 11
208.5650262979
 21
176.6392714264
  0
LINE
  5
6C0
100
AcDbEntity
  8
0
100
AcDbLine
 62
7
  6
BYLAYER
 10
208.6402504238
 20
176.7144955524
 11
208.6690863348
 21
176.6254803401
  0
LINE
  5
6C1
100
AcDbEntity
  8
4
100
AcDbLine
 62
7
  6
BYLAYER
 10
203.2451234684
 20
193.7601430806
 11
203.2451234684
 21
196.7601430806
  0
LINE
  5
6C2
100
AcDbEntity
  8
4
100
AcDbLine
 62
7
  6
BYLAYER
 10
203.5451234684
 20
201.030598488
 11
203.5451234684
 21
196.7601430806
  0
LINE
  5
6C3
100
AcDbEntity
  8
4
100
AcDbLine
 62
7
  6
BYLAYER
 10
203.5451234684
 20
193.7601430806
 11
203.5451234684
 21
193.6566581466
  0
LINE
  5
6C4
100
AcDbEntity
  8
4
100
AcDbLine
 62
7
  6
BYLAYER
 10
203.5451234684
 20
192.4120588848
 11
203.5451234684
 21
192.3199434628
  0
LINE
  5
6C5
100
AcDbEntity
  8
4
100
AcDbLine
 62
7
  6
BYLAYER
 10
203.5451234684
 20
189.3199434628
 11
203.5451234684
 21
187.030598488
  0
LINE
  5
6C6
100
AcDbEntity
  8
0
100
AcDbLine
 62
7
  6
BYLAYER
 10
204.545851278
 20
188.5782826477
 11
204.545851278
 21
187.5782826477
  0
LINE
  5
6C7
100
AcDbEntity
  8
0
100
AcDbLine
 62
7
  6
BYLAYER
 10
205.545851278
 20
187.0782826477
 11
205.5458686219
 21
188.0782652926
  0
LINE
  5
6C8
100
AcDbEntity
  8
4
100
AcDbLine
 62
7
  6
BYLAYER
 10
205.9451234684
 20
193.7601430806
 11
205.9451234684
 21
196.7601430806
  0
LINE
  5
6C9
100
AcDbEntity
  8
4
100
AcDbLine
 62
7
  6
BYLAYER
 10
206.8976234684
 20
193.6566581466
 11
206.8976234684
 21
192.4120588848
  0
LINE
  5
6CA
100
AcDbEntity
  8
4
100
AcDbLine
 62
7
  6
BYLAYER
 10
208.0451234684
 20
187.030598488
 11
208.0451234684
 21
185.030598488
  0
LINE
  5
6CB
100
AcDbEntity
  8
0
100
AcDbLine
 62
7
  6
BYLAYER
 10
208.045851278
 20
187.5782826477
 11
208.045851278
 21
187.0782826477
  0
LINE
  5
6CC
100
AcDbEntity
  8
0
100
AcDbLine
 62
7
  6
BYLAYER
 10
208.045851278
 20
184.5782826477
 11
208.045851278
 21
184.0782826477
  0
LINE
  5
6CD
100
AcDbEntity
  8
0
100
AcDbLine
 62
7
  6
BYLAYER
 10
208.545851278
 20
186.5782826477
 11
208.545851278
 21
185.0782826477
  0
LINE
  5
6CE
100
AcDbEntity
  8
0
100
AcDbLine
 62
7
  6
BYLAYER
 10
208.945071278
 20
147.5281326477
 11
208.945071278
 21
146.9717351999
  0
LINE
  5
6CF
100
AcDbEntity
  8
0
100
AcDbLine
 62
7
  6
BYLAYER
 10
209.045851278
 20
185.0782826477
 11
209.045851278
 21
186.5782826477
  0
LINE
  5
6D0
100
AcDbEntity
  8
0
100
AcDbLine
 62
7
  6
BYLAYER
 10
210.145071278
 20
146.9717351999
 11
210.145071278
 21
147.5281326477
  0
LINE
  5
6D1
100
AcDbEntity
  8
0
100
AcDbLine
 62
7
  6
BYLAYER
 10
206.1636841515
 20
174.7859370144
 11
206.1649378517
 21
174.905041901
  0
LINE
  5
6D2
100
AcDbEntity
  8
0
100
AcDbLine
 62
7
  6
BYLAYER
 10
207.6986951083
 20
176.3621958949
 11
207.6999488506
 21
176.4813007393
  0
LINE
  5
6D3
100
AcDbEntity
  8
0
100
AcDbLine
 62
7
  6
BYLAYER
 10
208.5788173789
 20
176.5352113843
 11
208.5794442501
 21
176.5947638276
  0
LINE
  5
6D4
100
AcDbEntity
  8
0
100
AcDbLine
 62
7
  6
BYLAYER
 10
208.2376133058
 20
172.6879361597
 11
208.2535984253
 21
172.7923096268
  0
LINE
  5
6D5
100
AcDbEntity
  8
0
100
AcDbLine
 62
7
  6
BYLAYER
 10
208.9516156169
 20
172.6359061491
 11
208.9356304895
 21
172.5315326793
  0
LINE
  5
6D6
100
AcDbEntity
  8
0
100
AcDbLine
 62
7
  6
BYLAYER
 10
206.2987741154
 20
174.8915642239
 11
206.283102442
 21
174.8169669573
  0
LINE
  5
6D7
100
AcDbEntity
  8
0
100
AcDbLine
 62
7
  6
BYLAYER
 10
207.819053695
 20
176.4825544816
 11
207.8033820216
 21
176.4079572149
  0
LINE
  5
6D8
100
AcDbEntity
  8
0
100
AcDbLine
 62
7
  6
BYLAYER
 10
207.9854870901
 20
176.7373762243
 11
208.0011587635
 21
176.8119734909
  0
LINE
  5
6D9
100
AcDbEntity
  8
0
100
AcDbLine
 62
7
  6
BYLAYER
 10
208.6831908567
 20
176.5511965144
 11
208.6675191687
 21
176.4765992623
  0
LINE
  5
6DA
100
AcDbEntity
  8
0
100
AcDbLine
 62
7
  6
BYLAYER
 10
208.3576584464
 20
172.7785185458
 11
208.3419867729
 21
172.7039212792
  0
LINE
  5
6DB
100
AcDbEntity
  8
0
100
AcDbLine
 62
7
  6
BYLAYER
 10
208.1202636711
 20
176.8132272121
 11
208.0895471111
 21
176.7235851432
  0
LINE
  5
6DC
100
AcDbEntity
  8
0
100
AcDbLine
 62
7
  6
BYLAYER
 10
208.5634591253
 20
176.4903903446
 11
208.5788173789
 21
176.5352113843
  0
LINE
  5
6DD
100
AcDbEntity
  8
0
100
AcDbLine
 62
7
  6
BYLAYER
 10
208.8165256214
 20
172.5302789397
 11
208.8472421392
 21
172.6199210296
  0
LINE
  5
6DE
100
AcDbEntity
  8
0
100
AcDbLine
 62
7
  6
BYLAYER
 10
208.9356304895
 20
172.5315326793
 11
208.904913969
 21
172.441890592
  0
LINE
  5
6DF
100
AcDbEntity
  8
0
100
AcDbLine
 62
7
  6
BYLAYER
 10
208.2535984253
 20
172.7923096268
 11
208.2993597665
 21
172.8969965612
  0
LINE
  5
6E0
100
AcDbEntity
  8
0
100
AcDbLine
 62
7
  6
BYLAYER
 10
208.6675191687
 20
176.4765992623
 11
208.6371160799
 21
176.41673339
  0
LINE
  5
6E1
100
AcDbEntity
  8
0
100
AcDbLine
 62
7
  6
BYLAYER
 10
208.3880615602
 20
172.8383844141
 11
208.3576584464
 21
172.7785185458
  0
LINE
  5
6E2
100
AcDbEntity
  8
0
100
AcDbLine
 62
7
  6
BYLAYER
 10
220.5458521548
 20
136.3143488716
 11
219.5986188407
 21
135.9727475222
  0
LINE
  5
6E3
100
AcDbEntity
  8
0
100
AcDbLine
 62
7
  6
BYLAYER
 10
225.0458599749
 20
165.5782826477
 11
224.5458433866
 21
166.5782826477
  0
LINE
  5
6E4
100
AcDbEntity
  8
0
100
AcDbLine
 62
7
  6
BYLAYER
 10
208.266135764
 20
172.5691447614
 11
208.2376133058
 21
172.6879361597
  0
LINE
  5
6E5
100
AcDbEntity
  8
0
100
AcDbLine
 62
7
  6
BYLAYER
 10
208.9230931363
 20
172.7546975777
 11
208.9516156169
 21
172.6359061491
  0
LINE
  5
6E6
100
AcDbEntity
  8
0
100
AcDbLine
 62
7
  6
BYLAYER
 10
206.283102442
 20
174.8169669573
 11
206.2972069692
 21
174.7426831368
  0
LINE
  5
6E7
100
AcDbEntity
  8
0
100
AcDbLine
 62
7
  6
BYLAYER
 10
208.3419867729
 20
172.7039212792
 11
208.3560913001
 21
172.6296374587
  0
LINE
  5
6E8
100
AcDbEntity
  8
0
100
AcDbLine
 62
7
  6
BYLAYER
 10
207.8033820216
 20
176.4079572149
 11
207.8174865487
 21
176.3336733944
  0
LINE
  5
6E9
100
AcDbEntity
  8
0
100
AcDbLine
 62
7
  6
BYLAYER
 10
208.8472421392
 20
172.6199210296
 11
208.8331376121
 21
172.6942048501
  0
LINE
  5
6EA
100
AcDbEntity
  8
0
100
AcDbLine
 62
7
  6
BYLAYER
 10
208.0895471111
 20
176.7235851432
 11
208.1036516383
 21
176.6493013227
  0
LINE
  5
6EB
100
AcDbEntity
  8
0
100
AcDbLine
 62
7
  6
BYLAYER
 10
208.6690863348
 20
176.6254803401
 11
208.6831908567
 21
176.5511965144
  0
LINE
  5
6EC
100
AcDbEntity
  8
0
100
AcDbLine
 62
7
  6
BYLAYER
 10
216.545851278
 20
189.0782826477
 11
216.545851278
 21
184.5782826477
  0
LINE
  5
6ED
100
AcDbEntity
  8
0
100
AcDbLine
 62
7
  6
BYLAYER
 10
217.545851278
 20
184.5782826477
 11
217.545851278
 21
188.0782826477
  0
LINE
  5
6EE
100
AcDbEntity
  8
0
100
AcDbLine
 62
7
  6
BYLAYER
 10
218.045851278
 20
185.9392110835
 11
218.0458513508
 21
189.0782826477
  0
LINE
  5
6EF
100
AcDbEntity
  8
0
100
AcDbLine
 62
7
  6
BYLAYER
 10
220.8874920645
 20
135.6310690522
 11
219.9930648735
 21
135.1838554567
  0
LINE
  5
6F0
100
AcDbEntity
  8
0
100
AcDbLine
 62
7
  6
BYLAYER
 10
219.545851278
 20
136.4282826477
 11
219.545851278
 21
136.1963166365
  0
LINE
  5
6F1
100
AcDbEntity
  8
0
100
AcDbLine
 62
7
  6
BYLAYER
 10
219.545851278
 20
184.1782826477
 11
219.545851278
 21
184.9782826477
  0
LINE
  5
6F2
100
AcDbEntity
  8
0
100
AcDbLine
 62
7
  6
BYLAYER
 10
220.5458677837
 20
136.3143545085
 11
220.545851278
 21
137.4282826477
  0
LINE
  5
6F3
100
AcDbEntity
  8
0
100
AcDbLine
 62
7
  6
BYLAYER
 10
220.545851278
 20
169.0782826477
 11
220.545851278
 21
154.0782826477
  0
LINE
  5
6F4
100
AcDbEntity
  8
0
100
AcDbLine
 62
7
  6
BYLAYER
 10
220.545851278
 20
144.1782826477
 11
220.545851278
 21
144.9782826477
  0
LINE
  5
6F5
100
AcDbEntity
  8
0
100
AcDbLine
 62
7
  6
BYLAYER
 10
220.645851278
 20
183.0782826477
 11
220.645851278
 21
184.1782826477
  0
LINE
  5
6F6
100
AcDbEntity
  8
0
100
AcDbLine
 62
7
  6
BYLAYER
 10
220.645851278
 20
184.9782826477
 11
220.645851278
 21
186.0782826477
  0
LINE
  5
6F7
100
AcDbEntity
  8
0
100
AcDbLine
 62
7
  6
BYLAYER
 10
221.045851278
 20
154.0782826477
 11
221.045851278
 21
169.0782826477
  0
LINE
  5
6F8
100
AcDbEntity
  8
0
100
AcDbLine
 62
7
  6
BYLAYER
 10
221.045851278
 20
180.0782826477
 11
221.045851278
 21
181.2869146048
  0
LINE
  5
6F9
100
AcDbEntity
  8
0
100
AcDbLine
 62
7
  6
BYLAYER
 10
221.445851278
 20
186.0782826477
 11
221.445851278
 21
184.9782826477
  0
LINE
  5
6FA
100
AcDbEntity
  8
0
100
AcDbLine
 62
7
  6
BYLAYER
 10
221.445851278
 20
184.1782826477
 11
221.445851278
 21
183.0782826477
  0
LINE
  5
6FB
100
AcDbEntity
  8
0
100
AcDbLine
 62
7
  6
BYLAYER
 10
221.545851278
 20
189.0782826477
 11
221.545851278
 21
188.5782826477
  0
LINE
  5
6FC
100
AcDbEntity
  8
0
100
AcDbLine
 62
7
  6
BYLAYER
 10
221.545851278
 20
153.0782826477
 11
221.545851278
 21
153.5782826477
  0
LINE
  5
6FD
100
AcDbEntity
  8
0
100
AcDbLine
 62
7
  6
BYLAYER
 10
221.545851278
 20
169.5782826477
 11
221.545851278
 21
170.0782826477
  0
LINE
  5
6FE
100
AcDbEntity
  8
0
100
AcDbLine
 62
7
  6
BYLAYER
 10
221.645851278
 20
143.0782826477
 11
221.645851278
 21
144.1782826477
  0
LINE
  5
6FF
100
AcDbEntity
  8
0
100
AcDbLine
 62
7
  6
BYLAYER
 10
221.645851278
 20
144.9782826477
 11
221.645851278
 21
146.0782826477
  0
LINE
  5
700
100
AcDbEntity
  8
0
100
AcDbLine
 62
7
  6
BYLAYER
 10
221.7819192555
 20
134.0782826477
 11
221.7819192555
 21
135.0782826477
  0
LINE
  5
701
100
AcDbEntity
  8
0
100
AcDbLine
 62
7
  6
BYLAYER
 10
222.0372484524
 20
135.0782826477
 11
222.0372484524
 21
134.0782826477
  0
LINE
  5
702
100
AcDbEntity
  8
0
100
AcDbLine
 62
7
  6
BYLAYER
 10
222.045851278
 20
140.0782826477
 11
222.045851278
 21
141.2869146048
  0
LINE
  5
703
100
AcDbEntity
  8
0
100
AcDbLine
 62
7
  6
BYLAYER
 10
222.045851278
 20
147.8696506906
 11
222.045851278
 21
149.0782826477
  0
LINE
  5
704
100
AcDbEntity
  8
0
100
AcDbLine
 62
7
  6
BYLAYER
 10
222.445851278
 20
146.0782826477
 11
222.445851278
 21
144.9782826477
  0
LINE
  5
705
100
AcDbEntity
  8
0
100
AcDbLine
 62
7
  6
BYLAYER
 10
222.445851278
 20
144.1782826477
 11
222.445851278
 21
143.0782826477
  0
LINE
  5
706
100
AcDbEntity
  8
0
100
AcDbLine
 62
7
  6
BYLAYER
 10
222.545851278
 20
184.9782826477
 11
222.545851278
 21
184.1782826477
  0
LINE
  5
707
100
AcDbEntity
  8
0
100
AcDbLine
 62
7
  6
BYLAYER
 10
223.045851278
 20
170.0782826477
 11
223.045851278
 21
169.5782826477
  0
LINE
  5
708
100
AcDbEntity
  8
0
100
AcDbLine
 62
7
  6
BYLAYER
 10
223.045851278
 20
153.5782826477
 11
223.045851278
 21
153.0782826477
  0
LINE
  5
709
100
AcDbEntity
  8
0
100
AcDbLine
 62
7
  6
BYLAYER
 10
223.545851278
 20
144.9782826477
 11
223.545851278
 21
144.1782826477
  0
LINE
  5
70A
100
AcDbEntity
  8
0
100
AcDbLine
 62
7
  6
BYLAYER
 10
223.545851278
 20
154.0782826477
 11
223.545851278
 21
157.0782826477
  0
LINE
  5
70B
100
AcDbEntity
  8
0
100
AcDbLine
 62
7
  6
BYLAYER
 10
223.545851278
 20
166.0782826477
 11
223.545851278
 21
169.0782826477
  0
LINE
  5
70C
100
AcDbEntity
  8
0
100
AcDbLine
 62
7
  6
BYLAYER
 10
223.5572563017
 20
141.5782826477
 11
223.5572563017
 21
140.0782826477
  0
LINE
  5
70D
100
AcDbEntity
  8
0
100
AcDbLine
 62
7
  6
BYLAYER
 10
224.045851278
 20
154.0782826477
 11
224.045851278
 21
157.5782826477
  0
LINE
  5
70E
100
AcDbEntity
  8
0
100
AcDbLine
 62
7
  6
BYLAYER
 10
224.045851278
 20
165.5782826477
 11
224.045851278
 21
169.0782826477
  0
LINE
  5
70F
100
AcDbEntity
  8
0
100
AcDbLine
 62
7
  6
BYLAYER
 10
224.5458339228
 20
156.5782653038
 11
224.545851278
 21
148.0782826477
  0
LINE
  5
710
100
AcDbEntity
  8
0
100
AcDbLine
 62
7
  6
BYLAYER
 10
224.545851278
 20
181.0782826477
 11
224.5458355046
 21
166.5782984113
  0
LINE
  5
711
100
AcDbEntity
  8
0
100
AcDbLine
 62
7
  6
BYLAYER
 10
225.0458512779
 20
185.0782826477
 11
225.0458512778
 21
181.5782826477
  0
LINE
  5
712
100
AcDbEntity
  8
0
100
AcDbLine
 62
7
  6
BYLAYER
 10
225.0458512778
 20
147.5782826477
 11
225.0458512778
 21
145.9110442933
  0
LINE
  5
713
100
AcDbEntity
  8
0
100
AcDbLine
 62
7
  6
BYLAYER
 10
225.0458512779
 20
143.2173542119
 11
225.045851278
 21
142.4788320941
  0
LINE
  5
714
100
AcDbEntity
  8
3
100
AcDbLine
 62
7
  6
BYLAYER
 10
225.54559851
 20
148.0782826477
 11
225.54559851
 21
147.5782826477
  0
LINE
  5
715
100
AcDbEntity
  8
0
100
AcDbLine
 62
7
  6
BYLAYER
 10
225.545851278
 20
142.4788320941
 11
225.545851278
 21
157.0782826477
  0
LINE
  5
716
100
AcDbEntity
  8
0
100
AcDbLine
 62
7
  6
BYLAYER
 10
225.545851278
 20
166.0782826477
 11
225.545851278
 21
185.0782826477
  0
LINE
  5
717
100
AcDbEntity
  8
4
100
AcDbLine
 62
7
  6
BYLAYER
 10
232.7343441934
 20
196.3199434628
 11
232.7343441934
 21
239.3199434628
  0
LINE
  5
718
100
AcDbEntity
  8
0
100
AcDbLine
 62
7
  6
BYLAYER
 10
222.9987724001
 20
135.8035615198
 11
224.0380182755
 21
139.4409220838
  0
LINE
  5
719
100
AcDbEntity
  8
0
100
AcDbLine
 62
7
  6
BYLAYER
 10
225.0458607252
 20
157.5782826477
 11
224.545842595
 21
156.5782826477
  0
LINE
  5
71A
100
AcDbEntity
  8
0
100
AcDbLine
 62
7
  6
BYLAYER
 10
224.9344945964
 20
141.028529068
 11
224.5901850227
 21
140.6659674629
  0
LINE
  5
71B
100
AcDbEntity
  8
0
100
AcDbLine
 62
7
  6
BYLAYER
 10
220.545851278
 20
137.4282826477
 11
219.545851278
 21
136.4282829896
  0
LINE
  5
71C
100
AcDbEntity
  8
4
100
AcDbLine
 62
7
  6
BYLAYER
 10
235.7343441934
 20
196.3199434628
 11
235.7343441934
 21
239.3199434628
  0
LINE
  5
71D
100
AcDbEntity
  8
0
100
AcDbLine
 62
7
  6
BYLAYER
 10
223.9602963477
 20
135.5288403919
 11
225.1610907544
 21
139.7316208152
  0
ARC
  5
71E
100
AcDbEntity
  8
0
100
AcDbCircle
 62
7
  6
BYLAYER
 10
32.2357413308
 20
140.2511820436
 40
3.9448507469
100
AcDbArc
 50
190.277243616
 51
195.9642368506
  0
ARC
  5
71F
100
AcDbEntity
  8
0
100
AcDbCircle
 62
7
  6
BYLAYER
 10
32.0261517221
 20
140.2125574656
 40
3.7317327829
100
AcDbArc
 50
187.2167667607
 51
190.2678517324
  0
ARC
  5
720
100
AcDbEntity
  8
0
100
AcDbCircle
 62
7
  6
BYLAYER
 10
31.6606524119
 20
136.0782826477
 40
2.0
100
AcDbArc
 50
270.0
 51
333.4349488229
  0
ARC
  5
721
100
AcDbEntity
  8
0
100
AcDbCircle
 62
7
  6
BYLAYER
 10
31.4053232149
 20
136.0782826477
 40
2.0
100
AcDbArc
 50
195.9453959
 51
270.0000000006
  0
ARC
  5
722
100
AcDbEntity
  8
0
100
AcDbCircle
 62
7
  6
BYLAYER
 10
29.8853153657
 20
139.5782826477
 40
2.0
100
AcDbArc
 50
90.0
 51
133.5208976482
  0
ARC
  5
723
100
AcDbEntity
  8
3
100
AcDbCircle
 62
7
  6
BYLAYER
 10
31.661380223
 20
136.0780245957
 40
2.0
100
AcDbArc
 50
293.5928618273
 51
335.6701324954
  0
ARC
  5
724
100
AcDbEntity
  8
3
100
AcDbCircle
 62
7
  6
BYLAYER
 10
31.405070447
 20
136.0780245957
 40
2.0000000001
100
AcDbArc
 50
195.9453958993
 51
241.6319909474
  0
ARC
  5
725
100
AcDbEntity
  8
0
100
AcDbCircle
 62
7
  6
BYLAYER
 10
29.8853153657
 20
139.5782826477
 40
1.5
100
AcDbArc
 50
90.0000000004
 51
195.9453959006
  0
ARC
  5
726
100
AcDbEntity
  8
0
100
AcDbCircle
 62
7
  6
BYLAYER
 10
31.6606524119
 20
136.0782826477
 40
1.0
100
AcDbArc
 50
270.0
 51
333.434948823
  0
ARC
  5
727
100
AcDbEntity
  8
0
100
AcDbCircle
 62
7
  6
BYLAYER
 10
31.4053232149
 20
136.0782826477
 40
1.0
100
AcDbArc
 50
195.9453958967
 51
270.0000000014
  0
ARC
  5
728
100
AcDbEntity
  8
0
100
AcDbCircle
 62
7
  6
BYLAYER
 10
33.3967203894
 20
136.1963166365
 40
0.5
100
AcDbArc
 50
333.4349488229
 51
360.0
  0
ARC
  5
729
100
AcDbEntity
  8
3
100
AcDbCircle
 62
7
  6
BYLAYER
 10
33.3974482004
 20
136.1960585845
 40
0.5000000001
100
AcDbArc
 50
333.4349488254
 51
360.0
  0
ARC
  5
72A
100
AcDbEntity
  8
0
100
AcDbCircle
 62
7
  6
BYLAYER
 10
29.8853153657
 20
139.5782826477
 40
0.4999955025
100
AcDbArc
 50
90.0000000006
 51
195.8825365548
  0
ARC
  5
72B
100
AcDbEntity
  8
0
100
AcDbCircle
 62
7
  6
BYLAYER
 10
31.3967203894
 20
144.5782826477
 40
4.5
100
AcDbArc
 50
270.0
 51
90.0
  0
ARC
  5
72C
100
AcDbEntity
  8
0
100
AcDbCircle
 62
7
  6
BYLAYER
 10
31.3967203894
 20
144.5782826477
 40
3.5
100
AcDbArc
 50
270.0
 51
90.0
  0
CIRCLE
  5
72D
100
AcDbEntity
  8
0
100
AcDbCircle
 62
7
  6
BYLAYER
 10
31.3967203894
 20
144.5782826477
 40
3.3
  0
CIRCLE
  5
72E
100
AcDbEntity
  8
0
100
AcDbCircle
 62
7
  6
BYLAYER
 10
31.3967203894
 20
144.5782826477
 40
2.2999997533
  0
ARC
  5
72F
100
AcDbEntity
  8
0
100
AcDbCircle
 62
7
  6
BYLAYER
 10
28.8967203894
 20
149.0782826477
 40
1.0
100
AcDbArc
 50
180.0
 51
269.9999999944
  0
ARC
  5
730
100
AcDbEntity
  8
0
100
AcDbCircle
 62
7
  6
BYLAYER
 10
37.8967203894
 20
142.4788320941
 40
10.0
100
AcDbArc
 50
180.0
 51
195.9453959009
  0
ARC
  5
731
100
AcDbEntity
  8
3
100
AcDbCircle
 62
7
  6
BYLAYER
 10
37.8964676215
 20
142.4785740421
 40
10.0
100
AcDbArc
 50
180.0000000001
 51
195.9453959009
  0
ARC
  5
732
100
AcDbEntity
  8
0
100
AcDbCircle
 62
7
  6
BYLAYER
 10
37.8967203894
 20
142.4788320941
 40
9.5
100
AcDbArc
 50
179.9999999997
 51
188.7813100786
  0
CIRCLE
  5
733
100
AcDbEntity
  8
0
100
AcDbCircle
 62
7
  6
BYLAYER
 10
43.8949603894
 20
151.0777026477
 40
4.125
  0
ARC
  5
734
100
AcDbEntity
  8
0
100
AcDbCircle
 62
7
  6
BYLAYER
 10
43.8949603894
 20
151.0777026477
 40
3.8249926453
100
AcDbArc
 50
280.5449517458
 51
259.4550479141
  0
CIRCLE
  5
735
100
AcDbEntity
  8
0
100
AcDbCircle
 62
7
  6
BYLAYER
 10
43.8949603894
 20
151.0777026477
 40
0.7500188492
  0
CIRCLE
  5
736
100
AcDbEntity
  8
0
100
AcDbCircle
 62
7
  6
BYLAYER
 10
45.6627273424
 20
149.3099356948
 40
0.7499873204
  0
CIRCLE
  5
737
100
AcDbEntity
  8
0
100
AcDbCircle
 62
7
  6
BYLAYER
 10
42.1271934365
 20
149.3099356948
 40
0.7499873204
  0
ARC
  5
738
100
AcDbEntity
  8
0
100
AcDbCircle
 62
7
  6
BYLAYER
 10
43.8949603894
 20
147.6277026477
 40
0.7
100
AcDbArc
 50
0.0
 51
180.0
  0
CIRCLE
  5
739
100
AcDbEntity
  8
0
100
AcDbCircle
 62
7
  6
BYLAYER
 10
43.8949603894
 20
151.0777026477
 40
0.55
  0
CIRCLE
  5
73A
100
AcDbEntity
  8
0
100
AcDbCircle
 62
7
  6
BYLAYER
 10
42.1271934365
 20
149.3099356948
 40
0.55
  0
CIRCLE
  5
73B
100
AcDbEntity
  8
0
100
AcDbCircle
 62
7
  6
BYLAYER
 10
45.6627273424
 20
149.3099356948
 40
0.55
  0
ARC
  5
73C
100
AcDbEntity
  8
0
100
AcDbCircle
 62
7
  6
BYLAYER
 10
30.3967203894
 20
154.0782826477
 40
1.0
100
AcDbArc
 50
180.0
 51
270.0
  0
ARC
  5
73D
100
AcDbEntity
  8
0
100
AcDbCircle
 62
7
  6
BYLAYER
 10
31.8967203894
 20
154.0782826477
 40
1.0
100
AcDbArc
 50
270.0
 51
360.0
  0
ARC
  5
73E
100
AcDbEntity
  8
0
100
AcDbCircle
 62
7
  6
BYLAYER
 10
31.8967203894
 20
154.0782826477
 40
0.5
100
AcDbArc
 50
270.0
 51
360.0
  0
ARC
  5
73F
100
AcDbEntity
  8
0
100
AcDbCircle
 62
7
  6
BYLAYER
 10
30.3967203894
 20
154.0782826477
 40
0.5
100
AcDbArc
 50
180.0
 51
270.0
  0
ARC
  5
740
100
AcDbEntity
  8
0
100
AcDbCircle
 62
7
  6
BYLAYER
 10
29.3967203894
 20
157.0782826477
 40
0.5
100
AcDbArc
 50
0.0
 51
90.0000000003
  0
ARC
  5
741
100
AcDbEntity
  8
0
100
AcDbCircle
 62
7
  6
BYLAYER
 10
28.3967203894
 20
157.0782826477
 40
0.5
100
AcDbArc
 50
90.0000000001
 51
180.0
  0
ARC
  5
742
100
AcDbEntity
  8
3
100
AcDbCircle
 62
7
  6
BYLAYER
 10
28.3964676215
 20
157.0780245957
 40
0.5
100
AcDbArc
 50
122.5617135691
 51
180.0
  0
ARC
  5
743
100
AcDbEntity
  8
0
100
AcDbCircle
 62
7
  6
BYLAYER
 10
28.3967203894
 20
166.0782826477
 40
0.5
100
AcDbArc
 50
180.0
 51
270.0000000001
  0
ARC
  5
744
100
AcDbEntity
  8
0
100
AcDbCircle
 62
7
  6
BYLAYER
 10
29.3967203894
 20
166.0782826477
 40
0.5
100
AcDbArc
 50
270.0
 51
360.0
  0
ARC
  5
745
100
AcDbEntity
  8
3
100
AcDbCircle
 62
7
  6
BYLAYER
 10
28.3964676215
 20
166.0780245957
 40
0.5
100
AcDbArc
 50
180.0
 51
270.0
  0
ARC
  5
746
100
AcDbEntity
  8
0
100
AcDbCircle
 62
7
  6
BYLAYER
 10
43.8967203894
 20
151.0782826477
 40
8.5
100
AcDbArc
 50
0.117470099
 51
180.117470099
  0
ARC
  5
747
100
AcDbEntity
  8
0
100
AcDbCircle
 62
7
  6
BYLAYER
 10
43.8967203894
 20
151.0782826477
 40
8.1052090289
100
AcDbArc
 50
0.117470099
 51
180.117470099
  0
ARC
  5
748
100
AcDbEntity
  8
0
100
AcDbCircle
 62
7
  6
BYLAYER
 10
43.8967203894
 20
151.0782826477
 40
7.8947909711
100
AcDbArc
 50
0.117470099
 51
180.117470099
  0
CIRCLE
  5
749
100
AcDbEntity
  8
0
100
AcDbCircle
 62
7
  6
BYLAYER
 10
43.8967203894
 20
151.0782826477
 40
7.75
  0
CIRCLE
  5
74A
100
AcDbEntity
  8
0
100
AcDbCircle
 62
7
  6
BYLAYER
 10
43.8967203894
 20
151.0782826477
 40
7.25
  0
CIRCLE
  5
74B
100
AcDbEntity
  8
0
100
AcDbCircle
 62
7
  6
BYLAYER
 10
43.8967203894
 20
151.0782826477
 40
6.0
  0
CIRCLE
  5
74C
100
AcDbEntity
  8
0
100
AcDbCircle
 62
7
  6
BYLAYER
 10
43.8967203894
 20
151.0782826477
 40
5.5
  0
CIRCLE
  5
74D
100
AcDbEntity
  8
0
100
AcDbCircle
 62
7
  6
BYLAYER
 10
43.8967203894
 20
151.0782826477
 40
4.5
  0
CIRCLE
  5
74E
100
AcDbEntity
  8
0
100
AcDbCircle
 62
7
  6
BYLAYER
 10
43.8967203894
 20
151.0782826477
 40
4.45
  0
CIRCLE
  5
74F
100
AcDbEntity
  8
0
100
AcDbCircle
 62
7
  6
BYLAYER
 10
45.6627273424
 20
152.8454696007
 40
0.7499873204
  0
CIRCLE
  5
750
100
AcDbEntity
  8
0
100
AcDbCircle
 62
7
  6
BYLAYER
 10
42.1271934365
 20
152.8454696007
 40
0.7499873204
  0
CIRCLE
  5
751
100
AcDbEntity
  8
0
100
AcDbCircle
 62
7
  6
BYLAYER
 10
42.1271934365
 20
152.8454696007
 40
0.55
  0
CIRCLE
  5
752
100
AcDbEntity
  8
0
100
AcDbCircle
 62
7
  6
BYLAYER
 10
45.6627273424
 20
152.8454696007
 40
0.55
  0
ARC
  5
753
100
AcDbEntity
  8
0
100
AcDbCircle
 62
7
  6
BYLAYER
 10
67.8967203894
 20
142.4788320941
 40
10.0
100
AcDbArc
 50
344.0546040991
 51
360.0
  0
ARC
  5
754
100
AcDbEntity
  8
0
100
AcDbCircle
 62
7
  6
BYLAYER
 10
67.8967203894
 20
142.4788320941
 40
9.5
100
AcDbArc
 50
351.2186899299
 51
360.0
  0
ARC
  5
755
100
AcDbEntity
  8
0
100
AcDbCircle
 62
7
  6
BYLAYER
 10
61.8959403894
 20
151.0781326477
 40
4.15
100
AcDbArc
 50
278.312861012
 51
261.687138988
  0
ARC
  5
756
100
AcDbEntity
  8
0
100
AcDbCircle
 62
7
  6
BYLAYER
 10
61.8959403894
 20
147.5281326477
 40
0.6
100
AcDbArc
 50
0.0
 51
180.0
  0
CIRCLE
  5
757
100
AcDbEntity
  8
0
100
AcDbCircle
 62
7
  6
BYLAYER
 10
61.8959403894
 20
149.9781326477
 40
0.315
  0
CIRCLE
  5
758
100
AcDbEntity
  8
0
100
AcDbCircle
 62
7
  6
BYLAYER
 10
63.3239687137
 20
148.5541011295
 40
0.315
  0
CIRCLE
  5
759
100
AcDbEntity
  8
0
100
AcDbCircle
 62
7
  6
BYLAYER
 10
64.5678701946
 20
149.9508389343
 40
0.315
  0
CIRCLE
  5
75A
100
AcDbEntity
  8
0
100
AcDbCircle
 62
7
  6
BYLAYER
 10
59.2240105843
 20
149.9508389343
 40
0.315
  0
CIRCLE
  5
75B
100
AcDbEntity
  8
0
100
AcDbCircle
 62
7
  6
BYLAYER
 10
60.4679120651
 20
148.5541011295
 40
0.315
  0
ARC
  5
75C
100
AcDbEntity
  8
0
100
AcDbCircle
 62
7
  6
BYLAYER
 10
73.5575679988
 20
140.2512148981
 40
3.9449861629
100
AcDbArc
 50
344.0358294645
 51
349.7115065617
  0
ARC
  5
75D
100
AcDbEntity
  8
0
100
AcDbCircle
 62
7
  6
BYLAYER
 10
73.7667685318
 20
140.2126358416
 40
3.7322590302
100
AcDbArc
 50
349.7206339394
 51
352.7830434204
  0
ARC
  5
75E
100
AcDbEntity
  8
0
100
AcDbCircle
 62
7
  6
BYLAYER
 10
74.1327883669
 20
136.0782826477
 40
1.9999999999
100
AcDbArc
 50
206.5650511762
 51
270.0000000007
  0
ARC
  5
75F
100
AcDbEntity
  8
0
100
AcDbCircle
 62
7
  6
BYLAYER
 10
74.3881175639
 20
136.0782826478
 40
2.0000000001
100
AcDbArc
 50
270.0000000009
 51
344.0546040979
  0
ARC
  5
760
100
AcDbEntity
  8
0
100
AcDbCircle
 62
7
  6
BYLAYER
 10
75.9081254132
 20
139.5782826477
 40
2.0
100
AcDbArc
 50
46.4791023344
 51
90.0
  0
ARC
  5
761
100
AcDbEntity
  8
3
100
AcDbCircle
 62
7
  6
BYLAYER
 10
74.3878647959
 20
136.0780245957
 40
2.0
100
AcDbArc
 50
267.8136280497
 51
315.7258108956
  0
ARC
  5
762
100
AcDbEntity
  8
3
100
AcDbCircle
 62
7
  6
BYLAYER
 10
74.1315550199
 20
136.0780245957
 40
2.0
100
AcDbArc
 50
228.1640109152
 51
275.0815039934
  0
ARC
  5
763
100
AcDbEntity
  8
0
100
AcDbCircle
 62
7
  6
BYLAYER
 10
75.9081254132
 20
139.5782826477
 40
1.5
100
AcDbArc
 50
344.0546040989
 51
90.0
  0
ARC
  5
764
100
AcDbEntity
  8
0
100
AcDbCircle
 62
7
  6
BYLAYER
 10
74.3881175639
 20
136.0782826478
 40
1.0000000001
100
AcDbArc
 50
270.0000000011
 51
344.0546040963
  0
ARC
  5
765
100
AcDbEntity
  8
0
100
AcDbCircle
 62
7
  6
BYLAYER
 10
74.1327883669
 20
136.0782826477
 40
1.0
100
AcDbArc
 50
206.5650511749
 51
270.0000000011
  0
ARC
  5
766
100
AcDbEntity
  8
0
100
AcDbCircle
 62
7
  6
BYLAYER
 10
72.3967203894
 20
136.1963166365
 40
0.5
100
AcDbArc
 50
180.0
 51
206.5650511771
  0
ARC
  5
767
100
AcDbEntity
  8
3
100
AcDbCircle
 62
7
  6
BYLAYER
 10
72.3954870424
 20
136.1960585845
 40
0.5
100
AcDbArc
 50
179.9999999988
 51
206.5650511772
  0
ARC
  5
768
100
AcDbEntity
  8
0
100
AcDbCircle
 62
7
  6
BYLAYER
 10
75.9081254132
 20
139.5782826477
 40
0.4999917214
100
AcDbArc
 50
344.0546040974
 51
89.9371406557
  0
ARC
  5
769
100
AcDbEntity
  8
0
100
AcDbCircle
 62
7
  6
BYLAYER
 10
74.3967203894
 20
144.5782826477
 40
4.5
100
AcDbArc
 50
90.0
 51
270.0
  0
ARC
  5
76A
100
AcDbEntity
  8
0
100
AcDbCircle
 62
7
  6
BYLAYER
 10
74.3967203894
 20
144.5782826477
 40
3.5
100
AcDbArc
 50
90.0
 51
270.0
  0
CIRCLE
  5
76B
100
AcDbEntity
  8
0
100
AcDbCircle
 62
7
  6
BYLAYER
 10
74.3967203894
 20
144.5782826477
 40
3.3
  0
CIRCLE
  5
76C
100
AcDbEntity
  8
0
100
AcDbCircle
 62
7
  6
BYLAYER
 10
74.3967203894
 20
144.5782826477
 40
2.2999997533
  0
ARC
  5
76D
100
AcDbEntity
  8
0
100
AcDbCircle
 62
7
  6
BYLAYER
 10
76.8967203894
 20
149.0782826477
 40
1.0
100
AcDbArc
 50
270.0000000487
 51
360.0
  0
ARC
  5
76E
100
AcDbEntity
  8
0
100
AcDbCircle
 62
7
  6
BYLAYER
 10
61.8967203894
 20
151.0782826477
 40
8.5
100
AcDbArc
 50
0.117470099
 51
180.117470099
  0
ARC
  5
76F
100
AcDbEntity
  8
0
100
AcDbCircle
 62
7
  6
BYLAYER
 10
61.8967203894
 20
151.0782826477
 40
8.1052090289
100
AcDbArc
 50
0.117470099
 51
180.117470099
  0
ARC
  5
770
100
AcDbEntity
  8
0
100
AcDbCircle
 62
7
  6
BYLAYER
 10
61.8967203894
 20
151.0782826477
 40
7.8947909711
100
AcDbArc
 50
0.117470099
 51
180.117470099
  0
CIRCLE
  5
771
100
AcDbEntity
  8
0
100
AcDbCircle
 62
7
  6
BYLAYER
 10
61.8967203894
 20
151.0782826477
 40
7.75
  0
CIRCLE
  5
772
100
AcDbEntity
  8
0
100
AcDbCircle
 62
7
  6
BYLAYER
 10
61.8967203894
 20
151.0782826477
 40
7.25
  0
CIRCLE
  5
773
100
AcDbEntity
  8
0
100
AcDbCircle
 62
7
  6
BYLAYER
 10
61.8967203894
 20
151.0782826477
 40
6.000001548
  0
CIRCLE
  5
774
100
AcDbEntity
  8
0
100
AcDbCircle
 62
7
  6
BYLAYER
 10
61.8967203894
 20
151.0782826477
 40
5.5000005643
  0
CIRCLE
  5
775
100
AcDbEntity
  8
0
100
AcDbCircle
 62
7
  6
BYLAYER
 10
61.8967203894
 20
151.0782826477
 40
4.7
  0
CIRCLE
  5
776
100
AcDbEntity
  8
0
100
AcDbCircle
 62
7
  6
BYLAYER
 10
61.8967203894
 20
151.0782826477
 40
4.2
  0
CIRCLE
  5
777
100
AcDbEntity
  8
0
100
AcDbCircle
 62
7
  6
BYLAYER
 10
62.8485683336
 20
151.6281326477
 40
0.315
  0
CIRCLE
  5
778
100
AcDbEntity
  8
0
100
AcDbCircle
 62
7
  6
BYLAYER
 10
60.9433124453
 20
151.6281326477
 40
0.315
  0
CIRCLE
  5
779
100
AcDbEntity
  8
0
100
AcDbCircle
 62
7
  6
BYLAYER
 10
64.7003736123
 20
151.8164782975
 40
0.315
  0
CIRCLE
  5
77A
100
AcDbEntity
  8
0
100
AcDbCircle
 62
7
  6
BYLAYER
 10
63.6663637308
 20
153.3750003392
 40
0.315
  0
CIRCLE
  5
77B
100
AcDbEntity
  8
0
100
AcDbCircle
 62
7
  6
BYLAYER
 10
61.8959403894
 20
153.9781326477
 40
0.315
  0
CIRCLE
  5
77C
100
AcDbEntity
  8
0
100
AcDbCircle
 62
7
  6
BYLAYER
 10
60.125517048
 20
153.3750003392
 40
0.315
  0
CIRCLE
  5
77D
100
AcDbEntity
  8
0
100
AcDbCircle
 62
7
  6
BYLAYER
 10
59.0915071666
 20
151.8164782975
 40
0.315
  0
ARC
  5
77E
100
AcDbEntity
  8
0
100
AcDbCircle
 62
7
  6
BYLAYER
 10
73.8967203894
 20
154.0782826477
 40
1.0
100
AcDbArc
 50
180.0
 51
270.0
  0
ARC
  5
77F
100
AcDbEntity
  8
0
100
AcDbCircle
 62
7
  6
BYLAYER
 10
75.3967203894
 20
154.0782826477
 40
1.0
100
AcDbArc
 50
270.0
 51
360.0
  0
ARC
  5
780
100
AcDbEntity
  8
0
100
AcDbCircle
 62
7
  6
BYLAYER
 10
73.8967203894
 20
154.0782826477
 40
0.5
100
AcDbArc
 50
180.0
 51
270.0
  0
ARC
  5
781
100
AcDbEntity
  8
0
100
AcDbCircle
 62
7
  6
BYLAYER
 10
75.3967203894
 20
154.0782826477
 40
0.5
100
AcDbArc
 50
270.0
 51
360.0
  0
ARC
  5
782
100
AcDbEntity
  8
0
100
AcDbCircle
 62
7
  6
BYLAYER
 10
76.3967203894
 20
157.0782826477
 40
0.5
100
AcDbArc
 50
90.0
 51
180.0
  0
ARC
  5
783
100
AcDbEntity
  8
0
100
AcDbCircle
 62
7
  6
BYLAYER
 10
77.3967203894
 20
157.0782826477
 40
0.5
100
AcDbArc
 50
0.0
 51
90.0000000001
  0
ARC
  5
784
100
AcDbEntity
  8
0
100
AcDbCircle
 62
7
  6
BYLAYER
 10
77.3967203894
 20
166.0782826477
 40
0.5
100
AcDbArc
 50
269.9999999999
 51
360.0
  0
ARC
  5
785
100
AcDbEntity
  8
0
100
AcDbCircle
 62
7
  6
BYLAYER
 10
76.3967203894
 20
166.0782826477
 40
0.5
100
AcDbArc
 50
180.0
 51
270.0
  0
ARC
  5
786
100
AcDbEntity
  8
3
100
AcDbCircle
 62
7
  6
BYLAYER
 10
77.3964676215
 20
166.0780245957
 40
0.5
100
AcDbArc
 50
270.0
 51
302.6489908961
  0
ARC
  5
787
100
AcDbEntity
  8
0
100
AcDbCircle
 62
7
  6
BYLAYER
 10
31.8967203894
 20
169.0782826477
 40
1.0
100
AcDbArc
 50
0.0
 51
90.0
  0
ARC
  5
788
100
AcDbEntity
  8
0
100
AcDbCircle
 62
7
  6
BYLAYER
 10
30.3967203894
 20
169.0782826477
 40
1.0
100
AcDbArc
 50
90.0
 51
180.0
  0
ARC
  5
789
100
AcDbEntity
  8
0
100
AcDbCircle
 62
7
  6
BYLAYER
 10
30.3967203894
 20
169.0782826477
 40
0.5
100
AcDbArc
 50
90.0
 51
180.0
  0
ARC
  5
78A
100
AcDbEntity
  8
0
100
AcDbCircle
 62
7
  6
BYLAYER
 10
31.8967203894
 20
169.0782826477
 40
0.5
100
AcDbArc
 50
0.0
 51
90.0
  0
ARC
  5
78B
100
AcDbEntity
  8
0
100
AcDbCircle
 62
7
  6
BYLAYER
 10
28.8967203894
 20
180.0782826477
 40
1.0
100
AcDbArc
 50
90.0000000487
 51
180.0
  0
CIRCLE
  5
78C
100
AcDbEntity
  8
0
100
AcDbCircle
 62
7
  6
BYLAYER
 10
41.3949603894
 20
173.5770226477
 40
0.7499873204
  0
CIRCLE
  5
78D
100
AcDbEntity
  8
0
100
AcDbCircle
 62
7
  6
BYLAYER
 10
41.3949603894
 20
173.5770226477
 40
0.55
  0
CIRCLE
  5
78E
100
AcDbEntity
  8
0
100
AcDbCircle
 62
7
  6
BYLAYER
 10
43.8949603894
 20
171.0770226477
 40
0.7499873204
  0
ARC
  5
78F
100
AcDbEntity
  8
0
100
AcDbCircle
 62
7
  6
BYLAYER
 10
46.3344787845
 20
171.1375042526
 40
0.7
100
AcDbArc
 50
44.9999999997
 51
224.9999999996
  0
CIRCLE
  5
790
100
AcDbEntity
  8
0
100
AcDbCircle
 62
7
  6
BYLAYER
 10
43.8949603894
 20
171.0770226477
 40
0.55
  0
ARC
  5
791
100
AcDbEntity
  8
0
100
AcDbCircle
 62
7
  6
BYLAYER
 10
43.8967203894
 20
173.5782826477
 40
8.5
100
AcDbArc
 50
180.117470099
 51
0.117470099
  0
ARC
  5
792
100
AcDbEntity
  8
0
100
AcDbCircle
 62
7
  6
BYLAYER
 10
43.8967203894
 20
173.5782826477
 40
8.1052964846
100
AcDbArc
 50
180.117470099
 51
0.117470099
  0
ARC
  5
793
100
AcDbEntity
  8
0
100
AcDbCircle
 62
7
  6
BYLAYER
 10
43.8967203894
 20
173.5782826477
 40
7.8947035154
100
AcDbArc
 50
180.117470099
 51
0.117470099
  0
CIRCLE
  5
794
100
AcDbEntity
  8
0
100
AcDbCircle
 62
7
  6
BYLAYER
 10
43.8967203894
 20
173.5782826477
 40
7.75
  0
CIRCLE
  5
795
100
AcDbEntity
  8
0
100
AcDbCircle
 62
7
  6
BYLAYER
 10
43.8967203894
 20
173.5782826477
 40
7.25
  0
CIRCLE
  5
796
100
AcDbEntity
  8
0
100
AcDbCircle
 62
7
  6
BYLAYER
 10
43.8967203894
 20
173.5782826477
 40
6.0
  0
CIRCLE
  5
797
100
AcDbEntity
  8
0
100
AcDbCircle
 62
7
  6
BYLAYER
 10
43.8967203894
 20
173.5782826477
 40
5.5
  0
CIRCLE
  5
798
100
AcDbEntity
  8
0
100
AcDbCircle
 62
7
  6
BYLAYER
 10
43.8967203894
 20
173.5782826477
 40
4.5
  0
CIRCLE
  5
799
100
AcDbEntity
  8
0
100
AcDbCircle
 62
7
  6
BYLAYER
 10
43.8967203894
 20
173.5782826477
 40
4.45
  0
CIRCLE
  5
79A
100
AcDbEntity
  8
0
100
AcDbCircle
 62
7
  6
BYLAYER
 10
43.8949603894
 20
173.5770226477
 40
4.125
  0
ARC
  5
79B
100
AcDbEntity
  8
0
100
AcDbCircle
 62
7
  6
BYLAYER
 10
43.8949603894
 20
173.5770226477
 40
3.8249926453
100
AcDbArc
 50
325.5449517458
 51
304.4550479141
  0
CIRCLE
  5
79C
100
AcDbEntity
  8
0
100
AcDbCircle
 62
7
  6
BYLAYER
 10
43.8949603894
 20
173.5770226477
 40
0.7500188492
  0
CIRCLE
  5
79D
100
AcDbEntity
  8
0
100
AcDbCircle
 62
7
  6
BYLAYER
 10
46.3949603894
 20
173.5770226477
 40
0.7499873204
  0
CIRCLE
  5
79E
100
AcDbEntity
  8
0
100
AcDbCircle
 62
7
  6
BYLAYER
 10
43.8949603894
 20
173.5770226477
 40
0.55
  0
CIRCLE
  5
79F
100
AcDbEntity
  8
0
100
AcDbCircle
 62
7
  6
BYLAYER
 10
46.3949603894
 20
173.5770226477
 40
0.55
  0
CIRCLE
  5
7A0
100
AcDbEntity
  8
0
100
AcDbCircle
 62
7
  6
BYLAYER
 10
43.8949603894
 20
176.0770226477
 40
0.7499873204
  0
CIRCLE
  5
7A1
100
AcDbEntity
  8
0
100
AcDbCircle
 62
7
  6
BYLAYER
 10
43.8949603894
 20
176.0770226477
 40
0.55
  0
ARC
  5
7A2
100
AcDbEntity
  8
0
100
AcDbCircle
 62
7
  6
BYLAYER
 10
32.3967203894
 20
184.5782826477
 40
4.5
100
AcDbArc
 50
270.0
 51
360.0
  0
ARC
  5
7A3
100
AcDbEntity
  8
0
100
AcDbCircle
 62
7
  6
BYLAYER
 10
31.8967203894
 20
185.0782826477
 40
4.0
100
AcDbArc
 50
90.0
 51
180.0
  0
ARC
  5
7A4
100
AcDbEntity
  8
0
100
AcDbCircle
 62
7
  6
BYLAYER
 10
32.3967203894
 20
184.5782826477
 40
3.5
100
AcDbArc
 50
270.0
 51
360.0
  0
ARC
  5
7A5
100
AcDbEntity
  8
0
100
AcDbCircle
 62
7
  6
BYLAYER
 10
31.8967203894
 20
185.0782826477
 40
3.5
100
AcDbArc
 50
90.0000000003
 51
180.0
  0
CIRCLE
  5
7A6
100
AcDbEntity
  8
0
100
AcDbCircle
 62
7
  6
BYLAYER
 10
32.3967203894
 20
184.5782826477
 40
3.3
  0
CIRCLE
  5
7A7
100
AcDbEntity
  8
0
100
AcDbCircle
 62
7
  6
BYLAYER
 10
32.3967203894
 20
184.5782826477
 40
2.2999997533
  0
ARC
  5
7A8
100
AcDbEntity
  8
0
100
AcDbCircle
 62
7
  6
BYLAYER
 10
36.8967203894
 20
188.0782826477
 40
1.0
100
AcDbArc
 50
90.0
 51
179.9999999513
  0
ARC
  5
7A9
100
AcDbEntity
  8
0
100
AcDbCircle
 62
7
  6
BYLAYER
 10
45.3967203894
 20
186.5782826477
 40
1.0
100
AcDbArc
 50
90.0
 51
180.0
  0
ARC
  5
7AA
100
AcDbEntity
  8
0
100
AcDbCircle
 62
7
  6
BYLAYER
 10
45.3967203894
 20
185.0782826477
 40
1.0
100
AcDbArc
 50
180.0
 51
270.0
  0
ARC
  5
7AB
100
AcDbEntity
  8
0
100
AcDbCircle
 62
7
  6
BYLAYER
 10
45.3967203894
 20
185.0782826477
 40
0.5
100
AcDbArc
 50
180.0
 51
270.0
  0
ARC
  5
7AC
100
AcDbEntity
  8
0
100
AcDbCircle
 62
7
  6
BYLAYER
 10
45.3967203894
 20
186.5782826477
 40
0.5
100
AcDbArc
 50
90.0
 51
180.0
  0
ARC
  5
7AD
100
AcDbEntity
  8
0
100
AcDbCircle
 62
7
  6
BYLAYER
 10
48.3967203894
 20
187.5782826477
 40
0.5
100
AcDbArc
 50
269.9999999998
 51
360.0
  0
ARC
  5
7AE
100
AcDbEntity
  8
0
100
AcDbCircle
 62
7
  6
BYLAYER
 10
48.3967203894
 20
188.5782826477
 40
0.5
100
AcDbArc
 50
0.0000000001
 51
90.0
  0
ARC
  5
7AF
100
AcDbEntity
  8
0
100
AcDbCircle
 62
7
  6
BYLAYER
 10
59.4564219943
 20
171.1375042526
 40
0.7
100
AcDbArc
 50
314.9999999997
 51
134.9999999996
  0
CIRCLE
  5
7B0
100
AcDbEntity
  8
0
100
AcDbCircle
 62
7
  6
BYLAYER
 10
59.3959403894
 20
173.5770226477
 40
0.7499873204
  0
CIRCLE
  5
7B1
100
AcDbEntity
  8
0
100
AcDbCircle
 62
7
  6
BYLAYER
 10
59.3959403894
 20
173.5770226477
 40
0.55
  0
CIRCLE
  5
7B2
100
AcDbEntity
  8
0
100
AcDbCircle
 62
7
  6
BYLAYER
 10
61.8959403894
 20
171.0770226477
 40
0.7499873204
  0
CIRCLE
  5
7B3
100
AcDbEntity
  8
0
100
AcDbCircle
 62
7
  6
BYLAYER
 10
61.8959403894
 20
171.0770226477
 40
0.55
  0
ARC
  5
7B4
100
AcDbEntity
  8
0
100
AcDbCircle
 62
7
  6
BYLAYER
 10
61.8967203894
 20
173.5782826477
 40
8.5
100
AcDbArc
 50
180.117470099
 51
0.117470099
  0
ARC
  5
7B5
100
AcDbEntity
  8
0
100
AcDbCircle
 62
7
  6
BYLAYER
 10
61.8967203894
 20
173.5782826477
 40
8.1054946602
100
AcDbArc
 50
180.117470099
 51
0.117470099
  0
ARC
  5
7B6
100
AcDbEntity
  8
0
100
AcDbCircle
 62
7
  6
BYLAYER
 10
61.8967203894
 20
173.5782826477
 40
7.8945053398
100
AcDbArc
 50
180.117470099
 51
0.117470099
  0
CIRCLE
  5
7B7
100
AcDbEntity
  8
0
100
AcDbCircle
 62
7
  6
BYLAYER
 10
61.8967203894
 20
173.5782826477
 40
7.75
  0
CIRCLE
  5
7B8
100
AcDbEntity
  8
0
100
AcDbCircle
 62
7
  6
BYLAYER
 10
61.8967203894
 20
173.5782826477
 40
7.25
  0
CIRCLE
  5
7B9
100
AcDbEntity
  8
0
100
AcDbCircle
 62
7
  6
BYLAYER
 10
61.8967203894
 20
173.5782826477
 40
6.0
  0
CIRCLE
  5
7BA
100
AcDbEntity
  8
0
100
AcDbCircle
 62
7
  6
BYLAYER
 10
61.8967203894
 20
173.5782826477
 40
5.5
  0
CIRCLE
  5
7BB
100
AcDbEntity
  8
0
100
AcDbCircle
 62
7
  6
BYLAYER
 10
61.8967203894
 20
173.5782826477
 40
4.5
  0
CIRCLE
  5
7BC
100
AcDbEntity
  8
0
100
AcDbCircle
 62
7
  6
BYLAYER
 10
61.8967203894
 20
173.5782826477
 40
4.45
  0
CIRCLE
  5
7BD
100
AcDbEntity
  8
0
100
AcDbCircle
 62
7
  6
BYLAYER
 10
61.8959403894
 20
173.5770226477
 40
4.125
  0
ARC
  5
7BE
100
AcDbEntity
  8
0
100
AcDbCircle
 62
7
  6
BYLAYER
 10
61.8959403894
 20
173.5770226477
 40
3.8249926453
100
AcDbArc
 50
235.5449517458
 51
214.4550479141
  0
CIRCLE
  5
7BF
100
AcDbEntity
  8
0
100
AcDbCircle
 62
7
  6
BYLAYER
 10
61.8959403894
 20
173.5770226477
 40
0.7500188492
  0
CIRCLE
  5
7C0
100
AcDbEntity
  8
0
100
AcDbCircle
 62
7
  6
BYLAYER
 10
64.3959403894
 20
173.5770226477
 40
0.7499873204
  0
CIRCLE
  5
7C1
100
AcDbEntity
  8
0
100
AcDbCircle
 62
7
  6
BYLAYER
 10
64.3959403894
 20
173.5770226477
 40
0.55
  0
CIRCLE
  5
7C2
100
AcDbEntity
  8
0
100
AcDbCircle
 62
7
  6
BYLAYER
 10
61.8959403894
 20
173.5770226477
 40
0.55
  0
CIRCLE
  5
7C3
100
AcDbEntity
  8
0
100
AcDbCircle
 62
7
  6
BYLAYER
 10
61.8959403894
 20
176.0770226477
 40
0.7499873204
  0
CIRCLE
  5
7C4
100
AcDbEntity
  8
0
100
AcDbCircle
 62
7
  6
BYLAYER
 10
61.8959403894
 20
176.0770226477
 40
0.55
  0
ARC
  5
7C5
100
AcDbEntity
  8
0
100
AcDbCircle
 62
7
  6
BYLAYER
 10
75.3967203894
 20
169.0782826477
 40
1.0
100
AcDbArc
 50
0.0
 51
90.0
  0
ARC
  5
7C6
100
AcDbEntity
  8
0
100
AcDbCircle
 62
7
  6
BYLAYER
 10
73.8967203894
 20
169.0782826477
 40
1.0
100
AcDbArc
 50
90.0
 51
180.0
  0
ARC
  5
7C7
100
AcDbEntity
  8
0
100
AcDbCircle
 62
7
  6
BYLAYER
 10
75.3967203894
 20
169.0782826477
 40
0.5
100
AcDbArc
 50
0.0
 51
90.0
  0
ARC
  5
7C8
100
AcDbEntity
  8
0
100
AcDbCircle
 62
7
  6
BYLAYER
 10
73.8967203894
 20
169.0782826477
 40
0.5
100
AcDbArc
 50
90.0
 51
180.0
  0
ARC
  5
7C9
100
AcDbEntity
  8
0
100
AcDbCircle
 62
7
  6
BYLAYER
 10
76.8967203894
 20
180.0782826477
 40
1.0
100
AcDbArc
 50
0.0
 51
89.9999999513
  0
ARC
  5
7CA
100
AcDbEntity
  8
3
100
AcDbCircle
 62
7
  6
BYLAYER
 10
81.0852133049
 20
196.3199434628
 40
7.0
100
AcDbArc
 50
270.0
 51
360.0
  0
ARC
  5
7CB
100
AcDbEntity
  8
0
100
AcDbCircle
 62
7
  6
BYLAYER
 10
73.3967203894
 20
184.5782826477
 40
4.5
100
AcDbArc
 50
180.0
 51
270.0
  0
ARC
  5
7CC
100
AcDbEntity
  8
3
100
AcDbCircle
 62
7
  6
BYLAYER
 10
81.0852133049
 20
196.3199434628
 40
4.0
100
AcDbArc
 50
270.0
 51
360.0
  0
ARC
  5
7CD
100
AcDbEntity
  8
0
100
AcDbCircle
 62
7
  6
BYLAYER
 10
73.8967203894
 20
185.0782826477
 40
4.0
100
AcDbArc
 50
0.0
 51
90.0
  0
ARC
  5
7CE
100
AcDbEntity
  8
0
100
AcDbCircle
 62
7
  6
BYLAYER
 10
73.3967203894
 20
184.5782826477
 40
3.5
100
AcDbArc
 50
180.0
 51
270.0
  0
ARC
  5
7CF
100
AcDbEntity
  8
0
100
AcDbCircle
 62
7
  6
BYLAYER
 10
73.8967203894
 20
185.0782826477
 40
3.5
100
AcDbArc
 50
0.0000000001
 51
90.0
  0
CIRCLE
  5
7D0
100
AcDbEntity
  8
0
100
AcDbCircle
 62
7
  6
BYLAYER
 10
73.3967203894
 20
184.5782826477
 40
3.3
  0
CIRCLE
  5
7D1
100
AcDbEntity
  8
0
100
AcDbCircle
 62
7
  6
BYLAYER
 10
73.3967203894
 20
184.5782826477
 40
2.2999997533
  0
ARC
  5
7D2
100
AcDbEntity
  8
0
100
AcDbCircle
 62
7
  6
BYLAYER
 10
68.8967203894
 20
188.0782826477
 40
1.0
100
AcDbArc
 50
0.0000000487
 51
90.0
  0
ARC
  5
7D3
100
AcDbEntity
  8
0
100
AcDbCircle
 62
7
  6
BYLAYER
 10
60.3967203894
 20
185.0782826477
 40
1.0
100
AcDbArc
 50
270.0
 51
360.0
  0
ARC
  5
7D4
100
AcDbEntity
  8
0
100
AcDbCircle
 62
7
  6
BYLAYER
 10
60.3967203894
 20
186.5782826477
 40
1.0
100
AcDbArc
 50
0.0
 51
90.0
  0
ARC
  5
7D5
100
AcDbEntity
  8
0
100
AcDbCircle
 62
7
  6
BYLAYER
 10
57.3967203894
 20
188.5782826477
 40
0.5
100
AcDbArc
 50
90.0
 51
180.0000000001
  0
ARC
  5
7D6
100
AcDbEntity
  8
0
100
AcDbCircle
 62
7
  6
BYLAYER
 10
57.3967203894
 20
187.5782826477
 40
0.5
100
AcDbArc
 50
180.0
 51
270.0
  0
ARC
  5
7D7
100
AcDbEntity
  8
0
100
AcDbCircle
 62
7
  6
BYLAYER
 10
60.3967203894
 20
186.5782826477
 40
0.5
100
AcDbArc
 50
0.0
 51
90.0
  0
ARC
  5
7D8
100
AcDbEntity
  8
0
100
AcDbCircle
 62
7
  6
BYLAYER
 10
60.3967203894
 20
185.0782826477
 40
0.5
100
AcDbArc
 50
270.0
 51
360.0
  0
ARC
  5
7D9
100
AcDbEntity
  8
3
100
AcDbCircle
 62
7
  6
BYLAYER
 10
57.3964676215
 20
188.5780419106
 40
0.5
100
AcDbArc
 50
122.5659468052
 51
180.0
  0
ARC
  5
7DA
100
AcDbEntity
  8
0
100
AcDbCircle
 62
7
  6
BYLAYER
 10
179.8848722193
 20
140.2511820436
 40
3.9448507469
100
AcDbArc
 50
190.277243616
 51
195.9642368506
  0
ARC
  5
7DB
100
AcDbEntity
  8
0
100
AcDbCircle
 62
7
  6
BYLAYER
 10
179.6752826105
 20
140.2125574656
 40
3.7317327828
100
AcDbArc
 50
187.2167667606
 51
190.2678517324
  0
ARC
  5
7DC
100
AcDbEntity
  8
0
100
AcDbCircle
 62
7
  6
BYLAYER
 10
179.3097833005
 20
136.0782826477
 40
2.0
100
AcDbArc
 50
270.0
 51
333.4349488229
  0
ARC
  5
7DD
100
AcDbEntity
  8
0
100
AcDbCircle
 62
7
  6
BYLAYER
 10
179.0544541034
 20
136.0782826477
 40
2.0
100
AcDbArc
 50
195.9453959
 51
270.0000000006
  0
ARC
  5
7DE
100
AcDbEntity
  8
0
100
AcDbCircle
 62
7
  6
BYLAYER
 10
177.5344462542
 20
139.5782826477
 40
2.0
100
AcDbArc
 50
90.0
 51
133.5208976482
  0
ARC
  5
7DF
100
AcDbEntity
  8
3
100
AcDbCircle
 62
7
  6
BYLAYER
 10
179.3105111115
 20
136.0780245957
 40
2.0
100
AcDbArc
 50
293.5928618273
 51
335.6701324952
  0
ARC
  5
7E0
100
AcDbEntity
  8
3
100
AcDbCircle
 62
7
  6
BYLAYER
 10
179.0542013355
 20
136.0780245957
 40
2.0000000001
100
AcDbArc
 50
195.9453958994
 51
241.6319909474
  0
ARC
  5
7E1
100
AcDbEntity
  8
0
100
AcDbCircle
 62
7
  6
BYLAYER
 10
177.5344462542
 20
139.5782826477
 40
1.5
100
AcDbArc
 50
90.0000000004
 51
195.9453959006
  0
ARC
  5
7E2
100
AcDbEntity
  8
0
100
AcDbCircle
 62
7
  6
BYLAYER
 10
179.3097833005
 20
136.0782826477
 40
1.0
100
AcDbArc
 50
270.0
 51
333.4349488229
  0
ARC
  5
7E3
100
AcDbEntity
  8
0
100
AcDbCircle
 62
7
  6
BYLAYER
 10
179.0544541034
 20
136.0782826477
 40
1.0
100
AcDbArc
 50
195.9453958967
 51
270.0000000014
  0
ARC
  5
7E4
100
AcDbEntity
  8
0
100
AcDbCircle
 62
7
  6
BYLAYER
 10
177.5344462542
 20
139.5782826477
 40
0.4999955025
100
AcDbArc
 50
90.0000000005
 51
195.882536555
  0
ARC
  5
7E5
100
AcDbEntity
  8
0
100
AcDbCircle
 62
7
  6
BYLAYER
 10
179.045851278
 20
144.5782826477
 40
4.5
100
AcDbArc
 50
270.0
 51
90.0
  0
ARC
  5
7E6
100
AcDbEntity
  8
0
100
AcDbCircle
 62
7
  6
BYLAYER
 10
179.045851278
 20
144.5782826477
 40
3.5
100
AcDbArc
 50
270.0
 51
90.0
  0
CIRCLE
  5
7E7
100
AcDbEntity
  8
0
100
AcDbCircle
 62
7
  6
BYLAYER
 10
179.0458512779
 20
144.5782826477
 40
3.3
  0
CIRCLE
  5
7E8
100
AcDbEntity
  8
0
100
AcDbCircle
 62
7
  6
BYLAYER
 10
179.0458512779
 20
144.5782826477
 40
2.2999997533
  0
ARC
  5
7E9
100
AcDbEntity
  8
0
100
AcDbCircle
 62
7
  6
BYLAYER
 10
176.545851278
 20
149.0782826477
 40
1.0
100
AcDbArc
 50
180.0
 51
269.9999999944
  0
ARC
  5
7EA
100
AcDbEntity
  8
0
100
AcDbCircle
 62
7
  6
BYLAYER
 10
185.545851278
 20
142.4788320941
 40
10.0
100
AcDbArc
 50
180.0
 51
195.9453959009
  0
ARC
  5
7EB
100
AcDbEntity
  8
3
100
AcDbCircle
 62
7
  6
BYLAYER
 10
185.54559851
 20
142.4785740421
 40
10.0
100
AcDbArc
 50
179.9999999999
 51
195.9453959009
  0
ARC
  5
7EC
100
AcDbEntity
  8
0
100
AcDbCircle
 62
7
  6
BYLAYER
 10
185.545851278
 20
142.4788320941
 40
9.5
100
AcDbArc
 50
179.9999999997
 51
188.7813100786
  0
ARC
  5
7ED
100
AcDbEntity
  8
0
100
AcDbCircle
 62
7
  6
BYLAYER
 10
181.045851278
 20
136.1963166365
 40
0.5
100
AcDbArc
 50
333.4349488229
 51
360.0
  0
ARC
  5
7EE
100
AcDbEntity
  8
3
100
AcDbCircle
 62
7
  6
BYLAYER
 10
181.0465790889
 20
136.1960585845
 40
0.5000000001
100
AcDbArc
 50
333.4349488268
 51
360.0
  0
ARC
  5
7EF
100
AcDbEntity
  8
0
100
AcDbCircle
 62
7
  6
BYLAYER
 10
191.545851278
 20
151.0782826477
 40
8.5
100
AcDbArc
 50
0.117470099
 51
180.117470099
  0
ARC
  5
7F0
100
AcDbEntity
  8
0
100
AcDbCircle
 62
7
  6
BYLAYER
 10
191.545851278
 20
151.0782826477
 40
8.1052090289
100
AcDbArc
 50
0.117470099
 51
180.117470099
  0
ARC
  5
7F1
100
AcDbEntity
  8
0
100
AcDbCircle
 62
7
  6
BYLAYER
 10
191.545851278
 20
151.0782826477
 40
7.8947909711
100
AcDbArc
 50
0.117470099
 51
180.117470099
  0
CIRCLE
  5
7F2
100
AcDbEntity
  8
4
100
AcDbCircle
 62
7
  6
BYLAYER
 10
191.545851278
 20
151.0782826477
 40
7.5
  0
CIRCLE
  5
7F3
100
AcDbEntity
  8
0
100
AcDbCircle
 62
7
  6
BYLAYER
 10
191.545851278
 20
151.0782826477
 40
7.0
  0
ARC
  5
7F4
100
AcDbEntity
  8
0
100
AcDbCircle
 62
7
  6
BYLAYER
 10
178.045851278
 20
154.0782826477
 40
1.0
100
AcDbArc
 50
180.0
 51
270.0
  0
ARC
  5
7F5
100
AcDbEntity
  8
0
100
AcDbCircle
 62
7
  6
BYLAYER
 10
179.545851278
 20
154.0782826477
 40
1.0
100
AcDbArc
 50
270.0
 51
360.0
  0
ARC
  5
7F6
100
AcDbEntity
  8
0
100
AcDbCircle
 62
7
  6
BYLAYER
 10
176.045851278
 20
166.0782826477
 40
0.5
100
AcDbArc
 50
180.0
 51
270.0000000001
  0
ARC
  5
7F7
100
AcDbEntity
  8
0
100
AcDbCircle
 62
7
  6
BYLAYER
 10
177.045851278
 20
166.0782826477
 40
0.5
100
AcDbArc
 50
270.0
 51
360.0
  0
ARC
  5
7F8
100
AcDbEntity
  8
0
100
AcDbCircle
 62
7
  6
BYLAYER
 10
179.545851278
 20
154.0782826477
 40
0.5
100
AcDbArc
 50
270.0
 51
360.0
  0
ARC
  5
7F9
100
AcDbEntity
  8
0
100
AcDbCircle
 62
7
  6
BYLAYER
 10
178.045851278
 20
154.0782826477
 40
0.5
100
AcDbArc
 50
180.0
 51
270.0
  0
ARC
  5
7FA
100
AcDbEntity
  8
0
100
AcDbCircle
 62
7
  6
BYLAYER
 10
177.045851278
 20
157.0782826477
 40
0.5
100
AcDbArc
 50
0.0
 51
90.0000000003
  0
ARC
  5
7FB
100
AcDbEntity
  8
0
100
AcDbCircle
 62
7
  6
BYLAYER
 10
176.045851278
 20
157.0782826477
 40
0.5
100
AcDbArc
 50
90.0000000001
 51
180.0
  0
ARC
  5
7FC
100
AcDbEntity
  8
3
100
AcDbCircle
 62
7
  6
BYLAYER
 10
176.04559851
 20
157.0780245957
 40
0.5
100
AcDbArc
 50
122.5617135692
 51
180.0
  0
ARC
  5
7FD
100
AcDbEntity
  8
3
100
AcDbCircle
 62
7
  6
BYLAYER
 10
176.04559851
 20
166.0780245957
 40
0.5
100
AcDbArc
 50
180.0
 51
270.0
  0
ARC
  5
7FE
100
AcDbEntity
  8
0
100
AcDbCircle
 62
7
  6
BYLAYER
 10
215.545851278
 20
142.4788320941
 40
10.0
100
AcDbArc
 50
344.0546040991
 51
360.0
  0
ARC
  5
7FF
100
AcDbEntity
  8
0
100
AcDbCircle
 62
7
  6
BYLAYER
 10
215.545851278
 20
142.4788320941
 40
9.5
100
AcDbArc
 50
351.2186899299
 51
360.0
  0
ARC
  5
800
100
AcDbEntity
  8
0
100
AcDbCircle
 62
7
  6
BYLAYER
 10
209.545071278
 20
151.0781326477
 40
4.15
100
AcDbArc
 50
278.312861012
 51
261.687138988
  0
ARC
  5
801
100
AcDbEntity
  8
0
100
AcDbCircle
 62
7
  6
BYLAYER
 10
209.545071278
 20
147.5281326477
 40
0.6
100
AcDbArc
 50
0.0
 51
180.0
  0
CIRCLE
  5
802
100
AcDbEntity
  8
0
100
AcDbCircle
 62
7
  6
BYLAYER
 10
209.545071278
 20
149.9781326477
 40
0.315
  0
CIRCLE
  5
803
100
AcDbEntity
  8
0
100
AcDbCircle
 62
7
  6
BYLAYER
 10
210.9730996023
 20
148.5541011295
 40
0.315
  0
CIRCLE
  5
804
100
AcDbEntity
  8
0
100
AcDbCircle
 62
7
  6
BYLAYER
 10
212.2170010831
 20
149.9508389343
 40
0.315
  0
CIRCLE
  5
805
100
AcDbEntity
  8
0
100
AcDbCircle
 62
7
  6
BYLAYER
 10
206.8731414728
 20
149.9508389343
 40
0.315
  0
CIRCLE
  5
806
100
AcDbEntity
  8
0
100
AcDbCircle
 62
7
  6
BYLAYER
 10
208.1170429537
 20
148.5541011295
 40
0.315
  0
ARC
  5
807
100
AcDbEntity
  8
0
100
AcDbCircle
 62
7
  6
BYLAYER
 10
221.2066988874
 20
140.2512148981
 40
3.9449861628
100
AcDbArc
 50
344.0358294645
 51
349.7115065616
  0
ARC
  5
808
100
AcDbEntity
  8
0
100
AcDbCircle
 62
7
  6
BYLAYER
 10
221.4158994204
 20
140.2126358416
 40
3.7322590301
100
AcDbArc
 50
349.7206339392
 51
352.7830434205
  0
ARC
  5
809
100
AcDbEntity
  8
0
100
AcDbCircle
 62
7
  6
BYLAYER
 10
221.7819192554
 20
136.0782826477
 40
1.9999999999
100
AcDbArc
 50
206.5650511762
 51
270.0000000007
  0
ARC
  5
80A
100
AcDbEntity
  8
0
100
AcDbCircle
 62
7
  6
BYLAYER
 10
222.0372484524
 20
136.0782826478
 40
2.0000000001
100
AcDbArc
 50
270.0000000009
 51
344.0546040979
  0
ARC
  5
80B
100
AcDbEntity
  8
0
100
AcDbCircle
 62
7
  6
BYLAYER
 10
223.5572563017
 20
139.5782826477
 40
2.0
100
AcDbArc
 50
46.4791023344
 51
90.0
  0
ARC
  5
80C
100
AcDbEntity
  8
3
100
AcDbCircle
 62
7
  6
BYLAYER
 10
222.0369956844
 20
136.0780245957
 40
2.0
100
AcDbArc
 50
267.8136280497
 51
315.7258108957
  0
ARC
  5
80D
100
AcDbEntity
  8
3
100
AcDbCircle
 62
7
  6
BYLAYER
 10
221.7806859084
 20
136.0780245957
 40
2.0
100
AcDbArc
 50
228.1640109152
 51
275.0815039934
  0
ARC
  5
80E
100
AcDbEntity
  8
0
100
AcDbCircle
 62
7
  6
BYLAYER
 10
223.5572563017
 20
139.5782826477
 40
1.5
100
AcDbArc
 50
344.0546040989
 51
90.0
  0
ARC
  5
80F
100
AcDbEntity
  8
0
100
AcDbCircle
 62
7
  6
BYLAYER
 10
222.0372484524
 20
136.0782826478
 40
1.0000000001
100
AcDbArc
 50
270.0000000011
 51
344.0546040963
  0
ARC
  5
810
100
AcDbEntity
  8
0
100
AcDbCircle
 62
7
  6
BYLAYER
 10
221.7819192554
 20
136.0782826477
 40
1.0
100
AcDbArc
 50
206.5650511749
 51
270.0000000011
  0
ARC
  5
811
100
AcDbEntity
  8
0
100
AcDbCircle
 62
7
  6
BYLAYER
 10
220.045851278
 20
136.1963166365
 40
0.5
100
AcDbArc
 50
180.0
 51
206.5650511771
  0
ARC
  5
812
100
AcDbEntity
  8
3
100
AcDbCircle
 62
7
  6
BYLAYER
 10
220.0446179309
 20
136.1960585845
 40
0.5
100
AcDbArc
 50
180.0000000003
 51
206.5650511772
  0
ARC
  5
813
100
AcDbEntity
  8
0
100
AcDbCircle
 62
7
  6
BYLAYER
 10
223.5572563017
 20
139.5782826477
 40
0.4999917214
100
AcDbArc
 50
344.0546040974
 51
89.9371406557
  0
ARC
  5
814
100
AcDbEntity
  8
0
100
AcDbCircle
 62
7
  6
BYLAYER
 10
222.045851278
 20
144.5782826477
 40
4.5
100
AcDbArc
 50
90.0
 51
270.0
  0
ARC
  5
815
100
AcDbEntity
  8
0
100
AcDbCircle
 62
7
  6
BYLAYER
 10
222.045851278
 20
144.5782826477
 40
3.5
100
AcDbArc
 50
90.0
 51
270.0
  0
CIRCLE
  5
816
100
AcDbEntity
  8
0
100
AcDbCircle
 62
7
  6
BYLAYER
 10
222.045851278
 20
144.5782826477
 40
3.3
  0
CIRCLE
  5
817
100
AcDbEntity
  8
0
100
AcDbCircle
 62
7
  6
BYLAYER
 10
222.045851278
 20
144.5782826477
 40
2.2999997533
  0
ARC
  5
818
100
AcDbEntity
  8
0
100
AcDbCircle
 62
7
  6
BYLAYER
 10
224.545851278
 20
149.0782826477
 40
1.0
100
AcDbArc
 50
270.0000000487
 51
360.0
  0
ARC
  5
819
100
AcDbEntity
  8
0
100
AcDbCircle
 62
7
  6
BYLAYER
 10
209.545851278
 20
151.0782826477
 40
8.5
100
AcDbArc
 50
0.117470099
 51
180.117470099
  0
ARC
  5
81A
100
AcDbEntity
  8
0
100
AcDbCircle
 62
7
  6
BYLAYER
 10
209.545851278
 20
151.0782826477
 40
8.1052090289
100
AcDbArc
 50
0.117470099
 51
180.117470099
  0
ARC
  5
81B
100
AcDbEntity
  8
0
100
AcDbCircle
 62
7
  6
BYLAYER
 10
209.545851278
 20
151.0782826477
 40
7.8947909711
100
AcDbArc
 50
0.117470099
 51
180.117470099
  0
CIRCLE
  5
81C
100
AcDbEntity
  8
0
100
AcDbCircle
 62
7
  6
BYLAYER
 10
209.545851278
 20
151.0782826477
 40
7.75
  0
CIRCLE
  5
81D
100
AcDbEntity
  8
0
100
AcDbCircle
 62
7
  6
BYLAYER
 10
209.545851278
 20
151.0782826477
 40
7.25
  0
CIRCLE
  5
81E
100
AcDbEntity
  8
0
100
AcDbCircle
 62
7
  6
BYLAYER
 10
209.545851278
 20
151.0782826477
 40
6.000001548
  0
CIRCLE
  5
81F
100
AcDbEntity
  8
0
100
AcDbCircle
 62
7
  6
BYLAYER
 10
209.545851278
 20
151.0782826477
 40
5.5000005643
  0
CIRCLE
  5
820
100
AcDbEntity
  8
0
100
AcDbCircle
 62
7
  6
BYLAYER
 10
209.545851278
 20
151.0782826477
 40
4.7
  0
CIRCLE
  5
821
100
AcDbEntity
  8
0
100
AcDbCircle
 62
7
  6
BYLAYER
 10
209.545851278
 20
151.0782826477
 40
4.2
  0
CIRCLE
  5
822
100
AcDbEntity
  8
0
100
AcDbCircle
 62
7
  6
BYLAYER
 10
210.4976992221
 20
151.6281326477
 40
0.315
  0
CIRCLE
  5
823
100
AcDbEntity
  8
0
100
AcDbCircle
 62
7
  6
BYLAYER
 10
208.5924433338
 20
151.6281326477
 40
0.315
  0
CIRCLE
  5
824
100
AcDbEntity
  8
0
100
AcDbCircle
 62
7
  6
BYLAYER
 10
212.3495045008
 20
151.8164782975
 40
0.315
  0
CIRCLE
  5
825
100
AcDbEntity
  8
0
100
AcDbCircle
 62
7
  6
BYLAYER
 10
211.3154946194
 20
153.3750003392
 40
0.315
  0
CIRCLE
  5
826
100
AcDbEntity
  8
0
100
AcDbCircle
 62
7
  6
BYLAYER
 10
209.545071278
 20
153.9781326477
 40
0.315
  0
CIRCLE
  5
827
100
AcDbEntity
  8
0
100
AcDbCircle
 62
7
  6
BYLAYER
 10
207.7746479365
 20
153.3750003392
 40
0.315
  0
CIRCLE
  5
828
100
AcDbEntity
  8
0
100
AcDbCircle
 62
7
  6
BYLAYER
 10
206.7406380551
 20
151.8164782975
 40
0.315
  0
ARC
  5
829
100
AcDbEntity
  8
0
100
AcDbCircle
 62
7
  6
BYLAYER
 10
221.545851278
 20
154.0782826477
 40
1.0
100
AcDbArc
 50
180.0
 51
270.0
  0
ARC
  5
82A
100
AcDbEntity
  8
0
100
AcDbCircle
 62
7
  6
BYLAYER
 10
223.045851278
 20
154.0782826477
 40
1.0
100
AcDbArc
 50
270.0
 51
360.0
  0
ARC
  5
82B
100
AcDbEntity
  8
0
100
AcDbCircle
 62
7
  6
BYLAYER
 10
221.545851278
 20
154.0782826477
 40
0.5
100
AcDbArc
 50
180.0
 51
270.0
  0
ARC
  5
82C
100
AcDbEntity
  8
0
100
AcDbCircle
 62
7
  6
BYLAYER
 10
223.045851278
 20
154.0782826477
 40
0.5
100
AcDbArc
 50
270.0
 51
360.0
  0
ARC
  5
82D
100
AcDbEntity
  8
0
100
AcDbCircle
 62
7
  6
BYLAYER
 10
224.045851278
 20
157.0782826477
 40
0.5
100
AcDbArc
 50
90.0
 51
180.0
  0
ARC
  5
82E
100
AcDbEntity
  8
0
100
AcDbCircle
 62
7
  6
BYLAYER
 10
225.045851278
 20
157.0782826477
 40
0.5
100
AcDbArc
 50
0.0
 51
90.0000000001
  0
ARC
  5
82F
100
AcDbEntity
  8
0
100
AcDbCircle
 62
7
  6
BYLAYER
 10
225.045851278
 20
166.0782826477
 40
0.5
100
AcDbArc
 50
269.9999999999
 51
360.0
  0
ARC
  5
830
100
AcDbEntity
  8
0
100
AcDbCircle
 62
7
  6
BYLAYER
 10
224.045851278
 20
166.0782826477
 40
0.5
100
AcDbArc
 50
180.0
 51
270.0
  0
ARC
  5
831
100
AcDbEntity
  8
3
100
AcDbCircle
 62
7
  6
BYLAYER
 10
225.04559851
 20
166.0780245957
 40
0.5
100
AcDbArc
 50
270.0
 51
302.648990896
  0
ARC
  5
832
100
AcDbEntity
  8
0
100
AcDbCircle
 62
7
  6
BYLAYER
 10
179.545851278
 20
169.0782826477
 40
1.0
100
AcDbArc
 50
0.0
 51
90.0
  0
ARC
  5
833
100
AcDbEntity
  8
0
100
AcDbCircle
 62
7
  6
BYLAYER
 10
178.045851278
 20
169.0782826477
 40
1.0
100
AcDbArc
 50
90.0
 51
180.0
  0
ARC
  5
834
100
AcDbEntity
  8
0
100
AcDbCircle
 62
7
  6
BYLAYER
 10
178.045851278
 20
169.0782826477
 40
0.5
100
AcDbArc
 50
90.0
 51
180.0
  0
ARC
  5
835
100
AcDbEntity
  8
0
100
AcDbCircle
 62
7
  6
BYLAYER
 10
179.545851278
 20
169.0782826477
 40
0.5
100
AcDbArc
 50
0.0
 51
90.0
  0
ARC
  5
836
100
AcDbEntity
  8
0
100
AcDbCircle
 62
7
  6
BYLAYER
 10
176.545851278
 20
180.0782826477
 40
1.0
100
AcDbArc
 50
90.0000000487
 51
180.0
  0
CIRCLE
  5
837
100
AcDbEntity
  8
0
100
AcDbCircle
 62
7
  6
BYLAYER
 10
189.044091278
 20
173.5770226477
 40
0.7499873204
  0
CIRCLE
  5
838
100
AcDbEntity
  8
0
100
AcDbCircle
 62
7
  6
BYLAYER
 10
189.044091278
 20
173.5770226477
 40
0.55
  0
CIRCLE
  5
839
100
AcDbEntity
  8
0
100
AcDbCircle
 62
7
  6
BYLAYER
 10
191.544091278
 20
171.0770226477
 40
0.7499873204
  0
ARC
  5
83A
100
AcDbEntity
  8
0
100
AcDbCircle
 62
7
  6
BYLAYER
 10
193.983609673
 20
171.1375042526
 40
0.7
100
AcDbArc
 50
44.9999999997
 51
224.9999999996
  0
CIRCLE
  5
83B
100
AcDbEntity
  8
0
100
AcDbCircle
 62
7
  6
BYLAYER
 10
191.544091278
 20
171.0770226477
 40
0.55
  0
ARC
  5
83C
100
AcDbEntity
  8
0
100
AcDbCircle
 62
7
  6
BYLAYER
 10
191.545851278
 20
173.5782826477
 40
8.5
100
AcDbArc
 50
180.117470099
 51
0.117470099
  0
ARC
  5
83D
100
AcDbEntity
  8
0
100
AcDbCircle
 62
7
  6
BYLAYER
 10
191.545851278
 20
173.5782826477
 40
8.1052964846
100
AcDbArc
 50
180.117470099
 51
0.117470099
  0
ARC
  5
83E
100
AcDbEntity
  8
0
100
AcDbCircle
 62
7
  6
BYLAYER
 10
191.545851278
 20
173.5782826477
 40
7.8947035154
100
AcDbArc
 50
180.117470099
 51
0.117470099
  0
CIRCLE
  5
83F
100
AcDbEntity
  8
0
100
AcDbCircle
 62
7
  6
BYLAYER
 10
191.5458512779
 20
173.5782826477
 40
7.75
  0
CIRCLE
  5
840
100
AcDbEntity
  8
0
100
AcDbCircle
 62
7
  6
BYLAYER
 10
191.5458512779
 20
173.5782826477
 40
7.25
  0
CIRCLE
  5
841
100
AcDbEntity
  8
0
100
AcDbCircle
 62
7
  6
BYLAYER
 10
191.5458512779
 20
173.5782826477
 40
6.0
  0
CIRCLE
  5
842
100
AcDbEntity
  8
0
100
AcDbCircle
 62
7
  6
BYLAYER
 10
191.5458512779
 20
173.5782826477
 40
5.5
  0
CIRCLE
  5
843
100
AcDbEntity
  8
0
100
AcDbCircle
 62
7
  6
BYLAYER
 10
191.5458512779
 20
173.5782826477
 40
4.5
  0
CIRCLE
  5
844
100
AcDbEntity
  8
0
100
AcDbCircle
 62
7
  6
BYLAYER
 10
191.5458512779
 20
173.5782826477
 40
4.45
  0
CIRCLE
  5
845
100
AcDbEntity
  8
0
100
AcDbCircle
 62
7
  6
BYLAYER
 10
191.544091278
 20
173.5770226477
 40
4.125
  0
ARC
  5
846
100
AcDbEntity
  8
0
100
AcDbCircle
 62
7
  6
BYLAYER
 10
191.544091278
 20
173.5770226477
 40
3.8249926453
100
AcDbArc
 50
325.5449517458
 51
304.4550479141
  0
CIRCLE
  5
847
100
AcDbEntity
  8
0
100
AcDbCircle
 62
7
  6
BYLAYER
 10
191.544091278
 20
173.5770226477
 40
0.7500188492
  0
CIRCLE
  5
848
100
AcDbEntity
  8
0
100
AcDbCircle
 62
7
  6
BYLAYER
 10
194.044091278
 20
173.5770226477
 40
0.7499873204
  0
CIRCLE
  5
849
100
AcDbEntity
  8
0
100
AcDbCircle
 62
7
  6
BYLAYER
 10
191.544091278
 20
173.5770226477
 40
0.55
  0
CIRCLE
  5
84A
100
AcDbEntity
  8
0
100
AcDbCircle
 62
7
  6
BYLAYER
 10
194.044091278
 20
173.5770226477
 40
0.55
  0
CIRCLE
  5
84B
100
AcDbEntity
  8
0
100
AcDbCircle
 62
7
  6
BYLAYER
 10
191.5440912779
 20
176.0770226477
 40
0.7499873204
  0
CIRCLE
  5
84C
100
AcDbEntity
  8
0
100
AcDbCircle
 62
7
  6
BYLAYER
 10
191.544091278
 20
176.0770226477
 40
0.55
  0
ARC
  5
84D
100
AcDbEntity
  8
0
100
AcDbCircle
 62
7
  6
BYLAYER
 10
180.045851278
 20
184.5782826477
 40
4.5
100
AcDbArc
 50
270.0
 51
360.0
  0
ARC
  5
84E
100
AcDbEntity
  8
0
100
AcDbCircle
 62
7
  6
BYLAYER
 10
179.545851278
 20
185.0782826477
 40
4.0
100
AcDbArc
 50
90.0
 51
180.0
  0
ARC
  5
84F
100
AcDbEntity
  8
0
100
AcDbCircle
 62
7
  6
BYLAYER
 10
180.045851278
 20
184.5782826477
 40
3.5
100
AcDbArc
 50
270.0
 51
360.0
  0
ARC
  5
850
100
AcDbEntity
  8
0
100
AcDbCircle
 62
7
  6
BYLAYER
 10
179.545851278
 20
185.0782826477
 40
3.5
100
AcDbArc
 50
90.0000000003
 51
180.0
  0
CIRCLE
  5
851
100
AcDbEntity
  8
0
100
AcDbCircle
 62
7
  6
BYLAYER
 10
180.0458512779
 20
184.5782826477
 40
3.3
  0
CIRCLE
  5
852
100
AcDbEntity
  8
0
100
AcDbCircle
 62
7
  6
BYLAYER
 10
180.0458512779
 20
184.5782826477
 40
2.2999997533
  0
ARC
  5
853
100
AcDbEntity
  8
0
100
AcDbCircle
 62
7
  6
BYLAYER
 10
184.545851278
 20
188.0782826477
 40
1.0
100
AcDbArc
 50
90.0
 51
179.9999999513
  0
ARC
  5
854
100
AcDbEntity
  8
0
100
AcDbCircle
 62
7
  6
BYLAYER
 10
193.045851278
 20
186.5782826477
 40
1.0
100
AcDbArc
 50
90.0
 51
180.0
  0
ARC
  5
855
100
AcDbEntity
  8
0
100
AcDbCircle
 62
7
  6
BYLAYER
 10
193.045851278
 20
185.0782826477
 40
1.0
100
AcDbArc
 50
180.0
 51
270.0
  0
ARC
  5
856
100
AcDbEntity
  8
0
100
AcDbCircle
 62
7
  6
BYLAYER
 10
193.045851278
 20
185.0782826477
 40
0.5
100
AcDbArc
 50
180.0
 51
270.0
  0
ARC
  5
857
100
AcDbEntity
  8
0
100
AcDbCircle
 62
7
  6
BYLAYER
 10
193.045851278
 20
186.5782826477
 40
0.5
100
AcDbArc
 50
90.0
 51
180.0
  0
ARC
  5
858
100
AcDbEntity
  8
0
100
AcDbCircle
 62
7
  6
BYLAYER
 10
196.045851278
 20
187.5782826477
 40
0.5
100
AcDbArc
 50
269.9999999998
 51
360.0
  0
ARC
  5
859
100
AcDbEntity
  8
0
100
AcDbCircle
 62
7
  6
BYLAYER
 10
196.045851278
 20
188.5782826477
 40
0.5
100
AcDbArc
 50
0.0000000001
 51
90.0
  0
ARC
  5
85A
100
AcDbEntity
  8
0
100
AcDbCircle
 62
7
  6
BYLAYER
 10
207.1055528829
 20
171.1375042526
 40
0.7
100
AcDbArc
 50
314.9999999997
 51
134.9999999996
  0
CIRCLE
  5
85B
100
AcDbEntity
  8
0
100
AcDbCircle
 62
7
  6
BYLAYER
 10
207.045071278
 20
173.5770226477
 40
0.7499873204
  0
CIRCLE
  5
85C
100
AcDbEntity
  8
0
100
AcDbCircle
 62
7
  6
BYLAYER
 10
207.045071278
 20
173.5770226477
 40
0.55
  0
CIRCLE
  5
85D
100
AcDbEntity
  8
0
100
AcDbCircle
 62
7
  6
BYLAYER
 10
209.545071278
 20
171.0770226477
 40
0.7499873204
  0
CIRCLE
  5
85E
100
AcDbEntity
  8
0
100
AcDbCircle
 62
7
  6
BYLAYER
 10
209.545071278
 20
171.0770226477
 40
0.55
  0
ARC
  5
85F
100
AcDbEntity
  8
0
100
AcDbCircle
 62
7
  6
BYLAYER
 10
209.545851278
 20
173.5782826477
 40
8.5
100
AcDbArc
 50
180.117470099
 51
0.117470099
  0
ARC
  5
860
100
AcDbEntity
  8
0
100
AcDbCircle
 62
7
  6
BYLAYER
 10
209.545851278
 20
173.5782826477
 40
8.1054946602
100
AcDbArc
 50
180.117470099
 51
0.117470099
  0
ARC
  5
861
100
AcDbEntity
  8
0
100
AcDbCircle
 62
7
  6
BYLAYER
 10
209.545851278
 20
173.5782826477
 40
7.8945053398
100
AcDbArc
 50
180.117470099
 51
0.117470099
  0
CIRCLE
  5
862
100
AcDbEntity
  8
0
100
AcDbCircle
 62
7
  6
BYLAYER
 10
209.545851278
 20
173.5782826477
 40
7.75
  0
CIRCLE
  5
863
100
AcDbEntity
  8
0
100
AcDbCircle
 62
7
  6
BYLAYER
 10
209.545851278
 20
173.5782826477
 40
7.25
  0
CIRCLE
  5
864
100
AcDbEntity
  8
0
100
AcDbCircle
 62
7
  6
BYLAYER
 10
209.545851278
 20
173.5782826477
 40
6.0
  0
CIRCLE
  5
865
100
AcDbEntity
  8
0
100
AcDbCircle
 62
7
  6
BYLAYER
 10
209.545851278
 20
173.5782826477
 40
5.5
  0
CIRCLE
  5
866
100
AcDbEntity
  8
0
100
AcDbCircle
 62
7
  6
BYLAYER
 10
209.545851278
 20
173.5782826477
 40
4.5
  0
CIRCLE
  5
867
100
AcDbEntity
  8
0
100
AcDbCircle
 62
7
  6
BYLAYER
 10
209.545851278
 20
173.5782826477
 40
4.45
  0
CIRCLE
  5
868
100
AcDbEntity
  8
0
100
AcDbCircle
 62
7
  6
BYLAYER
 10
209.545071278
 20
173.5770226477
 40
4.125
  0
ARC
  5
869
100
AcDbEntity
  8
0
100
AcDbCircle
 62
7
  6
BYLAYER
 10
209.545071278
 20
173.5770226477
 40
3.8249926453
100
AcDbArc
 50
235.5449517458
 51
214.4550479141
  0
CIRCLE
  5
86A
100
AcDbEntity
  8
0
100
AcDbCircle
 62
7
  6
BYLAYER
 10
209.545071278
 20
173.5770226477
 40
0.7500188492
  0
CIRCLE
  5
86B
100
AcDbEntity
  8
0
100
AcDbCircle
 62
7
  6
BYLAYER
 10
212.0450712779
 20
173.5770226477
 40
0.7499873204
  0
CIRCLE
  5
86C
100
AcDbEntity
  8
0
100
AcDbCircle
 62
7
  6
BYLAYER
 10
212.0450712779
 20
173.5770226477
 40
0.55
  0
CIRCLE
  5
86D
100
AcDbEntity
  8
0
100
AcDbCircle
 62
7
  6
BYLAYER
 10
209.545071278
 20
173.5770226477
 40
0.55
  0
CIRCLE
  5
86E
100
AcDbEntity
  8
0
100
AcDbCircle
 62
7
  6
BYLAYER
 10
209.5450712779
 20
176.0770226477
 40
0.7499873204
  0
CIRCLE
  5
86F
100
AcDbEntity
  8
0
100
AcDbCircle
 62
7
  6
BYLAYER
 10
209.5450712779
 20
176.0770226477
 40
0.55
  0
ARC
  5
870
100
AcDbEntity
  8
0
100
AcDbCircle
 62
7
  6
BYLAYER
 10
223.045851278
 20
169.0782826477
 40
1.0
100
AcDbArc
 50
0.0
 51
90.0
  0
ARC
  5
871
100
AcDbEntity
  8
0
100
AcDbCircle
 62
7
  6
BYLAYER
 10
221.545851278
 20
169.0782826477
 40
1.0
100
AcDbArc
 50
90.0
 51
180.0
  0
ARC
  5
872
100
AcDbEntity
  8
0
100
AcDbCircle
 62
7
  6
BYLAYER
 10
223.045851278
 20
169.0782826477
 40
0.5
100
AcDbArc
 50
0.0
 51
90.0
  0
ARC
  5
873
100
AcDbEntity
  8
0
100
AcDbCircle
 62
7
  6
BYLAYER
 10
221.545851278
 20
169.0782826477
 40
0.5
100
AcDbArc
 50
90.0
 51
180.0
  0
ARC
  5
874
100
AcDbEntity
  8
0
100
AcDbCircle
 62
7
  6
BYLAYER
 10
224.545851278
 20
180.0782826477
 40
1.0
100
AcDbArc
 50
0.0
 51
89.9999999513
  0
ARC
  5
875
100
AcDbEntity
  8
4
100
AcDbCircle
 62
7
  6
BYLAYER
 10
228.7343441934
 20
196.3199434628
 40
7.0
100
AcDbArc
 50
270.0
 51
360.0
  0
ARC
  5
876
100
AcDbEntity
  8
0
100
AcDbCircle
 62
7
  6
BYLAYER
 10
221.045851278
 20
184.5782826477
 40
4.5
100
AcDbArc
 50
180.0
 51
270.0
  0
ARC
  5
877
100
AcDbEntity
  8
4
100
AcDbCircle
 62
7
  6
BYLAYER
 10
228.7343441934
 20
196.3199434628
 40
4.0
100
AcDbArc
 50
270.0
 51
360.0
  0
ARC
  5
878
100
AcDbEntity
  8
0
100
AcDbCircle
 62
7
  6
BYLAYER
 10
221.545851278
 20
185.0782826477
 40
4.0
100
AcDbArc
 50
0.0
 51
90.0
  0
ARC
  5
879
100
AcDbEntity
  8
0
100
AcDbCircle
 62
7
  6
BYLAYER
 10
221.045851278
 20
184.5782826477
 40
3.5
100
AcDbArc
 50
180.0
 51
270.0
  0
ARC
  5
87A
100
AcDbEntity
  8
0
100
AcDbCircle
 62
7
  6
BYLAYER
 10
221.545851278
 20
185.0782826477
 40
3.5
100
AcDbArc
 50
0.0000000001
 51
90.0
  0
CIRCLE
  5
87B
100
AcDbEntity
  8
0
100
AcDbCircle
 62
7
  6
BYLAYER
 10
221.045851278
 20
184.5782826477
 40
3.3
  0
CIRCLE
  5
87C
100
AcDbEntity
  8
0
100
AcDbCircle
 62
7
  6
BYLAYER
 10
221.045851278
 20
184.5782826477
 40
2.2999997533
  0
ARC
  5
87D
100
AcDbEntity
  8
0
100
AcDbCircle
 62
7
  6
BYLAYER
 10
216.545851278
 20
188.0782826477
 40
1.0
100
AcDbArc
 50
0.0000000487
 51
90.0
  0
ARC
  5
87E
100
AcDbEntity
  8
0
100
AcDbCircle
 62
7
  6
BYLAYER
 10
208.045851278
 20
185.0782826477
 40
1.0
100
AcDbArc
 50
270.0
 51
360.0
  0
ARC
  5
87F
100
AcDbEntity
  8
0
100
AcDbCircle
 62
7
  6
BYLAYER
 10
208.045851278
 20
186.5782826477
 40
1.0
100
AcDbArc
 50
0.0
 51
90.0
  0
ARC
  5
880
100
AcDbEntity
  8
0
100
AcDbCircle
 62
7
  6
BYLAYER
 10
205.045851278
 20
188.5782826477
 40
0.5
100
AcDbArc
 50
90.0
 51
180.0000000001
  0
ARC
  5
881
100
AcDbEntity
  8
0
100
AcDbCircle
 62
7
  6
BYLAYER
 10
205.045851278
 20
187.5782826477
 40
0.5
100
AcDbArc
 50
180.0
 51
270.0
  0
ARC
  5
882
100
AcDbEntity
  8
0
100
AcDbCircle
 62
7
  6
BYLAYER
 10
208.045851278
 20
186.5782826477
 40
0.5
100
AcDbArc
 50
0.0
 51
90.0
  0
ARC
  5
883
100
AcDbEntity
  8
0
100
AcDbCircle
 62
7
  6
BYLAYER
 10
208.045851278
 20
185.0782826477
 40
0.5
100
AcDbArc
 50
270.0
 51
360.0
  0
ARC
  5
884
100
AcDbEntity
  8
3
100
AcDbCircle
 62
7
  6
BYLAYER
 10
205.04559851
 20
188.5780419106
 40
0.5
100
AcDbArc
 50
122.5659468053
 51
180.0
  0
SPLINE
  5
885
100
AcDbEntity
  8
0
100
AcDbSpline
 62
7
  6
BYLAYER
 70
0
 71
3
 72
9
 73
5
 74
0
 42
0.0000001
 43
0.0000001
 44
0.0000000001
 40
0.0
 40
0.0
 40
0.0
 40
0.0
 40
0.5014682006
 40
1.0
 40
1.0
 40
1.0
 40
1.0
 10
28.3239819072
 20
139.7437638645
 30
0.0
 10
28.2980027403
 20
139.9613887826
 30
0.0
 10
28.2944471021
 20
140.4020853034
 30
0.0
 10
28.409121084
 20
140.8344098633
 30
0.0
 10
28.5080773888
 20
141.028529065
 30
0.0
  0
SPLINE
  5
886
100
AcDbEntity
  8
0
100
AcDbSpline
 62
7
  6
BYLAYER
 70
0
 71
3
 72
17
 73
13
 74
0
 42
0.0000001
 43
0.0000001
 44
0.0000000001
 40
0.0
 40
0.0
 40
0.0
 40
0.0
 40
0.1671689366
 40
0.3304367472
 40
0.484554343
 40
0.6288375353
 40
0.7612061854
 40
0.8764770668
 40
0.9251467146
 40
0.9643278769
 40
0.9904777397
 40
1.0
 40
1.0
 40
1.0
 40
1.0
 10
28.3967203968
 20
181.5782826477
 30
0.0
 10
28.3967204109
 20
181.5364497015
 30
0.0
 10
28.4178749945
 20
181.453875684
 30
0.0
 10
28.4793759214
 20
181.348609958
 30
0.0
 10
28.5563954657
 20
181.2615646869
 30
0.0
 10
28.6407884617
 20
181.1938075445
 30
0.0
 10
28.7253178951
 20
181.1436041432
 30
0.0
 10
28.7929779027
 20
181.1128618724
 30
0.0
 10
28.8407401454
 20
181.0955354108
 30
0.0
 10
28.8677934157
 20
181.0862821864
 30
0.0
 10
28.8858922959
 20
181.0817432301
 30
0.0
 10
28.8943475898
 20
181.0785015353
 30
0.0
 10
28.8967203994
 20
181.0782826481
 30
0.0
  0
SPLINE
  5
887
100
AcDbEntity
  8
0
100
AcDbSpline
 62
7
  6
BYLAYER
 70
0
 71
3
 72
17
 73
13
 74
0
 42
0.0000001
 43
0.0000001
 44
0.0000000001
 40
0.0
 40
0.0
 40
0.0
 40
0.0
 40
0.0095222253
 40
0.0356720836
 40
0.074853258
 40
0.1235229208
 40
0.2387938098
 40
0.3711624546
 40
0.5154456486
 40
0.6695632491
 40
0.8328310625
 40
1.0
 40
1.0
 40
1.0
 40
1.0
 10
28.8967204012
 20
148.0782826477
 30
0.0
 10
28.8943535216
 20
148.0780070102
 30
0.0
 10
28.8858845502
 20
148.0748965163
 30
0.0
 10
28.8677978066
 20
148.0702412875
 30
0.0
 10
28.8407384829
 20
148.0610460259
 30
0.0
 10
28.7929791754
 20
148.0436913295
 30
0.0
 10
28.725317382
 20
148.0129661251
 30
0.0
 10
28.640788628
 20
147.9627562088
 30
0.0
 10
28.5563954201
 20
147.895001075
 30
0.0
 10
28.479375933
 20
147.8079552065
 30
0.0
 10
28.41787499
 20
147.7026896552
 30
0.0
 10
28.3967204004
 20
147.6201155945
 30
0.0
 10
28.3967203968
 20
147.5782826477
 30
0.0
  0
SPLINE
  5
888
100
AcDbEntity
  8
0
100
AcDbSpline
 62
7
  6
BYLAYER
 70
0
 71
3
 72
9
 73
5
 74
0
 42
0.0000001
 43
0.0000001
 44
0.0000000001
 40
0.0
 40
0.0
 40
0.0
 40
0.0
 40
0.4694554082
 40
1.0
 40
1.0
 40
1.0
 40
1.0
 10
28.3856193669
 20
139.6084805138
 30
0.0
 10
28.3860971755
 20
139.6322095979
 30
0.0
 10
28.3737221079
 20
139.6832846272
 30
0.0
 10
28.3428576649
 20
139.7247077174
 30
0.0
 10
28.3239817937
 20
139.7437639243
 30
0.0
  0
SPLINE
  5
889
100
AcDbEntity
  8
0
100
AcDbSpline
 62
7
  6
BYLAYER
 70
0
 71
3
 72
17
 73
13
 74
0
 42
0.0000001
 43
0.0000001
 44
0.0000000001
 40
0.0
 40
0.0
 40
0.0
 40
0.0
 40
0.0095222603
 40
0.0356721232
 40
0.0748532856
 40
0.1235229336
 40
0.2387938151
 40
0.3711624653
 40
0.5154456575
 40
0.6695632532
 40
0.8328310636
 40
1.0
 40
1.0
 40
1.0
 40
1.0
 10
76.8967203778
 20
181.0782826481
 30
0.0
 10
76.8990932813
 20
181.0785005143
 30
0.0
 10
76.907548358
 20
181.0817445697
 30
0.0
 10
76.9256474308
 20
181.0862814339
 30
0.0
 10
76.9527006052
 20
181.0955357013
 30
0.0
 10
77.0004628948
 20
181.1128616549
 30
0.0
 10
77.0681228742
 20
181.1436042328
 30
0.0
 10
77.1526523185
 20
181.1938075169
 30
0.0
 10
77.2370453113
 20
181.2615646954
 30
0.0
 10
77.3140648567
 20
181.3486099557
 30
0.0
 10
77.3755657834
 20
181.4538756849
 30
0.0
 10
77.3967203671
 20
181.5364497015
 30
0.0
 10
77.3967203812
 20
181.5782826477
 30
0.0
  0
SPLINE
  5
88A
100
AcDbEntity
  8
0
100
AcDbSpline
 62
7
  6
BYLAYER
 70
0
 71
3
 72
17
 73
13
 74
0
 42
0.0000001
 43
0.0000001
 44
0.0000000001
 40
0.0
 40
0.0
 40
0.0
 40
0.0
 40
0.1671689366
 40
0.3304367472
 40
0.484554343
 40
0.6288375353
 40
0.7612061854
 40
0.8764770668
 40
0.9251467146
 40
0.9643278769
 40
0.9904777397
 40
1.0
 40
1.0
 40
1.0
 40
1.0
 10
70.3967203894
 20
188.5782826403
 30
0.0
 10
70.3548874432
 20
188.5782826263
 30
0.0
 10
70.272313426
 20
188.5571280426
 30
0.0
 10
70.1670476989
 20
188.4956271159
 30
0.0
 10
70.080002431
 20
188.4186075712
 30
0.0
 10
70.0122452781
 20
188.3342145762
 30
0.0
 10
69.9620419108
 20
188.2496851397
 30
0.0
 10
69.931299551
 20
188.1820251403
 30
0.0
 10
69.9139732367
 20
188.1342628841
 30
0.0
 10
69.90471971
 20
188.1072096416
 30
0.0
 10
69.90018136
 20
188.0891107055
 30
0.0
 10
69.8969389811
 20
188.0806554746
 30
0.0
 10
69.8967203898
 20
188.0782826378
 30
0.0
  0
SPLINE
  5
88B
100
AcDbEntity
  8
0
100
AcDbSpline
 62
7
  6
BYLAYER
 70
0
 71
3
 72
17
 73
13
 74
0
 42
0.0000001
 43
0.0000001
 44
0.0000000001
 40
0.0
 40
0.0
 40
0.0
 40
0.0
 40
0.0095222604
 40
0.0356721232
 40
0.0748532856
 40
0.1235229336
 40
0.2387938151
 40
0.3711624653
 40
0.5154456575
 40
0.6695632532
 40
0.8328310636
 40
1.0
 40
1.0
 40
1.0
 40
1.0
 10
35.8967203891
 20
188.0782826361
 30
0.0
 10
35.8965025659
 20
188.0806555435
 30
0.0
 10
35.8932584111
 20
188.0891106111
 30
0.0
 10
35.888721635
 20
188.107209692
 30
0.0
 10
35.8794673236
 20
188.1342628624
 30
0.0
 10
35.8621413915
 20
188.1820251539
 30
0.0
 10
35.8313988006
 20
188.2496851322
 30
0.0
 10
35.7811955214
 20
188.3342145769
 30
0.0
 10
35.7134383414
 20
188.4186075696
 30
0.0
 10
35.6263930816
 20
188.495627115
 30
0.0
 10
35.5211273523
 20
188.5571280417
 30
0.0
 10
35.4385533357
 20
188.5782826254
 30
0.0
 10
35.3967203894
 20
188.5782826395
 30
0.0
  0
SPLINE
  5
88C
100
AcDbEntity
  8
0
100
AcDbSpline
 62
7
  6
BYLAYER
 70
0
 71
3
 72
17
 73
13
 74
0
 42
0.0000001
 43
0.0000001
 44
0.0000000001
 40
0.0
 40
0.0
 40
0.0
 40
0.0
 40
0.1671689366
 40
0.3304367472
 40
0.484554343
 40
0.6288375353
 40
0.7612061854
 40
0.8764770667
 40
0.9251467146
 40
0.9643278769
 40
0.9904777397
 40
1.0
 40
1.0
 40
1.0
 40
1.0
 10
77.396720382
 20
147.5782826477
 30
0.0
 10
77.396720368
 20
147.620115594
 30
0.0
 10
77.3755657843
 20
147.7026896112
 30
0.0
 10
77.3140648576
 20
147.8079553382
 30
0.0
 10
77.2370453129
 20
147.8950006063
 30
0.0
 10
77.1526523179
 20
147.9627577588
 30
0.0
 10
77.0681228814
 20
148.0129611272
 30
0.0
 10
77.0004628818
 20
148.0437034842
 30
0.0
 10
76.952700626
 20
148.0610298031
 30
0.0
 10
76.9256473827
 20
148.0702833205
 30
0.0
 10
76.9075484483
 20
148.0748216891
 30
0.0
 10
76.8990932155
 20
148.078064047
 30
0.0
 10
76.8967203795
 20
148.0782826474
 30
0.0
  0
SPLINE
  5
88D
100
AcDbEntity
  8
0
100
AcDbSpline
 62
7
  6
BYLAYER
 70
0
 71
3
 72
9
 73
5
 74
0
 42
0.0000001
 43
0.0000001
 44
0.0000000001
 40
0.0
 40
0.0
 40
0.0
 40
0.0
 40
0.4985318208
 40
1.0
 40
1.0
 40
1.0
 40
1.0
 10
77.2853633795
 20
141.0285290583
 30
0.0
 10
77.3843196883
 20
140.8344098488
 30
0.0
 10
77.4989936667
 20
140.4020852887
 30
0.0
 10
77.4954380302
 20
139.9613887698
 30
0.0
 10
77.4694588658
 20
139.7437638614
 30
0.0
  0
SPLINE
  5
88E
100
AcDbEntity
  8
0
100
AcDbSpline
 62
7
  6
BYLAYER
 70
0
 71
3
 72
9
 73
5
 74
0
 42
0.0000001
 43
0.0000001
 44
0.0000000001
 40
0.0
 40
0.0
 40
0.0
 40
0.0
 40
0.5305445917
 40
1.0
 40
1.0
 40
1.0
 40
1.0
 10
77.4694589852
 20
139.7437639242
 30
0.0
 10
77.4505831139
 20
139.7247077173
 30
0.0
 10
77.419718671
 20
139.6832846271
 30
0.0
 10
77.4073436033
 20
139.6322095979
 30
0.0
 10
77.407821412
 20
139.6084805137
 30
0.0
  0
SPLINE
  5
88F
100
AcDbEntity
  8
0
100
AcDbSpline
 62
7
  6
BYLAYER
 70
0
 71
3
 72
9
 73
5
 74
0
 42
0.0000001
 43
0.0000001
 44
0.0000000001
 40
0.0
 40
0.0
 40
0.0
 40
0.0
 40
0.5014682006
 40
1.0
 40
1.0
 40
1.0
 40
1.0
 10
175.9731127957
 20
139.7437638645
 30
0.0
 10
175.9471336288
 20
139.9613887826
 30
0.0
 10
175.9435779906
 20
140.4020853034
 30
0.0
 10
176.0582519725
 20
140.8344098633
 30
0.0
 10
176.1572082773
 20
141.028529065
 30
0.0
  0
SPLINE
  5
890
100
AcDbEntity
  8
0
100
AcDbSpline
 62
7
  6
BYLAYER
 70
0
 71
3
 72
17
 73
13
 74
0
 42
0.0000001
 43
0.0000001
 44
0.0000000001
 40
0.0
 40
0.0
 40
0.0
 40
0.0
 40
0.1671689366
 40
0.3304367472
 40
0.484554343
 40
0.6288375353
 40
0.7612061854
 40
0.8764770668
 40
0.9251467146
 40
0.9643278769
 40
0.9904777397
 40
1.0
 40
1.0
 40
1.0
 40
1.0
 10
176.0458512854
 20
181.5782826477
 30
0.0
 10
176.0458512994
 20
181.5364497015
 30
0.0
 10
176.067005883
 20
181.453875684
 30
0.0
 10
176.1285068099
 20
181.3486099579
 30
0.0
 10
176.2055263542
 20
181.2615646869
 30
0.0
 10
176.2899193502
 20
181.1938075445
 30
0.0
 10
176.3744487836
 20
181.1436041433
 30
0.0
 10
176.4421087912
 20
181.1128618722
 30
0.0
 10
176.4898710339
 20
181.0955354112
 30
0.0
 10
176.5169243041
 20
181.0862821855
 30
0.0
 10
176.5350231846
 20
181.0817432316
 30
0.0
 10
176.5434784782
 20
181.0785015342
 30
0.0
 10
176.5458512879
 20
181.0782826481
 30
0.0
  0
SPLINE
  5
891
100
AcDbEntity
  8
0
100
AcDbSpline
 62
7
  6
BYLAYER
 70
0
 71
3
 72
17
 73
13
 74
0
 42
0.0000001
 43
0.0000001
 44
0.0000000001
 40
0.0
 40
0.0
 40
0.0
 40
0.0
 40
0.0095222253
 40
0.0356720836
 40
0.074853258
 40
0.1235229208
 40
0.2387938098
 40
0.3711624546
 40
0.5154456486
 40
0.6695632491
 40
0.8328310625
 40
1.0
 40
1.0
 40
1.0
 40
1.0
 10
176.5458512897
 20
148.0782826477
 30
0.0
 10
176.5434844106
 20
148.0780070064
 30
0.0
 10
176.5350154382
 20
148.0748965213
 30
0.0
 10
176.5169286955
 20
148.0702412847
 30
0.0
 10
176.4898693713
 20
148.061046027
 30
0.0
 10
176.442110064
 20
148.0436913287
 30
0.0
 10
176.3744482705
 20
148.0129661254
 30
0.0
 10
176.2899195166
 20
147.9627562087
 30
0.0
 10
176.2055263086
 20
147.8950010751
 30
0.0
 10
176.1285068215
 20
147.8079552065
 30
0.0
 10
176.0670058785
 20
147.7026896552
 30
0.0
 10
176.0458512889
 20
147.6201155945
 30
0.0
 10
176.0458512853
 20
147.5782826477
 30
0.0
  0
SPLINE
  5
892
100
AcDbEntity
  8
0
100
AcDbSpline
 62
7
  6
BYLAYER
 70
0
 71
3
 72
9
 73
5
 74
0
 42
0.0000001
 43
0.0000001
 44
0.0000000001
 40
0.0
 40
0.0
 40
0.0
 40
0.0
 40
0.4694554082
 40
1.0
 40
1.0
 40
1.0
 40
1.0
 10
176.0347502554
 20
139.6084805138
 30
0.0
 10
176.035228064
 20
139.6322095979
 30
0.0
 10
176.0228529964
 20
139.6832846272
 30
0.0
 10
175.9919885535
 20
139.7247077174
 30
0.0
 10
175.9731126822
 20
139.7437639243
 30
0.0
  0
SPLINE
  5
893
100
AcDbEntity
  8
0
100
AcDbSpline
 62
7
  6
BYLAYER
 70
0
 71
3
 72
17
 73
13
 74
0
 42
0.0000001
 43
0.0000001
 44
0.0000000001
 40
0.0
 40
0.0
 40
0.0
 40
0.0
 40
0.0095222603
 40
0.0356721232
 40
0.0748532856
 40
0.1235229336
 40
0.2387938151
 40
0.3711624653
 40
0.5154456575
 40
0.6695632532
 40
0.8328310636
 40
1.0
 40
1.0
 40
1.0
 40
1.0
 10
224.5458512663
 20
181.0782826481
 30
0.0
 10
224.5482241698
 20
181.0785005143
 30
0.0
 10
224.5566792465
 20
181.0817445697
 30
0.0
 10
224.5747783193
 20
181.0862814339
 30
0.0
 10
224.6018314938
 20
181.0955357013
 30
0.0
 10
224.6495937833
 20
181.1128616549
 30
0.0
 10
224.7172537627
 20
181.1436042328
 30
0.0
 10
224.801783207
 20
181.1938075169
 30
0.0
 10
224.8861761998
 20
181.2615646954
 30
0.0
 10
224.9631957453
 20
181.3486099557
 30
0.0
 10
225.0246966719
 20
181.4538756849
 30
0.0
 10
225.0458512556
 20
181.5364497015
 30
0.0
 10
225.0458512697
 20
181.5782826477
 30
0.0
  0
SPLINE
  5
894
100
AcDbEntity
  8
0
100
AcDbSpline
 62
7
  6
BYLAYER
 70
0
 71
3
 72
17
 73
13
 74
0
 42
0.0000001
 43
0.0000001
 44
0.0000000001
 40
0.0
 40
0.0
 40
0.0
 40
0.0
 40
0.1671689366
 40
0.3304367472
 40
0.484554343
 40
0.6288375353
 40
0.7612061854
 40
0.8764770668
 40
0.9251467146
 40
0.9643278769
 40
0.9904777397
 40
1.0
 40
1.0
 40
1.0
 40
1.0
 10
218.045851278
 20
188.5782826403
 30
0.0
 10
218.0040183317
 20
188.5782826263
 30
0.0
 10
217.9214443145
 20
188.5571280426
 30
0.0
 10
217.8161785875
 20
188.4956271159
 30
0.0
 10
217.7291333195
 20
188.4186075712
 30
0.0
 10
217.6613761666
 20
188.3342145762
 30
0.0
 10
217.6111727993
 20
188.2496851397
 30
0.0
 10
217.5804304395
 20
188.1820251403
 30
0.0
 10
217.5631041252
 20
188.1342628841
 30
0.0
 10
217.5538505985
 20
188.1072096416
 30
0.0
 10
217.5493122485
 20
188.0891107055
 30
0.0
 10
217.5460698696
 20
188.0806554746
 30
0.0
 10
217.5458512783
 20
188.0782826378
 30
0.0
  0
SPLINE
  5
895
100
AcDbEntity
  8
0
100
AcDbSpline
 62
7
  6
BYLAYER
 70
0
 71
3
 72
17
 73
13
 74
0
 42
0.0000001
 43
0.0000001
 44
0.0000000001
 40
0.0
 40
0.0
 40
0.0
 40
0.0
 40
0.0095222604
 40
0.0356721232
 40
0.0748532856
 40
0.1235229336
 40
0.2387938151
 40
0.3711624653
 40
0.5154456575
 40
0.6695632532
 40
0.8328310636
 40
1.0
 40
1.0
 40
1.0
 40
1.0
 10
183.5458512776
 20
188.0782826361
 30
0.0
 10
183.5456334297
 20
188.0806555413
 30
0.0
 10
183.5423893319
 20
188.0891106141
 30
0.0
 10
183.5378525053
 20
188.1072096903
 30
0.0
 10
183.5285982192
 20
188.1342628631
 30
0.0
 10
183.5112722747
 20
188.1820251534
 30
0.0
 10
183.4805296913
 20
188.2496851324
 30
0.0
 10
183.4303264093
 20
188.3342145769
 30
0.0
 10
183.3625692301
 20
188.4186075696
 30
0.0
 10
183.27552397
 20
188.495627115
 30
0.0
 10
183.1702582408
 20
188.5571280417
 30
0.0
 10
183.0876842242
 20
188.5782826254
 30
0.0
 10
183.045851278
 20
188.5782826395
 30
0.0
  0
SPLINE
  5
896
100
AcDbEntity
  8
0
100
AcDbSpline
 62
7
  6
BYLAYER
 70
0
 71
3
 72
17
 73
13
 74
0
 42
0.0000001
 43
0.0000001
 44
0.0000000001
 40
0.0
 40
0.0
 40
0.0
 40
0.0
 40
0.1671689366
 40
0.3304367472
 40
0.484554343
 40
0.6288375353
 40
0.7612061854
 40
0.8764770667
 40
0.9251467146
 40
0.9643278769
 40
0.9904777397
 40
1.0
 40
1.0
 40
1.0
 40
1.0
 10
225.0458512705
 20
147.5782826477
 30
0.0
 10
225.0458512565
 20
147.620115594
 30
0.0
 10
225.0246966729
 20
147.7026896112
 30
0.0
 10
224.9631957461
 20
147.8079553382
 30
0.0
 10
224.8861762015
 20
147.8950006063
 30
0.0
 10
224.8017832064
 20
147.9627577588
 30
0.0
 10
224.71725377
 20
148.0129611273
 30
0.0
 10
224.6495937703
 20
148.043703484
 30
0.0
 10
224.6018315145
 20
148.0610298034
 30
0.0
 10
224.5747782711
 20
148.0702833196
 30
0.0
 10
224.5566793369
 20
148.0748216906
 30
0.0
 10
224.5482241039
 20
148.0780640458
 30
0.0
 10
224.545851268
 20
148.0782826474
 30
0.0
  0
SPLINE
  5
897
100
AcDbEntity
  8
0
100
AcDbSpline
 62
7
  6
BYLAYER
 70
0
 71
3
 72
9
 73
5
 74
0
 42
0.0000001
 43
0.0000001
 44
0.0000000001
 40
0.0
 40
0.0
 40
0.0
 40
0.0
 40
0.4985318208
 40
1.0
 40
1.0
 40
1.0
 40
1.0
 10
224.934494268
 20
141.0285290583
 30
0.0
 10
225.0334505768
 20
140.8344098488
 30
0.0
 10
225.1481245552
 20
140.4020852887
 30
0.0
 10
225.1445689187
 20
139.9613887698
 30
0.0
 10
225.1185897543
 20
139.7437638614
 30
0.0
  0
SPLINE
  5
898
100
AcDbEntity
  8
0
100
AcDbSpline
 62
7
  6
BYLAYER
 70
0
 71
3
 72
9
 73
5
 74
0
 42
0.0000001
 43
0.0000001
 44
0.0000000001
 40
0.0
 40
0.0
 40
0.0
 40
0.0
 40
0.5305445917
 40
1.0
 40
1.0
 40
1.0
 40
1.0
 10
225.1185898737
 20
139.7437639242
 30
0.0
 10
225.0997140024
 20
139.7247077173
 30
0.0
 10
225.0688495595
 20
139.6832846271
 30
0.0
 10
225.0564744919
 20
139.6322095979
 30
0.0
 10
225.0569523005
 20
139.6084805137
 30
0.0
  0
ENDSEC
  0
SECTION
  2
OBJECTS
  0
DICTIONARY
  5
C
100
AcDbDictionary
280
0
281
1
  3
ACAD_GROUP
350
D
  3
ACAD_MLINESTYLE
350
17
  3
ACAD_LAYOUT
350
1A
  3
ACAD_PLOTSETTINGS
350
19
  3
ACAD_PLOTSTYLENAME
350
E
  0
DICTIONARY
  5
D
102
{ACAD_REACTORS
330
C
102
}
100
AcDbDictionary
280
0
281
1
  0
ACDBDICTIONARYWDFLT
  5
E
102
{ACAD_REACTORS
330
C
102
}
100
AcDbDictionary
281
1
  3
Normal
350
F
100
AcDbDictionaryWithDefault
340
F
  0
DICTIONARY
  5
17
102
{ACAD_REACTORS
330
C
102
}
100
AcDbDictionary
280
0
281
1
  3
Standard
350
18
  0
DICTIONARY
  5
19
102
{ACAD_REACTORS
330
C
102
}
100
AcDbDictionary
281
1
  0
DICTIONARY
  5
1A
102
{ACAD_REACTORS
330
C
102
}
100
AcDbDictionary
281
1
  3
Model
350
899
  3
Layout1
350
89A
  0
ACDBPLACEHOLDER
  5
F
102
{ACAD_REACTORS
330
E
102
}
  0
MLINESTYLE
  5
18
102
{ACAD_REACTORS
330
17
102
}
100
AcDbMlineStyle
  2
STANDARD
 70
0
  3

 62
256
 51
90.0
 52
90.0
 71
2
 49
0.5
 62
256
  6
BYLAYER
 49
-0.5
 62
256
  6
BYLAYER
  0
LAYOUT
  5
899
102
{ACAD_REACTORS
330
1A
102
}
100
AcDbPlotSettings
  1

  2
none_device
  4

  6

 40
0.0
 41
0.0
 42
0.0
 43
0.0
 44
210.0
 45
297.0
 46
0.0
 47
0.0
 48
0.0
 49
0.0
140
0.0
141
0.0
142
1.0
143
1.0
 70
1024
 72
1
 73
0
 74
0
  7

 75
0
147
1.0
148
0.0
149
0.0
100
AcDbLayout
  1
Model
 70
0
 71
0
 10
0.0
 20
0.0
 11
210.0
 21
297.0
 12
0.0
 22
0.0
 32
0.0
 14
0.0
 24
0.0
 34
0.0
 15
0.0
 25
0.0
 35
0.0
146
0.0
 13
0.0
 23
0.0
 33
0.0
 16
1.0
 26
0.0
 36
0.0
 17
0.0
 27
1.0
 37
0.0
 76
0
330
212
345
0
346
0
  0
LAYOUT
  5
89A
102
{ACAD_REACTORS
330
1A
102
}
100
AcDbPlotSettings
  1

  2
none_device
  4

  6

 40
0.0
 41
0.0
 42
0.0
 43
0.0
 44
210.0
 45
297.0
 46
0.0
 47
0.0
 48
0.0
 49
0.0
140
0.0
141
0.0
142
1.0
143
1.0
 70
0
 72
1
 73
0
 74
0
  7

 75
0
147
1.0
148
0.0
149
0.0
100
AcDbLayout
  1
Layout1
 70
0
 71
1
 10
0.0
 20
0.0
 11
210.0
 21
297.0
 12
0.0
 22
0.0
 32
0.0
 14
0.0
 24
0.0
 34
0.0
 15
0.0
 25
0.0
 35
0.0
146
0.0
 13
0.0
 23
0.0
 33
0.0
 16
1.0
 26
0.0
 36
0.0
 17
0.0
 27
1.0
 37
0.0
 76
0
330
213
345
0
346
0
  0
ENDSEC
  0
EOF
