999
DXF file: C:\Users\sesa63760\Dev\_Creo\CAD\MCADUE0002064_3D-CAD\drw0001_7.dxf
999
Pro/ENGINEER 2019471 by Parametric Technology Corporation
  0
SECTION
  2
HEADER
  9
$ACADVER
  1
AC1024
  9
$DWGCODEPAGE
  3
ANSI_1252
  9
$EXTMAX
 10
625.7111597374
 20
884.9343544858
 30
0.0
  9
$EXTMIN
 10
0.0
 20
0.0
 30
0.0
  9
$LIMMIN
 10
0.0
 20
0.0
  9
$LIMMAX
 10
625.7111597374
 20
884.9343544858
  9
$VIEWCTR
 10
312.8555798687
 20
442.4671772429
  9
$VIEWSIZE
 40
884.9343544858
  9
$CLAYER
  8
0
  9
$LTSCALE
 40
57.6846097739
  9
$CELTYPE
  6
BYLAYER
  9
$DIMSCALE
 40
1.0
  9
$DIMASZ
 40
7.4489423778
  9
$DIMEXO
 40
1.0
  9
$DIMDLI
 40
39.8548212983
  9
$DIMEXE
 40
1.0
  9
$DIMCEN
 40
9.4392997812
  9
$DIMLFAC
 40
1.0
  9
$DIMBLK
  1
_FILLED
  9
$DIMALT
 70
0
  9
$DIMALTF
 40
0.0393700787
  9
$DIMTXT
 40
10.428519329
  9
$DIMTOL
 70
1
  9
$DIMLIM
 70
0
  9
$DIMTFAC
 40
1.0
  9
$DIMTP
 40
0.01
  9
$DIMTM
 40
0.01
  9
$DIMGAP
 40
0.625
  9
$DIMDSEP
 70
46
  9
$AUNITS
 70
0
  9
$PDMODE
 70
3
  9
$PDSIZE
 40
0.3125
  9
$HANDSEED
  5
42F
  9
$TILEMODE
 70
1
  9
$MEASUREMENT
 70
1
  9
$INSUNITS
 70
4
  0
ENDSEC
  0
SECTION
  2
CLASSES
  0
CLASS
  1
ACDBDICTIONARYWDFLT
  2
AcDbDictionaryWithDefault
  3
AutoCAD 2000
 90
0
 91
1
280
0
281
0
  0
CLASS
  1
ACDBPLACEHOLDER
  2
AcDbPlaceHolder
  3
AutoCAD 2000
 90
0
 91
1
280
0
281
0
  0
CLASS
  1
LAYOUT
  2
AcDbLayout
  3
AutoCAD 2000
 90
0
 91
0
280
0
281
0
  0
ENDSEC
  0
SECTION
  2
TABLES
  0
TABLE
  2
VPORT
  5
8
100
AcDbSymbolTable
 70
2
  0
VPORT
  5
1F4
100
AcDbSymbolTableRecord
100
AcDbViewportTableRecord
  2
*ACTIVE
 70
0
 10
0.0
 20
0.0
 11
1.0
 21
1.0
 12
312.8555798687
 22
442.4671772429
 13
0.0
 23
0.0
 14
1.0
 24
1.0
 15
0.0
 25
0.0
 16
0.0
 26
0.0
 36
1.0
 17
0.0
 27
0.0
 37
0.0
 40
884.9343544858
 41
0.7070707071
 42
50.0
 43
0.0
 44
0.0
 50
0.0
 51
0.0
 71
0
 72
100
 73
1
 74
1
 75
0
 76
0
 77
0
 78
0
  0
ENDTAB
  0
TABLE
  2
LTYPE
  5
5
100
AcDbSymbolTable
 70
6
  0
LTYPE
  5
14
100
AcDbSymbolTableRecord
100
AcDbLinetypeTableRecord
  2
BYBLOCK
 70
0
  3

 72
65
 73
0
 40
0.0
  0
LTYPE
  5
15
100
AcDbSymbolTableRecord
100
AcDbLinetypeTableRecord
  2
BYLAYER
 70
0
  3

 72
65
 73
0
 40
0.0
  0
LTYPE
  5
16
100
AcDbSymbolTableRecord
100
AcDbLinetypeTableRecord
  2
CONTINUOUS
 70
64
  3
Solid line
 72
65
 73
0
 40
0.0
  0
LTYPE
  5
1F5
100
AcDbSymbolTableRecord
100
AcDbLinetypeTableRecord
  2
CENTER
 70
64
  3
____ _ ____ _ ____ _ ____ _ ____ _ ____ _ ____
 72
65
 73
4
 40
0.6
 49
0.375
 74
0
 49
-0.075
 74
0
 49
0.075
 74
0
 49
-0.075
 74
0
  0
LTYPE
  5
1F6
100
AcDbSymbolTableRecord
100
AcDbLinetypeTableRecord
  2
HIDDEN
 70
64
  3
- - - - - - - - - - - - - - - - - - - -
 72
65
 73
2
 40
0.2
 49
0.1
 74
0
 49
-0.1
 74
0
  0
LTYPE
  5
1F7
100
AcDbSymbolTableRecord
100
AcDbLinetypeTableRecord
  2
PHANTOM
 70
64
  3
_____ _ _ _____ _ _ _____ _ _ _____
 72
65
 73
6
 40
0.8
 49
0.45
 74
0
 49
-0.05
 74
0
 49
0.1
 74
0
 49
-0.05
 74
0
 49
0.1
 74
0
 49
-0.05
 74
0
  0
LTYPE
  5
1F8
100
AcDbSymbolTableRecord
100
AcDbLinetypeTableRecord
  2
DOT
 70
64
  3
. . . . . . . . . . . . . . . . . . . .
 72
65
 73
2
 40
0.2
 49
0.1
 74
0
 49
-0.1
 74
0
  0
LTYPE
  5
1F9
100
AcDbSymbolTableRecord
100
AcDbLinetypeTableRecord
  2
DASHED
 70
64
  3
- - - - - - - - - - - - - - - - - - - -
 72
65
 73
2
 40
0.2
 49
0.1
 74
0
 49
-0.1
 74
0
  0
ENDTAB
  0
TABLE
  2
LAYER
  5
2
100
AcDbSymbolTable
 70
36
  0
LAYER
  5
10
100
AcDbSymbolTableRecord
100
AcDbLayerTableRecord
  2
0
 70
0
 62
7
  6
CONTINUOUS
370
-3
390
F
  0
LAYER
  5
1FA
100
AcDbSymbolTableRecord
100
AcDbLayerTableRecord
  2
DEFAULT_1
 70
0
 62
7
  6
CENTER
370
-3
390
F
  0
LAYER
  5
1FB
100
AcDbSymbolTableRecord
100
AcDbLayerTableRecord
  2
DEFAULT_2
 70
0
 62
8
  6
HIDDEN
370
-3
390
F
  0
LAYER
  5
1FC
100
AcDbSymbolTableRecord
100
AcDbLayerTableRecord
  2
DEFAULT_3
 70
0
 62
7
  6
PHANTOM
370
-3
390
F
  0
LAYER
  5
1FD
100
AcDbSymbolTableRecord
100
AcDbLayerTableRecord
  2
00_COMPONENTS
 70
0
 62
7
  6
CONTINUOUS
370
-3
390
F
  0
LAYER
  5
1FE
100
AcDbSymbolTableRecord
100
AcDbLayerTableRecord
  2
01_1_DEFAULT_DATUMS
 70
0
 62
7
  6
CONTINUOUS
370
-3
390
F
  0
LAYER
  5
1FF
100
AcDbSymbolTableRecord
100
AcDbLayerTableRecord
  2
01_PLANES
 70
0
 62
7
  6
CONTINUOUS
370
-3
390
F
  0
LAYER
  5
200
100
AcDbSymbolTableRecord
100
AcDbLayerTableRecord
  2
02_COORD_SYS
 70
0
 62
7
  6
CONTINUOUS
370
-3
390
F
  0
LAYER
  5
201
100
AcDbSymbolTableRecord
100
AcDbLayerTableRecord
  2
03_AXES
 70
0
 62
7
  6
CONTINUOUS
370
-3
390
F
  0
LAYER
  5
202
100
AcDbSymbolTableRecord
100
AcDbLayerTableRecord
  2
04_POINTS
 70
0
 62
7
  6
CONTINUOUS
370
-3
390
F
  0
LAYER
  5
203
100
AcDbSymbolTableRecord
100
AcDbLayerTableRecord
  2
05_CURVES
 70
0
 62
7
  6
CONTINUOUS
370
-3
390
F
  0
LAYER
  5
204
100
AcDbSymbolTableRecord
100
AcDbLayerTableRecord
  2
06_SURFS
 70
0
 62
7
  6
CONTINUOUS
370
-3
390
F
  0
LAYER
  5
205
100
AcDbSymbolTableRecord
100
AcDbLayerTableRecord
  2
07_COSMETICS
 70
0
 62
7
  6
CONTINUOUS
370
-3
390
F
  0
LAYER
  5
206
100
AcDbSymbolTableRecord
100
AcDbLayerTableRecord
  2
10_NOTES
 70
0
 62
7
  6
CONTINUOUS
370
-3
390
F
  0
LAYER
  5
207
100
AcDbSymbolTableRecord
100
AcDbLayerTableRecord
  2
11_NOTES_PUB
 70
0
 62
7
  6
CONTINUOUS
370
-3
390
F
  0
LAYER
  5
208
100
AcDbSymbolTableRecord
100
AcDbLayerTableRecord
  2
13_REF_GTOL
 70
0
 62
7
  6
CONTINUOUS
370
-3
390
F
  0
LAYER
  5
209
100
AcDbSymbolTableRecord
100
AcDbLayerTableRecord
  2
16_MISC
 70
0
 62
7
  6
CONTINUOUS
370
-3
390
F
  0
LAYER
  5
20A
100
AcDbSymbolTableRecord
100
AcDbLayerTableRecord
  2
17_NO_PRINT
 70
0
 62
7
  6
CONTINUOUS
370
-3
390
F
  0
LAYER
  5
20B
100
AcDbSymbolTableRecord
100
AcDbLayerTableRecord
  2
18_DATUM_CAMS_JOINTS
 70
0
 62
7
  6
CONTINUOUS
370
-3
390
F
  0
LAYER
  5
20C
100
AcDbSymbolTableRecord
100
AcDbLayerTableRecord
  2
19_DATUM_FUNCTIONAL
 70
0
 62
7
  6
CONTINUOUS
370
-3
390
F
  0
LAYER
  5
20D
100
AcDbSymbolTableRecord
100
AcDbLayerTableRecord
  2
20_DATUM_KINEMATIC_SCHEME
 70
0
 62
7
  6
CONTINUOUS
370
-3
390
F
  0
ENDTAB
  0
TABLE
  2
STYLE
  5
3
100
AcDbSymbolTable
 70
1
  0
STYLE
  5
11
100
AcDbSymbolTableRecord
100
AcDbTextStyleTableRecord
  2
STANDARD
 70
0
 40
0.0
 41
0.8
 50
0.0
 71
0
 42
0.2
  3
txt
  4

  0
STYLE
  5
20E
100
AcDbSymbolTableRecord
100
AcDbTextStyleTableRecord
  2
TEXTSTYLE_1
 70
0
 40
0.0
 41
0.8
 50
0.0
 71
0
 42
0.2
  3
gdt
  4

  0
ENDTAB
  0
TABLE
  2
VIEW
  5
6
100
AcDbSymbolTable
 70
0
  0
ENDTAB
  0
TABLE
  2
UCS
  5
7
100
AcDbSymbolTable
 70
0
  0
ENDTAB
  0
TABLE
  2
APPID
  5
9
100
AcDbSymbolTable
 70
1
  0
APPID
  5
20F
100
AcDbSymbolTableRecord
100
AcDbRegAppTableRecord
  2
ACAD
 70
0
  0
ENDTAB
  0
TABLE
  2
BLOCK_RECORD
  5
1
100
AcDbSymbolTable
 70
0
  0
BLOCK_RECORD
  5
210
100
AcDbSymbolTableRecord
100
AcDbBlockTableRecord
  2
*Model_Space
  0
BLOCK_RECORD
  5
211
100
AcDbSymbolTableRecord
100
AcDbBlockTableRecord
  2
*Paper_Space
  0
BLOCK_RECORD
  5
212
100
AcDbSymbolTableRecord
100
AcDbBlockTableRecord
  2
_FILLED
  0
ENDTAB
  0
TABLE
  2
DIMSTYLE
  5
A
100
AcDbSymbolTable
 70
1
100
AcDbDimStyleTable
 71
0
  0
DIMSTYLE
105
213
100
AcDbSymbolTableRecord
100
AcDbDimStyleTableRecord
  2
STANDARD
 70
0
  3

  4

 40
1.0
 41
7.4489423778
 42
1.0
 43
0.38
 44
1.0
 45
0.0
 46
0.0
 47
0.01
 48
0.01
140
10.428519329
141
0.09
142
0.0
143
25.4
144
1.0
145
0.0
146
1.0
147
0.625
 71
1
 72
0
 73
0
 74
0
 75
0
 76
0
 77
1
 78
8
 79
2
170
0
171
1
172
0
173
0
174
0
175
0
176
0
177
0
178
0
270
2
179
2
271
2
272
2
273
2
274
2
275
0
280
0
281
0
282
0
283
1
284
8
285
0
286
0
287
3
288
0
340
11
278
46
341
212
342
212
343
212
344
212
  0
ENDTAB
  0
ENDSEC
  0
SECTION
  2
BLOCKS
  0
BLOCK
  5
20
100
AcDbEntity
  8
0
100
AcDbBlockBegin
  2
*Model_Space
 70
0
 10
0.0
 20
0.0
 30
0.0
  3
*Model_Space
  1

  0
ENDBLK
  5
21
100
AcDbEntity
  8
0
100
AcDbBlockEnd
  0
BLOCK
  5
1C
100
AcDbEntity
  8
0
100
AcDbBlockBegin
  2
*Paper_Space
 70
0
 10
0.0
 20
0.0
 30
0.0
  3
*Paper_Space
  1

  0
ENDBLK
  5
1D
100
AcDbEntity
  8
0
100
AcDbBlockEnd
  0
BLOCK
  5
214
100
AcDbEntity
  8
0
100
AcDbBlockBegin
  2
_FILLED
 70
64
 10
0.0
 20
0.0
  3
_FILLED
  1

  0
SOLID
  5
215
100
AcDbEntity
  8
0
  6
BYBLOCK
 62
0
100
AcDbTrace
 10
0.0
 20
0.0
 11
-1.0
 21
0.25
 12
-1.0
 22
-0.25
 13
-1.0
 23
-0.25
  0
ENDBLK
  5
216
100
AcDbEntity
  8
0
  6
BYBLOCK
 62
0
100
AcDbBlockEnd
  0
ENDSEC
  0
SECTION
  2
ENTITIES
  0
LINE
  5
217
100
AcDbEntity
  8
0
100
AcDbLine
 62
7
  6
CONTINUOUS
 10
66.4387308534
 20
359.6334792123
 11
66.4387308534
 21
529.6334792123
  0
LINE
  5
218
100
AcDbEntity
  8
0
100
AcDbLine
 62
7
  6
CONTINUOUS
 10
67.9387308534
 20
529.6334792123
 11
67.9387308534
 21
359.6334792123
  0
LINE
  5
219
100
AcDbEntity
  8
0
100
AcDbLine
 62
7
  6
CONTINUOUS
 10
77.9387308534
 20
529.6334792123
 11
77.9387308534
 21
359.6334792123
  0
LINE
  5
21A
100
AcDbEntity
  8
0
100
AcDbLine
 62
7
  6
CONTINUOUS
 10
81.4387308534
 20
359.6334792123
 11
81.4387308534
 21
529.6334792123
  0
LINE
  5
21B
100
AcDbEntity
  8
0
100
AcDbLine
 62
7
  6
CONTINUOUS
 10
85.4887308534
 20
496.5098675871
 11
85.4887308534
 21
492.7570908375
  0
LINE
  5
21C
100
AcDbEntity
  8
0
100
AcDbLine
 62
7
  6
CONTINUOUS
 10
85.4887308534
 20
396.5098675871
 11
85.4887308534
 21
392.7570908375
  0
LINE
  5
21D
100
AcDbEntity
  8
0
100
AcDbLine
 62
7
  6
CONTINUOUS
 10
85.58873086
 20
392.7570909124
 11
85.58873086
 21
396.5098675121
  0
LINE
  5
21E
100
AcDbEntity
  8
0
100
AcDbLine
 62
7
  6
CONTINUOUS
 10
85.58873086
 20
492.7570909124
 11
85.58873086
 21
496.5098675121
  0
LINE
  5
21F
100
AcDbEntity
  8
0
100
AcDbLine
 62
7
  6
CONTINUOUS
 10
92.2887308468
 20
496.5098675121
 11
92.2887308468
 21
492.7570909124
  0
LINE
  5
220
100
AcDbEntity
  8
0
100
AcDbLine
 62
7
  6
CONTINUOUS
 10
92.2887308468
 20
396.5098675121
 11
92.2887308468
 21
392.7570909124
  0
LINE
  5
221
100
AcDbEntity
  8
0
100
AcDbLine
 62
7
  6
CONTINUOUS
 10
92.3887308534
 20
392.7570908374
 11
92.3887308534
 21
396.5098675871
  0
LINE
  5
222
100
AcDbEntity
  8
0
100
AcDbLine
 62
7
  6
CONTINUOUS
 10
92.3887308534
 20
492.7570908374
 11
92.3887308534
 21
496.5098675871
  0
LINE
  5
223
100
AcDbEntity
  8
0
100
AcDbLine
 62
7
  6
CONTINUOUS
 10
85.5887308534
 20
492.5838857566
 11
85.6387308567
 21
492.6704883027
  0
LINE
  5
224
100
AcDbEntity
  8
0
100
AcDbLine
 62
7
  6
CONTINUOUS
 10
88.9887308484
 20
498.4728584938
 11
89.0387308534
 21
498.5594610427
  0
LINE
  5
225
100
AcDbEntity
  8
0
100
AcDbLine
 62
7
  6
CONTINUOUS
 10
92.2887308534
 20
496.6830726679
 11
92.2387308484
 21
496.5964701189
  0
LINE
  5
226
100
AcDbEntity
  8
0
100
AcDbLine
 62
7
  6
CONTINUOUS
 10
88.8887308567
 20
490.7940999279
 11
88.8387308534
 21
490.7074973818
  0
LINE
  5
227
100
AcDbEntity
  8
0
100
AcDbLine
 62
7
  6
CONTINUOUS
 10
89.0387308534
 20
390.7074973818
 11
88.9887308501
 21
390.7940999279
  0
LINE
  5
228
100
AcDbEntity
  8
0
100
AcDbLine
 62
7
  6
CONTINUOUS
 10
85.6387308567
 20
396.5964701218
 11
85.5887308534
 21
396.6830726679
  0
LINE
  5
229
100
AcDbEntity
  8
0
100
AcDbLine
 62
7
  6
CONTINUOUS
 10
88.8387308534
 20
398.5594610427
 11
88.8887308567
 21
398.4728584966
  0
LINE
  5
22A
100
AcDbEntity
  8
0
100
AcDbLine
 62
7
  6
CONTINUOUS
 10
92.2387308501
 20
392.6704883027
 11
92.2887308534
 21
392.5838857566
  0
LINE
  5
22B
100
AcDbEntity
  8
0
100
AcDbLine
 62
7
  6
CONTINUOUS
 10
101.4387308534
 20
379.6334792123
 11
101.4387308534
 21
509.6334792123
  0
LINE
  5
22C
100
AcDbEntity
  8
0
100
AcDbLine
 62
7
  6
CONTINUOUS
 10
123.0887308534
 20
530.0838857566
 11
123.1387308567
 21
530.1704883027
  0
LINE
  5
22D
100
AcDbEntity
  8
0
100
AcDbLine
 62
7
  6
CONTINUOUS
 10
126.4887308484
 20
535.9728584938
 11
126.5387308534
 21
536.0594610427
  0
LINE
  5
22E
100
AcDbEntity
  8
0
100
AcDbLine
 62
7
  6
CONTINUOUS
 10
129.7887308534
 20
534.1830726679
 11
129.7387308484
 21
534.0964701189
  0
LINE
  5
22F
100
AcDbEntity
  8
0
100
AcDbLine
 62
7
  6
CONTINUOUS
 10
126.3887308567
 20
528.2940999279
 11
126.3387308534
 21
528.2074973818
  0
LINE
  5
230
100
AcDbEntity
  8
0
100
AcDbLine
 62
7
  6
CONTINUOUS
 10
126.5387308534
 20
353.2074973818
 11
126.4887308501
 21
353.2940999279
  0
LINE
  5
231
100
AcDbEntity
  8
0
100
AcDbLine
 62
7
  6
CONTINUOUS
 10
123.1387308567
 20
359.0964701218
 11
123.0887308534
 21
359.1830726679
  0
LINE
  5
232
100
AcDbEntity
  8
0
100
AcDbLine
 62
7
  6
CONTINUOUS
 10
126.3387308534
 20
361.0594610427
 11
126.3887308567
 21
360.9728584966
  0
LINE
  5
233
100
AcDbEntity
  8
0
100
AcDbLine
 62
7
  6
CONTINUOUS
 10
129.7387308501
 20
355.1704883027
 11
129.7887308534
 21
355.0838857566
  0
LINE
  5
234
100
AcDbEntity
  8
0
100
AcDbLine
 62
7
  6
CONTINUOUS
 10
122.9887308534
 20
534.0098675871
 11
122.9887308534
 21
530.2570908375
  0
LINE
  5
235
100
AcDbEntity
  8
0
100
AcDbLine
 62
7
  6
CONTINUOUS
 10
122.9887308534
 20
359.0098675871
 11
122.9887308534
 21
355.2570908375
  0
LINE
  5
236
100
AcDbEntity
  8
0
100
AcDbLine
 62
7
  6
CONTINUOUS
 10
123.08873086
 20
355.2570909124
 11
123.08873086
 21
359.0098675121
  0
LINE
  5
237
100
AcDbEntity
  8
0
100
AcDbLine
 62
7
  6
CONTINUOUS
 10
123.08873086
 20
530.2570909124
 11
123.08873086
 21
534.0098675121
  0
LINE
  5
238
100
AcDbEntity
  8
0
100
AcDbLine
 62
7
  6
CONTINUOUS
 10
129.7887308468
 20
534.0098675121
 11
129.7887308468
 21
530.2570909124
  0
LINE
  5
239
100
AcDbEntity
  8
0
100
AcDbLine
 62
7
  6
CONTINUOUS
 10
129.7887308468
 20
359.0098675121
 11
129.7887308468
 21
355.2570909124
  0
LINE
  5
23A
100
AcDbEntity
  8
0
100
AcDbLine
 62
7
  6
CONTINUOUS
 10
129.8887308534
 20
355.2570908374
 11
129.8887308534
 21
359.0098675871
  0
LINE
  5
23B
100
AcDbEntity
  8
0
100
AcDbLine
 62
7
  6
CONTINUOUS
 10
129.8887308534
 20
530.2570908374
 11
129.8887308534
 21
534.0098675871
  0
LINE
  5
23C
100
AcDbEntity
  8
0
100
AcDbLine
 62
7
  6
CONTINUOUS
 10
85.5887308534
 20
392.5838857566
 11
85.6387308567
 21
392.6704883027
  0
LINE
  5
23D
100
AcDbEntity
  8
0
100
AcDbLine
 62
7
  6
CONTINUOUS
 10
88.9887308484
 20
398.4728584938
 11
89.0387308534
 21
398.5594610427
  0
LINE
  5
23E
100
AcDbEntity
  8
0
100
AcDbLine
 62
7
  6
CONTINUOUS
 10
92.2887308534
 20
396.6830726679
 11
92.2387308484
 21
396.5964701189
  0
LINE
  5
23F
100
AcDbEntity
  8
0
100
AcDbLine
 62
7
  6
CONTINUOUS
 10
88.8887308567
 20
390.7940999279
 11
88.8387308534
 21
390.7074973818
  0
LINE
  5
240
100
AcDbEntity
  8
0
100
AcDbLine
 62
7
  6
CONTINUOUS
 10
126.3387308533
 20
536.0594610427
 11
123.0887308534
 21
534.1830726679
  0
LINE
  5
241
100
AcDbEntity
  8
0
100
AcDbLine
 62
7
  6
CONTINUOUS
 10
126.3887307916
 20
535.9728584591
 11
123.1387309216
 21
534.0964701593
  0
LINE
  5
242
100
AcDbEntity
  8
0
100
AcDbLine
 62
7
  6
CONTINUOUS
 10
126.4887309151
 20
528.2940999654
 11
129.7387307851
 21
530.1704882652
  0
LINE
  5
243
100
AcDbEntity
  8
0
100
AcDbLine
 62
7
  6
CONTINUOUS
 10
126.5387308534
 20
528.2074973818
 11
129.7887308534
 21
530.0838857566
  0
LINE
  5
244
100
AcDbEntity
  8
0
100
AcDbLine
 62
7
  6
CONTINUOUS
 10
123.0887308534
 20
355.0838857566
 11
126.3387308534
 21
353.2074973818
  0
LINE
  5
245
100
AcDbEntity
  8
0
100
AcDbLine
 62
7
  6
CONTINUOUS
 10
123.1387309216
 20
355.1704882652
 11
126.3887307916
 21
353.2940999655
  0
LINE
  5
246
100
AcDbEntity
  8
0
100
AcDbLine
 62
7
  6
CONTINUOUS
 10
129.7387308143
 20
359.0964701348
 11
126.4887309152
 21
360.972858459
  0
LINE
  5
247
100
AcDbEntity
  8
0
100
AcDbLine
 62
7
  6
CONTINUOUS
 10
129.7887308534
 20
359.1830726679
 11
126.5387308534
 21
361.0594610427
  0
LINE
  5
248
100
AcDbEntity
  8
0
100
AcDbLine
 62
7
  6
CONTINUOUS
 10
89.0387308534
 20
490.7074973818
 11
88.9887308501
 21
490.7940999279
  0
LINE
  5
249
100
AcDbEntity
  8
0
100
AcDbLine
 62
7
  6
CONTINUOUS
 10
85.6387308567
 20
496.5964701218
 11
85.5887308534
 21
496.6830726679
  0
LINE
  5
24A
100
AcDbEntity
  8
0
100
AcDbLine
 62
7
  6
CONTINUOUS
 10
88.8387308534
 20
498.5594610427
 11
88.8887308567
 21
498.4728584966
  0
LINE
  5
24B
100
AcDbEntity
  8
0
100
AcDbLine
 62
7
  6
CONTINUOUS
 10
92.2387308501
 20
492.6704883027
 11
92.2887308534
 21
492.5838857566
  0
LINE
  5
24C
100
AcDbEntity
  8
0
100
AcDbLine
 62
7
  6
CONTINUOUS
 10
88.8387308533
 20
498.5594610427
 11
85.5887308534
 21
496.6830726679
  0
LINE
  5
24D
100
AcDbEntity
  8
0
100
AcDbLine
 62
7
  6
CONTINUOUS
 10
88.8887307916
 20
498.4728584591
 11
85.6387309216
 21
496.5964701593
  0
LINE
  5
24E
100
AcDbEntity
  8
0
100
AcDbLine
 62
7
  6
CONTINUOUS
 10
88.9887309151
 20
490.7940999654
 11
92.2387307851
 21
492.6704882652
  0
LINE
  5
24F
100
AcDbEntity
  8
0
100
AcDbLine
 62
7
  6
CONTINUOUS
 10
89.0387308534
 20
490.7074973818
 11
92.2887308534
 21
492.5838857566
  0
LINE
  5
250
100
AcDbEntity
  8
0
100
AcDbLine
 62
7
  6
CONTINUOUS
 10
85.5887308534
 20
392.5838857566
 11
88.8387308534
 21
390.7074973818
  0
LINE
  5
251
100
AcDbEntity
  8
0
100
AcDbLine
 62
7
  6
CONTINUOUS
 10
85.6387309216
 20
392.6704882652
 11
88.8887307916
 21
390.7940999655
  0
LINE
  5
252
100
AcDbEntity
  8
0
100
AcDbLine
 62
7
  6
CONTINUOUS
 10
92.2387308143
 20
396.5964701348
 11
88.9887309152
 21
398.472858459
  0
LINE
  5
253
100
AcDbEntity
  8
0
100
AcDbLine
 62
7
  6
CONTINUOUS
 10
92.2887308534
 20
396.6830726679
 11
89.0387308534
 21
398.5594610427
  0
LINE
  5
254
100
AcDbEntity
  8
0
100
AcDbLine
 62
7
  6
CONTINUOUS
 10
123.0887308534
 20
355.0838857566
 11
123.1387308567
 21
355.1704883027
  0
LINE
  5
255
100
AcDbEntity
  8
0
100
AcDbLine
 62
7
  6
CONTINUOUS
 10
126.4887308484
 20
360.9728584938
 11
126.5387308534
 21
361.0594610427
  0
LINE
  5
256
100
AcDbEntity
  8
0
100
AcDbLine
 62
7
  6
CONTINUOUS
 10
129.7887308534
 20
359.1830726679
 11
129.7387308484
 21
359.0964701189
  0
LINE
  5
257
100
AcDbEntity
  8
0
100
AcDbLine
 62
7
  6
CONTINUOUS
 10
126.3887308567
 20
353.2940999279
 11
126.3387308534
 21
353.2074973818
  0
LINE
  5
258
100
AcDbEntity
  8
0
100
AcDbLine
 62
7
  6
CONTINUOUS
 10
251.3387308533
 20
536.0594610427
 11
248.0887308535
 21
534.1830726679
  0
LINE
  5
259
100
AcDbEntity
  8
0
100
AcDbLine
 62
7
  6
CONTINUOUS
 10
251.3887307916
 20
535.9728584591
 11
248.1387309216
 21
534.0964701593
  0
LINE
  5
25A
100
AcDbEntity
  8
0
100
AcDbLine
 62
7
  6
CONTINUOUS
 10
536.4387308534
 20
334.6334792123
 11
91.4387308534
 21
334.6334792123
  0
LINE
  5
25B
100
AcDbEntity
  8
0
100
AcDbLine
 62
7
  6
CONTINUOUS
 10
91.4387308534
 20
336.1334792123
 11
536.4387308534
 21
336.1334792123
  0
LINE
  5
25C
100
AcDbEntity
  8
0
100
AcDbLine
 62
7
  6
CONTINUOUS
 10
248.0887308534
 20
355.0838857566
 11
251.3387308533
 21
353.2074973818
  0
LINE
  5
25D
100
AcDbEntity
  8
0
100
AcDbLine
 62
7
  6
CONTINUOUS
 10
248.1387309216
 20
355.1704882653
 11
251.3887307917
 21
353.2940999654
  0
LINE
  5
25E
100
AcDbEntity
  8
0
100
AcDbLine
 62
7
  6
CONTINUOUS
 10
126.5387308534
 20
528.2074973818
 11
126.4887308501
 21
528.2940999279
  0
LINE
  5
25F
100
AcDbEntity
  8
0
100
AcDbLine
 62
7
  6
CONTINUOUS
 10
123.1387308567
 20
534.0964701218
 11
123.0887308534
 21
534.1830726679
  0
LINE
  5
260
100
AcDbEntity
  8
0
100
AcDbLine
 62
7
  6
CONTINUOUS
 10
126.3387308534
 20
536.0594610427
 11
126.3887308567
 21
535.9728584966
  0
LINE
  5
261
100
AcDbEntity
  8
0
100
AcDbLine
 62
7
  6
CONTINUOUS
 10
129.7387308501
 20
530.1704883027
 11
129.7887308534
 21
530.0838857566
  0
LINE
  5
262
100
AcDbEntity
  8
0
100
AcDbLine
 62
7
  6
CONTINUOUS
 10
248.0887308534
 20
530.0838857566
 11
248.1387308567
 21
530.1704883027
  0
LINE
  5
263
100
AcDbEntity
  8
0
100
AcDbLine
 62
7
  6
CONTINUOUS
 10
251.4887308484
 20
535.9728584938
 11
251.5387308534
 21
536.0594610428
  0
LINE
  5
264
100
AcDbEntity
  8
0
100
AcDbLine
 62
7
  6
CONTINUOUS
 10
254.7887308534
 20
534.1830726679
 11
254.7387308484
 21
534.0964701189
  0
LINE
  5
265
100
AcDbEntity
  8
0
100
AcDbLine
 62
7
  6
CONTINUOUS
 10
251.3887308567
 20
528.2940999279
 11
251.3387308534
 21
528.2074973818
  0
LINE
  5
266
100
AcDbEntity
  8
0
100
AcDbLine
 62
7
  6
CONTINUOUS
 10
251.4887309151
 20
528.2940999654
 11
254.7387307852
 21
530.1704882652
  0
LINE
  5
267
100
AcDbEntity
  8
0
100
AcDbLine
 62
7
  6
CONTINUOUS
 10
251.5387308534
 20
528.2074973818
 11
254.7887308533
 21
530.0838857566
  0
LINE
  5
268
100
AcDbEntity
  8
0
100
AcDbLine
 62
7
  6
CONTINUOUS
 10
91.4387308534
 20
346.1334792123
 11
536.4387308534
 21
346.1334792123
  0
LINE
  5
269
100
AcDbEntity
  8
0
100
AcDbLine
 62
7
  6
CONTINUOUS
 10
536.4387308534
 20
349.6334792123
 11
91.4387308534
 21
349.6334792123
  0
LINE
  5
26A
100
AcDbEntity
  8
0
100
AcDbLine
 62
7
  6
CONTINUOUS
 10
504.8887308534
 20
355.2570908374
 11
504.7887308468
 21
355.2570908374
  0
LINE
  5
26B
100
AcDbEntity
  8
0
100
AcDbLine
 62
7
  6
CONTINUOUS
 10
498.08873086
 20
355.2570908374
 11
497.9887308534
 21
355.2570908374
  0
LINE
  5
26C
100
AcDbEntity
  8
0
100
AcDbLine
 62
7
  6
CONTINUOUS
 10
379.8887308534
 20
355.2570908374
 11
379.7887308468
 21
355.2570908374
  0
LINE
  5
26D
100
AcDbEntity
  8
0
100
AcDbLine
 62
7
  6
CONTINUOUS
 10
373.08873086
 20
355.2570908374
 11
372.9887308534
 21
355.2570908374
  0
LINE
  5
26E
100
AcDbEntity
  8
0
100
AcDbLine
 62
7
  6
CONTINUOUS
 10
254.8887308534
 20
355.2570908374
 11
254.7887308468
 21
355.2570908374
  0
LINE
  5
26F
100
AcDbEntity
  8
0
100
AcDbLine
 62
7
  6
CONTINUOUS
 10
248.08873086
 20
355.2570908374
 11
247.9887308534
 21
355.2570908374
  0
LINE
  5
270
100
AcDbEntity
  8
0
100
AcDbLine
 62
7
  6
CONTINUOUS
 10
129.8887308534
 20
355.2570908374
 11
129.7887308468
 21
355.2570908374
  0
LINE
  5
271
100
AcDbEntity
  8
0
100
AcDbLine
 62
7
  6
CONTINUOUS
 10
123.08873086
 20
355.2570908374
 11
122.9887308534
 21
355.2570908374
  0
LINE
  5
272
100
AcDbEntity
  8
0
100
AcDbLine
 62
7
  6
CONTINUOUS
 10
254.7387308143
 20
359.0964701348
 11
251.4887309151
 21
360.9728584591
  0
LINE
  5
273
100
AcDbEntity
  8
0
100
AcDbLine
 62
7
  6
CONTINUOUS
 10
254.7887308533
 20
359.1830726679
 11
251.5387308535
 21
361.0594610427
  0
LINE
  5
274
100
AcDbEntity
  8
0
100
AcDbLine
 62
7
  6
CONTINUOUS
 10
251.5387308534
 20
353.2074973818
 11
251.4887308501
 21
353.2940999279
  0
LINE
  5
275
100
AcDbEntity
  8
0
100
AcDbLine
 62
7
  6
CONTINUOUS
 10
248.1387308567
 20
359.0964701218
 11
248.0887308534
 21
359.1830726679
  0
LINE
  5
276
100
AcDbEntity
  8
0
100
AcDbLine
 62
7
  6
CONTINUOUS
 10
251.3387308534
 20
361.0594610427
 11
251.3887308567
 21
360.9728584966
  0
LINE
  5
277
100
AcDbEntity
  8
0
100
AcDbLine
 62
7
  6
CONTINUOUS
 10
254.7387308501
 20
355.1704883027
 11
254.7887308534
 21
355.0838857566
  0
LINE
  5
278
100
AcDbEntity
  8
0
100
AcDbLine
 62
7
  6
CONTINUOUS
 10
88.8387308533
 20
398.5594610427
 11
85.5887308534
 21
396.6830726679
  0
LINE
  5
279
100
AcDbEntity
  8
0
100
AcDbLine
 62
7
  6
CONTINUOUS
 10
88.8887307916
 20
398.4728584591
 11
85.6387309216
 21
396.5964701593
  0
LINE
  5
27A
100
AcDbEntity
  8
0
100
AcDbLine
 62
7
  6
CONTINUOUS
 10
122.9887308534
 20
359.0098675871
 11
123.08873086
 21
359.0098675871
  0
LINE
  5
27B
100
AcDbEntity
  8
0
100
AcDbLine
 62
7
  6
CONTINUOUS
 10
129.7887308468
 20
359.0098675871
 11
129.8887308534
 21
359.0098675871
  0
LINE
  5
27C
100
AcDbEntity
  8
0
100
AcDbLine
 62
7
  6
CONTINUOUS
 10
247.9887308534
 20
359.0098675871
 11
248.08873086
 21
359.0098675871
  0
LINE
  5
27D
100
AcDbEntity
  8
0
100
AcDbLine
 62
7
  6
CONTINUOUS
 10
254.7887308468
 20
359.0098675871
 11
254.8887308534
 21
359.0098675871
  0
LINE
  5
27E
100
AcDbEntity
  8
0
100
AcDbLine
 62
7
  6
CONTINUOUS
 10
372.9887308534
 20
359.0098675871
 11
373.08873086
 21
359.0098675871
  0
LINE
  5
27F
100
AcDbEntity
  8
0
100
AcDbLine
 62
7
  6
CONTINUOUS
 10
379.7887308468
 20
359.0098675871
 11
379.8887308534
 21
359.0098675871
  0
LINE
  5
280
100
AcDbEntity
  8
0
100
AcDbLine
 62
7
  6
CONTINUOUS
 10
497.9887308534
 20
359.0098675871
 11
498.08873086
 21
359.0098675871
  0
LINE
  5
281
100
AcDbEntity
  8
0
100
AcDbLine
 62
7
  6
CONTINUOUS
 10
504.7887308468
 20
359.0098675871
 11
504.8887308534
 21
359.0098675871
  0
LINE
  5
282
100
AcDbEntity
  8
0
100
AcDbLine
 62
7
  6
CONTINUOUS
 10
516.4387308534
 20
369.6334792123
 11
111.4387308534
 21
369.6334792123
  0
LINE
  5
283
100
AcDbEntity
  8
0
100
AcDbLine
 62
7
  6
CONTINUOUS
 10
85.5887308534
 20
492.5838857566
 11
88.8387308534
 21
490.7074973818
  0
LINE
  5
284
100
AcDbEntity
  8
0
100
AcDbLine
 62
7
  6
CONTINUOUS
 10
85.6387309216
 20
492.6704882652
 11
88.8887307916
 21
490.7940999655
  0
LINE
  5
285
100
AcDbEntity
  8
0
100
AcDbLine
 62
7
  6
CONTINUOUS
 10
247.9887308534
 20
534.0098675871
 11
247.9887308534
 21
530.2570908375
  0
LINE
  5
286
100
AcDbEntity
  8
0
100
AcDbLine
 62
7
  6
CONTINUOUS
 10
247.9887308534
 20
359.0098675871
 11
247.9887308534
 21
355.2570908375
  0
LINE
  5
287
100
AcDbEntity
  8
0
100
AcDbLine
 62
7
  6
CONTINUOUS
 10
248.08873086
 20
355.2570909124
 11
248.08873086
 21
359.0098675121
  0
LINE
  5
288
100
AcDbEntity
  8
0
100
AcDbLine
 62
7
  6
CONTINUOUS
 10
248.08873086
 20
530.2570909124
 11
248.08873086
 21
534.0098675121
  0
LINE
  5
289
100
AcDbEntity
  8
0
100
AcDbLine
 62
7
  6
CONTINUOUS
 10
254.7887308468
 20
534.0098675121
 11
254.7887308468
 21
530.2570909124
  0
LINE
  5
28A
100
AcDbEntity
  8
0
100
AcDbLine
 62
7
  6
CONTINUOUS
 10
254.7887308468
 20
359.0098675121
 11
254.7887308468
 21
355.2570909124
  0
LINE
  5
28B
100
AcDbEntity
  8
0
100
AcDbLine
 62
7
  6
CONTINUOUS
 10
254.8887308534
 20
355.2570908374
 11
254.8887308534
 21
359.0098675871
  0
LINE
  5
28C
100
AcDbEntity
  8
0
100
AcDbLine
 62
7
  6
CONTINUOUS
 10
254.8887308534
 20
530.2570908374
 11
254.8887308534
 21
534.0098675871
  0
LINE
  5
28D
100
AcDbEntity
  8
0
100
AcDbLine
 62
7
  6
CONTINUOUS
 10
88.9887309151
 20
390.7940999654
 11
92.2387307851
 21
392.6704882652
  0
LINE
  5
28E
100
AcDbEntity
  8
0
100
AcDbLine
 62
7
  6
CONTINUOUS
 10
89.0387308534
 20
390.7074973818
 11
92.2887308534
 21
392.5838857566
  0
LINE
  5
28F
100
AcDbEntity
  8
0
100
AcDbLine
 62
7
  6
CONTINUOUS
 10
542.3887308534
 20
392.7570908374
 11
542.2887308468
 21
392.7570908374
  0
LINE
  5
290
100
AcDbEntity
  8
0
100
AcDbLine
 62
7
  6
CONTINUOUS
 10
535.58873086
 20
392.7570908374
 11
535.4887308534
 21
392.7570908374
  0
LINE
  5
291
100
AcDbEntity
  8
0
100
AcDbLine
 62
7
  6
CONTINUOUS
 10
92.3887308534
 20
392.7570908374
 11
92.2887308468
 21
392.7570908374
  0
LINE
  5
292
100
AcDbEntity
  8
0
100
AcDbLine
 62
7
  6
CONTINUOUS
 10
85.58873086
 20
392.7570908374
 11
85.4887308534
 21
392.7570908374
  0
LINE
  5
293
100
AcDbEntity
  8
0
100
AcDbLine
 62
7
  6
CONTINUOUS
 10
92.2387308143
 20
496.5964701348
 11
88.9887309152
 21
498.472858459
  0
LINE
  5
294
100
AcDbEntity
  8
0
100
AcDbLine
 62
7
  6
CONTINUOUS
 10
92.2887308534
 20
496.6830726679
 11
89.0387308534
 21
498.5594610427
  0
LINE
  5
295
100
AcDbEntity
  8
0
100
AcDbLine
 62
7
  6
CONTINUOUS
 10
376.3387308533
 20
536.0594610427
 11
373.0887308535
 21
534.1830726679
  0
LINE
  5
296
100
AcDbEntity
  8
0
100
AcDbLine
 62
7
  6
CONTINUOUS
 10
376.3887307916
 20
535.9728584591
 11
373.1387309216
 21
534.0964701593
  0
LINE
  5
297
100
AcDbEntity
  8
0
100
AcDbLine
 62
7
  6
CONTINUOUS
 10
376.4887309151
 20
528.2940999654
 11
379.7387307852
 21
530.1704882652
  0
LINE
  5
298
100
AcDbEntity
  8
0
100
AcDbLine
 62
7
  6
CONTINUOUS
 10
376.5387308534
 20
528.2074973818
 11
379.7887308533
 21
530.0838857566
  0
LINE
  5
299
100
AcDbEntity
  8
0
100
AcDbLine
 62
7
  6
CONTINUOUS
 10
85.4887308534
 20
396.5098675871
 11
85.58873086
 21
396.5098675871
  0
LINE
  5
29A
100
AcDbEntity
  8
0
100
AcDbLine
 62
7
  6
CONTINUOUS
 10
92.2887308468
 20
396.5098675871
 11
92.3887308534
 21
396.5098675871
  0
LINE
  5
29B
100
AcDbEntity
  8
0
100
AcDbLine
 62
7
  6
CONTINUOUS
 10
535.4887308534
 20
396.5098675871
 11
535.58873086
 21
396.5098675871
  0
LINE
  5
29C
100
AcDbEntity
  8
0
100
AcDbLine
 62
7
  6
CONTINUOUS
 10
542.2887308468
 20
396.5098675871
 11
542.3887308534
 21
396.5098675871
  0
LINE
  5
29D
100
AcDbEntity
  8
0
100
AcDbLine
 62
7
  6
CONTINUOUS
 10
373.0887308534
 20
355.0838857566
 11
376.3387308533
 21
353.2074973818
  0
LINE
  5
29E
100
AcDbEntity
  8
0
100
AcDbLine
 62
7
  6
CONTINUOUS
 10
373.1387309216
 20
355.1704882653
 11
376.3887307917
 21
353.2940999654
  0
LINE
  5
29F
100
AcDbEntity
  8
0
100
AcDbLine
 62
7
  6
CONTINUOUS
 10
379.7387308143
 20
359.0964701348
 11
376.4887309151
 21
360.9728584591
  0
LINE
  5
2A0
100
AcDbEntity
  8
0
100
AcDbLine
 62
7
  6
CONTINUOUS
 10
379.7887308533
 20
359.1830726679
 11
376.5387308535
 21
361.0594610427
  0
LINE
  5
2A1
100
AcDbEntity
  8
0
100
AcDbLine
 62
7
  6
CONTINUOUS
 10
126.3387308533
 20
361.0594610427
 11
123.0887308534
 21
359.1830726679
  0
LINE
  5
2A2
100
AcDbEntity
  8
0
100
AcDbLine
 62
7
  6
CONTINUOUS
 10
126.3887307916
 20
360.9728584591
 11
123.1387309216
 21
359.0964701593
  0
LINE
  5
2A3
100
AcDbEntity
  8
0
100
AcDbLine
 62
7
  6
CONTINUOUS
 10
123.0887308534
 20
530.0838857566
 11
126.3387308534
 21
528.2074973818
  0
LINE
  5
2A4
100
AcDbEntity
  8
0
100
AcDbLine
 62
7
  6
CONTINUOUS
 10
123.1387309216
 20
530.1704882652
 11
126.3887307916
 21
528.2940999655
  0
LINE
  5
2A5
100
AcDbEntity
  8
0
100
AcDbLine
 62
7
  6
CONTINUOUS
 10
248.0887308534
 20
355.0838857566
 11
248.1387308567
 21
355.1704883027
  0
LINE
  5
2A6
100
AcDbEntity
  8
0
100
AcDbLine
 62
7
  6
CONTINUOUS
 10
251.4887308484
 20
360.9728584938
 11
251.5387308534
 21
361.0594610428
  0
LINE
  5
2A7
100
AcDbEntity
  8
0
100
AcDbLine
 62
7
  6
CONTINUOUS
 10
254.7887308534
 20
359.1830726679
 11
254.7387308484
 21
359.0964701189
  0
LINE
  5
2A8
100
AcDbEntity
  8
0
100
AcDbLine
 62
7
  6
CONTINUOUS
 10
251.3887308567
 20
353.2940999279
 11
251.3387308534
 21
353.2074973818
  0
LINE
  5
2A9
100
AcDbEntity
  8
0
100
AcDbLine
 62
7
  6
CONTINUOUS
 10
126.4887309151
 20
353.2940999654
 11
129.7387307851
 21
355.1704882652
  0
LINE
  5
2AA
100
AcDbEntity
  8
0
100
AcDbLine
 62
7
  6
CONTINUOUS
 10
126.5387308534
 20
353.2074973818
 11
129.7887308534
 21
355.0838857566
  0
LINE
  5
2AB
100
AcDbEntity
  8
0
100
AcDbLine
 62
7
  6
CONTINUOUS
 10
129.7387308143
 20
534.0964701348
 11
126.4887309152
 21
535.972858459
  0
LINE
  5
2AC
100
AcDbEntity
  8
0
100
AcDbLine
 62
7
  6
CONTINUOUS
 10
129.7887308534
 20
534.1830726679
 11
126.5387308534
 21
536.0594610427
  0
LINE
  5
2AD
100
AcDbEntity
  8
0
100
AcDbLine
 62
7
  6
CONTINUOUS
 10
251.5387308534
 20
528.2074973818
 11
251.4887308501
 21
528.2940999279
  0
LINE
  5
2AE
100
AcDbEntity
  8
0
100
AcDbLine
 62
7
  6
CONTINUOUS
 10
248.1387308567
 20
534.0964701218
 11
248.0887308534
 21
534.1830726679
  0
LINE
  5
2AF
100
AcDbEntity
  8
0
100
AcDbLine
 62
7
  6
CONTINUOUS
 10
251.3387308534
 20
536.0594610427
 11
251.3887308567
 21
535.9728584966
  0
LINE
  5
2B0
100
AcDbEntity
  8
0
100
AcDbLine
 62
7
  6
CONTINUOUS
 10
254.7387308501
 20
530.1704883027
 11
254.7887308534
 21
530.0838857566
  0
LINE
  5
2B1
100
AcDbEntity
  8
0
100
AcDbLine
 62
7
  6
CONTINUOUS
 10
373.0887308534
 20
530.0838857566
 11
373.1387308567
 21
530.1704883027
  0
LINE
  5
2B2
100
AcDbEntity
  8
0
100
AcDbLine
 62
7
  6
CONTINUOUS
 10
376.4887308484
 20
535.9728584938
 11
376.5387308534
 21
536.0594610428
  0
LINE
  5
2B3
100
AcDbEntity
  8
0
100
AcDbLine
 62
7
  6
CONTINUOUS
 10
379.7887308534
 20
534.1830726679
 11
379.7387308484
 21
534.0964701189
  0
LINE
  5
2B4
100
AcDbEntity
  8
0
100
AcDbLine
 62
7
  6
CONTINUOUS
 10
376.3887308567
 20
528.2940999279
 11
376.3387308534
 21
528.2074973818
  0
LINE
  5
2B5
100
AcDbEntity
  8
0
100
AcDbLine
 62
7
  6
CONTINUOUS
 10
501.3387308533
 20
536.0594610427
 11
498.0887308534
 21
534.1830726679
  0
LINE
  5
2B6
100
AcDbEntity
  8
0
100
AcDbLine
 62
7
  6
CONTINUOUS
 10
501.3887307916
 20
535.9728584591
 11
498.1387309216
 21
534.0964701593
  0
LINE
  5
2B7
100
AcDbEntity
  8
0
100
AcDbLine
 62
7
  6
CONTINUOUS
 10
498.0887308534
 20
355.0838857566
 11
501.3387308534
 21
353.2074973818
  0
LINE
  5
2B8
100
AcDbEntity
  8
0
100
AcDbLine
 62
7
  6
CONTINUOUS
 10
498.1387309216
 20
355.1704882652
 11
501.3887307916
 21
353.2940999655
  0
LINE
  5
2B9
100
AcDbEntity
  8
0
100
AcDbLine
 62
7
  6
CONTINUOUS
 10
376.5387308534
 20
353.2074973818
 11
376.4887308501
 21
353.2940999279
  0
LINE
  5
2BA
100
AcDbEntity
  8
0
100
AcDbLine
 62
7
  6
CONTINUOUS
 10
373.1387308567
 20
359.0964701218
 11
373.0887308534
 21
359.1830726679
  0
LINE
  5
2BB
100
AcDbEntity
  8
0
100
AcDbLine
 62
7
  6
CONTINUOUS
 10
376.3387308534
 20
361.0594610427
 11
376.3887308567
 21
360.9728584966
  0
LINE
  5
2BC
100
AcDbEntity
  8
0
100
AcDbLine
 62
7
  6
CONTINUOUS
 10
379.7387308501
 20
355.1704883027
 11
379.7887308534
 21
355.0838857566
  0
LINE
  5
2BD
100
AcDbEntity
  8
0
100
AcDbLine
 62
7
  6
CONTINUOUS
 10
501.4887309151
 20
528.2940999654
 11
504.7387307851
 21
530.1704882652
  0
LINE
  5
2BE
100
AcDbEntity
  8
0
100
AcDbLine
 62
7
  6
CONTINUOUS
 10
501.5387308534
 20
528.2074973818
 11
504.7887308534
 21
530.0838857566
  0
LINE
  5
2BF
100
AcDbEntity
  8
0
100
AcDbLine
 62
7
  6
CONTINUOUS
 10
504.7387308143
 20
359.0964701348
 11
501.4887309152
 21
360.972858459
  0
LINE
  5
2C0
100
AcDbEntity
  8
0
100
AcDbLine
 62
7
  6
CONTINUOUS
 10
504.7887308534
 20
359.1830726679
 11
501.5387308534
 21
361.0594610427
  0
LINE
  5
2C1
100
AcDbEntity
  8
0
100
AcDbLine
 62
7
  6
CONTINUOUS
 10
251.3387308533
 20
361.0594610427
 11
248.0887308535
 21
359.1830726679
  0
LINE
  5
2C2
100
AcDbEntity
  8
0
100
AcDbLine
 62
7
  6
CONTINUOUS
 10
251.3887307916
 20
360.9728584591
 11
248.1387309216
 21
359.0964701593
  0
LINE
  5
2C3
100
AcDbEntity
  8
0
100
AcDbLine
 62
7
  6
CONTINUOUS
 10
251.4887309151
 20
353.2940999654
 11
254.7387307852
 21
355.1704882652
  0
LINE
  5
2C4
100
AcDbEntity
  8
0
100
AcDbLine
 62
7
  6
CONTINUOUS
 10
251.5387308534
 20
353.2074973818
 11
254.7887308533
 21
355.0838857566
  0
LINE
  5
2C5
100
AcDbEntity
  8
0
100
AcDbLine
 62
7
  6
CONTINUOUS
 10
542.3887308534
 20
492.7570908374
 11
542.2887308468
 21
492.7570908374
  0
LINE
  5
2C6
100
AcDbEntity
  8
0
100
AcDbLine
 62
7
  6
CONTINUOUS
 10
535.58873086
 20
492.7570908374
 11
535.4887308534
 21
492.7570908374
  0
LINE
  5
2C7
100
AcDbEntity
  8
0
100
AcDbLine
 62
7
  6
CONTINUOUS
 10
92.3887308534
 20
492.7570908374
 11
92.2887308468
 21
492.7570908374
  0
LINE
  5
2C8
100
AcDbEntity
  8
0
100
AcDbLine
 62
7
  6
CONTINUOUS
 10
85.58873086
 20
492.7570908374
 11
85.4887308534
 21
492.7570908374
  0
LINE
  5
2C9
100
AcDbEntity
  8
0
100
AcDbLine
 62
7
  6
CONTINUOUS
 10
85.4887308534
 20
496.5098675871
 11
85.58873086
 21
496.5098675871
  0
LINE
  5
2CA
100
AcDbEntity
  8
0
100
AcDbLine
 62
7
  6
CONTINUOUS
 10
92.2887308468
 20
496.5098675871
 11
92.3887308534
 21
496.5098675871
  0
LINE
  5
2CB
100
AcDbEntity
  8
0
100
AcDbLine
 62
7
  6
CONTINUOUS
 10
535.4887308534
 20
496.5098675871
 11
535.58873086
 21
496.5098675871
  0
LINE
  5
2CC
100
AcDbEntity
  8
0
100
AcDbLine
 62
7
  6
CONTINUOUS
 10
542.2887308468
 20
496.5098675871
 11
542.3887308534
 21
496.5098675871
  0
LINE
  5
2CD
100
AcDbEntity
  8
0
100
AcDbLine
 62
7
  6
CONTINUOUS
 10
248.0887308534
 20
530.0838857566
 11
251.3387308533
 21
528.2074973818
  0
LINE
  5
2CE
100
AcDbEntity
  8
0
100
AcDbLine
 62
7
  6
CONTINUOUS
 10
248.1387309216
 20
530.1704882653
 11
251.3887307917
 21
528.2940999654
  0
LINE
  5
2CF
100
AcDbEntity
  8
0
100
AcDbLine
 62
7
  6
CONTINUOUS
 10
254.7387308143
 20
534.0964701348
 11
251.4887309151
 21
535.9728584591
  0
LINE
  5
2D0
100
AcDbEntity
  8
0
100
AcDbLine
 62
7
  6
CONTINUOUS
 10
254.7887308533
 20
534.1830726679
 11
251.5387308535
 21
536.0594610427
  0
LINE
  5
2D1
100
AcDbEntity
  8
0
100
AcDbLine
 62
7
  6
CONTINUOUS
 10
372.9887308534
 20
534.0098675871
 11
372.9887308534
 21
530.2570908375
  0
LINE
  5
2D2
100
AcDbEntity
  8
0
100
AcDbLine
 62
7
  6
CONTINUOUS
 10
372.9887308534
 20
359.0098675871
 11
372.9887308534
 21
355.2570908375
  0
LINE
  5
2D3
100
AcDbEntity
  8
0
100
AcDbLine
 62
7
  6
CONTINUOUS
 10
373.08873086
 20
355.2570909124
 11
373.08873086
 21
359.0098675121
  0
LINE
  5
2D4
100
AcDbEntity
  8
0
100
AcDbLine
 62
7
  6
CONTINUOUS
 10
373.08873086
 20
530.2570909124
 11
373.08873086
 21
534.0098675121
  0
LINE
  5
2D5
100
AcDbEntity
  8
0
100
AcDbLine
 62
7
  6
CONTINUOUS
 10
379.7887308468
 20
534.0098675121
 11
379.7887308468
 21
530.2570909124
  0
LINE
  5
2D6
100
AcDbEntity
  8
0
100
AcDbLine
 62
7
  6
CONTINUOUS
 10
379.7887308468
 20
359.0098675121
 11
379.7887308468
 21
355.2570909124
  0
LINE
  5
2D7
100
AcDbEntity
  8
0
100
AcDbLine
 62
7
  6
CONTINUOUS
 10
379.8887308534
 20
355.2570908374
 11
379.8887308534
 21
359.0098675871
  0
LINE
  5
2D8
100
AcDbEntity
  8
0
100
AcDbLine
 62
7
  6
CONTINUOUS
 10
379.8887308534
 20
530.2570908374
 11
379.8887308534
 21
534.0098675871
  0
LINE
  5
2D9
100
AcDbEntity
  8
0
100
AcDbLine
 62
7
  6
CONTINUOUS
 10
538.8387308533
 20
498.5594610427
 11
535.5887308534
 21
496.6830726679
  0
LINE
  5
2DA
100
AcDbEntity
  8
0
100
AcDbLine
 62
7
  6
CONTINUOUS
 10
538.8887307916
 20
498.4728584591
 11
535.6387309216
 21
496.5964701593
  0
LINE
  5
2DB
100
AcDbEntity
  8
0
100
AcDbLine
 62
7
  6
CONTINUOUS
 10
538.9887309151
 20
490.7940999654
 11
542.2387307851
 21
492.6704882652
  0
LINE
  5
2DC
100
AcDbEntity
  8
0
100
AcDbLine
 62
7
  6
CONTINUOUS
 10
539.0387308534
 20
490.7074973818
 11
542.2887308534
 21
492.5838857566
  0
LINE
  5
2DD
100
AcDbEntity
  8
0
100
AcDbLine
 62
7
  6
CONTINUOUS
 10
535.5887308534
 20
392.5838857566
 11
538.8387308534
 21
390.7074973818
  0
LINE
  5
2DE
100
AcDbEntity
  8
0
100
AcDbLine
 62
7
  6
CONTINUOUS
 10
535.6387309216
 20
392.6704882652
 11
538.8887307916
 21
390.7940999655
  0
LINE
  5
2DF
100
AcDbEntity
  8
0
100
AcDbLine
 62
7
  6
CONTINUOUS
 10
542.2387308143
 20
396.5964701348
 11
538.9887309152
 21
398.472858459
  0
LINE
  5
2E0
100
AcDbEntity
  8
0
100
AcDbLine
 62
7
  6
CONTINUOUS
 10
542.2887308534
 20
396.6830726679
 11
539.0387308534
 21
398.5594610427
  0
LINE
  5
2E1
100
AcDbEntity
  8
0
100
AcDbLine
 62
7
  6
CONTINUOUS
 10
111.4387308534
 20
519.6334792123
 11
516.4387308534
 21
519.6334792123
  0
LINE
  5
2E2
100
AcDbEntity
  8
0
100
AcDbLine
 62
7
  6
CONTINUOUS
 10
504.8887308534
 20
530.2570908374
 11
504.7887308468
 21
530.2570908374
  0
LINE
  5
2E3
100
AcDbEntity
  8
0
100
AcDbLine
 62
7
  6
CONTINUOUS
 10
498.08873086
 20
530.2570908374
 11
497.9887308534
 21
530.2570908374
  0
LINE
  5
2E4
100
AcDbEntity
  8
0
100
AcDbLine
 62
7
  6
CONTINUOUS
 10
379.8887308534
 20
530.2570908374
 11
379.7887308468
 21
530.2570908374
  0
LINE
  5
2E5
100
AcDbEntity
  8
0
100
AcDbLine
 62
7
  6
CONTINUOUS
 10
373.08873086
 20
530.2570908374
 11
372.9887308534
 21
530.2570908374
  0
LINE
  5
2E6
100
AcDbEntity
  8
0
100
AcDbLine
 62
7
  6
CONTINUOUS
 10
254.8887308534
 20
530.2570908374
 11
254.7887308468
 21
530.2570908374
  0
LINE
  5
2E7
100
AcDbEntity
  8
0
100
AcDbLine
 62
7
  6
CONTINUOUS
 10
248.08873086
 20
530.2570908374
 11
247.9887308534
 21
530.2570908374
  0
LINE
  5
2E8
100
AcDbEntity
  8
0
100
AcDbLine
 62
7
  6
CONTINUOUS
 10
129.8887308534
 20
530.2570908374
 11
129.7887308468
 21
530.2570908374
  0
LINE
  5
2E9
100
AcDbEntity
  8
0
100
AcDbLine
 62
7
  6
CONTINUOUS
 10
123.08873086
 20
530.2570908374
 11
122.9887308534
 21
530.2570908374
  0
LINE
  5
2EA
100
AcDbEntity
  8
0
100
AcDbLine
 62
7
  6
CONTINUOUS
 10
122.9887308534
 20
534.0098675871
 11
123.08873086
 21
534.0098675871
  0
LINE
  5
2EB
100
AcDbEntity
  8
0
100
AcDbLine
 62
7
  6
CONTINUOUS
 10
129.7887308468
 20
534.0098675871
 11
129.8887308534
 21
534.0098675871
  0
LINE
  5
2EC
100
AcDbEntity
  8
0
100
AcDbLine
 62
7
  6
CONTINUOUS
 10
247.9887308534
 20
534.0098675871
 11
248.08873086
 21
534.0098675871
  0
LINE
  5
2ED
100
AcDbEntity
  8
0
100
AcDbLine
 62
7
  6
CONTINUOUS
 10
254.7887308468
 20
534.0098675871
 11
254.8887308534
 21
534.0098675871
  0
LINE
  5
2EE
100
AcDbEntity
  8
0
100
AcDbLine
 62
7
  6
CONTINUOUS
 10
372.9887308534
 20
534.0098675871
 11
373.08873086
 21
534.0098675871
  0
LINE
  5
2EF
100
AcDbEntity
  8
0
100
AcDbLine
 62
7
  6
CONTINUOUS
 10
379.7887308468
 20
534.0098675871
 11
379.8887308534
 21
534.0098675871
  0
LINE
  5
2F0
100
AcDbEntity
  8
0
100
AcDbLine
 62
7
  6
CONTINUOUS
 10
497.9887308534
 20
534.0098675871
 11
498.08873086
 21
534.0098675871
  0
LINE
  5
2F1
100
AcDbEntity
  8
0
100
AcDbLine
 62
7
  6
CONTINUOUS
 10
504.7887308468
 20
534.0098675871
 11
504.8887308534
 21
534.0098675871
  0
LINE
  5
2F2
100
AcDbEntity
  8
0
100
AcDbLine
 62
7
  6
CONTINUOUS
 10
373.0887308534
 20
355.0838857566
 11
373.1387308567
 21
355.1704883027
  0
LINE
  5
2F3
100
AcDbEntity
  8
0
100
AcDbLine
 62
7
  6
CONTINUOUS
 10
376.4887308484
 20
360.9728584938
 11
376.5387308534
 21
361.0594610428
  0
LINE
  5
2F4
100
AcDbEntity
  8
0
100
AcDbLine
 62
7
  6
CONTINUOUS
 10
379.7887308534
 20
359.1830726679
 11
379.7387308484
 21
359.0964701189
  0
LINE
  5
2F5
100
AcDbEntity
  8
0
100
AcDbLine
 62
7
  6
CONTINUOUS
 10
376.3887308567
 20
353.2940999279
 11
376.3387308534
 21
353.2074973818
  0
LINE
  5
2F6
100
AcDbEntity
  8
0
100
AcDbLine
 62
7
  6
CONTINUOUS
 10
376.3387308533
 20
361.0594610427
 11
373.0887308535
 21
359.1830726679
  0
LINE
  5
2F7
100
AcDbEntity
  8
0
100
AcDbLine
 62
7
  6
CONTINUOUS
 10
376.3887307916
 20
360.9728584591
 11
373.1387309216
 21
359.0964701593
  0
LINE
  5
2F8
100
AcDbEntity
  8
0
100
AcDbLine
 62
7
  6
CONTINUOUS
 10
376.4887309151
 20
353.2940999654
 11
379.7387307852
 21
355.1704882652
  0
LINE
  5
2F9
100
AcDbEntity
  8
0
100
AcDbLine
 62
7
  6
CONTINUOUS
 10
376.5387308534
 20
353.2074973818
 11
379.7887308533
 21
355.0838857566
  0
LINE
  5
2FA
100
AcDbEntity
  8
0
100
AcDbLine
 62
7
  6
CONTINUOUS
 10
91.4387308534
 20
539.6334792123
 11
536.4387308534
 21
539.6334792123
  0
LINE
  5
2FB
100
AcDbEntity
  8
0
100
AcDbLine
 62
7
  6
CONTINUOUS
 10
536.4387308534
 20
543.1334792123
 11
91.4387308534
 21
543.1334792123
  0
LINE
  5
2FC
100
AcDbEntity
  8
0
100
AcDbLine
 62
7
  6
CONTINUOUS
 10
536.4387308534
 20
553.1334792123
 11
91.4387308534
 21
553.1334792123
  0
LINE
  5
2FD
100
AcDbEntity
  8
0
100
AcDbLine
 62
7
  6
CONTINUOUS
 10
91.4387308534
 20
554.6334792123
 11
536.4387308534
 21
554.6334792123
  0
LINE
  5
2FE
100
AcDbEntity
  8
0
100
AcDbLine
 62
7
  6
CONTINUOUS
 10
373.0887308534
 20
530.0838857566
 11
376.3387308533
 21
528.2074973818
  0
LINE
  5
2FF
100
AcDbEntity
  8
0
100
AcDbLine
 62
7
  6
CONTINUOUS
 10
373.1387309216
 20
530.1704882653
 11
376.3887307917
 21
528.2940999654
  0
LINE
  5
300
100
AcDbEntity
  8
0
100
AcDbLine
 62
7
  6
CONTINUOUS
 10
379.7387308143
 20
534.0964701348
 11
376.4887309151
 21
535.9728584591
  0
LINE
  5
301
100
AcDbEntity
  8
0
100
AcDbLine
 62
7
  6
CONTINUOUS
 10
379.7887308533
 20
534.1830726679
 11
376.5387308535
 21
536.0594610427
  0
LINE
  5
302
100
AcDbEntity
  8
0
100
AcDbLine
 62
7
  6
CONTINUOUS
 10
376.5387308534
 20
528.2074973818
 11
376.4887308501
 21
528.2940999279
  0
LINE
  5
303
100
AcDbEntity
  8
0
100
AcDbLine
 62
7
  6
CONTINUOUS
 10
373.1387308567
 20
534.0964701218
 11
373.0887308534
 21
534.1830726679
  0
LINE
  5
304
100
AcDbEntity
  8
0
100
AcDbLine
 62
7
  6
CONTINUOUS
 10
376.3387308534
 20
536.0594610427
 11
376.3887308567
 21
535.9728584966
  0
LINE
  5
305
100
AcDbEntity
  8
0
100
AcDbLine
 62
7
  6
CONTINUOUS
 10
379.7387308501
 20
530.1704883027
 11
379.7887308534
 21
530.0838857566
  0
LINE
  5
306
100
AcDbEntity
  8
0
100
AcDbLine
 62
7
  6
CONTINUOUS
 10
498.0887308534
 20
530.0838857566
 11
498.1387308567
 21
530.1704883027
  0
LINE
  5
307
100
AcDbEntity
  8
0
100
AcDbLine
 62
7
  6
CONTINUOUS
 10
501.4887308484
 20
535.9728584938
 11
501.5387308534
 21
536.0594610427
  0
LINE
  5
308
100
AcDbEntity
  8
0
100
AcDbLine
 62
7
  6
CONTINUOUS
 10
504.7887308534
 20
534.1830726679
 11
504.7387308484
 21
534.0964701189
  0
LINE
  5
309
100
AcDbEntity
  8
0
100
AcDbLine
 62
7
  6
CONTINUOUS
 10
501.3887308567
 20
528.2940999279
 11
501.3387308534
 21
528.2074973818
  0
LINE
  5
30A
100
AcDbEntity
  8
0
100
AcDbLine
 62
7
  6
CONTINUOUS
 10
501.5387308534
 20
353.2074973818
 11
501.4887308501
 21
353.2940999279
  0
LINE
  5
30B
100
AcDbEntity
  8
0
100
AcDbLine
 62
7
  6
CONTINUOUS
 10
498.1387308567
 20
359.0964701218
 11
498.0887308534
 21
359.1830726679
  0
LINE
  5
30C
100
AcDbEntity
  8
0
100
AcDbLine
 62
7
  6
CONTINUOUS
 10
501.3387308534
 20
361.0594610427
 11
501.3887308567
 21
360.9728584966
  0
LINE
  5
30D
100
AcDbEntity
  8
0
100
AcDbLine
 62
7
  6
CONTINUOUS
 10
504.7387308501
 20
355.1704883027
 11
504.7887308534
 21
355.0838857566
  0
LINE
  5
30E
100
AcDbEntity
  8
0
100
AcDbLine
 62
7
  6
CONTINUOUS
 10
538.8387308533
 20
398.5594610427
 11
535.5887308534
 21
396.6830726679
  0
LINE
  5
30F
100
AcDbEntity
  8
0
100
AcDbLine
 62
7
  6
CONTINUOUS
 10
538.8887307916
 20
398.4728584591
 11
535.6387309216
 21
396.5964701593
  0
LINE
  5
310
100
AcDbEntity
  8
0
100
AcDbLine
 62
7
  6
CONTINUOUS
 10
538.9887309151
 20
390.7940999654
 11
542.2387307851
 21
392.6704882652
  0
LINE
  5
311
100
AcDbEntity
  8
0
100
AcDbLine
 62
7
  6
CONTINUOUS
 10
539.0387308534
 20
390.7074973818
 11
542.2887308534
 21
392.5838857566
  0
LINE
  5
312
100
AcDbEntity
  8
0
100
AcDbLine
 62
7
  6
CONTINUOUS
 10
535.5887308534
 20
492.5838857566
 11
538.8387308534
 21
490.7074973818
  0
LINE
  5
313
100
AcDbEntity
  8
0
100
AcDbLine
 62
7
  6
CONTINUOUS
 10
535.6387309216
 20
492.6704882652
 11
538.8887307916
 21
490.7940999655
  0
LINE
  5
314
100
AcDbEntity
  8
0
100
AcDbLine
 62
7
  6
CONTINUOUS
 10
542.2387308143
 20
496.5964701348
 11
538.9887309152
 21
498.472858459
  0
LINE
  5
315
100
AcDbEntity
  8
0
100
AcDbLine
 62
7
  6
CONTINUOUS
 10
542.2887308534
 20
496.6830726679
 11
539.0387308534
 21
498.5594610427
  0
LINE
  5
316
100
AcDbEntity
  8
0
100
AcDbLine
 62
7
  6
CONTINUOUS
 10
535.5887308534
 20
492.5838857566
 11
535.6387308567
 21
492.6704883027
  0
LINE
  5
317
100
AcDbEntity
  8
0
100
AcDbLine
 62
7
  6
CONTINUOUS
 10
538.9887308484
 20
498.4728584938
 11
539.0387308534
 21
498.5594610427
  0
LINE
  5
318
100
AcDbEntity
  8
0
100
AcDbLine
 62
7
  6
CONTINUOUS
 10
542.2887308534
 20
496.6830726679
 11
542.2387308484
 21
496.5964701189
  0
LINE
  5
319
100
AcDbEntity
  8
0
100
AcDbLine
 62
7
  6
CONTINUOUS
 10
538.8887308567
 20
490.7940999279
 11
538.8387308534
 21
490.7074973818
  0
LINE
  5
31A
100
AcDbEntity
  8
0
100
AcDbLine
 62
7
  6
CONTINUOUS
 10
501.3387308533
 20
361.0594610427
 11
498.0887308534
 21
359.1830726679
  0
LINE
  5
31B
100
AcDbEntity
  8
0
100
AcDbLine
 62
7
  6
CONTINUOUS
 10
501.3887307916
 20
360.9728584591
 11
498.1387309216
 21
359.0964701593
  0
LINE
  5
31C
100
AcDbEntity
  8
0
100
AcDbLine
 62
7
  6
CONTINUOUS
 10
501.4887309151
 20
353.2940999654
 11
504.7387307851
 21
355.1704882652
  0
LINE
  5
31D
100
AcDbEntity
  8
0
100
AcDbLine
 62
7
  6
CONTINUOUS
 10
501.5387308534
 20
353.2074973818
 11
504.7887308534
 21
355.0838857566
  0
LINE
  5
31E
100
AcDbEntity
  8
0
100
AcDbLine
 62
7
  6
CONTINUOUS
 10
498.0887308534
 20
530.0838857566
 11
501.3387308534
 21
528.2074973818
  0
LINE
  5
31F
100
AcDbEntity
  8
0
100
AcDbLine
 62
7
  6
CONTINUOUS
 10
498.1387309216
 20
530.1704882652
 11
501.3887307916
 21
528.2940999655
  0
LINE
  5
320
100
AcDbEntity
  8
0
100
AcDbLine
 62
7
  6
CONTINUOUS
 10
504.7387308143
 20
534.0964701348
 11
501.4887309152
 21
535.972858459
  0
LINE
  5
321
100
AcDbEntity
  8
0
100
AcDbLine
 62
7
  6
CONTINUOUS
 10
504.7887308534
 20
534.1830726679
 11
501.5387308534
 21
536.0594610427
  0
LINE
  5
322
100
AcDbEntity
  8
0
100
AcDbLine
 62
7
  6
CONTINUOUS
 10
539.0387308534
 20
390.7074973818
 11
538.9887308501
 21
390.7940999279
  0
LINE
  5
323
100
AcDbEntity
  8
0
100
AcDbLine
 62
7
  6
CONTINUOUS
 10
535.6387308567
 20
396.5964701218
 11
535.5887308534
 21
396.6830726679
  0
LINE
  5
324
100
AcDbEntity
  8
0
100
AcDbLine
 62
7
  6
CONTINUOUS
 10
538.8387308534
 20
398.5594610427
 11
538.8887308567
 21
398.4728584966
  0
LINE
  5
325
100
AcDbEntity
  8
0
100
AcDbLine
 62
7
  6
CONTINUOUS
 10
542.2387308501
 20
392.6704883027
 11
542.2887308534
 21
392.5838857566
  0
LINE
  5
326
100
AcDbEntity
  8
0
100
AcDbLine
 62
7
  6
CONTINUOUS
 10
497.9887308534
 20
534.0098675871
 11
497.9887308534
 21
530.2570908375
  0
LINE
  5
327
100
AcDbEntity
  8
0
100
AcDbLine
 62
7
  6
CONTINUOUS
 10
497.9887308534
 20
359.0098675871
 11
497.9887308534
 21
355.2570908375
  0
LINE
  5
328
100
AcDbEntity
  8
0
100
AcDbLine
 62
7
  6
CONTINUOUS
 10
498.08873086
 20
355.2570909124
 11
498.08873086
 21
359.0098675121
  0
LINE
  5
329
100
AcDbEntity
  8
0
100
AcDbLine
 62
7
  6
CONTINUOUS
 10
498.08873086
 20
530.2570909124
 11
498.08873086
 21
534.0098675121
  0
LINE
  5
32A
100
AcDbEntity
  8
0
100
AcDbLine
 62
7
  6
CONTINUOUS
 10
504.7887308468
 20
534.0098675121
 11
504.7887308468
 21
530.2570909124
  0
LINE
  5
32B
100
AcDbEntity
  8
0
100
AcDbLine
 62
7
  6
CONTINUOUS
 10
504.7887308468
 20
359.0098675121
 11
504.7887308468
 21
355.2570909124
  0
LINE
  5
32C
100
AcDbEntity
  8
0
100
AcDbLine
 62
7
  6
CONTINUOUS
 10
504.8887308534
 20
355.2570908374
 11
504.8887308534
 21
359.0098675871
  0
LINE
  5
32D
100
AcDbEntity
  8
0
100
AcDbLine
 62
7
  6
CONTINUOUS
 10
504.8887308534
 20
530.2570908374
 11
504.8887308534
 21
534.0098675871
  0
LINE
  5
32E
100
AcDbEntity
  8
0
100
AcDbLine
 62
7
  6
CONTINUOUS
 10
526.4387308534
 20
509.6334792123
 11
526.4387308534
 21
379.6334792123
  0
LINE
  5
32F
100
AcDbEntity
  8
0
100
AcDbLine
 62
7
  6
CONTINUOUS
 10
498.0887308534
 20
355.0838857566
 11
498.1387308567
 21
355.1704883027
  0
LINE
  5
330
100
AcDbEntity
  8
0
100
AcDbLine
 62
7
  6
CONTINUOUS
 10
501.4887308484
 20
360.9728584938
 11
501.5387308534
 21
361.0594610427
  0
LINE
  5
331
100
AcDbEntity
  8
0
100
AcDbLine
 62
7
  6
CONTINUOUS
 10
504.7887308534
 20
359.1830726679
 11
504.7387308484
 21
359.0964701189
  0
LINE
  5
332
100
AcDbEntity
  8
0
100
AcDbLine
 62
7
  6
CONTINUOUS
 10
501.3887308567
 20
353.2940999279
 11
501.3387308534
 21
353.2074973818
  0
LINE
  5
333
100
AcDbEntity
  8
0
100
AcDbLine
 62
7
  6
CONTINUOUS
 10
535.5887308534
 20
392.5838857566
 11
535.6387308567
 21
392.6704883027
  0
LINE
  5
334
100
AcDbEntity
  8
0
100
AcDbLine
 62
7
  6
CONTINUOUS
 10
538.9887308484
 20
398.4728584938
 11
539.0387308534
 21
398.5594610427
  0
LINE
  5
335
100
AcDbEntity
  8
0
100
AcDbLine
 62
7
  6
CONTINUOUS
 10
501.5387308534
 20
528.2074973818
 11
501.4887308501
 21
528.2940999279
  0
LINE
  5
336
100
AcDbEntity
  8
0
100
AcDbLine
 62
7
  6
CONTINUOUS
 10
498.1387308567
 20
534.0964701218
 11
498.0887308534
 21
534.1830726679
  0
LINE
  5
337
100
AcDbEntity
  8
0
100
AcDbLine
 62
7
  6
CONTINUOUS
 10
501.3387308534
 20
536.0594610427
 11
501.3887308567
 21
535.9728584966
  0
LINE
  5
338
100
AcDbEntity
  8
0
100
AcDbLine
 62
7
  6
CONTINUOUS
 10
504.7387308501
 20
530.1704883027
 11
504.7887308534
 21
530.0838857566
  0
LINE
  5
339
100
AcDbEntity
  8
0
100
AcDbLine
 62
7
  6
CONTINUOUS
 10
539.0387308534
 20
490.7074973818
 11
538.9887308501
 21
490.7940999279
  0
LINE
  5
33A
100
AcDbEntity
  8
0
100
AcDbLine
 62
7
  6
CONTINUOUS
 10
535.6387308567
 20
496.5964701218
 11
535.5887308534
 21
496.6830726679
  0
LINE
  5
33B
100
AcDbEntity
  8
0
100
AcDbLine
 62
7
  6
CONTINUOUS
 10
535.4887308534
 20
496.5098675871
 11
535.4887308534
 21
492.7570908375
  0
LINE
  5
33C
100
AcDbEntity
  8
0
100
AcDbLine
 62
7
  6
CONTINUOUS
 10
535.4887308534
 20
396.5098675871
 11
535.4887308534
 21
392.7570908375
  0
LINE
  5
33D
100
AcDbEntity
  8
0
100
AcDbLine
 62
7
  6
CONTINUOUS
 10
535.58873086
 20
392.7570909124
 11
535.58873086
 21
396.5098675121
  0
LINE
  5
33E
100
AcDbEntity
  8
0
100
AcDbLine
 62
7
  6
CONTINUOUS
 10
535.58873086
 20
492.7570909124
 11
535.58873086
 21
496.5098675121
  0
LINE
  5
33F
100
AcDbEntity
  8
0
100
AcDbLine
 62
7
  6
CONTINUOUS
 10
542.2887308468
 20
496.5098675121
 11
542.2887308468
 21
492.7570909124
  0
LINE
  5
340
100
AcDbEntity
  8
0
100
AcDbLine
 62
7
  6
CONTINUOUS
 10
542.2887308468
 20
396.5098675121
 11
542.2887308468
 21
392.7570909124
  0
LINE
  5
341
100
AcDbEntity
  8
0
100
AcDbLine
 62
7
  6
CONTINUOUS
 10
542.3887308534
 20
392.7570908374
 11
542.3887308534
 21
396.5098675871
  0
LINE
  5
342
100
AcDbEntity
  8
0
100
AcDbLine
 62
7
  6
CONTINUOUS
 10
542.3887308534
 20
492.7570908374
 11
542.3887308534
 21
496.5098675871
  0
LINE
  5
343
100
AcDbEntity
  8
0
100
AcDbLine
 62
7
  6
CONTINUOUS
 10
546.4387308534
 20
529.6334792123
 11
546.4387308534
 21
359.6334792123
  0
LINE
  5
344
100
AcDbEntity
  8
0
100
AcDbLine
 62
7
  6
CONTINUOUS
 10
549.9387308534
 20
359.6334792123
 11
549.9387308534
 21
529.6334792123
  0
LINE
  5
345
100
AcDbEntity
  8
0
100
AcDbLine
 62
7
  6
CONTINUOUS
 10
542.2887308534
 20
396.6830726679
 11
542.2387308484
 21
396.5964701189
  0
LINE
  5
346
100
AcDbEntity
  8
0
100
AcDbLine
 62
7
  6
CONTINUOUS
 10
538.8887308567
 20
390.7940999279
 11
538.8387308534
 21
390.7074973818
  0
LINE
  5
347
100
AcDbEntity
  8
0
100
AcDbLine
 62
7
  6
CONTINUOUS
 10
538.8387308534
 20
498.5594610427
 11
538.8887308567
 21
498.4728584966
  0
LINE
  5
348
100
AcDbEntity
  8
0
100
AcDbLine
 62
7
  6
CONTINUOUS
 10
542.2387308501
 20
492.6704883027
 11
542.2887308534
 21
492.5838857566
  0
LINE
  5
349
100
AcDbEntity
  8
0
100
AcDbLine
 62
7
  6
CONTINUOUS
 10
559.9387308534
 20
359.6334792123
 11
559.9387308534
 21
529.6334792123
  0
LINE
  5
34A
100
AcDbEntity
  8
0
100
AcDbLine
 62
7
  6
CONTINUOUS
 10
561.4387308534
 20
529.6334792123
 11
561.4387308534
 21
359.6334792123
  0
ARC
  5
34B
100
AcDbEntity
  8
0
100
AcDbCircle
 62
7
  6
CONTINUOUS
 10
91.4387308534
 20
359.6334792123
 40
25.0
100
AcDbArc
 50
180.0
 51
270.0
  0
ARC
  5
34C
100
AcDbEntity
  8
0
100
AcDbCircle
 62
7
  6
CONTINUOUS
 10
91.4387308534
 20
359.6334792123
 40
23.5
100
AcDbArc
 50
180.0
 51
270.0
  0
ARC
  5
34D
100
AcDbEntity
  8
0
100
AcDbCircle
 62
7
  6
CONTINUOUS
 10
91.4387308534
 20
359.6334792123
 40
13.5
100
AcDbArc
 50
180.0
 51
270.0
  0
ARC
  5
34E
100
AcDbEntity
  8
0
100
AcDbCircle
 62
7
  6
CONTINUOUS
 10
91.4387308534
 20
359.6334792123
 40
10.0
100
AcDbArc
 50
180.0
 51
270.0
  0
CIRCLE
  5
34F
100
AcDbEntity
  8
0
100
AcDbCircle
 62
7
  6
CONTINUOUS
 10
126.4387308534
 20
357.1334792123
 40
3.2837168574
  0
CIRCLE
  5
350
100
AcDbEntity
  8
0
100
AcDbCircle
 62
7
  6
CONTINUOUS
 10
126.4387308534
 20
357.1334792123
 40
2.2837168574
  0
CIRCLE
  5
351
100
AcDbEntity
  8
0
100
AcDbCircle
 62
7
  6
CONTINUOUS
 10
126.4387308534
 20
357.1334792123
 40
2.0
  0
CIRCLE
  5
352
100
AcDbEntity
  8
0
100
AcDbCircle
 62
7
  6
CONTINUOUS
 10
133.9387308534
 20
341.1334792123
 40
2.0
  0
CIRCLE
  5
353
100
AcDbEntity
  8
0
100
AcDbCircle
 62
7
  6
CONTINUOUS
 10
126.4387308534
 20
357.1334792123
 40
1.5
  0
ARC
  5
354
100
AcDbEntity
  8
0
100
AcDbCircle
 62
7
  6
CONTINUOUS
 10
129.6887308534
 20
359.0098675872
 40
0.1999999999
100
AcDbArc
 50
0.0
 51
59.9999999972
  0
ARC
  5
355
100
AcDbEntity
  8
0
100
AcDbCircle
 62
7
  6
CONTINUOUS
 10
126.4387308534
 20
360.8862559619
 40
0.2
100
AcDbArc
 50
59.9999999973
 51
119.9999999895
  0
ARC
  5
356
100
AcDbEntity
  8
0
100
AcDbCircle
 62
7
  6
CONTINUOUS
 10
123.1887308534
 20
359.0098675871
 40
0.2
100
AcDbArc
 50
119.9999999937
 51
180.0
  0
ARC
  5
357
100
AcDbEntity
  8
0
100
AcDbCircle
 62
7
  6
CONTINUOUS
 10
123.1887308534
 20
355.2570908373
 40
0.1999999999
100
AcDbArc
 50
179.9999999671
 51
239.9999999972
  0
ARC
  5
358
100
AcDbEntity
  8
0
100
AcDbCircle
 62
7
  6
CONTINUOUS
 10
126.4387308534
 20
353.3807024626
 40
0.2
100
AcDbArc
 50
239.9999999972
 51
299.9999999895
  0
ARC
  5
359
100
AcDbEntity
  8
0
100
AcDbCircle
 62
7
  6
CONTINUOUS
 10
129.6887308534
 20
355.2570908374
 40
0.2
100
AcDbArc
 50
299.9999999924
 51
360.0
  0
ARC
  5
35A
100
AcDbEntity
  8
0
100
AcDbCircle
 62
7
  6
CONTINUOUS
 10
126.4387308534
 20
360.8862559618
 40
0.0999999803
100
AcDbArc
 50
59.9999569631
 51
120.0000429987
  0
ARC
  5
35B
100
AcDbEntity
  8
0
100
AcDbCircle
 62
7
  6
CONTINUOUS
 10
129.6887308535
 20
359.0098675873
 40
0.0999999801
100
AcDbArc
 50
359.9999569331
 51
60.000021489
  0
ARC
  5
35C
100
AcDbEntity
  8
0
100
AcDbCircle
 62
7
  6
CONTINUOUS
 10
129.6887308534
 20
355.2570908374
 40
0.0999999802
100
AcDbArc
 50
299.9999570362
 51
0.0000430084
  0
ARC
  5
35D
100
AcDbEntity
  8
0
100
AcDbCircle
 62
7
  6
CONTINUOUS
 10
126.4387308534
 20
353.3807024627
 40
0.0999999803
100
AcDbArc
 50
239.9999569629
 51
300.0000429989
  0
ARC
  5
35E
100
AcDbEntity
  8
0
100
AcDbCircle
 62
7
  6
CONTINUOUS
 10
123.1887308533
 20
355.2570908373
 40
0.0999999801
100
AcDbArc
 50
179.9999569331
 51
240.0000429548
  0
ARC
  5
35F
100
AcDbEntity
  8
0
100
AcDbCircle
 62
7
  6
CONTINUOUS
 10
123.1887308534
 20
359.0098675871
 40
0.0999999802
100
AcDbArc
 50
119.9999570362
 51
180.0000430085
  0
ARC
  5
360
100
AcDbEntity
  8
0
100
AcDbCircle
 62
7
  6
CONTINUOUS
 10
111.4387308534
 20
379.6334792123
 40
10.0
100
AcDbArc
 50
180.0
 51
270.0
  0
CIRCLE
  5
361
100
AcDbEntity
  8
0
100
AcDbCircle
 62
7
  6
CONTINUOUS
 10
88.9387308534
 20
394.6334792123
 40
3.2837168574
  0
CIRCLE
  5
362
100
AcDbEntity
  8
0
100
AcDbCircle
 62
7
  6
CONTINUOUS
 10
88.9387308534
 20
394.6334792123
 40
2.2837168574
  0
CIRCLE
  5
363
100
AcDbEntity
  8
0
100
AcDbCircle
 62
7
  6
CONTINUOUS
 10
88.9387308534
 20
394.6334792123
 40
2.0
  0
CIRCLE
  5
364
100
AcDbEntity
  8
0
100
AcDbCircle
 62
7
  6
CONTINUOUS
 10
72.9387308534
 20
384.6334792123
 40
2.0
  0
CIRCLE
  5
365
100
AcDbEntity
  8
0
100
AcDbCircle
 62
7
  6
CONTINUOUS
 10
88.9387308534
 20
394.6334792123
 40
1.5
  0
ARC
  5
366
100
AcDbEntity
  8
0
100
AcDbCircle
 62
7
  6
CONTINUOUS
 10
92.1887308534
 20
396.5098675872
 40
0.1999999999
100
AcDbArc
 50
0.0
 51
59.9999999969
  0
ARC
  5
367
100
AcDbEntity
  8
0
100
AcDbCircle
 62
7
  6
CONTINUOUS
 10
88.9387308534
 20
398.3862559619
 40
0.2
100
AcDbArc
 50
59.9999999972
 51
119.9999999896
  0
ARC
  5
368
100
AcDbEntity
  8
0
100
AcDbCircle
 62
7
  6
CONTINUOUS
 10
85.6887308534
 20
396.5098675871
 40
0.2
100
AcDbArc
 50
119.9999999937
 51
180.0
  0
ARC
  5
369
100
AcDbEntity
  8
0
100
AcDbCircle
 62
7
  6
CONTINUOUS
 10
85.6887308534
 20
392.7570908373
 40
0.1999999999
100
AcDbArc
 50
179.9999999677
 51
239.9999999975
  0
ARC
  5
36A
100
AcDbEntity
  8
0
100
AcDbCircle
 62
7
  6
CONTINUOUS
 10
88.9387308534
 20
390.8807024626
 40
0.2
100
AcDbArc
 50
239.9999999973
 51
299.9999999895
  0
ARC
  5
36B
100
AcDbEntity
  8
0
100
AcDbCircle
 62
7
  6
CONTINUOUS
 10
92.1887308534
 20
392.7570908374
 40
0.2
100
AcDbArc
 50
299.9999999924
 51
360.0
  0
ARC
  5
36C
100
AcDbEntity
  8
0
100
AcDbCircle
 62
7
  6
CONTINUOUS
 10
88.9387308534
 20
398.3862559618
 40
0.0999999803
100
AcDbArc
 50
59.9999569629
 51
120.0000429989
  0
ARC
  5
36D
100
AcDbEntity
  8
0
100
AcDbCircle
 62
7
  6
CONTINUOUS
 10
92.1887308535
 20
396.5098675873
 40
0.0999999801
100
AcDbArc
 50
359.9999569344
 51
60.0000214879
  0
ARC
  5
36E
100
AcDbEntity
  8
0
100
AcDbCircle
 62
7
  6
CONTINUOUS
 10
92.1887308534
 20
392.7570908374
 40
0.0999999802
100
AcDbArc
 50
299.9999570361
 51
0.0000430085
  0
ARC
  5
36F
100
AcDbEntity
  8
0
100
AcDbCircle
 62
7
  6
CONTINUOUS
 10
88.9387308534
 20
390.8807024627
 40
0.0999999803
100
AcDbArc
 50
239.999956963
 51
300.0000429988
  0
ARC
  5
370
100
AcDbEntity
  8
0
100
AcDbCircle
 62
7
  6
CONTINUOUS
 10
85.6887308533
 20
392.7570908373
 40
0.0999999801
100
AcDbArc
 50
179.999956934
 51
240.0000429563
  0
ARC
  5
371
100
AcDbEntity
  8
0
100
AcDbCircle
 62
7
  6
CONTINUOUS
 10
85.6887308534
 20
396.5098675871
 40
0.0999999802
100
AcDbArc
 50
119.9999570361
 51
180.0000430085
  0
CIRCLE
  5
372
100
AcDbEntity
  8
0
100
AcDbCircle
 62
7
  6
CONTINUOUS
 10
251.4387308534
 20
357.1334792123
 40
3.2837168574
  0
CIRCLE
  5
373
100
AcDbEntity
  8
0
100
AcDbCircle
 62
7
  6
CONTINUOUS
 10
251.4387308534
 20
357.1334792123
 40
2.2837168574
  0
CIRCLE
  5
374
100
AcDbEntity
  8
0
100
AcDbCircle
 62
7
  6
CONTINUOUS
 10
251.4387308534
 20
357.1334792123
 40
2.0
  0
CIRCLE
  5
375
100
AcDbEntity
  8
0
100
AcDbCircle
 62
7
  6
CONTINUOUS
 10
253.9387308534
 20
341.1334792123
 40
2.0
  0
CIRCLE
  5
376
100
AcDbEntity
  8
0
100
AcDbCircle
 62
7
  6
CONTINUOUS
 10
251.4387308534
 20
357.1334792123
 40
1.5
  0
ARC
  5
377
100
AcDbEntity
  8
0
100
AcDbCircle
 62
7
  6
CONTINUOUS
 10
254.6887308534
 20
359.0098675871
 40
0.2
100
AcDbArc
 50
0.0
 51
59.9999999978
  0
ARC
  5
378
100
AcDbEntity
  8
0
100
AcDbCircle
 62
7
  6
CONTINUOUS
 10
251.4387308534
 20
360.886255962
 40
0.2
100
AcDbArc
 50
59.999999989
 51
119.9999999979
  0
ARC
  5
379
100
AcDbEntity
  8
0
100
AcDbCircle
 62
7
  6
CONTINUOUS
 10
248.1887308534
 20
359.0098675871
 40
0.2
100
AcDbArc
 50
119.9999999864
 51
180.0
  0
ARC
  5
37A
100
AcDbEntity
  8
0
100
AcDbCircle
 62
7
  6
CONTINUOUS
 10
248.1887308534
 20
355.2570908374
 40
0.2
100
AcDbArc
 50
179.9999999885
 51
239.9999999978
  0
ARC
  5
37B
100
AcDbEntity
  8
0
100
AcDbCircle
 62
7
  6
CONTINUOUS
 10
251.4387308534
 20
353.3807024625
 40
0.2
100
AcDbArc
 50
239.9999999889
 51
299.999999998
  0
ARC
  5
37C
100
AcDbEntity
  8
0
100
AcDbCircle
 62
7
  6
CONTINUOUS
 10
254.6887308534
 20
355.2570908374
 40
0.2
100
AcDbArc
 50
299.9999999866
 51
360.0
  0
ARC
  5
37D
100
AcDbEntity
  8
0
100
AcDbCircle
 62
7
  6
CONTINUOUS
 10
251.4387308534
 20
360.886255962
 40
0.0999999801
100
AcDbArc
 50
59.9999569665
 51
120.0000430451
  0
ARC
  5
37E
100
AcDbEntity
  8
0
100
AcDbCircle
 62
7
  6
CONTINUOUS
 10
254.6887308534
 20
359.0098675871
 40
0.0999999802
100
AcDbArc
 50
359.9999570444
 51
60.0000214528
  0
ARC
  5
37F
100
AcDbEntity
  8
0
100
AcDbCircle
 62
7
  6
CONTINUOUS
 10
254.6887308534
 20
355.2570908374
 40
0.0999999802
100
AcDbArc
 50
299.9999570425
 51
0.0000429759
  0
ARC
  5
380
100
AcDbEntity
  8
0
100
AcDbCircle
 62
7
  6
CONTINUOUS
 10
251.4387308534
 20
353.3807024625
 40
0.0999999801
100
AcDbArc
 50
239.999956966
 51
300.0000430443
  0
ARC
  5
381
100
AcDbEntity
  8
0
100
AcDbCircle
 62
7
  6
CONTINUOUS
 10
248.1887308534
 20
355.2570908374
 40
0.0999999802
100
AcDbArc
 50
179.9999570443
 51
240.0000429181
  0
ARC
  5
382
100
AcDbEntity
  8
0
100
AcDbCircle
 62
7
  6
CONTINUOUS
 10
248.1887308534
 20
359.0098675871
 40
0.0999999802
100
AcDbArc
 50
119.9999570424
 51
180.000042976
  0
CIRCLE
  5
383
100
AcDbEntity
  8
0
100
AcDbCircle
 62
7
  6
CONTINUOUS
 10
88.9387308534
 20
494.6334792123
 40
3.2837168574
  0
CIRCLE
  5
384
100
AcDbEntity
  8
0
100
AcDbCircle
 62
7
  6
CONTINUOUS
 10
88.9387308534
 20
494.6334792123
 40
2.2837168574
  0
CIRCLE
  5
385
100
AcDbEntity
  8
0
100
AcDbCircle
 62
7
  6
CONTINUOUS
 10
88.9387308534
 20
494.6334792123
 40
2.0
  0
CIRCLE
  5
386
100
AcDbEntity
  8
0
100
AcDbCircle
 62
7
  6
CONTINUOUS
 10
72.9387308534
 20
444.6334792123
 40
2.0
  0
CIRCLE
  5
387
100
AcDbEntity
  8
0
100
AcDbCircle
 62
7
  6
CONTINUOUS
 10
88.9387308534
 20
494.6334792123
 40
1.5
  0
ARC
  5
388
100
AcDbEntity
  8
0
100
AcDbCircle
 62
7
  6
CONTINUOUS
 10
85.6887308534
 20
492.7570908373
 40
0.1999999999
100
AcDbArc
 50
179.9999999682
 51
239.9999999975
  0
ARC
  5
389
100
AcDbEntity
  8
0
100
AcDbCircle
 62
7
  6
CONTINUOUS
 10
88.9387308534
 20
490.8807024626
 40
0.2
100
AcDbArc
 50
239.9999999972
 51
299.9999999895
  0
ARC
  5
38A
100
AcDbEntity
  8
0
100
AcDbCircle
 62
7
  6
CONTINUOUS
 10
92.1887308534
 20
492.7570908374
 40
0.2
100
AcDbArc
 50
299.9999999924
 51
360.0
  0
ARC
  5
38B
100
AcDbEntity
  8
0
100
AcDbCircle
 62
7
  6
CONTINUOUS
 10
92.1887308534
 20
492.7570908374
 40
0.0999999802
100
AcDbArc
 50
299.9999570361
 51
0.0000430085
  0
ARC
  5
38C
100
AcDbEntity
  8
0
100
AcDbCircle
 62
7
  6
CONTINUOUS
 10
88.9387308534
 20
490.8807024627
 40
0.0999999803
100
AcDbArc
 50
239.9999569627
 51
300.0000429991
  0
ARC
  5
38D
100
AcDbEntity
  8
0
100
AcDbCircle
 62
7
  6
CONTINUOUS
 10
85.6887308533
 20
492.7570908373
 40
0.0999999801
100
AcDbArc
 50
179.9999569359
 51
240.0000429556
  0
ARC
  5
38E
100
AcDbEntity
  8
0
100
AcDbCircle
 62
7
  6
CONTINUOUS
 10
91.4387308534
 20
529.6334792123
 40
25.0
100
AcDbArc
 50
90.0
 51
180.0
  0
ARC
  5
38F
100
AcDbEntity
  8
0
100
AcDbCircle
 62
7
  6
CONTINUOUS
 10
91.4387308534
 20
529.6334792123
 40
23.5
100
AcDbArc
 50
90.0
 51
180.0
  0
ARC
  5
390
100
AcDbEntity
  8
0
100
AcDbCircle
 62
7
  6
CONTINUOUS
 10
91.4387308534
 20
529.6334792123
 40
13.5
100
AcDbArc
 50
90.0
 51
180.0
  0
ARC
  5
391
100
AcDbEntity
  8
0
100
AcDbCircle
 62
7
  6
CONTINUOUS
 10
91.4387308534
 20
529.6334792123
 40
10.0
100
AcDbArc
 50
90.0
 51
180.0
  0
ARC
  5
392
100
AcDbEntity
  8
0
100
AcDbCircle
 62
7
  6
CONTINUOUS
 10
111.4387308534
 20
509.6334792123
 40
10.0
100
AcDbArc
 50
90.0
 51
180.0
  0
CIRCLE
  5
393
100
AcDbEntity
  8
0
100
AcDbCircle
 62
7
  6
CONTINUOUS
 10
126.4387308534
 20
532.1334792123
 40
3.2837168574
  0
CIRCLE
  5
394
100
AcDbEntity
  8
0
100
AcDbCircle
 62
7
  6
CONTINUOUS
 10
126.4387308534
 20
532.1334792123
 40
2.2837168574
  0
CIRCLE
  5
395
100
AcDbEntity
  8
0
100
AcDbCircle
 62
7
  6
CONTINUOUS
 10
126.4387308534
 20
532.1334792123
 40
2.0
  0
CIRCLE
  5
396
100
AcDbEntity
  8
0
100
AcDbCircle
 62
7
  6
CONTINUOUS
 10
72.9387308534
 20
504.6334792123
 40
2.0
  0
CIRCLE
  5
397
100
AcDbEntity
  8
0
100
AcDbCircle
 62
7
  6
CONTINUOUS
 10
133.9387308534
 20
548.1334792123
 40
2.0
  0
CIRCLE
  5
398
100
AcDbEntity
  8
0
100
AcDbCircle
 62
7
  6
CONTINUOUS
 10
126.4387308534
 20
532.1334792123
 40
1.5
  0
ARC
  5
399
100
AcDbEntity
  8
0
100
AcDbCircle
 62
7
  6
CONTINUOUS
 10
129.6887308534
 20
534.0098675872
 40
0.1999999999
100
AcDbArc
 50
0.0
 51
59.9999999976
  0
ARC
  5
39A
100
AcDbEntity
  8
0
100
AcDbCircle
 62
7
  6
CONTINUOUS
 10
126.4387308534
 20
535.8862559619
 40
0.2
100
AcDbArc
 50
59.9999999972
 51
119.9999999896
  0
ARC
  5
39B
100
AcDbEntity
  8
0
100
AcDbCircle
 62
7
  6
CONTINUOUS
 10
123.1887308534
 20
534.0098675871
 40
0.2
100
AcDbArc
 50
119.9999999937
 51
180.0
  0
ARC
  5
39C
100
AcDbEntity
  8
0
100
AcDbCircle
 62
7
  6
CONTINUOUS
 10
123.1887308534
 20
530.2570908373
 40
0.1999999999
100
AcDbArc
 50
179.9999999674
 51
239.9999999971
  0
ARC
  5
39D
100
AcDbEntity
  8
0
100
AcDbCircle
 62
7
  6
CONTINUOUS
 10
126.4387308534
 20
528.3807024626
 40
0.2
100
AcDbArc
 50
239.9999999971
 51
299.9999999896
  0
ARC
  5
39E
100
AcDbEntity
  8
0
100
AcDbCircle
 62
7
  6
CONTINUOUS
 10
129.6887308534
 20
530.2570908374
 40
0.2
100
AcDbArc
 50
299.9999999924
 51
360.0
  0
ARC
  5
39F
100
AcDbEntity
  8
0
100
AcDbCircle
 62
7
  6
CONTINUOUS
 10
92.1887308534
 20
496.5098675872
 40
0.1999999999
100
AcDbArc
 50
0.0
 51
59.9999999972
  0
ARC
  5
3A0
100
AcDbEntity
  8
0
100
AcDbCircle
 62
7
  6
CONTINUOUS
 10
88.9387308534
 20
498.3862559619
 40
0.2
100
AcDbArc
 50
59.9999999973
 51
119.9999999895
  0
ARC
  5
3A1
100
AcDbEntity
  8
0
100
AcDbCircle
 62
7
  6
CONTINUOUS
 10
85.6887308534
 20
496.5098675871
 40
0.2
100
AcDbArc
 50
119.9999999937
 51
180.0
  0
ARC
  5
3A2
100
AcDbEntity
  8
0
100
AcDbCircle
 62
7
  6
CONTINUOUS
 10
126.4387308534
 20
535.8862559619
 40
0.0999999803
100
AcDbArc
 50
59.9999569626
 51
120.0000429992
  0
ARC
  5
3A3
100
AcDbEntity
  8
0
100
AcDbCircle
 62
7
  6
CONTINUOUS
 10
129.6887308535
 20
534.0098675873
 40
0.0999999801
100
AcDbArc
 50
359.999956935
 51
60.0000214894
  0
ARC
  5
3A4
100
AcDbEntity
  8
0
100
AcDbCircle
 62
7
  6
CONTINUOUS
 10
129.6887308534
 20
530.2570908374
 40
0.0999999802
100
AcDbArc
 50
299.9999570361
 51
0.0000430085
  0
ARC
  5
3A5
100
AcDbEntity
  8
0
100
AcDbCircle
 62
7
  6
CONTINUOUS
 10
126.4387308534
 20
528.3807024627
 40
0.0999999803
100
AcDbArc
 50
239.9999569626
 51
300.0000429992
  0
ARC
  5
3A6
100
AcDbEntity
  8
0
100
AcDbCircle
 62
7
  6
CONTINUOUS
 10
123.1887308533
 20
530.2570908373
 40
0.0999999801
100
AcDbArc
 50
179.9999569349
 51
240.0000429538
  0
ARC
  5
3A7
100
AcDbEntity
  8
0
100
AcDbCircle
 62
7
  6
CONTINUOUS
 10
123.1887308534
 20
534.0098675871
 40
0.0999999802
100
AcDbArc
 50
119.9999570362
 51
180.0000430084
  0
ARC
  5
3A8
100
AcDbEntity
  8
0
100
AcDbCircle
 62
7
  6
CONTINUOUS
 10
88.9387308534
 20
498.3862559618
 40
0.0999999803
100
AcDbArc
 50
59.9999569631
 51
120.0000429987
  0
ARC
  5
3A9
100
AcDbEntity
  8
0
100
AcDbCircle
 62
7
  6
CONTINUOUS
 10
92.1887308535
 20
496.5098675873
 40
0.0999999801
100
AcDbArc
 50
359.9999569333
 51
60.0000214884
  0
ARC
  5
3AA
100
AcDbEntity
  8
0
100
AcDbCircle
 62
7
  6
CONTINUOUS
 10
85.6887308534
 20
496.5098675871
 40
0.0999999802
100
AcDbArc
 50
119.9999570362
 51
180.0000430084
  0
CIRCLE
  5
3AB
100
AcDbEntity
  8
0
100
AcDbCircle
 62
7
  6
CONTINUOUS
 10
251.4387308534
 20
532.1334792123
 40
3.2837168574
  0
CIRCLE
  5
3AC
100
AcDbEntity
  8
0
100
AcDbCircle
 62
7
  6
CONTINUOUS
 10
251.4387308534
 20
532.1334792123
 40
2.2837168574
  0
CIRCLE
  5
3AD
100
AcDbEntity
  8
0
100
AcDbCircle
 62
7
  6
CONTINUOUS
 10
251.4387308534
 20
532.1334792123
 40
2.0
  0
CIRCLE
  5
3AE
100
AcDbEntity
  8
0
100
AcDbCircle
 62
7
  6
CONTINUOUS
 10
253.9387308534
 20
548.1334792123
 40
2.0
  0
CIRCLE
  5
3AF
100
AcDbEntity
  8
0
100
AcDbCircle
 62
7
  6
CONTINUOUS
 10
251.4387308534
 20
532.1334792123
 40
1.5
  0
ARC
  5
3B0
100
AcDbEntity
  8
0
100
AcDbCircle
 62
7
  6
CONTINUOUS
 10
254.6887308534
 20
534.0098675871
 40
0.2
100
AcDbArc
 50
0.0
 51
59.9999999978
  0
ARC
  5
3B1
100
AcDbEntity
  8
0
100
AcDbCircle
 62
7
  6
CONTINUOUS
 10
251.4387308534
 20
535.886255962
 40
0.2
100
AcDbArc
 50
59.9999999888
 51
119.999999998
  0
ARC
  5
3B2
100
AcDbEntity
  8
0
100
AcDbCircle
 62
7
  6
CONTINUOUS
 10
248.1887308534
 20
534.0098675871
 40
0.2
100
AcDbArc
 50
119.9999999864
 51
180.0
  0
ARC
  5
3B3
100
AcDbEntity
  8
0
100
AcDbCircle
 62
7
  6
CONTINUOUS
 10
248.1887308534
 20
530.2570908374
 40
0.2
100
AcDbArc
 50
179.9999999885
 51
239.9999999978
  0
ARC
  5
3B4
100
AcDbEntity
  8
0
100
AcDbCircle
 62
7
  6
CONTINUOUS
 10
251.4387308534
 20
528.3807024625
 40
0.2
100
AcDbArc
 50
239.9999999889
 51
299.9999999979
  0
ARC
  5
3B5
100
AcDbEntity
  8
0
100
AcDbCircle
 62
7
  6
CONTINUOUS
 10
254.6887308534
 20
530.2570908374
 40
0.2
100
AcDbArc
 50
299.9999999866
 51
360.0
  0
ARC
  5
3B6
100
AcDbEntity
  8
0
100
AcDbCircle
 62
7
  6
CONTINUOUS
 10
251.4387308534
 20
535.886255962
 40
0.0999999801
100
AcDbArc
 50
59.9999569658
 51
120.0000430445
  0
ARC
  5
3B7
100
AcDbEntity
  8
0
100
AcDbCircle
 62
7
  6
CONTINUOUS
 10
254.6887308534
 20
534.0098675871
 40
0.0999999802
100
AcDbArc
 50
359.9999570442
 51
60.0000214528
  0
ARC
  5
3B8
100
AcDbEntity
  8
0
100
AcDbCircle
 62
7
  6
CONTINUOUS
 10
254.6887308534
 20
530.2570908374
 40
0.0999999802
100
AcDbArc
 50
299.9999570425
 51
0.0000429759
  0
ARC
  5
3B9
100
AcDbEntity
  8
0
100
AcDbCircle
 62
7
  6
CONTINUOUS
 10
251.4387308534
 20
528.3807024625
 40
0.0999999801
100
AcDbArc
 50
239.9999569664
 51
300.0000430442
  0
ARC
  5
3BA
100
AcDbEntity
  8
0
100
AcDbCircle
 62
7
  6
CONTINUOUS
 10
248.1887308534
 20
530.2570908374
 40
0.0999999802
100
AcDbArc
 50
179.9999570442
 51
240.0000429185
  0
ARC
  5
3BB
100
AcDbEntity
  8
0
100
AcDbCircle
 62
7
  6
CONTINUOUS
 10
248.1887308534
 20
534.0098675871
 40
0.0999999802
100
AcDbArc
 50
119.9999570425
 51
180.0000429759
  0
CIRCLE
  5
3BC
100
AcDbEntity
  8
0
100
AcDbCircle
 62
7
  6
CONTINUOUS
 10
376.4387308534
 20
357.1334792123
 40
3.2837168574
  0
CIRCLE
  5
3BD
100
AcDbEntity
  8
0
100
AcDbCircle
 62
7
  6
CONTINUOUS
 10
376.4387308534
 20
357.1334792123
 40
2.2837168574
  0
CIRCLE
  5
3BE
100
AcDbEntity
  8
0
100
AcDbCircle
 62
7
  6
CONTINUOUS
 10
376.4387308534
 20
357.1334792123
 40
2.0
  0
CIRCLE
  5
3BF
100
AcDbEntity
  8
0
100
AcDbCircle
 62
7
  6
CONTINUOUS
 10
373.9387308534
 20
341.1334792123
 40
2.0
  0
CIRCLE
  5
3C0
100
AcDbEntity
  8
0
100
AcDbCircle
 62
7
  6
CONTINUOUS
 10
376.4387308534
 20
357.1334792123
 40
1.5
  0
ARC
  5
3C1
100
AcDbEntity
  8
0
100
AcDbCircle
 62
7
  6
CONTINUOUS
 10
379.6887308534
 20
359.0098675871
 40
0.2
100
AcDbArc
 50
0.0
 51
59.9999999978
  0
ARC
  5
3C2
100
AcDbEntity
  8
0
100
AcDbCircle
 62
7
  6
CONTINUOUS
 10
376.4387308534
 20
360.886255962
 40
0.2
100
AcDbArc
 50
59.999999989
 51
119.9999999979
  0
ARC
  5
3C3
100
AcDbEntity
  8
0
100
AcDbCircle
 62
7
  6
CONTINUOUS
 10
373.1887308534
 20
359.0098675871
 40
0.2
100
AcDbArc
 50
119.9999999864
 51
180.0
  0
ARC
  5
3C4
100
AcDbEntity
  8
0
100
AcDbCircle
 62
7
  6
CONTINUOUS
 10
373.1887308534
 20
355.2570908374
 40
0.2
100
AcDbArc
 50
179.9999999885
 51
239.9999999978
  0
ARC
  5
3C5
100
AcDbEntity
  8
0
100
AcDbCircle
 62
7
  6
CONTINUOUS
 10
376.4387308534
 20
353.3807024625
 40
0.2
100
AcDbArc
 50
239.9999999888
 51
299.999999998
  0
ARC
  5
3C6
100
AcDbEntity
  8
0
100
AcDbCircle
 62
7
  6
CONTINUOUS
 10
379.6887308534
 20
355.2570908374
 40
0.2
100
AcDbArc
 50
299.9999999866
 51
360.0
  0
ARC
  5
3C7
100
AcDbEntity
  8
0
100
AcDbCircle
 62
7
  6
CONTINUOUS
 10
376.4387308534
 20
360.886255962
 40
0.0999999801
100
AcDbArc
 50
59.9999569668
 51
120.0000430438
  0
ARC
  5
3C8
100
AcDbEntity
  8
0
100
AcDbCircle
 62
7
  6
CONTINUOUS
 10
379.6887308534
 20
359.0098675871
 40
0.0999999802
100
AcDbArc
 50
359.9999570444
 51
60.0000214527
  0
ARC
  5
3C9
100
AcDbEntity
  8
0
100
AcDbCircle
 62
7
  6
CONTINUOUS
 10
379.6887308534
 20
355.2570908374
 40
0.0999999802
100
AcDbArc
 50
299.9999570425
 51
0.0000429759
  0
ARC
  5
3CA
100
AcDbEntity
  8
0
100
AcDbCircle
 62
7
  6
CONTINUOUS
 10
376.4387308534
 20
353.3807024625
 40
0.0999999801
100
AcDbArc
 50
239.9999569658
 51
300.0000430445
  0
ARC
  5
3CB
100
AcDbEntity
  8
0
100
AcDbCircle
 62
7
  6
CONTINUOUS
 10
373.1887308534
 20
355.2570908374
 40
0.0999999802
100
AcDbArc
 50
179.9999570443
 51
240.0000429194
  0
ARC
  5
3CC
100
AcDbEntity
  8
0
100
AcDbCircle
 62
7
  6
CONTINUOUS
 10
373.1887308534
 20
359.0098675871
 40
0.0999999802
100
AcDbArc
 50
119.9999570425
 51
180.000042976
  0
ARC
  5
3CD
100
AcDbEntity
  8
0
100
AcDbCircle
 62
7
  6
CONTINUOUS
 10
536.4387308534
 20
359.6334792123
 40
25.0
100
AcDbArc
 50
270.0
 51
360.0
  0
ARC
  5
3CE
100
AcDbEntity
  8
0
100
AcDbCircle
 62
7
  6
CONTINUOUS
 10
536.4387308534
 20
359.6334792123
 40
23.5
100
AcDbArc
 50
270.0
 51
360.0
  0
ARC
  5
3CF
100
AcDbEntity
  8
0
100
AcDbCircle
 62
7
  6
CONTINUOUS
 10
536.4387308534
 20
359.6334792123
 40
13.5
100
AcDbArc
 50
270.0
 51
360.0
  0
ARC
  5
3D0
100
AcDbEntity
  8
0
100
AcDbCircle
 62
7
  6
CONTINUOUS
 10
536.4387308534
 20
359.6334792123
 40
10.0
100
AcDbArc
 50
270.0
 51
360.0
  0
CIRCLE
  5
3D1
100
AcDbEntity
  8
0
100
AcDbCircle
 62
7
  6
CONTINUOUS
 10
501.4387308534
 20
357.1334792123
 40
3.2837168574
  0
CIRCLE
  5
3D2
100
AcDbEntity
  8
0
100
AcDbCircle
 62
7
  6
CONTINUOUS
 10
501.4387308534
 20
357.1334792123
 40
2.2837168574
  0
CIRCLE
  5
3D3
100
AcDbEntity
  8
0
100
AcDbCircle
 62
7
  6
CONTINUOUS
 10
501.4387308534
 20
357.1334792123
 40
2.0
  0
CIRCLE
  5
3D4
100
AcDbEntity
  8
0
100
AcDbCircle
 62
7
  6
CONTINUOUS
 10
493.9387308534
 20
341.1334792123
 40
2.0
  0
CIRCLE
  5
3D5
100
AcDbEntity
  8
0
100
AcDbCircle
 62
7
  6
CONTINUOUS
 10
501.4387308534
 20
357.1334792123
 40
1.5
  0
ARC
  5
3D6
100
AcDbEntity
  8
0
100
AcDbCircle
 62
7
  6
CONTINUOUS
 10
504.6887308534
 20
359.0098675872
 40
0.1999999999
100
AcDbArc
 50
0.0
 51
59.9999999974
  0
ARC
  5
3D7
100
AcDbEntity
  8
0
100
AcDbCircle
 62
7
  6
CONTINUOUS
 10
501.4387308534
 20
360.8862559619
 40
0.2
100
AcDbArc
 50
59.9999999973
 51
119.9999999894
  0
ARC
  5
3D8
100
AcDbEntity
  8
0
100
AcDbCircle
 62
7
  6
CONTINUOUS
 10
498.1887308534
 20
359.0098675871
 40
0.2
100
AcDbArc
 50
119.9999999936
 51
180.0
  0
ARC
  5
3D9
100
AcDbEntity
  8
0
100
AcDbCircle
 62
7
  6
CONTINUOUS
 10
498.1887308534
 20
355.2570908373
 40
0.1999999999
100
AcDbArc
 50
179.9999999672
 51
239.9999999972
  0
ARC
  5
3DA
100
AcDbEntity
  8
0
100
AcDbCircle
 62
7
  6
CONTINUOUS
 10
501.4387308534
 20
353.3807024626
 40
0.2
100
AcDbArc
 50
239.9999999973
 51
299.9999999895
  0
ARC
  5
3DB
100
AcDbEntity
  8
0
100
AcDbCircle
 62
7
  6
CONTINUOUS
 10
504.6887308534
 20
355.2570908374
 40
0.2
100
AcDbArc
 50
299.9999999924
 51
360.0
  0
ARC
  5
3DC
100
AcDbEntity
  8
0
100
AcDbCircle
 62
7
  6
CONTINUOUS
 10
501.4387308534
 20
360.8862559618
 40
0.0999999803
100
AcDbArc
 50
59.9999569633
 51
120.0000429985
  0
ARC
  5
3DD
100
AcDbEntity
  8
0
100
AcDbCircle
 62
7
  6
CONTINUOUS
 10
504.6887308535
 20
359.0098675873
 40
0.0999999801
100
AcDbArc
 50
359.999956933
 51
60.0000214894
  0
ARC
  5
3DE
100
AcDbEntity
  8
0
100
AcDbCircle
 62
7
  6
CONTINUOUS
 10
504.6887308534
 20
355.2570908374
 40
0.0999999802
100
AcDbArc
 50
299.9999570362
 51
0.0000430084
  0
ARC
  5
3DF
100
AcDbEntity
  8
0
100
AcDbCircle
 62
7
  6
CONTINUOUS
 10
501.4387308534
 20
353.3807024627
 40
0.0999999803
100
AcDbArc
 50
239.9999569632
 51
300.0000429985
  0
ARC
  5
3E0
100
AcDbEntity
  8
0
100
AcDbCircle
 62
7
  6
CONTINUOUS
 10
498.1887308533
 20
355.2570908373
 40
0.0999999801
100
AcDbArc
 50
179.9999569333
 51
240.0000429548
  0
ARC
  5
3E1
100
AcDbEntity
  8
0
100
AcDbCircle
 62
7
  6
CONTINUOUS
 10
498.1887308534
 20
359.0098675871
 40
0.0999999802
100
AcDbArc
 50
119.9999570361
 51
180.0000430085
  0
ARC
  5
3E2
100
AcDbEntity
  8
0
100
AcDbCircle
 62
7
  6
CONTINUOUS
 10
516.4387308534
 20
379.6334792123
 40
10.0
100
AcDbArc
 50
270.0
 51
360.0
  0
CIRCLE
  5
3E3
100
AcDbEntity
  8
0
100
AcDbCircle
 62
7
  6
CONTINUOUS
 10
538.9387308534
 20
394.6334792123
 40
3.2837168574
  0
CIRCLE
  5
3E4
100
AcDbEntity
  8
0
100
AcDbCircle
 62
7
  6
CONTINUOUS
 10
538.9387308534
 20
394.6334792123
 40
2.2837168574
  0
CIRCLE
  5
3E5
100
AcDbEntity
  8
0
100
AcDbCircle
 62
7
  6
CONTINUOUS
 10
538.9387308534
 20
394.6334792123
 40
2.0
  0
CIRCLE
  5
3E6
100
AcDbEntity
  8
0
100
AcDbCircle
 62
7
  6
CONTINUOUS
 10
554.9387308534
 20
384.6334792123
 40
2.0
  0
CIRCLE
  5
3E7
100
AcDbEntity
  8
0
100
AcDbCircle
 62
7
  6
CONTINUOUS
 10
538.9387308534
 20
394.6334792123
 40
1.5
  0
ARC
  5
3E8
100
AcDbEntity
  8
0
100
AcDbCircle
 62
7
  6
CONTINUOUS
 10
542.1887308534
 20
396.5098675872
 40
0.1999999999
100
AcDbArc
 50
0.0
 51
59.9999999974
  0
ARC
  5
3E9
100
AcDbEntity
  8
0
100
AcDbCircle
 62
7
  6
CONTINUOUS
 10
538.9387308534
 20
398.3862559619
 40
0.2
100
AcDbArc
 50
59.9999999974
 51
119.9999999894
  0
ARC
  5
3EA
100
AcDbEntity
  8
0
100
AcDbCircle
 62
7
  6
CONTINUOUS
 10
535.6887308534
 20
396.5098675871
 40
0.2
100
AcDbArc
 50
119.9999999937
 51
180.0
  0
ARC
  5
3EB
100
AcDbEntity
  8
0
100
AcDbCircle
 62
7
  6
CONTINUOUS
 10
535.6887308534
 20
392.7570908373
 40
0.1999999999
100
AcDbArc
 50
179.9999999671
 51
239.9999999972
  0
ARC
  5
3EC
100
AcDbEntity
  8
0
100
AcDbCircle
 62
7
  6
CONTINUOUS
 10
538.9387308534
 20
390.8807024626
 40
0.2
100
AcDbArc
 50
239.9999999972
 51
299.9999999896
  0
ARC
  5
3ED
100
AcDbEntity
  8
0
100
AcDbCircle
 62
7
  6
CONTINUOUS
 10
542.1887308534
 20
392.7570908374
 40
0.2
100
AcDbArc
 50
299.9999999924
 51
360.0
  0
ARC
  5
3EE
100
AcDbEntity
  8
0
100
AcDbCircle
 62
7
  6
CONTINUOUS
 10
538.9387308534
 20
398.3862559618
 40
0.0999999803
100
AcDbArc
 50
59.9999569633
 51
120.0000429985
  0
ARC
  5
3EF
100
AcDbEntity
  8
0
100
AcDbCircle
 62
7
  6
CONTINUOUS
 10
542.1887308535
 20
396.5098675873
 40
0.0999999801
100
AcDbArc
 50
359.9999569349
 51
60.0000214896
  0
ARC
  5
3F0
100
AcDbEntity
  8
0
100
AcDbCircle
 62
7
  6
CONTINUOUS
 10
542.1887308534
 20
392.7570908374
 40
0.0999999802
100
AcDbArc
 50
299.9999570361
 51
0.0000430084
  0
ARC
  5
3F1
100
AcDbEntity
  8
0
100
AcDbCircle
 62
7
  6
CONTINUOUS
 10
538.9387308534
 20
390.8807024627
 40
0.0999999803
100
AcDbArc
 50
239.999956963
 51
300.0000429988
  0
ARC
  5
3F2
100
AcDbEntity
  8
0
100
AcDbCircle
 62
7
  6
CONTINUOUS
 10
535.6887308533
 20
392.7570908373
 40
0.0999999801
100
AcDbArc
 50
179.9999569329
 51
240.0000429549
  0
ARC
  5
3F3
100
AcDbEntity
  8
0
100
AcDbCircle
 62
7
  6
CONTINUOUS
 10
535.6887308534
 20
396.5098675871
 40
0.0999999802
100
AcDbArc
 50
119.9999570361
 51
180.0000430085
  0
CIRCLE
  5
3F4
100
AcDbEntity
  8
0
100
AcDbCircle
 62
7
  6
CONTINUOUS
 10
376.4387308534
 20
532.1334792123
 40
3.2837168574
  0
CIRCLE
  5
3F5
100
AcDbEntity
  8
0
100
AcDbCircle
 62
7
  6
CONTINUOUS
 10
376.4387308534
 20
532.1334792123
 40
2.2837168574
  0
CIRCLE
  5
3F6
100
AcDbEntity
  8
0
100
AcDbCircle
 62
7
  6
CONTINUOUS
 10
376.4387308534
 20
532.1334792123
 40
2.0
  0
CIRCLE
  5
3F7
100
AcDbEntity
  8
0
100
AcDbCircle
 62
7
  6
CONTINUOUS
 10
373.9387308534
 20
548.1334792123
 40
2.0
  0
CIRCLE
  5
3F8
100
AcDbEntity
  8
0
100
AcDbCircle
 62
7
  6
CONTINUOUS
 10
376.4387308534
 20
532.1334792123
 40
1.5
  0
ARC
  5
3F9
100
AcDbEntity
  8
0
100
AcDbCircle
 62
7
  6
CONTINUOUS
 10
379.6887308534
 20
534.0098675871
 40
0.2
100
AcDbArc
 50
0.0
 51
59.9999999977
  0
ARC
  5
3FA
100
AcDbEntity
  8
0
100
AcDbCircle
 62
7
  6
CONTINUOUS
 10
376.4387308534
 20
535.886255962
 40
0.2
100
AcDbArc
 50
59.999999989
 51
119.9999999979
  0
ARC
  5
3FB
100
AcDbEntity
  8
0
100
AcDbCircle
 62
7
  6
CONTINUOUS
 10
373.1887308534
 20
534.0098675871
 40
0.2
100
AcDbArc
 50
119.9999999864
 51
180.0
  0
ARC
  5
3FC
100
AcDbEntity
  8
0
100
AcDbCircle
 62
7
  6
CONTINUOUS
 10
373.1887308534
 20
530.2570908374
 40
0.2
100
AcDbArc
 50
179.9999999885
 51
239.9999999977
  0
ARC
  5
3FD
100
AcDbEntity
  8
0
100
AcDbCircle
 62
7
  6
CONTINUOUS
 10
376.4387308534
 20
528.3807024625
 40
0.2
100
AcDbArc
 50
239.9999999889
 51
299.9999999979
  0
ARC
  5
3FE
100
AcDbEntity
  8
0
100
AcDbCircle
 62
7
  6
CONTINUOUS
 10
379.6887308534
 20
530.2570908374
 40
0.2
100
AcDbArc
 50
299.9999999866
 51
360.0
  0
ARC
  5
3FF
100
AcDbEntity
  8
0
100
AcDbCircle
 62
7
  6
CONTINUOUS
 10
376.4387308534
 20
535.886255962
 40
0.0999999801
100
AcDbArc
 50
59.9999569667
 51
120.0000430441
  0
ARC
  5
400
100
AcDbEntity
  8
0
100
AcDbCircle
 62
7
  6
CONTINUOUS
 10
379.6887308534
 20
534.0098675871
 40
0.0999999802
100
AcDbArc
 50
359.9999570447
 51
60.0000214524
  0
ARC
  5
401
100
AcDbEntity
  8
0
100
AcDbCircle
 62
7
  6
CONTINUOUS
 10
379.6887308534
 20
530.2570908374
 40
0.0999999802
100
AcDbArc
 50
299.9999570424
 51
0.000042976
  0
ARC
  5
402
100
AcDbEntity
  8
0
100
AcDbCircle
 62
7
  6
CONTINUOUS
 10
376.4387308534
 20
528.3807024625
 40
0.0999999801
100
AcDbArc
 50
239.9999569663
 51
300.000043044
  0
ARC
  5
403
100
AcDbEntity
  8
0
100
AcDbCircle
 62
7
  6
CONTINUOUS
 10
373.1887308534
 20
530.2570908374
 40
0.0999999802
100
AcDbArc
 50
179.9999570445
 51
240.0000429193
  0
ARC
  5
404
100
AcDbEntity
  8
0
100
AcDbCircle
 62
7
  6
CONTINUOUS
 10
373.1887308534
 20
534.0098675871
 40
0.0999999802
100
AcDbArc
 50
119.9999570425
 51
180.0000429759
  0
CIRCLE
  5
405
100
AcDbEntity
  8
0
100
AcDbCircle
 62
7
  6
CONTINUOUS
 10
538.9387308534
 20
494.6334792123
 40
3.2837168574
  0
CIRCLE
  5
406
100
AcDbEntity
  8
0
100
AcDbCircle
 62
7
  6
CONTINUOUS
 10
538.9387308534
 20
494.6334792123
 40
2.2837168574
  0
CIRCLE
  5
407
100
AcDbEntity
  8
0
100
AcDbCircle
 62
7
  6
CONTINUOUS
 10
538.9387308534
 20
494.6334792123
 40
2.0
  0
CIRCLE
  5
408
100
AcDbEntity
  8
0
100
AcDbCircle
 62
7
  6
CONTINUOUS
 10
554.9387308534
 20
444.6334792123
 40
2.0
  0
CIRCLE
  5
409
100
AcDbEntity
  8
0
100
AcDbCircle
 62
7
  6
CONTINUOUS
 10
538.9387308534
 20
494.6334792123
 40
1.5
  0
ARC
  5
40A
100
AcDbEntity
  8
0
100
AcDbCircle
 62
7
  6
CONTINUOUS
 10
535.6887308534
 20
492.7570908373
 40
0.1999999999
100
AcDbArc
 50
179.999999967
 51
239.9999999974
  0
ARC
  5
40B
100
AcDbEntity
  8
0
100
AcDbCircle
 62
7
  6
CONTINUOUS
 10
538.9387308534
 20
490.8807024626
 40
0.2
100
AcDbArc
 50
239.9999999973
 51
299.9999999895
  0
ARC
  5
40C
100
AcDbEntity
  8
0
100
AcDbCircle
 62
7
  6
CONTINUOUS
 10
542.1887308534
 20
492.7570908374
 40
0.2
100
AcDbArc
 50
299.9999999924
 51
360.0
  0
ARC
  5
40D
100
AcDbEntity
  8
0
100
AcDbCircle
 62
7
  6
CONTINUOUS
 10
542.1887308534
 20
492.7570908374
 40
0.0999999802
100
AcDbArc
 50
299.9999570361
 51
0.0000430085
  0
ARC
  5
40E
100
AcDbEntity
  8
0
100
AcDbCircle
 62
7
  6
CONTINUOUS
 10
538.9387308534
 20
490.8807024627
 40
0.0999999803
100
AcDbArc
 50
239.9999569632
 51
300.0000429987
  0
ARC
  5
40F
100
AcDbEntity
  8
0
100
AcDbCircle
 62
7
  6
CONTINUOUS
 10
535.6887308533
 20
492.7570908373
 40
0.0999999801
100
AcDbArc
 50
179.9999569328
 51
240.0000429554
  0
ARC
  5
410
100
AcDbEntity
  8
0
100
AcDbCircle
 62
7
  6
CONTINUOUS
 10
536.4387308534
 20
529.6334792123
 40
25.0
100
AcDbArc
 50
0.0
 51
90.0
  0
ARC
  5
411
100
AcDbEntity
  8
0
100
AcDbCircle
 62
7
  6
CONTINUOUS
 10
536.4387308534
 20
529.6334792123
 40
23.5
100
AcDbArc
 50
0.0
 51
90.0
  0
ARC
  5
412
100
AcDbEntity
  8
0
100
AcDbCircle
 62
7
  6
CONTINUOUS
 10
536.4387308534
 20
529.6334792123
 40
13.5
100
AcDbArc
 50
0.0
 51
90.0
  0
ARC
  5
413
100
AcDbEntity
  8
0
100
AcDbCircle
 62
7
  6
CONTINUOUS
 10
536.4387308534
 20
529.6334792123
 40
10.0
100
AcDbArc
 50
0.0
 51
90.0
  0
ARC
  5
414
100
AcDbEntity
  8
0
100
AcDbCircle
 62
7
  6
CONTINUOUS
 10
516.4387308534
 20
509.6334792123
 40
10.0
100
AcDbArc
 50
0.0
 51
90.0
  0
CIRCLE
  5
415
100
AcDbEntity
  8
0
100
AcDbCircle
 62
7
  6
CONTINUOUS
 10
501.4387308534
 20
532.1334792123
 40
3.2837168574
  0
CIRCLE
  5
416
100
AcDbEntity
  8
0
100
AcDbCircle
 62
7
  6
CONTINUOUS
 10
501.4387308534
 20
532.1334792123
 40
2.2837168574
  0
CIRCLE
  5
417
100
AcDbEntity
  8
0
100
AcDbCircle
 62
7
  6
CONTINUOUS
 10
501.4387308534
 20
532.1334792123
 40
2.0
  0
CIRCLE
  5
418
100
AcDbEntity
  8
0
100
AcDbCircle
 62
7
  6
CONTINUOUS
 10
554.9387308534
 20
504.6334792123
 40
2.0
  0
CIRCLE
  5
419
100
AcDbEntity
  8
0
100
AcDbCircle
 62
7
  6
CONTINUOUS
 10
493.9387308534
 20
548.1334792123
 40
2.0
  0
CIRCLE
  5
41A
100
AcDbEntity
  8
0
100
AcDbCircle
 62
7
  6
CONTINUOUS
 10
501.4387308534
 20
532.1334792123
 40
1.5
  0
ARC
  5
41B
100
AcDbEntity
  8
0
100
AcDbCircle
 62
7
  6
CONTINUOUS
 10
504.6887308534
 20
534.0098675872
 40
0.1999999999
100
AcDbArc
 50
0.0
 51
59.9999999973
  0
ARC
  5
41C
100
AcDbEntity
  8
0
100
AcDbCircle
 62
7
  6
CONTINUOUS
 10
501.4387308534
 20
535.8862559619
 40
0.2
100
AcDbArc
 50
59.9999999974
 51
119.9999999893
  0
ARC
  5
41D
100
AcDbEntity
  8
0
100
AcDbCircle
 62
7
  6
CONTINUOUS
 10
498.1887308534
 20
534.0098675871
 40
0.2
100
AcDbArc
 50
119.9999999936
 51
180.0
  0
ARC
  5
41E
100
AcDbEntity
  8
0
100
AcDbCircle
 62
7
  6
CONTINUOUS
 10
498.1887308534
 20
530.2570908373
 40
0.1999999999
100
AcDbArc
 50
179.9999999674
 51
239.9999999971
  0
ARC
  5
41F
100
AcDbEntity
  8
0
100
AcDbCircle
 62
7
  6
CONTINUOUS
 10
501.4387308534
 20
528.3807024626
 40
0.2
100
AcDbArc
 50
239.9999999973
 51
299.9999999894
  0
ARC
  5
420
100
AcDbEntity
  8
0
100
AcDbCircle
 62
7
  6
CONTINUOUS
 10
504.6887308534
 20
530.2570908374
 40
0.2
100
AcDbArc
 50
299.9999999924
 51
360.0
  0
ARC
  5
421
100
AcDbEntity
  8
0
100
AcDbCircle
 62
7
  6
CONTINUOUS
 10
542.1887308534
 20
496.5098675872
 40
0.1999999999
100
AcDbArc
 50
0.0
 51
59.9999999972
  0
ARC
  5
422
100
AcDbEntity
  8
0
100
AcDbCircle
 62
7
  6
CONTINUOUS
 10
538.9387308534
 20
498.3862559619
 40
0.2
100
AcDbArc
 50
59.9999999972
 51
119.9999999896
  0
ARC
  5
423
100
AcDbEntity
  8
0
100
AcDbCircle
 62
7
  6
CONTINUOUS
 10
535.6887308534
 20
496.5098675871
 40
0.2
100
AcDbArc
 50
119.9999999937
 51
180.0
  0
ARC
  5
424
100
AcDbEntity
  8
0
100
AcDbCircle
 62
7
  6
CONTINUOUS
 10
501.4387308534
 20
535.8862559618
 40
0.0999999803
100
AcDbArc
 50
59.9999569639
 51
120.0000429981
  0
ARC
  5
425
100
AcDbEntity
  8
0
100
AcDbCircle
 62
7
  6
CONTINUOUS
 10
504.6887308535
 20
534.0098675873
 40
0.0999999801
100
AcDbArc
 50
359.9999569355
 51
60.0000214889
  0
ARC
  5
426
100
AcDbEntity
  8
0
100
AcDbCircle
 62
7
  6
CONTINUOUS
 10
504.6887308534
 20
530.2570908374
 40
0.0999999802
100
AcDbArc
 50
299.9999570361
 51
0.0000430085
  0
ARC
  5
427
100
AcDbEntity
  8
0
100
AcDbCircle
 62
7
  6
CONTINUOUS
 10
501.4387308534
 20
528.3807024627
 40
0.0999999803
100
AcDbArc
 50
239.9999569633
 51
300.0000429985
  0
ARC
  5
428
100
AcDbEntity
  8
0
100
AcDbCircle
 62
7
  6
CONTINUOUS
 10
498.1887308533
 20
530.2570908373
 40
0.0999999801
100
AcDbArc
 50
179.9999569345
 51
240.0000429542
  0
ARC
  5
429
100
AcDbEntity
  8
0
100
AcDbCircle
 62
7
  6
CONTINUOUS
 10
498.1887308534
 20
534.0098675871
 40
0.0999999802
100
AcDbArc
 50
119.9999570362
 51
180.0000430084
  0
ARC
  5
42A
100
AcDbEntity
  8
0
100
AcDbCircle
 62
7
  6
CONTINUOUS
 10
538.9387308534
 20
498.3862559619
 40
0.0999999803
100
AcDbArc
 50
59.9999569625
 51
120.0000429992
  0
ARC
  5
42B
100
AcDbEntity
  8
0
100
AcDbCircle
 62
7
  6
CONTINUOUS
 10
542.1887308535
 20
496.5098675873
 40
0.0999999801
100
AcDbArc
 50
359.9999569359
 51
60.0000214883
  0
ARC
  5
42C
100
AcDbEntity
  8
0
100
AcDbCircle
 62
7
  6
CONTINUOUS
 10
535.6887308534
 20
496.5098675871
 40
0.0999999802
100
AcDbArc
 50
119.9999570361
 51
180.0000430085
  0
ENDSEC
  0
SECTION
  2
OBJECTS
  0
DICTIONARY
  5
C
100
AcDbDictionary
280
0
281
1
  3
ACAD_GROUP
350
D
  3
ACAD_MLINESTYLE
350
17
  3
ACAD_LAYOUT
350
1A
  3
ACAD_PLOTSETTINGS
350
19
  3
ACAD_PLOTSTYLENAME
350
E
  0
DICTIONARY
  5
D
102
{ACAD_REACTORS
330
C
102
}
100
AcDbDictionary
280
0
281
1
  0
ACDBDICTIONARYWDFLT
  5
E
102
{ACAD_REACTORS
330
C
102
}
100
AcDbDictionary
281
1
  3
Normal
350
F
100
AcDbDictionaryWithDefault
340
F
  0
DICTIONARY
  5
17
102
{ACAD_REACTORS
330
C
102
}
100
AcDbDictionary
280
0
281
1
  3
Standard
350
18
  0
DICTIONARY
  5
19
102
{ACAD_REACTORS
330
C
102
}
100
AcDbDictionary
281
1
  0
DICTIONARY
  5
1A
102
{ACAD_REACTORS
330
C
102
}
100
AcDbDictionary
281
1
  3
Model
350
42D
  3
Layout1
350
42E
  0
ACDBPLACEHOLDER
  5
F
102
{ACAD_REACTORS
330
E
102
}
  0
MLINESTYLE
  5
18
102
{ACAD_REACTORS
330
17
102
}
100
AcDbMlineStyle
  2
STANDARD
 70
0
  3

 62
256
 51
90.0
 52
90.0
 71
2
 49
0.5
 62
256
  6
BYLAYER
 49
-0.5
 62
256
  6
BYLAYER
  0
LAYOUT
  5
42D
102
{ACAD_REACTORS
330
1A
102
}
100
AcDbPlotSettings
  1

  2
none_device
  4

  6

 40
0.0
 41
0.0
 42
0.0
 43
0.0
 44
210.0
 45
297.0
 46
0.0
 47
0.0
 48
0.0
 49
0.0
140
0.0
141
0.0
142
1.0
143
1.0
 70
1024
 72
1
 73
0
 74
0
  7

 75
0
147
1.0
148
0.0
149
0.0
100
AcDbLayout
  1
Model
 70
0
 71
0
 10
0.0
 20
0.0
 11
210.0
 21
297.0
 12
0.0
 22
0.0
 32
0.0
 14
0.0
 24
0.0
 34
0.0
 15
0.0
 25
0.0
 35
0.0
146
0.0
 13
0.0
 23
0.0
 33
0.0
 16
1.0
 26
0.0
 36
0.0
 17
0.0
 27
1.0
 37
0.0
 76
0
330
210
345
0
346
0
  0
LAYOUT
  5
42E
102
{ACAD_REACTORS
330
1A
102
}
100
AcDbPlotSettings
  1

  2
none_device
  4

  6

 40
0.0
 41
0.0
 42
0.0
 43
0.0
 44
210.0
 45
297.0
 46
0.0
 47
0.0
 48
0.0
 49
0.0
140
0.0
141
0.0
142
1.0
143
1.0
 70
0
 72
1
 73
0
 74
0
  7

 75
0
147
1.0
148
0.0
149
0.0
100
AcDbLayout
  1
Layout1
 70
0
 71
1
 10
0.0
 20
0.0
 11
210.0
 21
297.0
 12
0.0
 22
0.0
 32
0.0
 14
0.0
 24
0.0
 34
0.0
 15
0.0
 25
0.0
 35
0.0
146
0.0
 13
0.0
 23
0.0
 33
0.0
 16
1.0
 26
0.0
 36
0.0
 17
0.0
 27
1.0
 37
0.0
 76
0
330
211
345
0
346
0
  0
ENDSEC
  0
EOF
