999
DXF file: C:\Users\sesa63760\Dev\_Creo\CAD\MCADPE0010544_3D-CAD\drw0001_1.dxf
999
Pro/ENGINEER 2019471 by Parametric Technology Corporation
  0
SECTION
  2
HEADER
  9
$ACADVER
  1
AC1024
  9
$DWGCODEPAGE
  3
ANSI_1252
  9
$EXTMAX
 10
57.9376318439
 20
81.9403650364
 30
0.0
  9
$EXTMIN
 10
0.0
 20
0.0
 30
0.0
  9
$LIMMIN
 10
0.0
 20
0.0
  9
$LIMMAX
 10
57.9376318439
 20
81.9403650364
  9
$VIEWCTR
 10
28.9688159219
 20
40.9701825182
  9
$VIEWSIZE
 40
81.9403650364
  9
$CLAYER
  8
0
  9
$LTSCALE
 40
5.341297869
  9
$CELTYPE
  6
BYLAYER
  9
$DIMSCALE
 40
1.0
  9
$DIMASZ
 40
0.6897337124
  9
$DIMEXO
 40
1.0
  9
$DIMDLI
 40
3.690351255
  9
$DIMEXE
 40
1.0
  9
$DIMCEN
 40
0.8740305604
  9
$DIMLFAC
 40
1.0
  9
$DIMBLK
  1
_FILLED
  9
$DIMALT
 70
0
  9
$DIMALTF
 40
0.0393700787
  9
$DIMTXT
 40
0.9656271974
  9
$DIMTOL
 70
1
  9
$DIMLIM
 70
0
  9
$DIMTFAC
 40
1.0
  9
$DIMTP
 40
0.01
  9
$DIMTM
 40
0.01
  9
$DIMGAP
 40
0.625
  9
$DIMDSEP
 70
46
  9
$AUNITS
 70
0
  9
$PDMODE
 70
3
  9
$PDSIZE
 40
0.3125
  9
$HANDSEED
  5
359
  9
$TILEMODE
 70
1
  9
$MEASUREMENT
 70
1
  9
$INSUNITS
 70
4
  0
ENDSEC
  0
SECTION
  2
CLASSES
  0
CLASS
  1
ACDBDICTIONARYWDFLT
  2
AcDbDictionaryWithDefault
  3
AutoCAD 2000
 90
0
 91
1
280
0
281
0
  0
CLASS
  1
ACDBPLACEHOLDER
  2
AcDbPlaceHolder
  3
AutoCAD 2000
 90
0
 91
1
280
0
281
0
  0
CLASS
  1
LAYOUT
  2
AcDbLayout
  3
AutoCAD 2000
 90
0
 91
0
280
0
281
0
  0
ENDSEC
  0
SECTION
  2
TABLES
  0
TABLE
  2
VPORT
  5
8
100
AcDbSymbolTable
 70
2
  0
VPORT
  5
1F4
100
AcDbSymbolTableRecord
100
AcDbViewportTableRecord
  2
*ACTIVE
 70
0
 10
0.0
 20
0.0
 11
1.0
 21
1.0
 12
28.9688159219
 22
40.9701825182
 13
0.0
 23
0.0
 14
1.0
 24
1.0
 15
0.0
 25
0.0
 16
0.0
 26
0.0
 36
1.0
 17
0.0
 27
0.0
 37
0.0
 40
81.9403650364
 41
0.7070707071
 42
50.0
 43
0.0
 44
0.0
 50
0.0
 51
0.0
 71
0
 72
100
 73
1
 74
1
 75
0
 76
0
 77
0
 78
0
  0
ENDTAB
  0
TABLE
  2
LTYPE
  5
5
100
AcDbSymbolTable
 70
6
  0
LTYPE
  5
14
100
AcDbSymbolTableRecord
100
AcDbLinetypeTableRecord
  2
BYBLOCK
 70
0
  3

 72
65
 73
0
 40
0.0
  0
LTYPE
  5
15
100
AcDbSymbolTableRecord
100
AcDbLinetypeTableRecord
  2
BYLAYER
 70
0
  3

 72
65
 73
0
 40
0.0
  0
LTYPE
  5
16
100
AcDbSymbolTableRecord
100
AcDbLinetypeTableRecord
  2
CONTINUOUS
 70
64
  3
Solid line
 72
65
 73
0
 40
0.0
  0
LTYPE
  5
1F5
100
AcDbSymbolTableRecord
100
AcDbLinetypeTableRecord
  2
CENTER
 70
64
  3
____ _ ____ _ ____ _ ____ _ ____ _ ____ _ ____
 72
65
 73
4
 40
0.6
 49
0.375
 74
0
 49
-0.075
 74
0
 49
0.075
 74
0
 49
-0.075
 74
0
  0
LTYPE
  5
1F6
100
AcDbSymbolTableRecord
100
AcDbLinetypeTableRecord
  2
HIDDEN
 70
64
  3
- - - - - - - - - - - - - - - - - - - -
 72
65
 73
2
 40
0.2
 49
0.1
 74
0
 49
-0.1
 74
0
  0
LTYPE
  5
1F7
100
AcDbSymbolTableRecord
100
AcDbLinetypeTableRecord
  2
PHANTOM
 70
64
  3
_____ _ _ _____ _ _ _____ _ _ _____
 72
65
 73
6
 40
0.8
 49
0.45
 74
0
 49
-0.05
 74
0
 49
0.1
 74
0
 49
-0.05
 74
0
 49
0.1
 74
0
 49
-0.05
 74
0
  0
LTYPE
  5
1F8
100
AcDbSymbolTableRecord
100
AcDbLinetypeTableRecord
  2
DOT
 70
64
  3
. . . . . . . . . . . . . . . . . . . .
 72
65
 73
2
 40
0.2
 49
0.1
 74
0
 49
-0.1
 74
0
  0
LTYPE
  5
1F9
100
AcDbSymbolTableRecord
100
AcDbLinetypeTableRecord
  2
DASHED
 70
64
  3
- - - - - - - - - - - - - - - - - - - -
 72
65
 73
2
 40
0.2
 49
0.1
 74
0
 49
-0.1
 74
0
  0
ENDTAB
  0
TABLE
  2
LAYER
  5
2
100
AcDbSymbolTable
 70
36
  0
LAYER
  5
10
100
AcDbSymbolTableRecord
100
AcDbLayerTableRecord
  2
0
 70
0
 62
7
  6
CONTINUOUS
370
-3
390
F
  0
LAYER
  5
1FA
100
AcDbSymbolTableRecord
100
AcDbLayerTableRecord
  2
DEFAULT_1
 70
0
 62
7
  6
CENTER
370
-3
390
F
  0
LAYER
  5
1FB
100
AcDbSymbolTableRecord
100
AcDbLayerTableRecord
  2
DEFAULT_2
 70
0
 62
7
  6
HIDDEN
370
-3
390
F
  0
LAYER
  5
1FC
100
AcDbSymbolTableRecord
100
AcDbLayerTableRecord
  2
DEFAULT_3
 70
0
 62
7
  6
PHANTOM
370
-3
390
F
  0
LAYER
  5
1FD
100
AcDbSymbolTableRecord
100
AcDbLayerTableRecord
  2
00_COMPONENTS
 70
0
 62
7
  6
CONTINUOUS
370
-3
390
F
  0
LAYER
  5
1FE
100
AcDbSymbolTableRecord
100
AcDbLayerTableRecord
  2
01_1_DEFAULT_DATUMS
 70
0
 62
7
  6
CONTINUOUS
370
-3
390
F
  0
LAYER
  5
1FF
100
AcDbSymbolTableRecord
100
AcDbLayerTableRecord
  2
01_PLANES
 70
0
 62
7
  6
CONTINUOUS
370
-3
390
F
  0
LAYER
  5
200
100
AcDbSymbolTableRecord
100
AcDbLayerTableRecord
  2
02_COORD_SYS
 70
0
 62
7
  6
CONTINUOUS
370
-3
390
F
  0
LAYER
  5
201
100
AcDbSymbolTableRecord
100
AcDbLayerTableRecord
  2
03_AXES
 70
0
 62
7
  6
CONTINUOUS
370
-3
390
F
  0
LAYER
  5
202
100
AcDbSymbolTableRecord
100
AcDbLayerTableRecord
  2
04_POINTS
 70
0
 62
7
  6
CONTINUOUS
370
-3
390
F
  0
LAYER
  5
203
100
AcDbSymbolTableRecord
100
AcDbLayerTableRecord
  2
05_CURVES
 70
0
 62
7
  6
CONTINUOUS
370
-3
390
F
  0
LAYER
  5
204
100
AcDbSymbolTableRecord
100
AcDbLayerTableRecord
  2
06_SURFS
 70
0
 62
7
  6
CONTINUOUS
370
-3
390
F
  0
LAYER
  5
205
100
AcDbSymbolTableRecord
100
AcDbLayerTableRecord
  2
07_COSMETICS
 70
0
 62
7
  6
CONTINUOUS
370
-3
390
F
  0
LAYER
  5
206
100
AcDbSymbolTableRecord
100
AcDbLayerTableRecord
  2
10_NOTES
 70
0
 62
7
  6
CONTINUOUS
370
-3
390
F
  0
LAYER
  5
207
100
AcDbSymbolTableRecord
100
AcDbLayerTableRecord
  2
11_NOTES_PUB
 70
0
 62
7
  6
CONTINUOUS
370
-3
390
F
  0
LAYER
  5
208
100
AcDbSymbolTableRecord
100
AcDbLayerTableRecord
  2
13_REF_GTOL
 70
0
 62
7
  6
CONTINUOUS
370
-3
390
F
  0
LAYER
  5
209
100
AcDbSymbolTableRecord
100
AcDbLayerTableRecord
  2
16_MISC
 70
0
 62
7
  6
CONTINUOUS
370
-3
390
F
  0
LAYER
  5
20A
100
AcDbSymbolTableRecord
100
AcDbLayerTableRecord
  2
17_NO_PRINT
 70
0
 62
7
  6
CONTINUOUS
370
-3
390
F
  0
LAYER
  5
20B
100
AcDbSymbolTableRecord
100
AcDbLayerTableRecord
  2
18_DATUM_CAMS_JOINTS
 70
0
 62
7
  6
CONTINUOUS
370
-3
390
F
  0
LAYER
  5
20C
100
AcDbSymbolTableRecord
100
AcDbLayerTableRecord
  2
19_DATUM_FUNCTIONAL
 70
0
 62
7
  6
CONTINUOUS
370
-3
390
F
  0
LAYER
  5
20D
100
AcDbSymbolTableRecord
100
AcDbLayerTableRecord
  2
20_DATUM_KINEMATIC_SCHEME
 70
0
 62
7
  6
CONTINUOUS
370
-3
390
F
  0
ENDTAB
  0
TABLE
  2
STYLE
  5
3
100
AcDbSymbolTable
 70
1
  0
STYLE
  5
11
100
AcDbSymbolTableRecord
100
AcDbTextStyleTableRecord
  2
STANDARD
 70
0
 40
0.0
 41
1.0
 50
0.0
 71
0
 42
0.2
  3
ARIAL.TTF
  4

  0
STYLE
  5
20E
100
AcDbSymbolTableRecord
100
AcDbTextStyleTableRecord
  2
TEXTSTYLE_1
 70
0
 40
0.0
 41
0.8
 50
0.0
 71
0
 42
0.2
  3
gdt
  4

  0
ENDTAB
  0
TABLE
  2
VIEW
  5
6
100
AcDbSymbolTable
 70
0
  0
ENDTAB
  0
TABLE
  2
UCS
  5
7
100
AcDbSymbolTable
 70
0
  0
ENDTAB
  0
TABLE
  2
APPID
  5
9
100
AcDbSymbolTable
 70
1
  0
APPID
  5
20F
100
AcDbSymbolTableRecord
100
AcDbRegAppTableRecord
  2
ACAD
 70
0
  0
ENDTAB
  0
TABLE
  2
BLOCK_RECORD
  5
1
100
AcDbSymbolTable
 70
0
  0
BLOCK_RECORD
  5
210
100
AcDbSymbolTableRecord
100
AcDbBlockTableRecord
  2
*Model_Space
  0
BLOCK_RECORD
  5
211
100
AcDbSymbolTableRecord
100
AcDbBlockTableRecord
  2
*Paper_Space
  0
BLOCK_RECORD
  5
212
100
AcDbSymbolTableRecord
100
AcDbBlockTableRecord
  2
_FILLED
  0
ENDTAB
  0
TABLE
  2
DIMSTYLE
  5
A
100
AcDbSymbolTable
 70
1
100
AcDbDimStyleTable
 71
0
  0
DIMSTYLE
105
213
100
AcDbSymbolTableRecord
100
AcDbDimStyleTableRecord
  2
STANDARD
 70
0
  3

  4

 40
1.0
 41
0.6897337124
 42
1.0
 43
0.38
 44
1.0
 45
0.0
 46
0.0
 47
0.01
 48
0.01
140
0.9656271974
141
0.09
142
0.0
143
25.4
144
1.0
145
0.0
146
1.0
147
0.625
 71
1
 72
0
 73
0
 74
0
 75
0
 76
0
 77
1
 78
8
 79
2
170
0
171
1
172
0
173
0
174
0
175
0
176
0
177
0
178
0
270
2
179
2
271
2
272
2
273
2
274
2
275
0
280
0
281
0
282
0
283
1
284
8
285
0
286
0
287
3
288
0
340
11
278
46
341
212
342
212
343
212
344
212
  0
ENDTAB
  0
ENDSEC
  0
SECTION
  2
BLOCKS
  0
BLOCK
  5
20
100
AcDbEntity
  8
0
100
AcDbBlockBegin
  2
*Model_Space
 70
0
 10
0.0
 20
0.0
 30
0.0
  3
*Model_Space
  1

  0
ENDBLK
  5
21
100
AcDbEntity
  8
0
100
AcDbBlockEnd
  0
BLOCK
  5
1C
100
AcDbEntity
  8
0
100
AcDbBlockBegin
  2
*Paper_Space
 70
0
 10
0.0
 20
0.0
 30
0.0
  3
*Paper_Space
  1

  0
ENDBLK
  5
1D
100
AcDbEntity
  8
0
100
AcDbBlockEnd
  0
BLOCK
  5
214
100
AcDbEntity
  8
0
100
AcDbBlockBegin
  2
_FILLED
 70
64
 10
0.0
 20
0.0
  3
_FILLED
  1

  0
SOLID
  5
215
100
AcDbEntity
  8
0
  6
BYBLOCK
 62
0
100
AcDbTrace
 10
0.0
 20
0.0
 11
-1.0
 21
0.25
 12
-1.0
 22
-0.25
 13
-1.0
 23
-0.25
  0
ENDBLK
  5
216
100
AcDbEntity
  8
0
  6
BYBLOCK
 62
0
100
AcDbBlockEnd
  0
ENDSEC
  0
SECTION
  2
ENTITIES
  0
LINE
  5
217
100
AcDbEntity
  8
0
100
AcDbLine
 62
7
  6
BYLAYER
 10
19.2340164935
 20
6.3440557158
 11
19.3924662375
 21
6.3298304002
  0
LINE
  5
218
100
AcDbEntity
  8
0
100
AcDbLine
 62
7
  6
BYLAYER
 10
19.2339764492
 20
6.3439863163
 11
14.8852516395
 21
8.8546669566
  0
LINE
  5
219
100
AcDbEntity
  8
0
100
AcDbLine
 62
7
  6
BYLAYER
 10
19.1304202888
 20
6.5728793902
 11
14.7816954792
 21
9.0835600305
  0
LINE
  5
21A
100
AcDbEntity
  8
0
100
AcDbLine
 62
7
  6
BYLAYER
 10
19.9872051525
 20
6.9201416572
 11
19.9310729963
 21
6.9217167917
  0
LINE
  5
21B
100
AcDbEntity
  8
0
100
AcDbLine
 62
7
  6
BYLAYER
 10
24.105523681
 20
8.9451464049
 11
24.2639702896
 21
8.9309155654
  0
LINE
  5
21C
100
AcDbEntity
  8
0
100
AcDbLine
 62
7
  6
BYLAYER
 10
19.9872530408
 20
6.9202242215
 11
19.9367357894
 21
6.9493897104
  0
LINE
  5
21D
100
AcDbEntity
  8
0
100
AcDbLine
 62
7
  6
BYLAYER
 10
18.9466253284
 20
9.0926883738
 11
19.1304202888
 21
8.9865767045
  0
LINE
  5
21E
100
AcDbEntity
  8
0
100
AcDbLine
 62
7
  6
BYLAYER
 10
19.3924662375
 20
6.3298304002
 11
19.6534285319
 21
6.3997532236
  0
LINE
  5
21F
100
AcDbEntity
  8
0
100
AcDbLine
 62
7
  6
BYLAYER
 10
24.2075629885
 20
7.7099564153
 11
22.7139378634
 21
8.5722817749
  0
LINE
  5
220
100
AcDbEntity
  8
0
100
AcDbLine
 62
7
  6
BYLAYER
 10
22.8067789711
 20
8.5971578299
 11
24.1157154185
 21
7.8414045329
  0
LINE
  5
221
100
AcDbEntity
  8
0
100
AcDbLine
 62
7
  6
BYLAYER
 10
22.8176565117
 20
8.6000723825
 11
24.1127833008
 21
7.852347498
  0
LINE
  5
222
100
AcDbEntity
  8
0
100
AcDbLine
 62
7
  6
BYLAYER
 10
24.2511103496
 20
8.0792373047
 11
23.1805556183
 21
8.6973083844
  0
LINE
  5
223
100
AcDbEntity
  8
0
100
AcDbLine
 62
7
  6
BYLAYER
 10
18.9466253284
 20
11.5421956252
 11
19.1304202888
 21
11.4360839559
  0
LINE
  5
224
100
AcDbEntity
  8
0
100
AcDbLine
 62
7
  6
BYLAYER
 10
23.8555072315
 20
8.8781564358
 11
24.3555226401
 21
8.5894789358
  0
LINE
  5
225
100
AcDbEntity
  8
0
100
AcDbLine
 62
7
  6
BYLAYER
 10
21.9871718285
 20
10.8481382355
 11
22.1709667888
 21
10.7420265662
  0
LINE
  5
226
100
AcDbEntity
  8
0
100
AcDbLine
 62
7
  6
BYLAYER
 10
23.3022967176
 20
70.4690594129
 11
20.1088339371
 21
68.6253238226
  0
LINE
  5
227
100
AcDbEntity
  8
0
100
AcDbLine
 62
7
  6
BYLAYER
 10
32.0730954324
 20
75.5328521852
 11
32.2303460578
 21
75.6236403341
  0
LINE
  5
228
100
AcDbEntity
  8
0
100
AcDbLine
 62
7
  6
BYLAYER
 10
20.4684961859
 20
7.9706330877
 11
24.105523681
 21
8.9451464049
  0
LINE
  5
229
100
AcDbEntity
  8
0
100
AcDbLine
 62
7
  6
BYLAYER
 10
18.6707989675
 20
15.21240084
 11
15.2413168005
 21
17.1923684994
  0
LINE
  5
22A
100
AcDbEntity
  8
0
100
AcDbLine
 62
7
  6
BYLAYER
 10
15.0437414278
 20
64.1815836442
 11
15.3047037222
 21
64.4129923239
  0
LINE
  5
22B
100
AcDbEntity
  8
0
100
AcDbLine
 62
7
  6
BYLAYER
 10
16.3862110012
 20
64.0195316111
 11
19.7567988713
 21
67.0084051216
  0
LINE
  5
22C
100
AcDbEntity
  8
0
100
AcDbLine
 62
7
  6
BYLAYER
 10
17.3626283122
 20
18.417100961
 11
18.6707989675
 21
17.6618453672
  0
LINE
  5
22D
100
AcDbEntity
  8
0
100
AcDbLine
 62
7
  6
BYLAYER
 10
27.6510215273
 20
67.9583787726
 11
24.4575587468
 21
66.1146431823
  0
LINE
  5
22E
100
AcDbEntity
  8
0
100
AcDbLine
 62
7
  6
BYLAYER
 10
36.421820242
 20
73.0221715449
 11
36.5790708674
 21
73.1129596938
  0
LINE
  5
22F
100
AcDbEntity
  8
0
100
AcDbLine
 62
7
  6
BYLAYER
 10
15.029183883
 20
60.0995673834
 11
17.0798198035
 21
61.283495517
  0
LINE
  5
230
100
AcDbEntity
  8
0
100
AcDbLine
 62
7
  6
BYLAYER
 10
17.4239196618
 20
60.9922590267
 11
15.029183883
 21
59.6096659331
  0
LINE
  5
231
100
AcDbEntity
  8
0
100
AcDbLine
 62
7
  6
BYLAYER
 10
15.2413168005
 20
20.8666293765
 11
18.6707989675
 21
18.8866617171
  0
LINE
  5
232
100
AcDbEntity
  8
0
100
AcDbLine
 62
7
  6
BYLAYER
 10
14.7816954792
 20
21.9893134049
 11
19.1304202888
 21
19.4786327646
  0
LINE
  5
233
100
AcDbEntity
  8
0
100
AcDbLine
 62
7
  6
BYLAYER
 10
19.3463330323
 20
19.9793332983
 11
14.9976082226
 21
22.4900139386
  0
LINE
  5
234
100
AcDbEntity
  8
0
100
AcDbLine
 62
7
  6
BYLAYER
 10
24.1155056716
 20
7.8412185396
 11
24.2076149094
 21
7.7100464673
  0
LINE
  5
235
100
AcDbEntity
  8
0
100
AcDbLine
 62
7
  6
BYLAYER
 10
19.6534285319
 20
61.9023116836
 11
19.3924662375
 21
61.6709030039
  0
LINE
  5
236
100
AcDbEntity
  8
0
100
AcDbLine
 62
7
  6
BYLAYER
 10
24.105523681
 20
64.4977244813
 11
20.4684961859
 21
61.2725852605
  0
LINE
  5
237
100
AcDbEntity
  8
0
100
AcDbLine
 62
7
  6
BYLAYER
 10
22.1709667888
 20
60.4670237694
 11
19.1304202888
 21
58.7115739077
  0
LINE
  5
238
100
AcDbEntity
  8
0
100
AcDbLine
 62
7
  6
BYLAYER
 10
20.3324968121
 20
21.0299753642
 11
15.9837720024
 21
23.5406560045
  0
LINE
  5
239
100
AcDbEntity
  8
0
100
AcDbLine
 62
7
  6
BYLAYER
 10
18.9466253284
 20
56.3681783256
 11
18.5297135577
 21
55.9144323879
  0
LINE
  5
23A
100
AcDbEntity
  8
0
100
AcDbLine
 62
7
  6
BYLAYER
 10
18.9466253284
 20
56.3681783256
 11
21.9871718285
 21
58.1236281873
  0
LINE
  5
23B
100
AcDbEntity
  8
0
100
AcDbLine
 62
7
  6
BYLAYER
 10
22.1709667888
 20
58.017516518
 11
19.1304202888
 21
56.2620666563
  0
LINE
  5
23C
100
AcDbEntity
  8
0
100
AcDbLine
 62
7
  6
BYLAYER
 10
39.8132075273
 20
25.3368312577
 11
35.4083681503
 21
24.1565887
  0
LINE
  5
23D
100
AcDbEntity
  8
0
100
AcDbLine
 62
7
  6
BYLAYER
 10
23.3730433121
 20
22.7854252258
 11
22.9134219908
 21
23.0507817163
  0
LINE
  5
23E
100
AcDbEntity
  8
0
100
AcDbLine
 62
7
  6
BYLAYER
 10
19.4839398238
 20
25.0307493757
 11
19.0243185024
 21
25.2961058661
  0
LINE
  5
23F
100
AcDbEntity
  8
0
100
AcDbLine
 62
7
  6
BYLAYER
 10
15.2413168005
 20
51.3221695354
 11
17.3626283122
 21
52.5469019971
  0
LINE
  5
240
100
AcDbEntity
  8
0
100
AcDbLine
 62
7
  6
BYLAYER
 10
35.5913800902
 20
25.5120291977
 11
39.3681496387
 21
26.5239853147
  0
LINE
  5
241
100
AcDbEntity
  8
0
100
AcDbLine
 62
7
  6
BYLAYER
 10
35.4083681503
 20
24.1565887
 11
35.2499184064
 21
24.1708140157
  0
LINE
  5
242
100
AcDbEntity
  8
0
100
AcDbLine
 62
7
  6
BYLAYER
 10
19.2339902951
 20
27.4964380468
 11
19.3463330322
 21
27.4739197169
  0
LINE
  5
243
100
AcDbEntity
  8
0
100
AcDbLine
 62
7
  6
BYLAYER
 10
19.2339764492
 20
27.4964141037
 11
14.8852516395
 21
30.007094744
  0
LINE
  5
244
100
AcDbEntity
  8
0
100
AcDbLine
 62
7
  6
BYLAYER
 10
21.6052513354
 20
26.2554818373
 11
22.9134219908
 21
25.5002262435
  0
LINE
  5
245
100
AcDbEntity
  8
0
100
AcDbLine
 62
7
  6
BYLAYER
 10
19.1304202888
 20
27.7253071776
 11
14.7816954792
 21
30.2359878179
  0
LINE
  5
246
100
AcDbEntity
  8
0
100
AcDbLine
 62
7
  6
BYLAYER
 10
22.9134219908
 20
25.6227643303
 11
19.6587285096
 21
27.5018199778
  0
LINE
  5
247
100
AcDbEntity
  8
0
100
AcDbLine
 62
7
  6
BYLAYER
 10
14.7816954792
 20
30.7973332297
 11
19.1304202888
 21
28.2866525894
  0
LINE
  5
248
100
AcDbEntity
  8
0
100
AcDbLine
 62
7
  6
BYLAYER
 10
21.1456091873
 20
28.0314425477
 11
22.9134219908
 21
27.0108184393
  0
LINE
  5
249
100
AcDbEntity
  8
0
100
AcDbLine
 62
7
  6
BYLAYER
 10
19.5530417014
 20
29.2781587467
 11
15.2043168917
 21
31.788839387
  0
LINE
  5
24A
100
AcDbEntity
  8
0
100
AcDbLine
 62
7
  6
BYLAYER
 10
14.7816954792
 20
30.7973332297
 11
14.7816954792
 21
30.2359878179
  0
LINE
  5
24B
100
AcDbEntity
  8
0
100
AcDbLine
 62
7
  6
BYLAYER
 10
14.7816954792
 20
21.9893134049
 11
14.7816954792
 21
9.0835600305
  0
LINE
  5
24C
100
AcDbEntity
  8
0
100
AcDbLine
 62
7
  6
BYLAYER
 10
14.7816954792
 20
37.676366094
 11
14.7816954792
 21
63.6359518623
  0
LINE
  5
24D
100
AcDbEntity
  8
0
100
AcDbLine
 62
7
  6
BYLAYER
 10
15.029183883
 20
60.0995673834
 11
15.029183883
 21
59.6096659331
  0
LINE
  5
24E
100
AcDbEntity
  8
0
100
AcDbLine
 62
7
  6
BYLAYER
 10
15.029183883
 20
47.3621296761
 11
15.029183883
 21
46.8722282259
  0
LINE
  5
24F
100
AcDbEntity
  8
0
100
AcDbLine
 62
7
  6
BYLAYER
 10
15.029183883
 20
12.8240774316
 11
15.029183883
 21
12.3341759813
  0
LINE
  5
250
100
AcDbEntity
  8
0
100
AcDbLine
 62
7
  6
BYLAYER
 10
15.2413168005
 20
54.9964304125
 11
15.2413168005
 21
51.3221695354
  0
LINE
  5
251
100
AcDbEntity
  8
0
100
AcDbLine
 62
7
  6
BYLAYER
 10
15.2413168005
 20
42.2589927053
 11
15.2413168005
 21
38.5847318282
  0
LINE
  5
252
100
AcDbEntity
  8
0
100
AcDbLine
 62
7
  6
BYLAYER
 10
15.2413168005
 20
17.1923684994
 11
15.2413168005
 21
20.8666293765
  0
LINE
  5
253
100
AcDbEntity
  8
0
100
AcDbLine
 62
7
  6
BYLAYER
 10
17.0267501623
 20
32.9508359562
 11
17.0267501623
 21
36.0419999925
  0
LINE
  5
254
100
AcDbEntity
  8
0
100
AcDbLine
 62
7
  6
BYLAYER
 10
19.7640168692
 20
68.1079965867
 11
19.766780862
 21
68.1238591282
  0
LINE
  5
255
100
AcDbEntity
  8
0
100
AcDbLine
 62
7
  6
BYLAYER
 10
15.029183883
 20
47.3621296761
 11
17.0798198035
 21
48.5460578098
  0
LINE
  5
256
100
AcDbEntity
  8
0
100
AcDbLine
 62
7
  6
BYLAYER
 10
19.3463330322
 20
27.4739197169
 11
20.3324968121
 21
27.5619947012
  0
LINE
  5
257
100
AcDbEntity
  8
0
100
AcDbLine
 62
7
  6
BYLAYER
 10
39.0545716291
 20
19.1016680705
 11
41.4138162904
 21
17.7395883446
  0
LINE
  5
258
100
AcDbEntity
  8
0
100
AcDbLine
 62
7
  6
BYLAYER
 10
41.2274152018
 20
18.1515958776
 11
39.3181859519
 21
19.2538649623
  0
LINE
  5
259
100
AcDbEntity
  8
0
100
AcDbLine
 62
7
  6
BYLAYER
 10
16.101579392
 20
32.7621821426
 11
20.4503042016
 21
30.2515015023
  0
LINE
  5
25A
100
AcDbEntity
  8
0
100
AcDbLine
 62
7
  6
BYLAYER
 10
20.5836647716
 20
30.299572113
 11
16.234939962
 21
32.8102527533
  0
LINE
  5
25B
100
AcDbEntity
  8
0
100
AcDbLine
 62
7
  6
BYLAYER
 10
17.0267501623
 20
32.9508359562
 11
21.375474972
 21
30.4401553159
  0
LINE
  5
25C
100
AcDbEntity
  8
0
100
AcDbLine
 62
7
  6
BYLAYER
 10
40.5203023112
 20
19.9478925688
 11
41.2274152018
 21
19.5396499868
  0
LINE
  5
25D
100
AcDbEntity
  8
0
100
AcDbLine
 62
7
  6
BYLAYER
 10
20.6188738662
 20
30.2217484679
 11
20.5836629278
 21
30.2995689193
  0
LINE
  5
25E
100
AcDbEntity
  8
0
100
AcDbLine
 62
7
  6
BYLAYER
 10
24.1127400246
 20
7.8539507073
 11
24.1155056716
 21
7.8412185396
  0
LINE
  5
25F
100
AcDbEntity
  8
0
100
AcDbLine
 62
7
  6
BYLAYER
 10
17.3626283122
 20
53.7717183469
 11
17.3626283122
 21
52.5469019971
  0
LINE
  5
260
100
AcDbEntity
  8
0
100
AcDbLine
 62
7
  6
BYLAYER
 10
17.3626283122
 20
41.0342806397
 11
17.3626283122
 21
39.8094642898
  0
LINE
  5
261
100
AcDbEntity
  8
0
100
AcDbLine
 62
7
  6
BYLAYER
 10
17.3626283122
 20
19.6419173109
 11
17.3626283122
 21
18.417100961
  0
LINE
  5
262
100
AcDbEntity
  8
0
100
AcDbLine
 62
7
  6
BYLAYER
 10
18.6707989675
 20
18.8866617171
 11
18.6707989675
 21
15.21240084
  0
LINE
  5
263
100
AcDbEntity
  8
0
100
AcDbLine
 62
7
  6
BYLAYER
 10
18.6707989675
 20
36.6047641688
 11
18.6707989675
 21
40.2790250459
  0
LINE
  5
264
100
AcDbEntity
  8
0
100
AcDbLine
 62
7
  6
BYLAYER
 10
18.6707989675
 20
49.342201876
 11
18.6707989675
 21
53.0164627531
  0
LINE
  5
265
100
AcDbEntity
  8
0
100
AcDbLine
 62
7
  6
BYLAYER
 10
19.0243185024
 20
27.6174574373
 11
19.0243185024
 21
25.2961058661
  0
LINE
  5
266
100
AcDbEntity
  8
0
100
AcDbLine
 62
7
  6
BYLAYER
 10
19.1304202888
 20
28.2866525894
 11
19.1304202888
 21
27.7253071776
  0
LINE
  5
267
100
AcDbEntity
  8
0
100
AcDbLine
 62
7
  6
BYLAYER
 10
19.1304202888
 20
19.4786327646
 11
19.1304202888
 21
11.4360839559
  0
LINE
  5
268
100
AcDbEntity
  8
0
100
AcDbLine
 62
7
  6
BYLAYER
 10
19.1304202888
 20
8.9865767045
 11
19.1304202888
 21
6.5728793902
  0
LINE
  5
269
100
AcDbEntity
  8
0
100
AcDbLine
 62
7
  6
BYLAYER
 10
19.1304202888
 20
35.1656854537
 11
19.1304202888
 21
43.5246289491
  0
LINE
  5
26A
100
AcDbEntity
  8
0
100
AcDbLine
 62
7
  6
BYLAYER
 10
19.1304202888
 20
45.9741362005
 11
19.1304202888
 21
56.2620666563
  0
LINE
  5
26B
100
AcDbEntity
  8
0
100
AcDbLine
 62
7
  6
BYLAYER
 10
19.1304202888
 20
58.7115739077
 11
19.1304202888
 21
61.125271222
  0
LINE
  5
26C
100
AcDbEntity
  8
0
100
AcDbLine
 62
7
  6
BYLAYER
 10
19.4839398238
 20
27.4862094767
 11
19.4839398238
 21
25.0307493757
  0
LINE
  5
26D
100
AcDbEntity
  8
0
100
AcDbLine
 62
7
  6
BYLAYER
 10
17.4239196618
 20
48.2548213195
 11
15.029183883
 21
46.8722282259
  0
LINE
  5
26E
100
AcDbEntity
  8
0
100
AcDbLine
 62
7
  6
BYLAYER
 10
20.5836629278
 20
30.2995689193
 11
20.4986662138
 21
30.2911523726
  0
LINE
  5
26F
100
AcDbEntity
  8
0
100
AcDbLine
 62
7
  6
BYLAYER
 10
35.4083681504
 20
24.1565887
 11
35.1871621913
 21
24.2842991309
  0
LINE
  5
270
100
AcDbEntity
  8
0
100
AcDbLine
 62
7
  6
BYLAYER
 10
19.3375326095
 20
34.7078993059
 11
14.9888077999
 21
37.2185799462
  0
LINE
  5
271
100
AcDbEntity
  8
0
100
AcDbLine
 62
7
  6
BYLAYER
 10
19.1304202888
 20
35.1656854537
 11
14.7816954792
 21
37.676366094
  0
LINE
  5
272
100
AcDbEntity
  8
0
100
AcDbLine
 62
7
  6
BYLAYER
 10
20.6188738662
 20
35.1677118596
 11
20.6188738662
 21
34.9492974631
  0
LINE
  5
273
100
AcDbEntity
  8
0
100
AcDbLine
 62
7
  6
BYLAYER
 10
20.6188738662
 20
30.2217484679
 11
20.6188738662
 21
30.0033340713
  0
LINE
  5
274
100
AcDbEntity
  8
0
100
AcDbLine
 62
7
  6
BYLAYER
 10
21.375474972
 20
30.4401553159
 11
21.375474972
 21
35.6045331043
  0
LINE
  5
275
100
AcDbEntity
  8
0
100
AcDbLine
 62
7
  6
BYLAYER
 10
21.6052513354
 20
26.2554818373
 11
21.6052513354
 21
26.3780199241
  0
LINE
  5
276
100
AcDbEntity
  8
0
100
AcDbLine
 62
7
  6
BYLAYER
 10
24.1154108538
 20
65.6128827131
 11
24.11277554
 21
65.5974295603
  0
LINE
  5
277
100
AcDbEntity
  8
0
100
AcDbLine
 62
7
  6
BYLAYER
 10
18.9466253284
 20
43.6307406184
 11
18.5297135577
 21
43.1769946807
  0
LINE
  5
278
100
AcDbEntity
  8
0
100
AcDbLine
 62
7
  6
BYLAYER
 10
22.1709667888
 20
47.7295860621
 11
19.1304202888
 21
45.9741362005
  0
LINE
  5
279
100
AcDbEntity
  8
0
100
AcDbLine
 62
7
  6
BYLAYER
 10
18.9466253284
 20
43.6307406184
 11
21.9871718285
 21
45.38619048
  0
LINE
  5
27A
100
AcDbEntity
  8
0
100
AcDbLine
 62
7
  6
BYLAYER
 10
22.1709667888
 20
45.2800788107
 11
19.1304202888
 21
43.5246289491
  0
LINE
  5
27B
100
AcDbEntity
  8
0
100
AcDbLine
 62
7
  6
BYLAYER
 10
19.3375532384
 20
34.7079349787
 11
19.5530417014
 21
34.6621775561
  0
LINE
  5
27C
100
AcDbEntity
  8
0
100
AcDbLine
 62
7
  6
BYLAYER
 10
43.724450766
 20
27.512418022
 11
43.4851883434
 21
27.5851676436
  0
LINE
  5
27D
100
AcDbEntity
  8
0
100
AcDbLine
 62
7
  6
BYLAYER
 10
15.2413168005
 20
38.5847318282
 11
18.6707989675
 21
36.6047641688
  0
LINE
  5
27E
100
AcDbEntity
  8
0
100
AcDbLine
 62
7
  6
BYLAYER
 10
38.2676785777
 20
26.2291226265
 11
39.8132075273
 21
25.3368312577
  0
LINE
  5
27F
100
AcDbEntity
  8
0
100
AcDbLine
 62
7
  6
BYLAYER
 10
40.5910217483
 20
25.785899827
 11
39.330202522
 21
26.513817679
  0
LINE
  5
280
100
AcDbEntity
  8
0
100
AcDbLine
 62
7
  6
BYLAYER
 10
22.8780706261
 20
59.8954650227
 11
22.8780706261
 21
59.4055635724
  0
LINE
  5
281
100
AcDbEntity
  8
0
100
AcDbLine
 62
7
  6
BYLAYER
 10
22.8780706261
 20
47.1580273154
 11
22.8780706261
 21
46.6681258652
  0
LINE
  5
282
100
AcDbEntity
  8
0
100
AcDbLine
 62
7
  6
BYLAYER
 10
22.8780706261
 20
12.1300736206
 11
22.8780706261
 21
12.6199750709
  0
LINE
  5
283
100
AcDbEntity
  8
0
100
AcDbLine
 62
7
  6
BYLAYER
 10
22.9134219908
 20
23.0507817163
 11
22.9134219908
 21
25.6227643303
  0
LINE
  5
284
100
AcDbEntity
  8
0
100
AcDbLine
 62
7
  6
BYLAYER
 10
22.9134219908
 20
27.0108184393
 11
22.9134219908
 21
29.0520836533
  0
LINE
  5
285
100
AcDbEntity
  8
0
100
AcDbLine
 62
7
  6
BYLAYER
 10
23.3730433121
 20
29.3174445629
 11
23.3730433121
 21
22.7854252258
  0
LINE
  5
286
100
AcDbEntity
  8
0
100
AcDbLine
 62
7
  6
BYLAYER
 10
40.5910217483
 20
54.1185337014
 11
39.8132075273
 21
53.6694651322
  0
LINE
  5
287
100
AcDbEntity
  8
0
100
AcDbLine
 62
7
  6
BYLAYER
 10
15.2413168005
 20
38.5847318282
 11
17.3626283122
 21
39.8094642898
  0
LINE
  5
288
100
AcDbEntity
  8
0
100
AcDbLine
 62
7
  6
BYLAYER
 10
41.156704818
 20
53.3836758822
 11
41.1086199498
 21
53.3559142364
  0
LINE
  5
289
100
AcDbEntity
  8
0
100
AcDbLine
 62
7
  6
BYLAYER
 10
16.1499414042
 20
32.8018330129
 11
16.2349381181
 21
32.8102495596
  0
LINE
  5
28A
100
AcDbEntity
  8
0
100
AcDbLine
 62
7
  6
BYLAYER
 10
19.5530417014
 20
34.6621775561
 11
20.4503042017
 21
34.7248981082
  0
LINE
  5
28B
100
AcDbEntity
  8
0
100
AcDbLine
 62
7
  6
BYLAYER
 10
17.3626283122
 20
39.8094642898
 11
18.6707989675
 21
39.054208696
  0
LINE
  5
28C
100
AcDbEntity
  8
0
100
AcDbLine
 62
7
  6
BYLAYER
 10
40.837330021
 20
26.989558268
 11
39.8132075273
 21
27.5808222893
  0
LINE
  5
28D
100
AcDbEntity
  8
0
100
AcDbLine
 62
7
  6
BYLAYER
 10
39.8132075273
 20
27.9495992673
 11
41.156704818
 21
27.1739482924
  0
LINE
  5
28E
100
AcDbEntity
  8
0
100
AcDbLine
 62
7
  6
BYLAYER
 10
18.6707989675
 20
40.2790250459
 11
15.2413168005
 21
42.2589927053
  0
LINE
  5
28F
100
AcDbEntity
  8
0
100
AcDbLine
 62
7
  6
BYLAYER
 10
19.9310729963
 20
6.9217167917
 11
20.0354852868
 21
7.4319584228
  0
LINE
  5
290
100
AcDbEntity
  8
0
100
AcDbLine
 62
7
  6
BYLAYER
 10
15.2043168917
 20
31.788839387
 11
16.101579392
 21
32.7621821426
  0
LINE
  5
291
100
AcDbEntity
  8
0
100
AcDbLine
 62
7
  6
BYLAYER
 10
39.8132075273
 20
29.705138796
 11
43.4851883433
 21
27.5851676436
  0
LINE
  5
292
100
AcDbEntity
  8
0
100
AcDbLine
 62
7
  6
BYLAYER
 10
39.8132075273
 20
29.7705244387
 11
43.7244508374
 21
27.5124181459
  0
LINE
  5
293
100
AcDbEntity
  8
0
100
AcDbLine
 62
7
  6
BYLAYER
 10
19.1304202888
 20
43.5246289491
 11
18.9466253284
 21
43.6307406184
  0
LINE
  5
294
100
AcDbEntity
  8
0
100
AcDbLine
 62
7
  6
BYLAYER
 10
20.0354852868
 20
61.3112649916
 11
19.9310729963
 21
61.7009424143
  0
LINE
  5
295
100
AcDbEntity
  8
0
100
AcDbLine
 62
7
  6
BYLAYER
 10
20.0067978305
 20
67.6527448003
 11
19.9338938057
 21
67.9248301297
  0
LINE
  5
296
100
AcDbEntity
  8
0
100
AcDbLine
 62
7
  6
BYLAYER
 10
19.1304202888
 20
45.9741362005
 11
18.9466253284
 21
46.0802478698
  0
LINE
  5
297
100
AcDbEntity
  8
0
100
AcDbLine
 62
7
  6
BYLAYER
 10
19.7375375158
 20
46.3246534026
 11
21.6751083886
 21
45.2060216445
  0
LINE
  5
298
100
AcDbEntity
  8
0
100
AcDbLine
 62
7
  6
BYLAYER
 10
21.9871718285
 20
45.38619048
 11
22.1709667888
 21
45.2800788107
  0
LINE
  5
299
100
AcDbEntity
  8
0
100
AcDbLine
 62
7
  6
BYLAYER
 10
24.3555226401
 20
8.5894789358
 11
24.2511103496
 21
8.0792373047
  0
LINE
  5
29A
100
AcDbEntity
  8
0
100
AcDbLine
 62
7
  6
BYLAYER
 10
20.4503042016
 20
30.2515015023
 11
19.5530417014
 21
29.2781587467
  0
LINE
  5
29B
100
AcDbEntity
  8
0
100
AcDbLine
 62
7
  6
BYLAYER
 10
14.9976082226
 20
22.4900139385
 11
15.9837720024
 21
23.5406560045
  0
LINE
  5
29C
100
AcDbEntity
  8
0
100
AcDbLine
 62
7
  6
BYLAYER
 10
21.375474972
 20
35.6045331043
 11
20.6188738662
 21
35.1677118596
  0
LINE
  5
29D
100
AcDbEntity
  8
0
100
AcDbLine
 62
7
  6
BYLAYER
 10
16.5090979932
 20
32.651971121
 11
17.0267501623
 21
32.9508359562
  0
LINE
  5
29E
100
AcDbEntity
  8
0
100
AcDbLine
 62
7
  6
BYLAYER
 10
15.2413168005
 20
51.3221695354
 11
18.6707989675
 21
49.342201876
  0
LINE
  5
29F
100
AcDbEntity
  8
0
100
AcDbLine
 62
7
  6
BYLAYER
 10
22.8780706261
 20
47.0948881491
 11
21.974843389
 21
47.6163548403
  0
LINE
  5
2A0
100
AcDbEntity
  8
0
100
AcDbLine
 62
7
  6
BYLAYER
 10
24.2511103496
 20
65.5317415827
 11
24.3555226401
 21
65.14206416
  0
LINE
  5
2A1
100
AcDbEntity
  8
0
100
AcDbLine
 62
7
  6
BYLAYER
 10
20.6188738662
 20
30.0033340713
 11
21.375474972
 21
30.4401553159
  0
LINE
  5
2A2
100
AcDbEntity
  8
0
100
AcDbLine
 62
7
  6
BYLAYER
 10
17.3626283122
 20
52.5469019971
 11
18.6707989675
 21
51.7916464032
  0
LINE
  5
2A3
100
AcDbEntity
  8
0
100
AcDbLine
 62
7
  6
BYLAYER
 10
18.6707989675
 20
53.0164627531
 11
15.2413168005
 21
54.9964304125
  0
LINE
  5
2A4
100
AcDbEntity
  8
0
100
AcDbLine
 62
7
  6
BYLAYER
 10
35.1463222017
 20
14.722346396
 11
35.1463222017
 21
16.437001472
  0
LINE
  5
2A5
100
AcDbEntity
  8
0
100
AcDbLine
 62
7
  6
BYLAYER
 10
35.1463222017
 20
24.3996376901
 11
35.1463222017
 21
24.8607360538
  0
LINE
  5
2A6
100
AcDbEntity
  8
0
100
AcDbLine
 62
7
  6
BYLAYER
 10
20.3324968121
 20
21.0299753642
 11
19.3463330322
 21
19.9793332982
  0
LINE
  5
2A7
100
AcDbEntity
  8
0
100
AcDbLine
 62
7
  6
BYLAYER
 10
20.3324968121
 20
27.5619947012
 11
23.3730433121
 21
29.3174445629
  0
LINE
  5
2A8
100
AcDbEntity
  8
0
100
AcDbLine
 62
7
  6
BYLAYER
 10
19.9266324752
 20
6.6420172026
 11
19.987254001
 21
6.7470173483
  0
LINE
  5
2A9
100
AcDbEntity
  8
0
100
AcDbLine
 62
7
  6
BYLAYER
 10
15.9837720024
 20
23.5406560045
 11
19.0243185024
 21
25.2961058661
  0
LINE
  5
2AA
100
AcDbEntity
  8
0
100
AcDbLine
 62
7
  6
BYLAYER
 10
19.4839398238
 20
25.0307493757
 11
21.6052513354
 21
26.2554818373
  0
LINE
  5
2AB
100
AcDbEntity
  8
0
100
AcDbLine
 62
7
  6
BYLAYER
 10
19.1304202888
 20
56.2620666563
 11
18.9466253284
 21
56.3681783256
  0
LINE
  5
2AC
100
AcDbEntity
  8
0
100
AcDbLine
 62
7
  6
BYLAYER
 10
19.1304202888
 20
58.7115739077
 11
18.9466253284
 21
58.817685577
  0
LINE
  5
2AD
100
AcDbEntity
  8
0
100
AcDbLine
 62
7
  6
BYLAYER
 10
39.8132075273
 20
53.6694651322
 11
39.8132075273
 21
27.1752784587
  0
LINE
  5
2AE
100
AcDbEntity
  8
0
100
AcDbLine
 62
7
  6
BYLAYER
 10
41.2274152018
 20
19.5396499868
 11
41.2274152018
 21
18.1515958776
  0
LINE
  5
2AF
100
AcDbEntity
  8
0
100
AcDbLine
 62
7
  6
BYLAYER
 10
20.3324968121
 20
21.0299753642
 11
23.3730433121
 21
22.7854252258
  0
LINE
  5
2B0
100
AcDbEntity
  8
0
100
AcDbLine
 62
7
  6
BYLAYER
 10
19.7375375158
 20
59.0620911099
 11
21.6751083886
 21
57.9434593517
  0
LINE
  5
2B1
100
AcDbEntity
  8
0
100
AcDbLine
 62
7
  6
BYLAYER
 10
21.9871718285
 20
58.1236281873
 11
22.1709667888
 21
58.017516518
  0
LINE
  5
2B2
100
AcDbEntity
  8
0
100
AcDbLine
 62
7
  6
BYLAYER
 10
14.7816954792
 20
63.6359518623
 11
19.1304202888
 21
61.125271222
  0
LINE
  5
2B3
100
AcDbEntity
  8
0
100
AcDbLine
 62
7
  6
BYLAYER
 10
19.3924662375
 20
61.6709030038
 11
15.0437414278
 21
64.1815836441
  0
LINE
  5
2B4
100
AcDbEntity
  8
0
100
AcDbLine
 62
7
  6
BYLAYER
 10
44.0558305506
 20
57.5886344062
 11
44.0558305506
 21
57.3182551353
  0
LINE
  5
2B5
100
AcDbEntity
  8
0
100
AcDbLine
 62
7
  6
BYLAYER
 10
44.0558305506
 20
26.7799603094
 11
44.0558305506
 21
19.8662227348
  0
LINE
  5
2B6
100
AcDbEntity
  8
0
100
AcDbLine
 62
7
  6
BYLAYER
 10
40.837330021
 20
26.989558268
 11
40.5910217483
 21
25.785899827
  0
LINE
  5
2B7
100
AcDbEntity
  8
0
100
AcDbLine
 62
7
  6
BYLAYER
 10
18.9466253284
 20
9.0926883738
 11
18.5297135577
 21
8.6389424361
  0
LINE
  5
2B8
100
AcDbEntity
  8
0
100
AcDbLine
 62
7
  6
BYLAYER
 10
15.2413168005
 20
17.1923684994
 11
17.3626283122
 21
18.417100961
  0
LINE
  5
2B9
100
AcDbEntity
  8
0
100
AcDbLine
 62
7
  6
BYLAYER
 10
22.8780706261
 20
59.8323258563
 11
21.974843389
 21
60.3537925476
  0
LINE
  5
2BA
100
AcDbEntity
  8
0
100
AcDbLine
 62
7
  6
BYLAYER
 10
20.4684961859
 20
61.2725852605
 11
19.9685029539
 21
61.5612499571
  0
LINE
  5
2BB
100
AcDbEntity
  8
0
100
AcDbLine
 62
7
  6
BYLAYER
 10
15.3047037222
 20
64.4129923239
 11
19.6534285319
 21
61.9023116836
  0
LINE
  5
2BC
100
AcDbEntity
  8
0
100
AcDbLine
 62
7
  6
BYLAYER
 10
19.987254001
 20
61.9405137069
 11
15.5779076655
 21
64.4861952022
  0
LINE
  5
2BD
100
AcDbEntity
  8
0
100
AcDbLine
 62
7
  6
BYLAYER
 10
40.5910217483
 20
54.1185337014
 11
40.7671150207
 21
53.4613354711
  0
LINE
  5
2BE
100
AcDbEntity
  8
0
100
AcDbLine
 62
7
  6
BYLAYER
 10
15.029183883
 20
12.8240774316
 11
17.0798198035
 21
14.0080055652
  0
LINE
  5
2BF
100
AcDbEntity
  8
0
100
AcDbLine
 62
7
  6
BYLAYER
 10
17.4239196618
 20
13.7167690749
 11
15.029183883
 21
12.3341759813
  0
LINE
  5
2C0
100
AcDbEntity
  8
0
100
AcDbLine
 62
7
  6
BYLAYER
 10
40.837330021
 20
26.989558268
 11
41.156704818
 21
27.1739482924
  0
LINE
  5
2C1
100
AcDbEntity
  8
0
100
AcDbLine
 62
7
  6
BYLAYER
 10
40.0429180742
 20
53.8020877865
 11
40.8586241916
 21
53.3311502941
  0
LINE
  5
2C2
100
AcDbEntity
  8
0
100
AcDbLine
 62
7
  6
BYLAYER
 10
40.7671150207
 20
53.4613354711
 11
40.109909152
 21
53.8407648725
  0
LINE
  5
2C3
100
AcDbEntity
  8
0
100
AcDbLine
 62
7
  6
BYLAYER
 10
19.7567988713
 20
67.0084051216
 11
24.105523681
 21
64.4977244813
  0
LINE
  5
2C4
100
AcDbEntity
  8
0
100
AcDbLine
 62
7
  6
BYLAYER
 10
40.7671150207
 20
53.4613354711
 11
40.8586642671
 21
53.3312196693
  0
LINE
  5
2C5
100
AcDbEntity
  8
0
100
AcDbLine
 62
7
  6
BYLAYER
 10
39.8132075273
 20
25.3368312577
 11
40.5910217483
 21
25.785899827
  0
LINE
  5
2C6
100
AcDbEntity
  8
0
100
AcDbLine
 62
7
  6
BYLAYER
 10
24.3555226401
 20
65.1420641601
 11
20.0067978305
 21
67.6527448004
  0
LINE
  5
2C7
100
AcDbEntity
  8
0
100
AcDbLine
 62
7
  6
BYLAYER
 10
19.791492883
 20
68.0070434809
 11
24.1402176927
 21
65.4963628406
  0
LINE
  5
2C8
100
AcDbEntity
  8
0
100
AcDbLine
 62
7
  6
BYLAYER
 10
24.1127833008
 20
65.5989060252
 11
19.7640584912
 21
68.1095866655
  0
LINE
  5
2C9
100
AcDbEntity
  8
0
100
AcDbLine
 62
7
  6
BYLAYER
 10
24.1156568825
 20
65.6129486346
 11
19.7669906088
 21
68.1239153282
  0
LINE
  5
2CA
100
AcDbEntity
  8
0
100
AcDbLine
 62
7
  6
BYLAYER
 10
24.4575587468
 20
66.1146431823
 11
20.1088339371
 21
68.6253238226
  0
LINE
  5
2CB
100
AcDbEntity
  8
0
100
AcDbLine
 62
7
  6
BYLAYER
 10
43.9624712434
 20
58.1187098521
 11
37.899077733
 21
72.8280839875
  0
LINE
  5
2CC
100
AcDbEntity
  8
0
100
AcDbLine
 62
7
  6
BYLAYER
 10
43.9668267802
 20
58.1067162285
 11
43.9624712434
 21
58.1187098521
  0
LINE
  5
2CD
100
AcDbEntity
  8
0
100
AcDbLine
 62
7
  6
BYLAYER
 10
22.1709667888
 20
13.1915338176
 11
19.1304202888
 21
11.4360839559
  0
LINE
  5
2CE
100
AcDbEntity
  8
0
100
AcDbLine
 62
7
  6
BYLAYER
 10
18.9466253284
 20
9.0926883738
 11
21.9871718285
 21
10.8481382355
  0
LINE
  5
2CF
100
AcDbEntity
  8
0
100
AcDbLine
 62
7
  6
BYLAYER
 10
22.1709667888
 20
10.7420265662
 11
19.1304202888
 21
8.9865767045
  0
LINE
  5
2D0
100
AcDbEntity
  8
0
100
AcDbLine
 62
7
  6
BYLAYER
 10
23.3022967176
 20
70.4690594129
 11
27.6510215272
 21
67.9583787726
  0
LINE
  5
2D1
100
AcDbEntity
  8
0
100
AcDbLine
 62
7
  6
BYLAYER
 10
40.5203113645
 20
19.94790825
 11
35.4998741203
 21
17.0493747575
  0
LINE
  5
2D2
100
AcDbEntity
  8
0
100
AcDbLine
 62
7
  6
BYLAYER
 10
24.1402543996
 20
65.4964267173
 11
24.2152164201
 21
65.5037920232
  0
LINE
  5
2D3
100
AcDbEntity
  8
0
100
AcDbLine
 62
7
  6
BYLAYER
 10
43.3487267134
 20
18.6414761638
 11
41.8638086552
 21
17.7841634407
  0
LINE
  5
2D4
100
AcDbEntity
  8
0
100
AcDbLine
 62
7
  6
BYLAYER
 10
24.4575587468
 20
7.7347203575
 11
27.4408319377
 21
9.4571036562
  0
LINE
  5
2D5
100
AcDbEntity
  8
0
100
AcDbLine
 62
7
  6
BYLAYER
 10
34.2251456517
 20
13.3740056245
 11
34.4392183645
 21
13.497599825
  0
LINE
  5
2D6
100
AcDbEntity
  8
0
100
AcDbLine
 62
7
  6
BYLAYER
 10
37.899077733
 20
72.8280839875
 11
37.5790064535
 21
73.2119333692
  0
LINE
  5
2D7
100
AcDbEntity
  8
0
100
AcDbLine
 62
7
  6
BYLAYER
 10
31.5403688804
 20
75.1049919839
 11
35.8890936901
 21
72.5943113436
  0
LINE
  5
2D8
100
AcDbEntity
  8
0
100
AcDbLine
 62
7
  6
BYLAYER
 10
36.421820242
 20
73.0221715449
 11
32.0730954324
 21
75.5328521852
  0
LINE
  5
2D9
100
AcDbEntity
  8
0
100
AcDbLine
 62
7
  6
BYLAYER
 10
32.2303460578
 20
75.6236403341
 11
36.5790708674
 21
73.1129596938
  0
LINE
  5
2DA
100
AcDbEntity
  8
0
100
AcDbLine
 62
7
  6
BYLAYER
 10
33.2303290908
 20
75.7226961033
 11
37.5790539004
 21
73.212015463
  0
ARC
  5
2DB
100
AcDbEntity
  8
0
100
AcDbCircle
 62
7
  6
BYLAYER
 10
60.4239779943
 20
12.0311233131
 40
37.5460377572
100
AcDbArc
 50
179.84900027
 51
180.0133670503
  0
ARC
  5
2DC
100
AcDbEntity
  8
0
100
AcDbCircle
 62
7
  6
BYLAYER
 10
60.3754613626
 20
59.3066715368
 40
37.4975211405
100
AcDbArc
 50
179.8488939359
 51
180.0134733843
  0
ARC
  5
2DD
100
AcDbEntity
  8
0
100
AcDbCircle
 62
7
  6
BYLAYER
 10
2.9406494421
 20
59.3174961201
 40
19.9373014926
100
AcDbArc
 50
359.7831020552
 51
359.9435519583
  0
ARC
  5
2DE
100
AcDbEntity
  8
0
100
AcDbCircle
 62
7
  6
BYLAYER
 10
3.8234558724
 20
12.0406997601
 40
19.0544942087
100
AcDbArc
 50
359.7817890339
 51
359.9448649793
  0
ARC
  5
2DF
100
AcDbEntity
  8
0
100
AcDbCircle
 62
7
  6
BYLAYER
 10
8.6777807228
 20
68.0718082335
 40
16.7974102301
100
AcDbArc
 50
325.8941446605
 51
326.9726289203
  0
ARC
  5
2E0
100
AcDbEntity
  8
0
100
AcDbCircle
 62
7
  6
BYLAYER
 10
8.6951704439
 20
55.3228277084
 40
16.7765385553
100
AcDbArc
 50
325.8980154742
 51
326.9784060566
  0
ARC
  5
2E1
100
AcDbEntity
  8
0
100
AcDbCircle
 62
7
  6
BYLAYER
 10
22.270182881
 20
47.3232338645
 40
0.5952038819
100
AcDbArc
 50
40.9630269281
 51
54.7180937142
  0
ARC
  5
2E2
100
AcDbEntity
  8
0
100
AcDbCircle
 62
7
  6
BYLAYER
 10
22.2702363575
 20
60.0607324926
 40
0.5951236211
100
AcDbArc
 50
41.0746405603
 51
54.6870647702
  0
ARC
  5
2E3
100
AcDbEntity
  8
0
100
AcDbCircle
 62
7
  6
BYLAYER
 10
22.2702363575
 20
12.7852425408
 40
0.595123621
100
AcDbArc
 50
41.0746405659
 51
54.6870647693
  0
ARC
  5
2E4
100
AcDbEntity
  8
0
100
AcDbCircle
 62
7
  6
BYLAYER
 10
22.4970764632
 20
60.2097463933
 40
0.35284286
100
AcDbArc
 50
71.0347859581
 51
77.1457174655
  0
ARC
  5
2E5
100
AcDbEntity
  8
0
100
AcDbCircle
 62
7
  6
BYLAYER
 10
22.4970764632
 20
12.9342564415
 40
0.35284286
100
AcDbArc
 50
71.0347859566
 51
77.1457174655
  0
ARC
  5
2E6
100
AcDbEntity
  8
0
100
AcDbCircle
 62
7
  6
BYLAYER
 10
22.4970844618
 20
47.4723492854
 40
0.3528017313
100
AcDbArc
 50
71.0870900744
 51
77.1278446552
  0
ARC
  5
2E7
100
AcDbEntity
  8
0
100
AcDbCircle
 62
7
  6
BYLAYER
 10
22.5014010106
 20
47.4850605907
 40
0.339377556
100
AcDbArc
 50
60.0313579349
 51
71.0809086288
  0
ARC
  5
2E8
100
AcDbEntity
  8
0
100
AcDbCircle
 62
7
  6
BYLAYER
 10
22.5014210043
 20
60.2225126308
 40
0.3393576766
100
AcDbArc
 50
60.0330716606
 51
71.0279905009
  0
ARC
  5
2E9
100
AcDbEntity
  8
0
100
AcDbCircle
 62
7
  6
BYLAYER
 10
22.5014210043
 20
12.947022679
 40
0.3393576766
100
AcDbArc
 50
60.0330716606
 51
71.0279904993
  0
SPLINE
  5
2EA
100
AcDbEntity
  8
0
100
AcDbSpline
 62
7
  6
BYLAYER
 70
0
 71
3
 72
14
 73
10
 74
0
 42
0.0000001
 43
0.0000001
 44
0.0000000001
 40
0.0
 40
0.0
 40
0.0
 40
0.0
 40
0.108046144
 40
0.2181359093
 40
0.3321085861
 40
0.4514831362
 40
0.5774302378
 40
0.7107534897
 40
1.0
 40
1.0
 40
1.0
 40
1.0
 10
15.629819236
 20
48.6896904455
 30
0.0
 10
15.677364216
 20
48.7171403904
 30
0.0
 10
15.7783026955
 20
48.7644412848
 30
0.0
 10
15.9416575827
 20
48.8095564587
 30
0.0
 10
16.115765329
 20
48.8290058811
 30
0.0
 10
16.2987976398
 20
48.8226544137
 30
0.0
 10
16.4890502278
 20
48.7907507302
 30
0.0
 10
16.7570669343
 20
48.7125685288
 30
0.0
 10
16.9525205696
 20
48.619572853
 30
0.0
 10
17.0798020859
 20
48.5460884977
 30
0.0
  0
SPLINE
  5
2EB
100
AcDbEntity
  8
0
100
AcDbSpline
 62
7
  6
BYLAYER
 70
0
 71
3
 72
15
 73
11
 74
0
 42
0.0000001
 43
0.0000001
 44
0.0000000001
 40
0.0
 40
0.0
 40
0.0
 40
0.0
 40
0.1368492043
 40
0.2826959786
 40
0.4299097819
 40
0.5716103407
 40
0.7015819707
 40
0.8155735727
 40
0.9133883281
 40
1.0
 40
1.0
 40
1.0
 40
1.0
 10
19.9310729963
 20
61.7009424143
 30
0.0
 10
19.9409714499
 20
61.7087178946
 30
0.0
 10
19.959759211
 20
61.7269397235
 30
0.0
 10
19.9833855645
 20
61.7588323938
 30
0.0
 10
20.0019987924
 20
61.7944149879
 30
0.0
 10
20.0142795285
 20
61.8311184125
 30
0.0
 10
20.019472155
 20
61.8664350853
 30
0.0
 10
20.0170579358
 20
61.8981229715
 30
0.0
 10
20.0067601819
 20
61.9241614124
 30
0.0
 10
19.9941530723
 20
61.9365304123
 30
0.0
 10
19.987254001
 20
61.9405137069
 30
0.0
  0
SPLINE
  5
2EC
100
AcDbEntity
  8
0
100
AcDbSpline
 62
7
  6
BYLAYER
 70
0
 71
3
 72
9
 73
5
 74
0
 42
0.0000001
 43
0.0000001
 44
0.0000000001
 40
0.0
 40
0.0
 40
0.0
 40
0.0
 40
0.2368460488
 40
1.0
 40
1.0
 40
1.0
 40
1.0
 10
24.2152164201
 20
65.5037920232
 30
0.0
 10
24.2183317709
 20
65.5055906611
 30
0.0
 10
24.2311941231
 20
65.5136866781
 30
0.0
 10
24.2428839545
 20
65.5235759116
 30
0.0
 10
24.2511103496
 20
65.5317415827
 30
0.0
  0
SPLINE
  5
2ED
100
AcDbEntity
  8
0
100
AcDbSpline
 62
7
  6
BYLAYER
 70
0
 71
3
 72
10
 73
6
 74
0
 42
0.0000001
 43
0.0000001
 44
0.0000000001
 40
0.0
 40
0.0
 40
0.0
 40
0.0
 40
0.5249497705
 40
0.7686069679
 40
1.0
 40
1.0
 40
1.0
 40
1.0
 10
44.0558305506
 20
57.5886344062
 30
0.0
 10
44.0558305506
 20
57.681086654
 30
0.0
 10
44.0460147667
 20
57.8169823214
 30
0.0
 10
44.008305392
 20
57.9892499061
 30
0.0
 10
43.9818185939
 20
58.0688219118
 30
0.0
 10
43.9668267802
 20
58.1067162285
 30
0.0
  0
SPLINE
  5
2EE
100
AcDbEntity
  8
0
100
AcDbSpline
 62
7
  6
BYLAYER
 70
0
 71
3
 72
11
 73
7
 74
0
 42
0.0000001
 43
0.0000001
 44
0.0000000001
 40
0.0
 40
0.0
 40
0.0
 40
0.0
 40
0.2601961706
 40
0.5216200879
 40
0.7717973881
 40
1.0
 40
1.0
 40
1.0
 40
1.0
 10
43.3044849777
 20
55.4419553086
 30
0.0
 10
43.4192431851
 20
55.5785236256
 30
0.0
 10
43.6267581552
 20
55.8719257442
 30
0.0
 10
43.8635691924
 20
56.3473947206
 30
0.0
 10
44.0157348427
 20
56.833472023
 30
0.0
 10
44.0558305506
 20
57.1618063499
 30
0.0
 10
44.0558305506
 20
57.3182551353
 30
0.0
  0
SPLINE
  5
2EF
100
AcDbEntity
  8
0
100
AcDbSpline
 62
7
  6
BYLAYER
 70
0
 71
3
 72
9
 73
5
 74
0
 42
0.0000001
 43
0.0000001
 44
0.0000000001
 40
0.0
 40
0.0
 40
0.0
 40
0.0
 40
0.4869145385
 40
1.0
 40
1.0
 40
1.0
 40
1.0
 10
41.156704818
 20
53.3836758822
 30
0.0
 10
41.5433374172
 20
53.6741627354
 30
0.0
 10
42.2988088103
 20
54.3230995151
 30
0.0
 10
42.9766516811
 20
55.0518164019
 30
0.0
 10
43.3044849777
 20
55.4419553086
 30
0.0
  0
SPLINE
  5
2F0
100
AcDbEntity
  8
0
100
AcDbSpline
 62
7
  6
BYLAYER
 70
0
 71
3
 72
13
 73
9
 74
0
 42
0.0000001
 43
0.0000001
 44
0.0000000001
 40
0.0
 40
0.0
 40
0.0
 40
0.0
 40
0.114175582
 40
0.23756922
 40
0.49999856
 40
0.7624286893
 40
0.8858231943
 40
1.0
 40
1.0
 40
1.0
 40
1.0
 10
39.4596556087
 20
26.5629051732
 30
0.0
 10
39.4838417202
 20
26.5768689478
 30
0.0
 10
39.5316404816
 20
26.6104091684
 30
0.0
 10
39.6211866813
 20
26.6941400371
 30
0.0
 10
39.7156856834
 20
26.8233336205
 30
0.0
 10
39.7803203637
 20
26.9697694688
 30
0.0
 10
39.8080601942
 20
27.0891849329
 30
0.0
 10
39.8132075273
 20
27.1473504851
 30
0.0
 10
39.8132075273
 20
27.1752784587
 30
0.0
  0
SPLINE
  5
2F1
100
AcDbEntity
  8
0
100
AcDbSpline
 62
7
  6
BYLAYER
 70
0
 71
3
 72
9
 73
5
 74
0
 42
0.0000001
 43
0.0000001
 44
0.0000000001
 40
0.0
 40
0.0
 40
0.0
 40
0.0
 40
0.2366979575
 40
1.0
 40
1.0
 40
1.0
 40
1.0
 10
39.3681496387
 20
26.5239853147
 30
0.0
 10
39.3757405128
 20
26.5260192306
 30
0.0
 10
39.407477679
 20
26.5358474467
 30
0.0
 10
39.4377083416
 20
26.5502339882
 30
0.0
 10
39.4596556087
 20
26.5629051732
 30
0.0
  0
SPLINE
  5
2F2
100
AcDbEntity
  8
0
100
AcDbSpline
 62
7
  6
BYLAYER
 70
0
 71
3
 72
9
 73
5
 74
0
 42
0.0000001
 43
0.0000001
 44
0.0000000001
 40
0.0
 40
0.0
 40
0.0
 40
0.0
 40
0.2638121517
 40
1.0
 40
1.0
 40
1.0
 40
1.0
 10
35.4998741203
 20
25.4731093393
 30
0.0
 10
35.507458649
 20
25.4774882429
 30
0.0
 10
35.536654136
 20
25.4932774164
 30
0.0
 10
35.5677733676
 20
25.5057039594
 30
0.0
 10
35.5913800902
 20
25.5120291977
 30
0.0
  0
SPLINE
  5
2F3
100
AcDbEntity
  8
0
100
AcDbSpline
 62
7
  6
BYLAYER
 70
0
 71
3
 72
13
 73
9
 74
0
 42
0.0000001
 43
0.0000001
 44
0.0000000001
 40
0.0
 40
0.0
 40
0.0
 40
0.0
 40
0.114176888
 40
0.2375715548
 40
0.5000017735
 40
0.762431024
 40
0.8858245003
 40
1.0
 40
1.0
 40
1.0
 40
1.0
 10
35.1463222017
 20
24.8607360538
 30
0.0
 10
35.1463222017
 20
24.8886640475
 30
0.0
 10
35.1514695672
 20
24.9468296571
 30
0.0
 10
35.1792094007
 20
25.066245203
 30
0.0
 10
35.2438441501
 20
25.2126810729
 30
0.0
 10
35.338343168
 20
25.3418745857
 30
0.0
 10
35.4278892984
 20
25.4256054109
 30
0.0
 10
35.4756880263
 20
25.4591455748
 30
0.0
 10
35.4998741203
 20
25.4731093393
 30
0.0
  0
SPLINE
  5
2F4
100
AcDbEntity
  8
0
100
AcDbSpline
 62
7
  6
BYLAYER
 70
0
 71
3
 72
12
 73
8
 74
0
 42
0.0000001
 43
0.0000001
 44
0.0000000001
 40
0.0
 40
0.0
 40
0.0
 40
0.0
 40
0.2894842321
 40
0.5486822497
 40
0.7816118182
 40
0.891797738
 40
1.0
 40
1.0
 40
1.0
 40
1.0
 10
44.0558305506
 20
26.7799603094
 30
0.0
 10
44.0558305506
 20
26.8610296763
 30
0.0
 10
44.0435041841
 20
27.0152312716
 30
0.0
 10
43.9812021022
 20
27.2269684071
 30
0.0
 10
43.8915917363
 20
27.3730679318
 30
0.0
 10
43.8011243015
 20
27.462046317
 30
0.0
 10
43.7506949405
 20
27.4972706975
 30
0.0
 10
43.7244491079
 20
27.5124151495
 30
0.0
  0
SPLINE
  5
2F5
100
AcDbEntity
  8
0
100
AcDbSpline
 62
7
  6
BYLAYER
 70
0
 71
3
 72
13
 73
9
 74
0
 42
0.0000001
 43
0.0000001
 44
0.0000000001
 40
0.0
 40
0.0
 40
0.0
 40
0.0
 40
0.114175582
 40
0.23756922
 40
0.49999856
 40
0.7624286893
 40
0.8858231943
 40
1.0
 40
1.0
 40
1.0
 40
1.0
 10
43.3487267134
 20
18.6414761638
 30
0.0
 10
43.3970989363
 20
18.669403713
 30
0.0
 10
43.4926964591
 20
18.7364841543
 30
0.0
 10
43.6717888585
 20
18.9039458917
 30
0.0
 10
43.8607868627
 20
19.1623330585
 30
0.0
 10
43.9900562234
 20
19.4552047551
 30
0.0
 10
44.0455358843
 20
19.6940356833
 30
0.0
 10
44.0558305506
 20
19.8103667877
 30
0.0
 10
44.0558305506
 20
19.8662227348
 30
0.0
  0
SPLINE
  5
2F6
100
AcDbEntity
  8
0
100
AcDbSpline
 62
7
  6
BYLAYER
 70
0
 71
3
 72
11
 73
7
 74
0
 42
0.0000001
 43
0.0000001
 44
0.0000000001
 40
0.0
 40
0.0
 40
0.0
 40
0.0
 40
0.2895396729
 40
0.5491163863
 40
0.7822545095
 40
1.0
 40
1.0
 40
1.0
 40
1.0
 10
40.5203113645
 20
19.94790825
 30
0.0
 10
40.5641639997
 20
19.9732264296
 30
0.0
 10
40.6514738074
 20
20.0147067173
 30
0.0
 10
40.7856162154
 20
20.0471765451
 30
0.0
 10
40.9115460996
 20
20.0440142023
 30
0.0
 10
40.9872958279
 20
20.0164277436
 30
0.0
 10
41.0202749046
 20
19.9973876778
 30
0.0
  0
SPLINE
  5
2F7
100
AcDbEntity
  8
0
100
AcDbSpline
 62
7
  6
BYLAYER
 70
0
 71
3
 72
13
 73
9
 74
0
 42
0.0000001
 43
0.0000001
 44
0.0000000001
 40
0.0
 40
0.0
 40
0.0
 40
0.0
 40
0.114176888
 40
0.2375715548
 40
0.5000017735
 40
0.762431024
 40
0.8858245003
 40
1.0
 40
1.0
 40
1.0
 40
1.0
 10
35.1463222017
 20
16.437001472
 30
0.0
 10
35.1463222017
 20
16.4649294657
 30
0.0
 10
35.1514695672
 20
16.5230950753
 30
0.0
 10
35.1792094007
 20
16.6425106212
 30
0.0
 10
35.2438441501
 20
16.7889464911
 30
0.0
 10
35.338343168
 20
16.9181400039
 30
0.0
 10
35.4278892984
 20
17.0018708291
 30
0.0
 10
35.4756880263
 20
17.035410993
 30
0.0
 10
35.4998741203
 20
17.0493747575
 30
0.0
  0
SPLINE
  5
2F8
100
AcDbEntity
  8
0
100
AcDbSpline
 62
7
  6
BYLAYER
 70
0
 71
3
 72
13
 73
9
 74
0
 42
0.0000001
 43
0.0000001
 44
0.0000000001
 40
0.0
 40
0.0
 40
0.0
 40
0.0
 40
0.114175582
 40
0.23756922
 40
0.49999856
 40
0.7624286893
 40
0.8858231943
 40
1.0
 40
1.0
 40
1.0
 40
1.0
 10
34.4392183645
 20
13.497599825
 30
0.0
 10
34.4875905874
 20
13.5255273743
 30
0.0
 10
34.5831881102
 20
13.5926078155
 30
0.0
 10
34.7622805096
 20
13.760069553
 30
0.0
 10
34.9512785138
 20
14.0184567197
 30
0.0
 10
35.0805478745
 20
14.3113284164
 30
0.0
 10
35.1360275354
 20
14.5501593445
 30
0.0
 10
35.1463222017
 20
14.6664904489
 30
0.0
 10
35.1463222017
 20
14.722346396
 30
0.0
  0
SPLINE
  5
2F9
100
AcDbEntity
  8
0
100
AcDbSpline
 62
7
  6
BYLAYER
 70
0
 71
3
 72
9
 73
5
 74
0
 42
0.0000001
 43
0.0000001
 44
0.0000000001
 40
0.0
 40
0.0
 40
0.0
 40
0.0
 40
0.235432843
 40
1.0
 40
1.0
 40
1.0
 40
1.0
 10
33.8260683744
 20
13.2099680146
 30
0.0
 10
33.8590788263
 20
13.2178143466
 30
0.0
 10
33.9978389931
 20
13.2572239901
 30
0.0
 10
34.1297198959
 20
13.3189118675
 30
0.0
 10
34.2251456517
 20
13.3740056245
 30
0.0
  0
SPLINE
  5
2FA
100
AcDbEntity
  8
0
100
AcDbSpline
 62
7
  6
BYLAYER
 70
0
 71
3
 72
9
 73
5
 74
0
 42
0.0000001
 43
0.0000001
 44
0.0000000001
 40
0.0
 40
0.0
 40
0.0
 40
0.0
 40
0.5199014274
 40
1.0
 40
1.0
 40
1.0
 40
1.0
 10
30.8329887947
 20
11.979685941
 30
0.0
 10
31.3199342476
 20
12.2608223511
 30
0.0
 10
32.2898229135
 20
12.7468460513
 30
0.0
 10
33.3209139382
 20
13.0898966688
 30
0.0
 10
33.8260683744
 20
13.2099680146
 30
0.0
  0
SPLINE
  5
2FB
100
AcDbEntity
  8
0
100
AcDbSpline
 62
7
  6
BYLAYER
 70
0
 71
3
 72
9
 73
5
 74
0
 42
0.0000001
 43
0.0000001
 44
0.0000000001
 40
0.0
 40
0.0
 40
0.0
 40
0.0
 40
0.51501389
 40
1.0
 40
1.0
 40
1.0
 40
1.0
 10
27.839909215
 20
9.7538780426
 30
0.0
 10
28.3125505011
 20
10.1872907137
 30
0.0
 10
29.2707209966
 20
10.9861176632
 30
0.0
 10
30.3100060321
 20
11.6777435046
 30
0.0
 10
30.8329887947
 20
11.979685941
 30
0.0
  0
SPLINE
  5
2FC
100
AcDbEntity
  8
0
100
AcDbSpline
 62
7
  6
BYLAYER
 70
0
 71
3
 72
9
 73
5
 74
0
 42
0.0000001
 43
0.0000001
 44
0.0000000001
 40
0.0
 40
0.0
 40
0.0
 40
0.0
 40
0.2386599626
 40
1.0
 40
1.0
 40
1.0
 40
1.0
 10
27.4408319377
 20
9.4571036562
 30
0.0
 10
27.475134847
 20
9.4769083318
 30
0.0
 10
27.6162393877
 20
9.5644188726
 30
0.0
 10
27.7467802676
 20
9.6684786773
 30
0.0
 10
27.839909215
 20
9.7538780426
 30
0.0
  0
SPLINE
  5
2FD
100
AcDbEntity
  8
0
100
AcDbSpline
 62
7
  6
BYLAYER
 70
0
 71
3
 72
9
 73
5
 74
0
 42
0.0000001
 43
0.0000001
 44
0.0000000001
 40
0.0
 40
0.0
 40
0.0
 40
0.0
 40
0.5324907192
 40
1.0
 40
1.0
 40
1.0
 40
1.0
 10
20.285484246
 20
7.8649717256
 30
0.0
 10
20.3137314331
 20
7.8900199583
 30
0.0
 10
20.3708808712
 20
7.9327379643
 30
0.0
 10
20.4364793403
 20
7.9620544221
 30
0.0
 10
20.4684961859
 20
7.9706330877
 30
0.0
  0
SPLINE
  5
2FE
100
AcDbEntity
  8
0
100
AcDbSpline
 62
7
  6
BYLAYER
 70
0
 71
3
 72
11
 73
7
 74
0
 42
0.0000001
 43
0.0000001
 44
0.0000000001
 40
0.0
 40
0.0
 40
0.0
 40
0.0
 40
0.2441854351
 40
0.5000011029
 40
0.7558161972
 40
1.0
 40
1.0
 40
1.0
 40
1.0
 10
20.0354852868
 20
7.4319584228
 30
0.0
 10
20.0437673333
 20
7.4724310998
 30
0.0
 10
20.0684934802
 20
7.5538144953
 30
0.0
 10
20.124176986
 20
7.6694278121
 30
0.0
 10
20.1964586195
 20
7.7754579336
 30
0.0
 10
20.2545751601
 20
7.8375630505
 30
0.0
 10
20.285484246
 20
7.8649717256
 30
0.0
  0
SPLINE
  5
2FF
100
AcDbEntity
  8
0
100
AcDbSpline
 62
7
  6
BYLAYER
 70
0
 71
3
 72
13
 73
9
 74
0
 42
0.0000001
 43
0.0000001
 44
0.0000000001
 40
0.0
 40
0.0
 40
0.0
 40
0.0
 40
0.3062810368
 40
0.5829109595
 40
0.7037222269
 40
0.8118913526
 40
0.9091710052
 40
1.0
 40
1.0
 40
1.0
 40
1.0
 10
19.987254001
 20
6.7470173483
 30
0.0
 10
19.9968830331
 20
6.7636954137
 30
0.0
 10
20.0117842552
 20
6.797532299
 30
0.0
 10
20.0196999398
 20
6.8417469461
 30
0.0
 10
20.0171554137
 20
6.8736141119
 30
0.0
 10
20.0112839184
 20
6.893462597
 30
0.0
 10
20.0014624422
 20
6.9095920764
 30
0.0
 10
19.9921965045
 20
6.9173647309
 30
0.0
 10
19.9872518629
 20
6.9202225348
 30
0.0
  0
SPLINE
  5
300
100
AcDbEntity
  8
0
100
AcDbSpline
 62
7
  6
BYLAYER
 70
0
 71
3
 72
9
 73
5
 74
0
 42
0.0000001
 43
0.0000001
 44
0.0000000001
 40
0.0
 40
0.0
 40
0.0
 40
0.0
 40
0.2404767668
 40
1.0
 40
1.0
 40
1.0
 40
1.0
 10
19.7998380838
 20
6.4842823132
 30
0.0
 10
19.8120052655
 20
6.4950715786
 30
0.0
 10
19.8605092437
 20
6.5422691532
 30
0.0
 10
19.9009517822
 20
6.5975366907
 30
0.0
 10
19.9266324752
 20
6.6420172026
 30
0.0
  0
SPLINE
  5
301
100
AcDbEntity
  8
0
100
AcDbSpline
 62
7
  6
BYLAYER
 70
0
 71
3
 72
9
 73
5
 74
0
 42
0.0000001
 43
0.0000001
 44
0.0000000001
 40
0.0
 40
0.0
 40
0.0
 40
0.0
 40
0.4675092808
 40
1.0
 40
1.0
 40
1.0
 40
1.0
 10
19.6534285319
 20
6.3997532236
 30
0.0
 10
19.6790420084
 20
6.406616156
 30
0.0
 10
19.7315207836
 20
6.4300693223
 30
0.0
 10
19.7772403341
 20
6.464243727
 30
0.0
 10
19.7998380838
 20
6.4842823132
 30
0.0
  0
SPLINE
  5
302
100
AcDbEntity
  8
0
100
AcDbSpline
 62
7
  6
BYLAYER
 70
0
 71
3
 72
11
 73
7
 74
0
 42
0.0000001
 43
0.0000001
 44
0.0000000001
 40
0.0
 40
0.0
 40
0.0
 40
0.0
 40
0.2372423294
 40
0.4999983821
 40
0.7627553152
 40
1.0
 40
1.0
 40
1.0
 40
1.0
 10
20.4986662138
 20
34.741090546
 30
0.0
 10
20.5157324924
 20
34.7509437077
 30
0.0
 10
20.5480266175
 20
34.7781259328
 30
0.0
 10
20.5857190988
 20
34.829634639
 30
0.0
 10
20.6114804806
 20
34.888031953
 30
0.0
 10
20.6188738662
 20
34.9295908557
 30
0.0
 10
20.6188738662
 20
34.9492974631
 30
0.0
  0
SPLINE
  5
303
100
AcDbEntity
  8
0
100
AcDbSpline
 62
7
  6
BYLAYER
 70
0
 71
3
 72
9
 73
5
 74
0
 42
0.0000001
 43
0.0000001
 44
0.0000000001
 40
0.0
 40
0.0
 40
0.0
 40
0.0
 40
0.2290783529
 40
1.0
 40
1.0
 40
1.0
 40
1.0
 10
20.4503042017
 20
34.7248981082
 30
0.0
 10
20.4542087236
 20
34.7251710425
 30
0.0
 10
20.4711687377
 20
34.7276112119
 30
0.0
 10
20.4872588895
 20
34.7345045635
 30
0.0
 10
20.4986662138
 20
34.741090546
 30
0.0
  0
SPLINE
  5
304
100
AcDbEntity
  8
0
100
AcDbSpline
 62
7
  6
BYLAYER
 70
0
 71
3
 72
14
 73
10
 74
0
 42
0.0000001
 43
0.0000001
 44
0.0000000001
 40
0.0
 40
0.0
 40
0.0
 40
0.0
 40
0.1109440422
 40
0.2288627424
 40
0.3524178476
 40
0.480244307
 40
0.7417866849
 40
0.8722831492
 40
1.0
 40
1.0
 40
1.0
 40
1.0
 10
17.0798020859
 20
61.2835262049
 30
0.0
 10
17.1808608868
 20
61.225181199
 30
0.0
 10
17.3817666671
 20
61.0914171906
 30
0.0
 10
17.6669855626
 20
60.8537589406
 30
0.0
 10
17.9403465893
 20
60.5769493501
 30
0.0
 10
18.2839590416
 20
60.1603675844
 30
0.0
 10
18.5775600036
 20
59.6954728762
 30
0.0
 10
18.8107901103
 20
59.2005726821
 30
0.0
 10
18.9055974215
 20
58.9456006977
 30
0.0
 10
18.9466253284
 20
58.817685577
 30
0.0
  0
SPLINE
  5
305
100
AcDbEntity
  8
0
100
AcDbSpline
 62
7
  6
BYLAYER
 70
0
 71
3
 72
14
 73
10
 74
0
 42
0.0000001
 43
0.0000001
 44
0.0000000001
 40
0.0
 40
0.0
 40
0.0
 40
0.0
 40
0.1109440422
 40
0.2288627424
 40
0.3524178476
 40
0.480244307
 40
0.7417866849
 40
0.8722831492
 40
1.0
 40
1.0
 40
1.0
 40
1.0
 10
17.0798020859
 20
48.5460884977
 30
0.0
 10
17.1808608868
 20
48.4877434918
 30
0.0
 10
17.3817666671
 20
48.3539794834
 30
0.0
 10
17.6669855626
 20
48.1163212334
 30
0.0
 10
17.9403465893
 20
47.8395116429
 30
0.0
 10
18.2839590416
 20
47.4229298771
 30
0.0
 10
18.5775600036
 20
46.958035169
 30
0.0
 10
18.8107901103
 20
46.4631349749
 30
0.0
 10
18.9055974215
 20
46.2081629904
 30
0.0
 10
18.9466253284
 20
46.0802478698
 30
0.0
  0
SPLINE
  5
306
100
AcDbEntity
  8
0
100
AcDbSpline
 62
7
  6
BYLAYER
 70
0
 71
3
 72
11
 73
7
 74
0
 42
0.0000001
 43
0.0000001
 44
0.0000000001
 40
0.0
 40
0.0
 40
0.0
 40
0.0
 40
0.2309837786
 40
0.486057365
 40
0.7485170102
 40
1.0
 40
1.0
 40
1.0
 40
1.0
 10
14.7816954792
 20
63.6359518623
 30
0.0
 10
14.7816954792
 20
63.6837190664
 30
0.0
 10
14.7965944766
 20
63.7843397381
 30
0.0
 10
14.8509489935
 20
63.9301999345
 30
0.0
 10
14.9333774024
 20
64.0672030488
 30
0.0
 10
15.0048300734
 20
64.1470789462
 30
0.0
 10
15.0437414278
 20
64.1815836442
 30
0.0
  0
SPLINE
  5
307
100
AcDbEntity
  8
0
100
AcDbSpline
 62
7
  6
BYLAYER
 70
0
 71
3
 72
9
 73
5
 74
0
 42
0.0000001
 43
0.0000001
 44
0.0000000001
 40
0.0
 40
0.0
 40
0.0
 40
0.0
 40
0.4850753627
 40
1.0
 40
1.0
 40
1.0
 40
1.0
 10
22.7196408425
 20
47.7134327905
 30
0.0
 10
22.7649335507
 20
47.6612489726
 30
0.0
 10
22.8394091093
 20
47.5364616674
 30
0.0
 10
22.8712083623
 20
47.3946992372
 30
0.0
 10
22.8752291767
 20
47.3214591968
 30
0.0
  0
SPLINE
  5
308
100
AcDbEntity
  8
0
100
AcDbSpline
 62
7
  6
BYLAYER
 70
0
 71
3
 72
11
 73
7
 74
0
 42
0.0000001
 43
0.0000001
 44
0.0000000001
 40
0.0
 40
0.0
 40
0.0
 40
0.0
 40
0.2202862492
 40
0.4581798704
 40
0.7179578086
 40
1.0
 40
1.0
 40
1.0
 40
1.0
 10
22.5756803524
 20
47.8162849591
 30
0.0
 10
22.5454099564
 20
47.823213758
 30
0.0
 10
22.4804099712
 20
47.8294752078
 30
0.0
 10
22.379332546
 20
47.8169599808
 30
0.0
 10
22.274099505
 20
47.7834993552
 30
0.0
 10
22.2053990236
 20
47.7494654035
 30
0.0
 10
22.1709667888
 20
47.7295860621
 30
0.0
  0
SPLINE
  5
309
100
AcDbEntity
  8
0
100
AcDbSpline
 62
7
  6
BYLAYER
 70
0
 71
3
 72
9
 73
5
 74
0
 42
0.0000001
 43
0.0000001
 44
0.0000000001
 40
0.0
 40
0.0
 40
0.0
 40
0.0
 40
0.4850389631
 40
1.0
 40
1.0
 40
1.0
 40
1.0
 10
22.7188728443
 20
60.4517534985
 30
0.0
 10
22.7643018633
 20
60.3996165546
 30
0.0
 10
22.8390535821
 20
60.2748418984
 30
0.0
 10
22.8710914116
 20
60.1330037933
 30
0.0
 10
22.8752225881
 20
60.0597016821
 30
0.0
  0
SPLINE
  5
30A
100
AcDbEntity
  8
0
100
AcDbSpline
 62
7
  6
BYLAYER
 70
0
 71
3
 72
11
 73
7
 74
0
 42
0.0000001
 43
0.0000001
 44
0.0000000001
 40
0.0
 40
0.0
 40
0.0
 40
0.0
 40
0.2202925261
 40
0.4581884932
 40
0.7179644797
 40
1.0
 40
1.0
 40
1.0
 40
1.0
 10
22.5755742129
 20
60.5537466653
 30
0.0
 10
22.5453085828
 20
60.5606646316
 30
0.0
 10
22.4803231693
 20
60.5669087035
 30
0.0
 10
22.3792729621
 20
60.5543825773
 30
0.0
 10
22.2740703446
 20
60.5209235799
 30
0.0
 10
22.2053893988
 20
60.4868975538
 30
0.0
 10
22.1709667888
 20
60.4670237694
 30
0.0
  0
SPLINE
  5
30B
100
AcDbEntity
  8
0
100
AcDbSpline
 62
7
  6
BYLAYER
 70
0
 71
3
 72
9
 73
5
 74
0
 42
0.0000001
 43
0.0000001
 44
0.0000000001
 40
0.0
 40
0.0
 40
0.0
 40
0.0
 40
0.2644203965
 40
1.0
 40
1.0
 40
1.0
 40
1.0
 10
16.101579392
 20
32.7621821426
 30
0.0
 10
16.1053230262
 20
32.7662432053
 30
0.0
 10
16.1199663536
 20
32.7811306716
 30
0.0
 10
16.1366348394
 20
32.79415051
 30
0.0
 10
16.1499414042
 20
32.8018330129
 30
0.0
  0
SPLINE
  5
30C
100
AcDbEntity
  8
0
100
AcDbSpline
 62
7
  6
BYLAYER
 70
0
 71
3
 72
11
 73
7
 74
0
 42
0.0000001
 43
0.0000001
 44
0.0000000001
 40
0.0
 40
0.0
 40
0.0
 40
0.0
 40
0.2288337186
 40
0.4804303557
 40
0.7422653267
 40
1.0
 40
1.0
 40
1.0
 40
1.0
 10
14.7816954792
 20
30.7973332297
 30
0.0
 10
14.7816954792
 20
30.8811743826
 30
0.0
 10
14.8047138217
 20
31.0573940845
 30
0.0
 10
14.8909314808
 20
31.3166587087
 30
0.0
 10
15.0240729809
 20
31.5672579497
 30
0.0
 10
15.1403134194
 20
31.7194089627
 30
0.0
 10
15.2043168917
 20
31.788839387
 30
0.0
  0
SPLINE
  5
30D
100
AcDbEntity
  8
0
100
AcDbSpline
 62
7
  6
BYLAYER
 70
0
 71
3
 72
14
 73
10
 74
0
 42
0.0000001
 43
0.0000001
 44
0.0000000001
 40
0.0
 40
0.0
 40
0.0
 40
0.0
 40
0.108046144
 40
0.2181359093
 40
0.3321085861
 40
0.4514831362
 40
0.5774302378
 40
0.7107534897
 40
1.0
 40
1.0
 40
1.0
 40
1.0
 10
15.629819236
 20
61.4271281528
 30
0.0
 10
15.677364216
 20
61.4545780976
 30
0.0
 10
15.7783026955
 20
61.501878992
 30
0.0
 10
15.9416575827
 20
61.546994166
 30
0.0
 10
16.115765329
 20
61.5664435883
 30
0.0
 10
16.2987976398
 20
61.5600921209
 30
0.0
 10
16.4890502278
 20
61.5281884374
 30
0.0
 10
16.7570669343
 20
61.450006236
 30
0.0
 10
16.9525205696
 20
61.3570105602
 30
0.0
 10
17.0798020859
 20
61.2835262049
 30
0.0
  0
SPLINE
  5
30E
100
AcDbEntity
  8
0
100
AcDbSpline
 62
7
  6
BYLAYER
 70
0
 71
3
 72
11
 73
7
 74
0
 42
0.0000001
 43
0.0000001
 44
0.0000000001
 40
0.0
 40
0.0
 40
0.0
 40
0.0
 40
0.2289868868
 40
0.4808752395
 40
0.7427799866
 40
1.0
 40
1.0
 40
1.0
 40
1.0
 10
14.7816954792
 20
21.9893134049
 30
0.0
 10
14.7816954792
 20
22.0317755758
 30
0.0
 10
14.7935014628
 20
22.1210463733
 30
0.0
 10
14.8376144115
 20
22.2522195538
 30
0.0
 10
14.9056262651
 20
22.3787008802
 30
0.0
 10
14.9649649833
 20
22.4552363884
 30
0.0
 10
14.9976082226
 20
22.4900139385
 30
0.0
  0
SPLINE
  5
30F
100
AcDbEntity
  8
0
100
AcDbSpline
 62
7
  6
BYLAYER
 70
0
 71
3
 72
14
 73
10
 74
0
 42
0.0000001
 43
0.0000001
 44
0.0000000001
 40
0.0
 40
0.0
 40
0.0
 40
0.0
 40
0.108046144
 40
0.2181359093
 40
0.3321085861
 40
0.4514831362
 40
0.5774302378
 40
0.7107534897
 40
1.0
 40
1.0
 40
1.0
 40
1.0
 10
15.629819236
 20
14.1516382009
 30
0.0
 10
15.677364216
 20
14.1790881458
 30
0.0
 10
15.7783026955
 20
14.2263890402
 30
0.0
 10
15.9416575827
 20
14.2715042142
 30
0.0
 10
16.115765329
 20
14.2909536365
 30
0.0
 10
16.2987976398
 20
14.2846021691
 30
0.0
 10
16.4890502278
 20
14.2526984856
 30
0.0
 10
16.7570669343
 20
14.1745162842
 30
0.0
 10
16.9525205696
 20
14.0815206084
 30
0.0
 10
17.0798020859
 20
14.0080362531
 30
0.0
  0
SPLINE
  5
310
100
AcDbEntity
  8
0
100
AcDbSpline
 62
7
  6
BYLAYER
 70
0
 71
3
 72
9
 73
5
 74
0
 42
0.0000001
 43
0.0000001
 44
0.0000000001
 40
0.0
 40
0.0
 40
0.0
 40
0.0
 40
0.4850389631
 40
1.0
 40
1.0
 40
1.0
 40
1.0
 10
22.7188728442
 20
13.1762635468
 30
0.0
 10
22.7643018633
 20
13.1241266028
 30
0.0
 10
22.8390535821
 20
12.9993519466
 30
0.0
 10
22.8710914116
 20
12.8575138415
 30
0.0
 10
22.8752225881
 20
12.7842117303
 30
0.0
  0
SPLINE
  5
311
100
AcDbEntity
  8
0
100
AcDbSpline
 62
7
  6
BYLAYER
 70
0
 71
3
 72
11
 73
7
 74
0
 42
0.0000001
 43
0.0000001
 44
0.0000000001
 40
0.0
 40
0.0
 40
0.0
 40
0.0
 40
0.2202925261
 40
0.4581884932
 40
0.7179644797
 40
1.0
 40
1.0
 40
1.0
 40
1.0
 10
22.5755742129
 20
13.2782567135
 30
0.0
 10
22.5453085828
 20
13.2851746798
 30
0.0
 10
22.4803231693
 20
13.2914187517
 30
0.0
 10
22.3792729621
 20
13.2788926255
 30
0.0
 10
22.2740703446
 20
13.2454336281
 30
0.0
 10
22.2053893988
 20
13.211407602
 30
0.0
 10
22.1709667888
 20
13.1915338176
 30
0.0
  0
SPLINE
  5
312
100
AcDbEntity
  8
0
100
AcDbSpline
 62
7
  6
BYLAYER
 70
0
 71
3
 72
11
 73
7
 74
0
 42
0.0000001
 43
0.0000001
 44
0.0000000001
 40
0.0
 40
0.0
 40
0.0
 40
0.0
 40
0.2176746342
 40
0.4508340055
 40
0.7104853484
 40
1.0
 40
1.0
 40
1.0
 40
1.0
 10
40.8586299536
 20
53.3311602353
 30
0.0
 10
40.8751140784
 20
53.3216433259
 30
0.0
 10
40.9129949173
 20
53.3078825358
 30
0.0
 10
40.9759571248
 20
53.3062748834
 30
0.0
 10
41.0430351799
 20
53.322521082
 30
0.0
 10
41.0866955894
 20
53.3432562765
 30
0.0
 10
41.1086199498
 20
53.3559142364
 30
0.0
  0
SPLINE
  5
313
100
AcDbEntity
  8
0
100
AcDbSpline
 62
7
  6
BYLAYER
 70
0
 71
3
 72
11
 73
7
 74
0
 42
0.0000001
 43
0.0000001
 44
0.0000000001
 40
0.0
 40
0.0
 40
0.0
 40
0.0
 40
0.2176732262
 40
0.4508319884
 40
0.7104838574
 40
1.0
 40
1.0
 40
1.0
 40
1.0
 10
35.2498840902
 20
24.170754577
 30
0.0
 10
35.233399411
 20
24.1802717879
 30
0.0
 10
35.2025403157
 20
24.2061976857
 30
0.0
 10
35.1696654702
 20
24.259922646
 30
0.0
 10
35.1501952613
 20
24.3261398032
 30
0.0
 10
35.1463222017
 20
24.3743205238
 30
0.0
 10
35.1463222017
 20
24.3996376901
 30
0.0
  0
SPLINE
  5
314
100
AcDbEntity
  8
0
100
AcDbSpline
 62
7
  6
BYLAYER
 70
0
 71
3
 72
11
 73
7
 74
0
 42
0.0000001
 43
0.0000001
 44
0.0000000001
 40
0.0
 40
0.0
 40
0.0
 40
0.0
 40
0.2177456295
 40
0.4508837762
 40
0.7104602913
 40
1.0
 40
1.0
 40
1.0
 40
1.0
 10
41.4138414685
 20
17.739631956
 30
0.0
 10
41.4435226662
 20
17.7224959014
 30
0.0
 10
41.5116974372
 20
17.6976680533
 30
0.0
 10
41.6250343322
 20
17.6948220012
 30
0.0
 10
41.7457624915
 20
17.7240447775
 30
0.0
 10
41.8243412781
 20
17.7613770759
 30
0.0
 10
41.8638086552
 20
17.7841634407
 30
0.0
  0
SPLINE
  5
315
100
AcDbEntity
  8
0
100
AcDbSpline
 62
7
  6
BYLAYER
 70
0
 71
3
 72
11
 73
7
 74
0
 42
0.0000001
 43
0.0000001
 44
0.0000000001
 40
0.0
 40
0.0
 40
0.0
 40
0.0
 40
0.2176746257
 40
0.4508262044
 40
0.7104504926
 40
1.0
 40
1.0
 40
1.0
 40
1.0
 10
24.2075897446
 20
7.7100028778
 30
0.0
 10
24.2240740151
 20
7.7004871706
 30
0.0
 10
24.2619408888
 20
7.6867017292
 30
0.0
 10
24.3249013081
 20
7.6850651154
 30
0.0
 10
24.3919803513
 20
7.7013101227
 30
0.0
 10
24.435632293
 20
7.7220611891
 30
0.0
 10
24.4575587468
 20
7.7347203575
 30
0.0
  0
SPLINE
  5
316
100
AcDbEntity
  8
0
100
AcDbSpline
 62
7
  6
BYLAYER
 70
0
 71
3
 72
11
 73
7
 74
0
 42
0.0000001
 43
0.0000001
 44
0.0000000001
 40
0.0
 40
0.0
 40
0.0
 40
0.0
 40
0.2176732262
 40
0.4508319884
 40
0.7104838574
 40
1.0
 40
1.0
 40
1.0
 40
1.0
 10
14.8852573677
 20
8.8546769174
 30
0.0
 10
14.8687726884
 20
8.8641941284
 30
0.0
 10
14.8379135931
 20
8.8901200261
 30
0.0
 10
14.8050387477
 20
8.9438449865
 30
0.0
 10
14.7855685388
 20
9.0100621436
 30
0.0
 10
14.7816954792
 20
9.0582428642
 30
0.0
 10
14.7816954792
 20
9.0835600305
 30
0.0
  0
SPLINE
  5
317
100
AcDbEntity
  8
0
100
AcDbSpline
 62
7
  6
BYLAYER
 70
0
 71
3
 72
11
 73
7
 74
0
 42
0.0000001
 43
0.0000001
 44
0.0000000001
 40
0.0
 40
0.0
 40
0.0
 40
0.0
 40
0.2177310465
 40
0.4508559663
 40
0.7103638015
 40
1.0
 40
1.0
 40
1.0
 40
1.0
 10
14.8852534863
 20
30.0070979076
 30
0.0
 10
14.8687665665
 20
30.0166220541
 30
0.0
 10
14.8379014852
 20
30.0425464817
 30
0.0
 10
14.8050517818
 20
30.0962742866
 30
0.0
 10
14.785547484
 20
30.1624759873
 30
0.0
 10
14.7816954792
 20
30.2106596841
 30
0.0
 10
14.7816954792
 20
30.2359878179
 30
0.0
  0
SPLINE
  5
318
100
AcDbEntity
  8
0
100
AcDbSpline
 62
7
  6
BYLAYER
 70
0
 71
3
 72
13
 73
9
 74
0
 42
0.0000001
 43
0.0000001
 44
0.0000000001
 40
0.0
 40
0.0
 40
0.0
 40
0.0
 40
0.2893533224
 40
0.5483275469
 40
0.667755234
 40
0.7817748596
 40
0.8919174945
 40
1.0
 40
1.0
 40
1.0
 40
1.0
 10
32.2303460578
 20
75.6236403341
 30
0.0
 10
32.3181175175
 20
75.6743149076
 30
0.0
 10
32.4925891528
 20
75.7573870096
 30
0.0
 10
32.7222971081
 20
75.8127487061
 30
0.0
 10
32.895198828
 20
75.8187717209
 30
0.0
 10
33.0152713189
 20
75.8053236158
 30
0.0
 10
33.1279186429
 20
75.774212259
 30
0.0
 10
33.1975426709
 20
75.7416229296
 30
0.0
 10
33.2303278299
 20
75.7226940066
 30
0.0
  0
SPLINE
  5
319
100
AcDbEntity
  8
0
100
AcDbSpline
 62
7
  6
BYLAYER
 70
0
 71
3
 72
9
 73
5
 74
0
 42
0.0000001
 43
0.0000001
 44
0.0000000001
 40
0.0
 40
0.0
 40
0.0
 40
0.0
 40
0.5187826787
 40
1.0
 40
1.0
 40
1.0
 40
1.0
 10
31.5403688804
 20
75.1049919839
 30
0.0
 10
31.6221853918
 20
75.1906467239
 30
0.0
 10
31.789931983
 20
75.3465467846
 30
0.0
 10
31.977941583
 20
75.4779154125
 30
0.0
 10
32.0730954324
 20
75.5328521852
 30
0.0
  0
SPLINE
  5
31A
100
AcDbEntity
  8
0
100
AcDbSpline
 62
7
  6
BYLAYER
 70
0
 71
3
 72
11
 73
7
 74
0
 42
0.0000001
 43
0.0000001
 44
0.0000000001
 40
0.0
 40
0.0
 40
0.0
 40
0.0
 40
0.2354195186
 40
0.4812645276
 40
0.7365394812
 40
1.0
 40
1.0
 40
1.0
 40
1.0
 10
27.5449197409
 20
71.8960404741
 30
0.0
 10
27.8942711179
 20
72.0977373816
 30
0.0
 10
28.5910782552
 20
72.540722695
 30
0.0
 10
29.6025435808
 20
73.297312317
 30
0.0
 10
30.5947636477
 20
74.1543347111
 30
0.0
 10
31.2285474826
 20
74.7785422204
 30
0.0
 10
31.5403688804
 20
75.1049919839
 30
0.0
  0
SPLINE
  5
31B
100
AcDbEntity
  8
0
100
AcDbSpline
 62
7
  6
BYLAYER
 70
0
 71
3
 72
10
 73
6
 74
0
 42
0.0000001
 43
0.0000001
 44
0.0000000001
 40
0.0
 40
0.0
 40
0.0
 40
0.0
 40
0.4704883415
 40
0.7278553979
 40
1.0
 40
1.0
 40
1.0
 40
1.0
 10
23.3022967176
 20
70.4690594129
 30
0.0
 10
24.0072435987
 20
70.5207944014
 30
0.0
 10
25.0889145417
 20
70.7632388593
 30
0.0
 10
26.4838118228
 20
71.3232997898
 30
0.0
 10
27.190836868
 20
71.6916118524
 30
0.0
 10
27.5449197409
 20
71.8960404741
 30
0.0
  0
SPLINE
  5
31C
100
AcDbEntity
  8
0
100
AcDbSpline
 62
7
  6
BYLAYER
 70
0
 71
3
 72
11
 73
7
 74
0
 42
0.0000001
 43
0.0000001
 44
0.0000000001
 40
0.0
 40
0.0
 40
0.0
 40
0.0
 40
0.2514296391
 40
0.5139041419
 40
0.7690331228
 40
1.0
 40
1.0
 40
1.0
 40
1.0
 10
19.766780862
 20
68.1238591282
 30
0.0
 10
19.7770926595
 20
68.17497537
 30
0.0
 10
19.8106792373
 20
68.2770827591
 30
0.0
 10
19.8881178317
 20
68.4174754747
 30
0.0
 10
19.9874257952
 20
68.537958
 30
0.0
 10
20.0673494855
 20
68.6013729063
 30
0.0
 10
20.1088339371
 20
68.6253238226
 30
0.0
  0
SPLINE
  5
31D
100
AcDbEntity
  8
0
100
AcDbSpline
 62
7
  6
BYLAYER
 70
0
 71
3
 72
12
 73
8
 74
0
 42
0.0000001
 43
0.0000001
 44
0.0000000001
 40
0.0
 40
0.0
 40
0.0
 40
0.0
 40
0.2616302793
 40
0.5322972004
 40
0.7850752022
 40
0.8981862386
 40
1.0
 40
1.0
 40
1.0
 40
1.0
 10
19.7567988713
 20
67.0084051216
 30
0.0
 10
19.8037552702
 20
67.0500437741
 30
0.0
 10
19.8877088735
 20
67.148276603
 30
0.0
 10
19.9764462671
 20
67.315754426
 30
0.0
 10
20.0165251109
 20
67.4651715451
 30
0.0
 10
20.0205289436
 20
67.5777013696
 30
0.0
 10
20.0131188107
 20
67.629154251
 30
0.0
 10
20.0067978305
 20
67.6527448003
 30
0.0
  0
SPLINE
  5
31E
100
AcDbEntity
  8
0
100
AcDbSpline
 62
7
  6
BYLAYER
 70
0
 71
3
 72
11
 73
7
 74
0
 42
0.0000001
 43
0.0000001
 44
0.0000000001
 40
0.0
 40
0.0
 40
0.0
 40
0.0
 40
0.2044397697
 40
0.4326998122
 40
0.6984291811
 40
1.0
 40
1.0
 40
1.0
 40
1.0
 10
19.7915009648
 20
68.0070577543
 30
0.0
 10
19.7849482743
 20
68.0108360276
 30
0.0
 10
19.77289547
 20
68.0222632083
 30
0.0
 10
19.7624934313
 20
68.0464757409
 30
0.0
 10
19.7593690367
 20
68.0760576779
 30
0.0
 10
19.7617749286
 20
68.0970665249
 30
0.0
 10
19.7640168692
 20
68.1079965867
 30
0.0
  0
SPLINE
  5
31F
100
AcDbEntity
  8
0
100
AcDbSpline
 62
7
  6
BYLAYER
 70
0
 71
3
 72
10
 73
6
 74
0
 42
0.0000001
 43
0.0000001
 44
0.0000000001
 40
0.0
 40
0.0
 40
0.0
 40
0.0
 40
0.2329340637
 40
0.4739170854
 40
1.0
 40
1.0
 40
1.0
 40
1.0
 10
20.1269891833
 20
61.1810706787
 30
0.0
 10
20.1160435663
 20
61.1873899905
 30
0.0
 10
20.095175537
 20
61.2028726287
 30
0.0
 10
20.0596423528
 20
61.2443259403
 30
0.0
 10
20.0428731512
 20
61.2836927208
 30
0.0
 10
20.0354852868
 20
61.3112649916
 30
0.0
  0
SPLINE
  5
320
100
AcDbEntity
  8
0
100
AcDbSpline
 62
7
  6
BYLAYER
 70
0
 71
3
 72
9
 73
5
 74
0
 42
0.0000001
 43
0.0000001
 44
0.0000000001
 40
0.0
 40
0.0
 40
0.0
 40
0.0
 40
0.5278930542
 40
1.0
 40
1.0
 40
1.0
 40
1.0
 10
15.4511132742
 20
64.4975214136
 30
0.0
 10
15.4731847431
 20
64.5034352925
 30
0.0
 10
15.5171079229
 20
64.5090533842
 30
0.0
 10
15.5602102978
 20
64.4964130743
 30
0.0
 10
15.5779076655
 20
64.4861952022
 30
0.0
  0
SPLINE
  5
321
100
AcDbEntity
  8
0
100
AcDbSpline
 62
7
  6
BYLAYER
 70
0
 71
3
 72
9
 73
5
 74
0
 42
0.0000001
 43
0.0000001
 44
0.0000000001
 40
0.0
 40
0.0
 40
0.0
 40
0.0
 40
0.5324907192
 40
1.0
 40
1.0
 40
1.0
 40
1.0
 10
15.3047037222
 20
64.4129923239
 30
0.0
 10
15.3273014719
 20
64.4330309101
 30
0.0
 10
15.3730210224
 20
64.4672053148
 30
0.0
 10
15.4254997977
 20
64.4906584811
 30
0.0
 10
15.4511132742
 20
64.4975214136
 30
0.0
  0
SPLINE
  5
322
100
AcDbEntity
  8
0
100
AcDbSpline
 62
7
  6
BYLAYER
 70
0
 71
3
 72
11
 73
7
 74
0
 42
0.0000001
 43
0.0000001
 44
0.0000000001
 40
0.0
 40
0.0
 40
0.0
 40
0.0
 40
0.2177382977
 40
0.4508602761
 40
0.7103539614
 40
1.0
 40
1.0
 40
1.0
 40
1.0
 10
14.9888106406
 20
37.2185848141
 30
0.0
 10
14.955835424
 20
37.2376333547
 30
0.0
 10
14.894106318
 20
37.289485481
 30
0.0
 10
14.8284093593
 20
37.3969396971
 30
0.0
 10
14.7893960073
 20
37.5293407382
 30
0.0
 10
14.7816954792
 20
37.6257080417
 30
0.0
 10
14.7816954792
 20
37.676366094
 30
0.0
  0
SPLINE
  5
323
100
AcDbEntity
  8
0
100
AcDbSpline
 62
7
  6
BYLAYER
 70
0
 71
3
 72
14
 73
10
 74
0
 42
0.0000001
 43
0.0000001
 44
0.0000000001
 40
0.0
 40
0.0
 40
0.0
 40
0.0
 40
0.1109440422
 40
0.2288627424
 40
0.3524178476
 40
0.480244307
 40
0.7417866849
 40
0.8722831492
 40
1.0
 40
1.0
 40
1.0
 40
1.0
 10
17.0798020859
 20
14.0080362531
 30
0.0
 10
17.1808608868
 20
13.9496912472
 30
0.0
 10
17.3817666671
 20
13.8159272388
 30
0.0
 10
17.6669855626
 20
13.5782689888
 30
0.0
 10
17.9403465893
 20
13.3014593983
 30
0.0
 10
18.2839590416
 20
12.8848776326
 30
0.0
 10
18.5775600036
 20
12.4199829244
 30
0.0
 10
18.8107901103
 20
11.9250827303
 30
0.0
 10
18.9055974215
 20
11.6701107458
 30
0.0
 10
18.9466253284
 20
11.5421956252
 30
0.0
  0
SPLINE
  5
324
100
AcDbEntity
  8
0
100
AcDbSpline
 62
7
  6
BYLAYER
 70
0
 71
3
 72
14
 73
10
 74
0
 42
0.0000001
 43
0.0000001
 44
0.0000000001
 40
0.0
 40
0.0
 40
0.0
 40
0.0
 40
0.1173761138
 40
0.2456994129
 40
0.3794527276
 40
0.5140320896
 40
0.6458087521
 40
0.7720448486
 40
1.0
 40
1.0
 40
1.0
 40
1.0
 10
21.9871718285
 20
45.38619048
 30
0.0
 10
22.0372516412
 20
45.4151039008
 30
0.0
 10
22.1391620667
 20
45.4807363166
 30
0.0
 10
22.2883901014
 20
45.5935876597
 30
0.0
 10
22.4350208804
 20
45.7231054928
 30
0.0
 10
22.5712903957
 20
45.8658649719
 30
0.0
 10
22.6900995016
 20
46.019229196
 30
0.0
 10
22.8120328723
 20
46.2252442654
 30
0.0
 10
22.8665827629
 20
46.3971354927
 30
0.0
 10
22.8732866781
 20
46.5092407433
 30
0.0
  0
LINE
  5
325
100
AcDbEntity
  8
0
100
AcDbLine
 62
7
  6
BYLAYER
 10
22.8780660443
 20
46.5062923909
 11
22.8780706261
 21
46.6681258652
  0
LINE
  5
326
100
AcDbEntity
  8
0
100
AcDbLine
 62
7
  6
BYLAYER
 10
22.8780706261
 20
47.1580273154
 11
22.8778118917
 21
47.3196712839
  0
SPLINE
  5
327
100
AcDbEntity
  8
0
100
AcDbSpline
 62
7
  6
BYLAYER
 70
0
 71
3
 72
15
 73
11
 74
0
 42
0.0000001
 43
0.0000001
 44
0.0000000001
 40
0.0
 40
0.0
 40
0.0
 40
0.0
 40
0.1172570871
 40
0.245451243
 40
0.3790684534
 40
0.5135059281
 40
0.6451364986
 40
0.7712342613
 40
0.8898674947
 40
1.0
 40
1.0
 40
1.0
 40
1.0
 10
21.9871718284
 20
58.1236281873
 30
0.0
 10
22.0372738497
 20
58.1525544301
 30
0.0
 10
22.1392285468
 20
58.2182174713
 30
0.0
 10
22.2885186476
 20
58.3311298495
 30
0.0
 10
22.4351977603
 20
58.4607023489
 30
0.0
 10
22.5715192365
 20
58.6035870493
 30
0.0
 10
22.6902797566
 20
58.7568543147
 30
0.0
 10
22.7850164791
 20
58.9172918531
 30
0.0
 10
22.8495826857
 20
59.0809247454
 30
0.0
 10
22.8700447584
 20
59.1929837427
 30
0.0
 10
22.8733200018
 20
59.2472225354
 30
0.0
  0
LINE
  5
328
100
AcDbEntity
  8
0
100
AcDbLine
 62
7
  6
BYLAYER
 10
22.8780706261
 20
59.8954650227
 11
22.8778080783
 21
60.0587032273
  0
LINE
  5
329
100
AcDbEntity
  8
0
100
AcDbLine
 62
7
  6
BYLAYER
 10
22.8780706261
 20
12.6199750709
 11
22.8778080783
 21
12.7832132755
  0
SPLINE
  5
32A
100
AcDbEntity
  8
0
100
AcDbSpline
 62
7
  6
BYLAYER
 70
0
 71
3
 72
15
 73
11
 74
0
 42
0.0000001
 43
0.0000001
 44
0.0000000001
 40
0.0
 40
0.0
 40
0.0
 40
0.0
 40
0.1172901906
 40
0.2455268058
 40
0.3791818941
 40
0.5136407349
 40
0.645269964
 40
0.7713524875
 40
0.8899213742
 40
1.0
 40
1.0
 40
1.0
 40
1.0
 10
21.9871718284
 20
10.8481382355
 30
0.0
 10
22.0373459917
 20
10.8771061292
 30
0.0
 10
22.1394460604
 20
10.9428724267
 30
0.0
 10
22.2889366419
 20
11.0559724944
 30
0.0
 10
22.4357887715
 20
11.1857681372
 30
0.0
 10
22.5722272106
 20
11.32889882
 30
0.0
 10
22.6910161785
 20
11.4824332425
 30
0.0
 10
22.785692621
 20
11.6431123281
 30
0.0
 10
22.8500496219
 20
11.806990756
 30
0.0
 10
22.8702307988
 20
11.9191702264
 30
0.0
 10
22.8734244087
 20
11.9734502185
 30
0.0
  0
SPLINE
  5
32B
100
AcDbEntity
  8
0
100
AcDbSpline
 62
7
  6
BYLAYER
 70
0
 71
3
 72
13
 73
9
 74
0
 42
0.0000001
 43
0.0000001
 44
0.0000000001
 40
0.0
 40
0.0
 40
0.0
 40
0.0
 40
0.1080825255
 40
0.2182251793
 40
0.3322448275
 40
0.4516725261
 40
0.7106466987
 40
1.0
 40
1.0
 40
1.0
 40
1.0
 10
37.5790526379
 20
73.2120133636
 30
0.0
 10
37.5462674729
 20
73.2309422903
 30
0.0
 10
37.4766434394
 20
73.2635316426
 30
0.0
 10
37.3639960852
 20
73.2946429791
 30
0.0
 10
37.2439235758
 20
73.3080910769
 30
0.0
 10
37.0710218617
 20
73.3020680613
 30
0.0
 10
36.8413139245
 20
73.2467063749
 30
0.0
 10
36.6668423211
 20
73.1636342637
 30
0.0
 10
36.5790708674
 20
73.1129596938
 30
0.0
  0
SPLINE
  5
32C
100
AcDbEntity
  8
0
100
AcDbSpline
 62
7
  6
BYLAYER
 70
0
 71
3
 72
14
 73
10
 74
0
 42
0.0000001
 43
0.0000001
 44
0.0000000001
 40
0.0
 40
0.0
 40
0.0
 40
0.0
 40
0.1080322718
 40
0.2181213648
 40
0.3320974748
 40
0.4514750162
 40
0.5774254878
 40
0.7107564843
 40
1.0
 40
1.0
 40
1.0
 40
1.0
 10
18.5297939368
 20
43.1768554579
 30
0.0
 10
18.4822547826
 20
43.1494095853
 30
0.0
 10
18.3813148667
 20
43.1021273148
 30
0.0
 10
18.217964072
 20
43.057027624
 30
0.0
 10
18.0438564798
 20
43.037553061
 30
0.0
 10
17.860818438
 20
43.0439061395
 30
0.0
 10
17.6705583014
 20
43.0758068098
 30
0.0
 10
17.402540582
 20
43.1540003154
 30
0.0
 10
17.2070822084
 20
43.2469894775
 30
0.0
 10
17.0798020859
 20
43.3204730281
 30
0.0
  0
SPLINE
  5
32D
100
AcDbEntity
  8
0
100
AcDbSpline
 62
7
  6
BYLAYER
 70
0
 71
3
 72
11
 73
7
 74
0
 42
0.0000001
 43
0.0000001
 44
0.0000000001
 40
0.0
 40
0.0
 40
0.0
 40
0.0
 40
0.2462697719
 40
0.5183188659
 40
0.7802773326
 40
1.0
 40
1.0
 40
1.0
 40
1.0
 10
24.2152164201
 20
8.0657403719
 30
0.0
 10
24.1976015292
 20
8.0555704706
 30
0.0
 10
24.1649336692
 20
8.0265368652
 30
0.0
 10
24.1293908821
 20
7.972037997
 30
0.0
 10
24.1089479275
 20
7.912661595
 30
0.0
 10
24.1080296403
 20
7.8714760434
 30
0.0
 10
24.1127400246
 20
7.8539507073
 30
0.0
  0
SPLINE
  5
32E
100
AcDbEntity
  8
0
100
AcDbSpline
 62
7
  6
BYLAYER
 70
0
 71
3
 72
9
 73
5
 74
0
 42
0.0000001
 43
0.0000001
 44
0.0000000001
 40
0.0
 40
0.0
 40
0.0
 40
0.0
 40
0.2324089118
 40
1.0
 40
1.0
 40
1.0
 40
1.0
 10
24.2511103496
 20
8.0792373047
 30
0.0
 10
24.2481684408
 20
8.0787604942
 30
0.0
 10
24.2356253878
 20
8.0759962476
 30
0.0
 10
24.2237409042
 20
8.0706619558
 30
0.0
 10
24.2152164201
 20
8.0657403719
 30
0.0
  0
SPLINE
  5
32F
100
AcDbEntity
  8
0
100
AcDbSpline
 62
7
  6
BYLAYER
 70
0
 71
3
 72
12
 73
8
 74
0
 42
0.0000001
 43
0.0000001
 44
0.0000000001
 40
0.0
 40
0.0
 40
0.0
 40
0.0
 40
0.1018138382
 40
0.214925024
 40
0.4677031318
 40
0.738369982
 40
1.0
 40
1.0
 40
1.0
 40
1.0
 10
24.3555226401
 20
65.14206416
 30
0.0
 10
24.3618436251
 20
65.118473593
 30
0.0
 10
24.3692537349
 20
65.0670206531
 30
0.0
 10
24.3652499176
 20
64.95449075
 30
0.0
 10
24.3251709953
 20
64.8050735989
 30
0.0
 10
24.2364335963
 20
64.6375958464
 30
0.0
 10
24.1524800328
 20
64.5393630921
 30
0.0
 10
24.105523681
 20
64.4977244813
 30
0.0
  0
SPLINE
  5
330
100
AcDbEntity
  8
0
100
AcDbSpline
 62
7
  6
BYLAYER
 70
0
 71
3
 72
9
 73
5
 74
0
 42
0.0000001
 43
0.0000001
 44
0.0000000001
 40
0.0
 40
0.0
 40
0.0
 40
0.0
 40
0.4675092808
 40
1.0
 40
1.0
 40
1.0
 40
1.0
 10
19.7998380838
 20
61.9868407733
 30
0.0
 10
19.7742246073
 20
61.9799778408
 30
0.0
 10
19.7217458321
 20
61.9565246745
 30
0.0
 10
19.6760262816
 20
61.9223502698
 30
0.0
 10
19.6534285319
 20
61.9023116836
 30
0.0
  0
SPLINE
  5
331
100
AcDbEntity
  8
0
100
AcDbSpline
 62
7
  6
BYLAYER
 70
0
 71
3
 72
11
 73
7
 74
0
 42
0.0000001
 43
0.0000001
 44
0.0000000001
 40
0.0
 40
0.0
 40
0.0
 40
0.0
 40
0.3015974329
 40
0.5673601454
 40
0.7955970112
 40
1.0
 40
1.0
 40
1.0
 40
1.0
 10
24.11277554
 20
65.5974295603
 30
0.0
 10
24.1105310785
 20
65.5864872084
 30
0.0
 10
24.1081075371
 20
65.5654582759
 30
0.0
 10
24.1111986167
 20
65.5358391339
 30
0.0
 10
24.1216043774
 20
65.5115972338
 30
0.0
 10
24.1336678563
 20
65.500159283
 30
0.0
 10
24.1402261633
 20
65.4963777885
 30
0.0
  0
SPLINE
  5
332
100
AcDbEntity
  8
0
100
AcDbSpline
 62
7
  6
BYLAYER
 70
0
 71
3
 72
11
 73
7
 74
0
 42
0.0000001
 43
0.0000001
 44
0.0000000001
 40
0.0
 40
0.0
 40
0.0
 40
0.0
 40
0.2895161426
 40
0.5491680116
 40
0.7823267738
 40
1.0
 40
1.0
 40
1.0
 40
1.0
 10
19.1304202888
 20
6.5728793902
 30
0.0
 10
19.1304202888
 20
6.5475622239
 30
0.0
 10
19.1342933484
 20
6.4993815033
 30
0.0
 10
19.1537635573
 20
6.4331643462
 30
0.0
 10
19.1866384028
 20
6.3794393858
 30
0.0
 10
19.2174974981
 20
6.3535134881
 30
0.0
 10
19.2339821773
 20
6.3439962771
 30
0.0
  0
SPLINE
  5
333
100
AcDbEntity
  8
0
100
AcDbSpline
 62
7
  6
BYLAYER
 70
0
 71
3
 72
14
 73
10
 74
0
 42
0.0000001
 43
0.0000001
 44
0.0000000001
 40
0.0
 40
0.0
 40
0.0
 40
0.0
 40
0.1080322718
 40
0.2181213648
 40
0.3320974748
 40
0.4514750162
 40
0.5774254878
 40
0.7107564843
 40
1.0
 40
1.0
 40
1.0
 40
1.0
 10
18.5297939368
 20
55.9142931651
 30
0.0
 10
18.4822547826
 20
55.8868472925
 30
0.0
 10
18.3813148667
 20
55.8395650221
 30
0.0
 10
18.217964072
 20
55.7944653312
 30
0.0
 10
18.0438564798
 20
55.7749907683
 30
0.0
 10
17.860818438
 20
55.7813438467
 30
0.0
 10
17.6705583014
 20
55.813244517
 30
0.0
 10
17.402540582
 20
55.8914380226
 30
0.0
 10
17.2070822084
 20
55.9844271847
 30
0.0
 10
17.0798020859
 20
56.0579107353
 30
0.0
  0
SPLINE
  5
334
100
AcDbEntity
  8
0
100
AcDbSpline
 62
7
  6
BYLAYER
 70
0
 71
3
 72
14
 73
10
 74
0
 42
0.0000001
 43
0.0000001
 44
0.0000000001
 40
0.0
 40
0.0
 40
0.0
 40
0.0
 40
0.1080322718
 40
0.2181213648
 40
0.3320974748
 40
0.4514750162
 40
0.5774254878
 40
0.7107564843
 40
1.0
 40
1.0
 40
1.0
 40
1.0
 10
18.5297939368
 20
8.6388032133
 30
0.0
 10
18.4822547826
 20
8.6113573407
 30
0.0
 10
18.3813148667
 20
8.5640750702
 30
0.0
 10
18.217964072
 20
8.5189753794
 30
0.0
 10
18.0438564798
 20
8.4995008165
 30
0.0
 10
17.860818438
 20
8.5058538949
 30
0.0
 10
17.6705583014
 20
8.5377545652
 30
0.0
 10
17.402540582
 20
8.6159480708
 30
0.0
 10
17.2070822084
 20
8.7089372329
 30
0.0
 10
17.0798020859
 20
8.7824207835
 30
0.0
  0
SPLINE
  5
335
100
AcDbEntity
  8
0
100
AcDbSpline
 62
7
  6
BYLAYER
 70
0
 71
3
 72
11
 73
7
 74
0
 42
0.0000001
 43
0.0000001
 44
0.0000000001
 40
0.0
 40
0.0
 40
0.0
 40
0.0
 40
0.2572200134
 40
0.5191247605
 40
0.7710131132
 40
1.0
 40
1.0
 40
1.0
 40
1.0
 10
19.3463330322
 20
19.9793332982
 30
0.0
 10
19.313689793
 20
19.944555748
 30
0.0
 10
19.2543510747
 20
19.8680202399
 30
0.0
 10
19.1863392211
 20
19.7415389135
 30
0.0
 10
19.1422262724
 20
19.6103657329
 30
0.0
 10
19.1304202888
 20
19.5210949355
 30
0.0
 10
19.1304202888
 20
19.4786327646
 30
0.0
  0
SPLINE
  5
336
100
AcDbEntity
  8
0
100
AcDbSpline
 62
7
  6
BYLAYER
 70
0
 71
3
 72
11
 73
7
 74
0
 42
0.0000001
 43
0.0000001
 44
0.0000000001
 40
0.0
 40
0.0
 40
0.0
 40
0.0
 40
0.2313460244
 40
0.4742209156
 40
0.7301497666
 40
1.0
 40
1.0
 40
1.0
 40
1.0
 10
43.4851883434
 20
27.5851676436
 30
0.0
 10
43.3019194296
 20
27.6001166368
 30
0.0
 10
42.9236646218
 20
27.6037670933
 30
0.0
 10
42.3460577277
 20
27.53499616
 30
0.0
 10
41.7506188657
 20
27.3929743911
 30
0.0
 10
41.3556138909
 20
27.2541819162
 30
0.0
 10
41.156704818
 20
27.1739482924
 30
0.0
  0
SPLINE
  5
337
100
AcDbEntity
  8
0
100
AcDbSpline
 62
7
  6
BYLAYER
 70
0
 71
3
 72
11
 73
7
 74
0
 42
0.0000001
 43
0.0000001
 44
0.0000000001
 40
0.0
 40
0.0
 40
0.0
 40
0.0
 40
0.2309896048
 40
0.4861426619
 40
0.7486026093
 40
1.0
 40
1.0
 40
1.0
 40
1.0
 10
24.4575587468
 20
66.1146431823
 30
0.0
 10
24.4160494825
 20
66.0906779404
 30
0.0
 10
24.3360832046
 20
66.0272165809
 30
0.0
 10
24.2367427684
 20
65.9066510877
 30
0.0
 10
24.15929528
 20
65.7661752428
 30
0.0
 10
24.1257264806
 20
65.6640179367
 30
0.0
 10
24.1154108538
 20
65.6128827131
 30
0.0
  0
SPLINE
  5
338
100
AcDbEntity
  8
0
100
AcDbSpline
 62
7
  6
BYLAYER
 70
0
 71
3
 72
11
 73
7
 74
0
 42
0.0000001
 43
0.0000001
 44
0.0000000001
 40
0.0
 40
0.0
 40
0.0
 40
0.0
 40
0.2896361985
 40
0.5491440337
 40
0.7822689535
 40
1.0
 40
1.0
 40
1.0
 40
1.0
 10
19.1304202888
 20
27.7253071776
 30
0.0
 10
19.1304202888
 20
27.6999790438
 30
0.0
 10
19.1342722936
 20
27.651795347
 30
0.0
 10
19.1537765915
 20
27.5855936463
 30
0.0
 10
19.1866262949
 20
27.5318658414
 30
0.0
 10
19.2174913761
 20
27.5059414138
 30
0.0
 10
19.233978296
 20
27.4964172673
 30
0.0
  0
SPLINE
  5
339
100
AcDbEntity
  8
0
100
AcDbSpline
 62
7
  6
BYLAYER
 70
0
 71
3
 72
13
 73
9
 74
0
 42
0.0000001
 43
0.0000001
 44
0.0000000001
 40
0.0
 40
0.0
 40
0.0
 40
0.0
 40
0.1141897146
 40
0.2376057336
 40
0.500113975
 40
0.7625567832
 40
0.8859002407
 40
1.0
 40
1.0
 40
1.0
 40
1.0
 10
22.1709667888
 20
45.2800788107
 30
0.0
 10
22.2193931414
 20
45.3080376115
 30
0.0
 10
22.3150983163
 20
45.3752002383
 30
0.0
 10
22.4943704833
 20
45.5429117848
 30
0.0
 10
22.6834976511
 20
45.8016751323
 30
0.0
 10
22.8127212751
 20
46.0949478511
 30
0.0
 10
22.8680116842
 20
46.3340178453
 30
0.0
 10
22.8781532179
 20
46.4504186574
 30
0.0
 10
22.8780660443
 20
46.5062923909
 30
0.0
  0
SPLINE
  5
33A
100
AcDbEntity
  8
0
100
AcDbSpline
 62
7
  6
BYLAYER
 70
0
 71
3
 72
11
 73
7
 74
0
 42
0.0000001
 43
0.0000001
 44
0.0000000001
 40
0.0
 40
0.0
 40
0.0
 40
0.0
 40
0.2577346733
 40
0.5195696443
 40
0.7711662814
 40
1.0
 40
1.0
 40
1.0
 40
1.0
 10
19.5530417014
 20
29.2781587467
 30
0.0
 10
19.4890382291
 20
29.2087283224
 30
0.0
 10
19.3727977906
 20
29.0565773094
 30
0.0
 10
19.2396562905
 20
28.8059780684
 30
0.0
 10
19.1534386313
 20
28.5467134442
 30
0.0
 10
19.1304202888
 20
28.3704937423
 30
0.0
 10
19.1304202888
 20
28.2866525894
 30
0.0
  0
SPLINE
  5
33B
100
AcDbEntity
  8
0
100
AcDbSpline
 62
7
  6
BYLAYER
 70
0
 71
3
 72
9
 73
5
 74
0
 42
0.0000001
 43
0.0000001
 44
0.0000000001
 40
0.0
 40
0.0
 40
0.0
 40
0.0
 40
0.2349676349
 40
1.0
 40
1.0
 40
1.0
 40
1.0
 10
20.4986662138
 20
30.2911523726
 30
0.0
 10
20.4944149631
 20
30.2886979265
 30
0.0
 10
20.4768043585
 20
30.2774205696
 30
0.0
 10
20.4611372496
 20
30.263253101
 30
0.0
 10
20.4503042016
 20
30.2515015023
 30
0.0
  0
SPLINE
  5
33C
100
AcDbEntity
  8
0
100
AcDbSpline
 62
7
  6
BYLAYER
 70
0
 71
3
 72
11
 73
7
 74
0
 42
0.0000001
 43
0.0000001
 44
0.0000000001
 40
0.0
 40
0.0
 40
0.0
 40
0.0
 40
0.2895411595
 40
0.5491183966
 40
0.7822559144
 40
1.0
 40
1.0
 40
1.0
 40
1.0
 10
41.2274152018
 20
18.1515958776
 30
0.0
 10
41.2274152018
 20
18.1060209109
 30
0.0
 10
41.2343740391
 20
18.0192997438
 30
0.0
 10
41.2694318364
 20
17.9001296969
 30
0.0
 10
41.3285677445
 20
17.8033966737
 30
0.0
 10
41.384159306
 20
17.7567685677
 30
0.0
 10
41.4138414685
 20
17.739631956
 30
0.0
  0
SPLINE
  5
33D
100
AcDbEntity
  8
0
100
AcDbSpline
 62
7
  6
BYLAYER
 70
0
 71
3
 72
14
 73
10
 74
0
 42
0.0000001
 43
0.0000001
 44
0.0000000001
 40
0.0
 40
0.0
 40
0.0
 40
0.0
 40
0.2892474877
 40
0.422571007
 40
0.5485181942
 40
0.667892638
 40
0.7818650293
 40
0.8919543638
 40
1.0
 40
1.0
 40
1.0
 40
1.0
 10
15.029183883
 20
12.8240774316
 30
0.0
 10
15.029183883
 20
12.9710530696
 30
0.0
 10
15.0463725355
 20
13.1868253223
 30
0.0
 10
15.1126727894
 20
13.4580341841
 30
0.0
 10
15.1801702159
 20
13.6387550639
 30
0.0
 10
15.2661871702
 20
13.8004461188
 30
0.0
 10
15.3700867978
 20
13.9415069585
 30
0.0
 10
15.4908379037
 20
14.0604216584
 30
0.0
 10
15.5822732057
 20
14.1241876497
 30
0.0
 10
15.629819236
 20
14.1516382009
 30
0.0
  0
SPLINE
  5
33E
100
AcDbEntity
  8
0
100
AcDbSpline
 62
7
  6
BYLAYER
 70
0
 71
3
 72
15
 73
11
 74
0
 42
0.0000001
 43
0.0000001
 44
0.0000000001
 40
0.0
 40
0.0
 40
0.0
 40
0.0
 40
0.1141465952
 40
0.2373352439
 40
0.366975646
 40
0.4999989181
 40
0.6330223406
 40
0.7626631822
 40
0.8858525235
 40
1.0
 40
1.0
 40
1.0
 40
1.0
 10
17.0798020859
 20
8.7824207835
 30
0.0
 10
16.9394310459
 20
8.8634622079
 30
0.0
 10
16.6621541505
 20
9.0578507096
 30
0.0
 10
16.2806131154
 20
9.4147662548
 30
0.0
 10
15.9290463639
 20
9.8367280788
 30
0.0
 10
15.6206126635
 20
10.3077906706
 30
0.0
 10
15.366874679
 20
10.8104327371
 30
0.0
 10
15.1772250641
 20
11.3258800871
 30
0.0
 10
15.0588937794
 20
11.8347641024
 30
0.0
 10
15.029183883
 20
12.1720891311
 30
0.0
 10
15.029183883
 20
12.3341759813
 30
0.0
  0
SPLINE
  5
33F
100
AcDbEntity
  8
0
100
AcDbSpline
 62
7
  6
BYLAYER
 70
0
 71
3
 72
10
 73
6
 74
0
 42
0.0000001
 43
0.0000001
 44
0.0000000001
 40
0.0
 40
0.0
 40
0.0
 40
0.0
 40
0.2721446021
 40
0.5295116585
 40
1.0
 40
1.0
 40
1.0
 40
1.0
 10
31.8936445505
 20
69.3853598338
 30
0.0
 10
31.5395616776
 20
69.1809312121
 30
0.0
 10
30.8325366325
 20
68.8126191495
 30
0.0
 10
29.4376393513
 20
68.252558219
 30
0.0
 10
28.3559684083
 20
68.0101137611
 30
0.0
 10
27.6510215273
 20
67.9583787726
 30
0.0
  0
SPLINE
  5
340
100
AcDbEntity
  8
0
100
AcDbSpline
 62
7
  6
BYLAYER
 70
0
 71
3
 72
11
 73
7
 74
0
 42
0.0000001
 43
0.0000001
 44
0.0000000001
 40
0.0
 40
0.0
 40
0.0
 40
0.0
 40
0.2896460386
 40
0.5491397239
 40
0.7822617023
 40
1.0
 40
1.0
 40
1.0
 40
1.0
 10
19.1304202888
 20
35.1656854537
 30
0.0
 10
19.1304202888
 20
35.1150274014
 30
0.0
 10
19.1381208169
 20
35.0186600979
 30
0.0
 10
19.177134169
 20
34.8862590568
 30
0.0
 10
19.2428311276
 20
34.7788048407
 30
0.0
 10
19.3045602337
 20
34.7269527144
 30
0.0
 10
19.3375354502
 20
34.7079041738
 30
0.0
  0
SPLINE
  5
341
100
AcDbEntity
  8
0
100
AcDbSpline
 62
7
  6
BYLAYER
 70
0
 71
3
 72
11
 73
7
 74
0
 42
0.0000001
 43
0.0000001
 44
0.0000000001
 40
0.0
 40
0.0
 40
0.0
 40
0.0
 40
0.2634605188
 40
0.5187354724
 40
0.7645804814
 40
1.0
 40
1.0
 40
1.0
 40
1.0
 10
35.8890936901
 20
72.5943113436
 30
0.0
 10
35.5772722922
 20
72.2678615801
 30
0.0
 10
34.9434884573
 20
71.6436540708
 30
0.0
 10
33.9512683905
 20
70.7866316767
 30
0.0
 10
32.9398030648
 20
70.0300420547
 30
0.0
 10
32.2429959275
 20
69.5870567413
 30
0.0
 10
31.8936445505
 20
69.3853598338
 30
0.0
  0
SPLINE
  5
342
100
AcDbEntity
  8
0
100
AcDbSpline
 62
7
  6
BYLAYER
 70
0
 71
3
 72
9
 73
5
 74
0
 42
0.0000001
 43
0.0000001
 44
0.0000000001
 40
0.0
 40
0.0
 40
0.0
 40
0.0
 40
0.4812173213
 40
1.0
 40
1.0
 40
1.0
 40
1.0
 10
36.421820242
 20
73.0221715449
 30
0.0
 10
36.3266663926
 20
72.9672347722
 30
0.0
 10
36.1386567927
 20
72.8358661443
 30
0.0
 10
35.9709102014
 20
72.6799660836
 30
0.0
 10
35.8890936901
 20
72.5943113436
 30
0.0
  0
SPLINE
  5
343
100
AcDbEntity
  8
0
100
AcDbSpline
 62
7
  6
BYLAYER
 70
0
 71
3
 72
9
 73
5
 74
0
 42
0.0000001
 43
0.0000001
 44
0.0000000001
 40
0.0
 40
0.0
 40
0.0
 40
0.0
 40
0.4861728752
 40
1.0
 40
1.0
 40
1.0
 40
1.0
 10
19.9266324751
 20
61.9755145619
 30
0.0
 10
19.9149236688
 20
61.9822748377
 30
0.0
 10
19.8885377836
 20
61.9924781272
 30
0.0
 10
19.86044436
 20
61.9946743801
 30
0.0
 10
19.8461659113
 20
61.99411723
 30
0.0
  0
SPLINE
  5
344
100
AcDbEntity
  8
0
100
AcDbSpline
 62
7
  6
BYLAYER
 70
0
 71
3
 72
9
 73
5
 74
0
 42
0.0000001
 43
0.0000001
 44
0.0000000001
 40
0.0
 40
0.0
 40
0.0
 40
0.0
 40
0.2412459452
 40
1.0
 40
1.0
 40
1.0
 40
1.0
 10
19.8461659113
 20
61.99411723
 30
0.0
 10
19.8423931584
 20
61.9939700158
 30
0.0
 10
19.8267746979
 20
61.9928743011
 30
0.0
 10
19.8113083707
 20
61.9899141477
 30
0.0
 10
19.7998380838
 20
61.9868407733
 30
0.0
  0
SPLINE
  5
345
100
AcDbEntity
  8
0
100
AcDbSpline
 62
7
  6
BYLAYER
 70
0
 71
3
 72
11
 73
7
 74
0
 42
0.0000001
 43
0.0000001
 44
0.0000000001
 40
0.0
 40
0.0
 40
0.0
 40
0.0
 40
0.2897290903
 40
0.5493646724
 40
0.782393474
 40
1.0
 40
1.0
 40
1.0
 40
1.0
 10
22.8778118917
 20
47.3196712839
 30
0.0
 10
22.877893096
 20
47.3704990052
 30
0.0
 10
22.8704312325
 20
47.4672052744
 30
0.0
 10
22.8317513493
 20
47.6001886322
 30
0.0
 10
22.7659010622
 20
47.7080191901
 30
0.0
 10
22.7039882956
 20
47.7599731985
 30
0.0
 10
22.6709289068
 20
47.7790630022
 30
0.0
  0
SPLINE
  5
346
100
AcDbEntity
  8
0
100
AcDbSpline
 62
7
  6
BYLAYER
 70
0
 71
3
 72
11
 73
7
 74
0
 42
0.0000001
 43
0.0000001
 44
0.0000000001
 40
0.0
 40
0.0
 40
0.0
 40
0.0
 40
0.2514829898
 40
0.513942635
 40
0.7690162214
 40
1.0
 40
1.0
 40
1.0
 40
1.0
 10
19.3924662375
 20
61.6709030039
 30
0.0
 10
19.3535548831
 20
61.6363983059
 30
0.0
 10
19.2821022121
 20
61.5565224085
 30
0.0
 10
19.1996738031
 20
61.4195192942
 30
0.0
 10
19.1453192863
 20
61.2736590978
 30
0.0
 10
19.1304202888
 20
61.1730384261
 30
0.0
 10
19.1304202888
 20
61.125271222
 30
0.0
  0
SPLINE
  5
347
100
AcDbEntity
  8
0
100
AcDbSpline
 62
7
  6
BYLAYER
 70
0
 71
3
 72
14
 73
10
 74
0
 42
0.0000001
 43
0.0000001
 44
0.0000000001
 40
0.0
 40
0.0
 40
0.0
 40
0.0
 40
0.2892474877
 40
0.422571007
 40
0.5485181942
 40
0.667892638
 40
0.7818650293
 40
0.8919543638
 40
1.0
 40
1.0
 40
1.0
 40
1.0
 10
15.029183883
 20
60.0995673834
 30
0.0
 10
15.029183883
 20
60.2465430214
 30
0.0
 10
15.0463725355
 20
60.4623152741
 30
0.0
 10
15.1126727894
 20
60.7335241359
 30
0.0
 10
15.1801702159
 20
60.9142450157
 30
0.0
 10
15.2661871702
 20
61.0759360706
 30
0.0
 10
15.3700867978
 20
61.2169969103
 30
0.0
 10
15.4908379037
 20
61.3359116102
 30
0.0
 10
15.5822732057
 20
61.3996776015
 30
0.0
 10
15.629819236
 20
61.4271281528
 30
0.0
  0
SPLINE
  5
348
100
AcDbEntity
  8
0
100
AcDbSpline
 62
7
  6
BYLAYER
 70
0
 71
3
 72
11
 73
7
 74
0
 42
0.0000001
 43
0.0000001
 44
0.0000000001
 40
0.0
 40
0.0
 40
0.0
 40
0.0
 40
0.2177442246
 40
0.4508817658
 40
0.7104588047
 40
1.0
 40
1.0
 40
1.0
 40
1.0
 10
41.0202749046
 20
19.9973876778
 30
0.0
 10
41.0532550967
 20
19.9783469682
 30
0.0
 10
41.1150235409
 20
19.926537966
 30
0.0
 10
41.1807300508
 20
19.8190567985
 30
0.0
 10
41.2196832207
 20
19.6866456812
 30
0.0
 10
41.2274152018
 20
19.5902888457
 30
0.0
 10
41.2274152018
 20
19.5396499868
 30
0.0
  0
SPLINE
  5
349
100
AcDbEntity
  8
0
100
AcDbSpline
 62
7
  6
BYLAYER
 70
0
 71
3
 72
11
 73
7
 74
0
 42
0.0000001
 43
0.0000001
 44
0.0000000001
 40
0.0
 40
0.0
 40
0.0
 40
0.0
 40
0.2896431989
 40
0.549219306
 40
0.7822911829
 40
1.0
 40
1.0
 40
1.0
 40
1.0
 10
22.8778080783
 20
60.0587032273
 30
0.0
 10
22.877846093
 20
60.1093631145
 30
0.0
 10
22.8702498826
 20
60.2057491595
 30
0.0
 10
22.8314318089
 20
60.3382324903
 30
0.0
 10
22.7656700648
 20
60.4456781458
 30
0.0
 10
22.7039062057
 20
60.4974625409
 30
0.0
 10
22.6709301769
 20
60.5165028909
 30
0.0
  0
SPLINE
  5
34A
100
AcDbEntity
  8
0
100
AcDbSpline
 62
7
  6
BYLAYER
 70
0
 71
3
 72
15
 73
11
 74
0
 42
0.0000001
 43
0.0000001
 44
0.0000000001
 40
0.0
 40
0.0
 40
0.0
 40
0.0
 40
0.1141465952
 40
0.2373352439
 40
0.366975646
 40
0.4999989181
 40
0.6330223406
 40
0.7626631822
 40
0.8858525235
 40
1.0
 40
1.0
 40
1.0
 40
1.0
 10
17.0798020859
 20
56.0579107353
 30
0.0
 10
16.9394310459
 20
56.1389521597
 30
0.0
 10
16.6621541505
 20
56.3333406614
 30
0.0
 10
16.2806131154
 20
56.6902562066
 30
0.0
 10
15.9290463639
 20
57.1122180306
 30
0.0
 10
15.6206126635
 20
57.5832806224
 30
0.0
 10
15.366874679
 20
58.0859226889
 30
0.0
 10
15.1772250641
 20
58.6013700389
 30
0.0
 10
15.0588937794
 20
59.1102540542
 30
0.0
 10
15.029183883
 20
59.4475790829
 30
0.0
 10
15.029183883
 20
59.6096659331
 30
0.0
  0
SPLINE
  5
34B
100
AcDbEntity
  8
0
100
AcDbSpline
 62
7
  6
BYLAYER
 70
0
 71
3
 72
14
 73
10
 74
0
 42
0.0000001
 43
0.0000001
 44
0.0000000001
 40
0.0
 40
0.0
 40
0.0
 40
0.0
 40
0.1141243026
 40
0.2374623273
 40
0.4998083865
 40
0.6329116832
 40
0.7626219373
 40
0.8859261008
 40
1.0
 40
1.0
 40
1.0
 40
1.0
 10
22.1709667888
 20
58.017516518
 30
0.0
 10
22.2193301092
 20
58.0454389273
 30
0.0
 10
22.3149198529
 20
58.1125086955
 30
0.0
 10
22.4939561093
 20
58.2798957789
 30
0.0
 10
22.645511144
 20
58.4870632294
 30
0.0
 10
22.7615920621
 20
58.7167055028
 30
0.0
 10
22.8270609531
 20
58.8944793938
 30
0.0
 10
22.8676921041
 20
59.0699294651
 30
0.0
 10
22.8778500191
 20
59.1862015964
 30
0.0
 10
22.8778080777
 20
59.2420219852
 30
0.0
  0
SPLINE
  5
34C
100
AcDbEntity
  8
0
100
AcDbSpline
 62
7
  6
BYLAYER
 70
0
 71
3
 72
12
 73
8
 74
0
 42
0.0000001
 43
0.0000001
 44
0.0000000001
 40
0.0
 40
0.0
 40
0.0
 40
0.0
 40
0.1009699176
 40
0.2053080961
 40
0.4334615048
 40
0.6984216396
 40
1.0
 40
1.0
 40
1.0
 40
1.0
 10
24.2640122875
 20
8.9309883118
 30
0.0
 10
24.2749567246
 20
8.9246702449
 30
0.0
 10
24.2957989164
 20
8.9091972687
 30
0.0
 10
24.3313980373
 20
8.8677583952
 30
0.0
 10
24.3612912702
 20
8.7973079093
 30
0.0
 10
24.3714319632
 20
8.6974119683
 30
0.0
 10
24.3630896939
 20
8.6264575888
 30
0.0
 10
24.3555226401
 20
8.5894789358
 30
0.0
  0
SPLINE
  5
34D
100
AcDbEntity
  8
0
100
AcDbSpline
 62
7
  6
BYLAYER
 70
0
 71
3
 72
11
 73
7
 74
0
 42
0.0000001
 43
0.0000001
 44
0.0000000001
 40
0.0
 40
0.0
 40
0.0
 40
0.0
 40
0.2896431989
 40
0.549219306
 40
0.7822911829
 40
1.0
 40
1.0
 40
1.0
 40
1.0
 10
22.8778080783
 20
12.7832132755
 30
0.0
 10
22.877846093
 20
12.8338731627
 30
0.0
 10
22.8702498826
 20
12.9302592077
 30
0.0
 10
22.8314318089
 20
13.0627425385
 30
0.0
 10
22.7656700648
 20
13.170188194
 30
0.0
 10
22.7039062057
 20
13.2219725891
 30
0.0
 10
22.6709301769
 20
13.2410129391
 30
0.0
  0
SPLINE
  5
34E
100
AcDbEntity
  8
0
100
AcDbSpline
 62
7
  6
BYLAYER
 70
0
 71
3
 72
10
 73
6
 74
0
 42
0.0000001
 43
0.0000001
 44
0.0000000001
 40
0.0
 40
0.0
 40
0.0
 40
0.0
 40
0.5260807597
 40
0.7670645305
 40
1.0
 40
1.0
 40
1.0
 40
1.0
 10
20.285484246
 20
61.1669238984
 30
0.0
 10
20.2579135876
 20
61.1595365543
 30
0.0
 10
20.2154388037
 20
61.154376388
 30
0.0
 10
20.1617755486
 20
61.1644216185
 30
0.0
 10
20.1379342622
 20
61.1747516774
 30
0.0
 10
20.1269891833
 20
61.1810706787
 30
0.0
  0
SPLINE
  5
34F
100
AcDbEntity
  8
0
100
AcDbSpline
 62
7
  6
BYLAYER
 70
0
 71
3
 72
14
 73
10
 74
0
 42
0.0000001
 43
0.0000001
 44
0.0000000001
 40
0.0
 40
0.0
 40
0.0
 40
0.0
 40
0.2892474877
 40
0.422571007
 40
0.5485181942
 40
0.667892638
 40
0.7818650293
 40
0.8919543638
 40
1.0
 40
1.0
 40
1.0
 40
1.0
 10
15.029183883
 20
47.3621296761
 30
0.0
 10
15.029183883
 20
47.5091053142
 30
0.0
 10
15.0463725355
 20
47.7248775668
 30
0.0
 10
15.1126727894
 20
47.9960864287
 30
0.0
 10
15.1801702159
 20
48.1768073085
 30
0.0
 10
15.2661871702
 20
48.3384983633
 30
0.0
 10
15.3700867978
 20
48.4795592031
 30
0.0
 10
15.4908379037
 20
48.598473903
 30
0.0
 10
15.5822732057
 20
48.6622398943
 30
0.0
 10
15.629819236
 20
48.6896904455
 30
0.0
  0
SPLINE
  5
350
100
AcDbEntity
  8
0
100
AcDbSpline
 62
7
  6
BYLAYER
 70
0
 71
3
 72
15
 73
11
 74
0
 42
0.0000001
 43
0.0000001
 44
0.0000000001
 40
0.0
 40
0.0
 40
0.0
 40
0.0
 40
0.1141465952
 40
0.2373352439
 40
0.366975646
 40
0.4999989181
 40
0.6330223406
 40
0.7626631822
 40
0.8858525235
 40
1.0
 40
1.0
 40
1.0
 40
1.0
 10
17.0798020859
 20
43.3204730281
 30
0.0
 10
16.9394310459
 20
43.4015144524
 30
0.0
 10
16.6621541505
 20
43.5959029542
 30
0.0
 10
16.2806131154
 20
43.9528184994
 30
0.0
 10
15.9290463639
 20
44.3747803234
 30
0.0
 10
15.6206126635
 20
44.8458429152
 30
0.0
 10
15.366874679
 20
45.3484849817
 30
0.0
 10
15.1772250641
 20
45.8639323317
 30
0.0
 10
15.0588937794
 20
46.3728163469
 30
0.0
 10
15.029183883
 20
46.7101413756
 30
0.0
 10
15.029183883
 20
46.8722282259
 30
0.0
  0
SPLINE
  5
351
100
AcDbEntity
  8
0
100
AcDbSpline
 62
7
  6
BYLAYER
 70
0
 71
3
 72
9
 73
5
 74
0
 42
0.0000001
 43
0.0000001
 44
0.0000000001
 40
0.0
 40
0.0
 40
0.0
 40
0.0
 40
0.5324907192
 40
1.0
 40
1.0
 40
1.0
 40
1.0
 10
20.4684961859
 20
61.2725852605
 30
0.0
 10
20.4402489987
 20
61.2475370277
 30
0.0
 10
20.3830995606
 20
61.2048190218
 30
0.0
 10
20.3175010916
 20
61.1755025639
 30
0.0
 10
20.285484246
 20
61.1669238984
 30
0.0
  0
SPLINE
  5
352
100
AcDbEntity
  8
0
100
AcDbSpline
 62
7
  6
BYLAYER
 70
0
 71
3
 72
10
 73
6
 74
0
 42
0.0000001
 43
0.0000001
 44
0.0000000001
 40
0.0
 40
0.0
 40
0.0
 40
0.0
 40
0.2765102871
 40
0.5352897952
 40
1.0
 40
1.0
 40
1.0
 40
1.0
 10
20.8274524231
 20
10.946114799
 30
0.0
 10
20.9084310429
 20
10.8993628287
 30
0.0
 10
21.0701545047
 20
10.8167939883
 30
0.0
 10
21.3876034703
 20
10.6996918362
 30
0.0
 10
21.6347527521
 20
10.661564701
 30
0.0
 10
21.7917865551
 20
10.6675483154
 30
0.0
  0
SPLINE
  5
353
100
AcDbEntity
  8
0
100
AcDbSpline
 62
7
  6
BYLAYER
 70
0
 71
3
 72
10
 73
6
 74
0
 42
0.0000001
 43
0.0000001
 44
0.0000000001
 40
0.0
 40
0.0
 40
0.0
 40
0.0
 40
0.5219161978
 40
0.7675935777
 40
1.0
 40
1.0
 40
1.0
 40
1.0
 10
19.8314030882
 20
11.8192830238
 30
0.0
 10
19.9782060545
 20
11.640305277
 30
0.0
 10
20.2142843453
 20
11.3921383695
 30
0.0
 10
20.5604338333
 20
11.1141277194
 30
0.0
 10
20.7381838508
 20
10.9976528674
 30
0.0
 10
20.8274524231
 20
10.946114799
 30
0.0
  0
SPLINE
  5
354
100
AcDbEntity
  8
0
100
AcDbSpline
 62
7
  6
BYLAYER
 70
0
 71
3
 72
14
 73
10
 74
0
 42
0.0000001
 43
0.0000001
 44
0.0000000001
 40
0.0
 40
0.0
 40
0.0
 40
0.0
 40
0.1141483157
 40
0.2375212293
 40
0.49992904
 40
0.633046661
 40
0.762746818
 40
0.8859886572
 40
1.0
 40
1.0
 40
1.0
 40
1.0
 10
22.1709667888
 20
10.7420265662
 30
0.0
 10
22.2193926888
 20
10.7699851057
 30
0.0
 10
22.315103163
 20
10.8371558136
 30
0.0
 10
22.4943350412
 20
11.0048103797
 30
0.0
 10
22.6460006171
 20
11.212317611
 30
0.0
 10
22.7620767549
 20
11.4423110248
 30
0.0
 10
22.827481425
 20
11.6202991265
 30
0.0
 10
22.8679194696
 20
11.7959322503
 30
0.0
 10
22.8779012852
 20
11.9122807382
 30
0.0
 10
22.8778118916
 20
11.9681308977
 30
0.0
  0
ELLIPSE
  5
355
100
AcDbEntity
  8
0
100
AcDbEllipse
 62
7
  6
BYLAYER
 10
26.1725570572
 20
50.9380032318
 30
0.0
 11
6.4579127864
 21
5.8943204638
 31
0.0
 40
0.2589889637
 41
2.7085111387
 42
3.664780817
  0
ELLIPSE
  5
356
100
AcDbEntity
  8
0
100
AcDbEllipse
 62
7
  6
BYLAYER
 10
26.1725570572
 20
63.675440939
 30
0.0
 11
6.4579127864
 21
5.8943204638
 31
0.0
 40
0.2589889637
 41
2.7085111387
 42
3.664780817
  0
ENDSEC
  0
SECTION
  2
OBJECTS
  0
DICTIONARY
  5
C
100
AcDbDictionary
280
0
281
1
  3
ACAD_GROUP
350
D
  3
ACAD_MLINESTYLE
350
17
  3
ACAD_LAYOUT
350
1A
  3
ACAD_PLOTSETTINGS
350
19
  3
ACAD_PLOTSTYLENAME
350
E
  0
DICTIONARY
  5
D
102
{ACAD_REACTORS
330
C
102
}
100
AcDbDictionary
280
0
281
1
  0
ACDBDICTIONARYWDFLT
  5
E
102
{ACAD_REACTORS
330
C
102
}
100
AcDbDictionary
281
1
  3
Normal
350
F
100
AcDbDictionaryWithDefault
340
F
  0
DICTIONARY
  5
17
102
{ACAD_REACTORS
330
C
102
}
100
AcDbDictionary
280
0
281
1
  3
Standard
350
18
  0
DICTIONARY
  5
19
102
{ACAD_REACTORS
330
C
102
}
100
AcDbDictionary
281
1
  0
DICTIONARY
  5
1A
102
{ACAD_REACTORS
330
C
102
}
100
AcDbDictionary
281
1
  3
Model
350
357
  3
Layout1
350
358
  0
ACDBPLACEHOLDER
  5
F
102
{ACAD_REACTORS
330
E
102
}
  0
MLINESTYLE
  5
18
102
{ACAD_REACTORS
330
17
102
}
100
AcDbMlineStyle
  2
STANDARD
 70
0
  3

 62
256
 51
90.0
 52
90.0
 71
2
 49
0.5
 62
256
  6
BYLAYER
 49
-0.5
 62
256
  6
BYLAYER
  0
LAYOUT
  5
357
102
{ACAD_REACTORS
330
1A
102
}
100
AcDbPlotSettings
  1

  2
none_device
  4

  6

 40
0.0
 41
0.0
 42
0.0
 43
0.0
 44
210.0
 45
297.0
 46
0.0
 47
0.0
 48
0.0
 49
0.0
140
0.0
141
0.0
142
1.0
143
1.0
 70
1024
 72
1
 73
0
 74
0
  7

 75
0
147
1.0
148
0.0
149
0.0
100
AcDbLayout
  1
Model
 70
0
 71
0
 10
0.0
 20
0.0
 11
210.0
 21
297.0
 12
0.0
 22
0.0
 32
0.0
 14
0.0
 24
0.0
 34
0.0
 15
0.0
 25
0.0
 35
0.0
146
0.0
 13
0.0
 23
0.0
 33
0.0
 16
1.0
 26
0.0
 36
0.0
 17
0.0
 27
1.0
 37
0.0
 76
0
330
210
345
0
346
0
  0
LAYOUT
  5
358
102
{ACAD_REACTORS
330
1A
102
}
100
AcDbPlotSettings
  1

  2
none_device
  4

  6

 40
0.0
 41
0.0
 42
0.0
 43
0.0
 44
210.0
 45
297.0
 46
0.0
 47
0.0
 48
0.0
 49
0.0
140
0.0
141
0.0
142
1.0
143
1.0
 70
0
 72
1
 73
0
 74
0
  7

 75
0
147
1.0
148
0.0
149
0.0
100
AcDbLayout
  1
Layout1
 70
0
 71
1
 10
0.0
 20
0.0
 11
210.0
 21
297.0
 12
0.0
 22
0.0
 32
0.0
 14
0.0
 24
0.0
 34
0.0
 15
0.0
 25
0.0
 35
0.0
146
0.0
 13
0.0
 23
0.0
 33
0.0
 16
1.0
 26
0.0
 36
0.0
 17
0.0
 27
1.0
 37
0.0
 76
0
330
211
345
0
346
0
  0
ENDSEC
  0
EOF
