999
DXF file: C:\Users\SESA654545\Desktop\sachin babu tesys\Gen2D (4)\Gen2D\CAD\SB115100_3D-CAD\drw0001_1.dxf
999
Pro/ENGINEER 2019471 by Parametric Technology Corporation
  0
SECTION
  2
HEADER
  9
$ACADVER
  1
AC1024
  9
$DWGCODEPAGE
  3
ANSI_1252
  9
$EXTMAX
 10
75.2830421985
 20
106.4717311092
 30
0.0
  9
$EXTMIN
 10
0.0
 20
0.0
 30
0.0
  9
$LIMMIN
 10
0.0
 20
0.0
  9
$LIMMAX
 10
75.2830421985
 20
106.4717311092
  9
$VIEWCTR
 10
37.6415210992
 20
53.2358655546
  9
$VIEWSIZE
 40
106.4717311092
  9
$CLAYER
  8
0
  9
$LTSCALE
 40
6.9403795093
  9
$CELTYPE
  6
BYLAYER
  9
$DIMSCALE
 40
1.0
  9
$DIMASZ
 40
0.8962266928
  9
$DIMEXO
 40
1.0
  9
$DIMDLI
 40
4.7951712974
  9
$DIMEXE
 40
1.0
  9
$DIMCEN
 40
1.1356984652
  9
$DIMLFAC
 40
1.0
  9
$DIMBLK
  1
_FILLED
  9
$DIMALT
 70
0
  9
$DIMALTF
 40
0.0393700787
  9
$DIMTXT
 40
1.25471737
  9
$DIMTOL
 70
1
  9
$DIMLIM
 70
0
  9
$DIMTFAC
 40
1.0
  9
$DIMTP
 40
0.01
  9
$DIMTM
 40
0.01
  9
$DIMGAP
 40
0.625
  9
$DIMDSEP
 70
46
  9
$AUNITS
 70
0
  9
$PDMODE
 70
3
  9
$PDSIZE
 40
0.3125
  9
$HANDSEED
  5
2E6
  9
$TILEMODE
 70
1
  9
$MEASUREMENT
 70
1
  9
$INSUNITS
 70
4
  0
ENDSEC
  0
SECTION
  2
CLASSES
  0
CLASS
  1
ACDBDICTIONARYWDFLT
  2
AcDbDictionaryWithDefault
  3
AutoCAD 2000
 90
0
 91
1
280
0
281
0
  0
CLASS
  1
ACDBPLACEHOLDER
  2
AcDbPlaceHolder
  3
AutoCAD 2000
 90
0
 91
1
280
0
281
0
  0
CLASS
  1
LAYOUT
  2
AcDbLayout
  3
AutoCAD 2000
 90
0
 91
0
280
0
281
0
  0
ENDSEC
  0
SECTION
  2
TABLES
  0
TABLE
  2
VPORT
  5
8
100
AcDbSymbolTable
 70
2
  0
VPORT
  5
1F4
100
AcDbSymbolTableRecord
100
AcDbViewportTableRecord
  2
*ACTIVE
 70
0
 10
0.0
 20
0.0
 11
1.0
 21
1.0
 12
37.6415210992
 22
53.2358655546
 13
0.0
 23
0.0
 14
1.0
 24
1.0
 15
0.0
 25
0.0
 16
0.0
 26
0.0
 36
1.0
 17
0.0
 27
0.0
 37
0.0
 40
106.4717311092
 41
0.7070707071
 42
50.0
 43
0.0
 44
0.0
 50
0.0
 51
0.0
 71
0
 72
100
 73
1
 74
1
 75
0
 76
0
 77
0
 78
0
  0
ENDTAB
  0
TABLE
  2
LTYPE
  5
5
100
AcDbSymbolTable
 70
6
  0
LTYPE
  5
14
100
AcDbSymbolTableRecord
100
AcDbLinetypeTableRecord
  2
BYBLOCK
 70
0
  3

 72
65
 73
0
 40
0.0
  0
LTYPE
  5
15
100
AcDbSymbolTableRecord
100
AcDbLinetypeTableRecord
  2
BYLAYER
 70
0
  3

 72
65
 73
0
 40
0.0
  0
LTYPE
  5
16
100
AcDbSymbolTableRecord
100
AcDbLinetypeTableRecord
  2
CONTINUOUS
 70
64
  3
Solid line
 72
65
 73
0
 40
0.0
  0
LTYPE
  5
1F5
100
AcDbSymbolTableRecord
100
AcDbLinetypeTableRecord
  2
CENTER
 70
64
  3
____ _ ____ _ ____ _ ____ _ ____ _ ____ _ ____
 72
65
 73
4
 40
0.6
 49
0.375
 74
0
 49
-0.075
 74
0
 49
0.075
 74
0
 49
-0.075
 74
0
  0
LTYPE
  5
1F6
100
AcDbSymbolTableRecord
100
AcDbLinetypeTableRecord
  2
HIDDEN
 70
64
  3
- - - - - - - - - - - - - - - - - - - -
 72
65
 73
2
 40
0.2
 49
0.1
 74
0
 49
-0.1
 74
0
  0
LTYPE
  5
1F7
100
AcDbSymbolTableRecord
100
AcDbLinetypeTableRecord
  2
PHANTOM
 70
64
  3
_____ _ _ _____ _ _ _____ _ _ _____
 72
65
 73
6
 40
0.8
 49
0.45
 74
0
 49
-0.05
 74
0
 49
0.1
 74
0
 49
-0.05
 74
0
 49
0.1
 74
0
 49
-0.05
 74
0
  0
LTYPE
  5
1F8
100
AcDbSymbolTableRecord
100
AcDbLinetypeTableRecord
  2
DOT
 70
64
  3
. . . . . . . . . . . . . . . . . . . .
 72
65
 73
2
 40
0.2
 49
0.1
 74
0
 49
-0.1
 74
0
  0
LTYPE
  5
1F9
100
AcDbSymbolTableRecord
100
AcDbLinetypeTableRecord
  2
DASHED
 70
64
  3
- - - - - - - - - - - - - - - - - - - -
 72
65
 73
2
 40
0.2
 49
0.1
 74
0
 49
-0.1
 74
0
  0
ENDTAB
  0
TABLE
  2
LAYER
  5
2
100
AcDbSymbolTable
 70
36
  0
LAYER
  5
10
100
AcDbSymbolTableRecord
100
AcDbLayerTableRecord
  2
0
 70
0
 62
7
  6
CONTINUOUS
370
-3
390
F
  0
LAYER
  5
1FA
100
AcDbSymbolTableRecord
100
AcDbLayerTableRecord
  2
DEFAULT_1
 70
0
 62
7
  6
CENTER
370
-3
390
F
  0
LAYER
  5
1FB
100
AcDbSymbolTableRecord
100
AcDbLayerTableRecord
  2
DEFAULT_2
 70
0
 62
8
  6
HIDDEN
370
-3
390
F
  0
LAYER
  5
1FC
100
AcDbSymbolTableRecord
100
AcDbLayerTableRecord
  2
DEFAULT_3
 70
0
 62
7
  6
PHANTOM
370
-3
390
F
  0
LAYER
  5
1FD
100
AcDbSymbolTableRecord
100
AcDbLayerTableRecord
  2
00_COMPONENTS
 70
0
 62
7
  6
CONTINUOUS
370
-3
390
F
  0
LAYER
  5
1FE
100
AcDbSymbolTableRecord
100
AcDbLayerTableRecord
  2
01_1_DEFAULT_DATUMS
 70
0
 62
7
  6
CONTINUOUS
370
-3
390
F
  0
LAYER
  5
1FF
100
AcDbSymbolTableRecord
100
AcDbLayerTableRecord
  2
01_PLANES
 70
0
 62
7
  6
CONTINUOUS
370
-3
390
F
  0
LAYER
  5
200
100
AcDbSymbolTableRecord
100
AcDbLayerTableRecord
  2
02_COORD_SYS
 70
0
 62
7
  6
CONTINUOUS
370
-3
390
F
  0
LAYER
  5
201
100
AcDbSymbolTableRecord
100
AcDbLayerTableRecord
  2
03_AXES
 70
0
 62
7
  6
CONTINUOUS
370
-3
390
F
  0
LAYER
  5
202
100
AcDbSymbolTableRecord
100
AcDbLayerTableRecord
  2
04_POINTS
 70
0
 62
7
  6
CONTINUOUS
370
-3
390
F
  0
LAYER
  5
203
100
AcDbSymbolTableRecord
100
AcDbLayerTableRecord
  2
05_CURVES
 70
0
 62
7
  6
CONTINUOUS
370
-3
390
F
  0
LAYER
  5
204
100
AcDbSymbolTableRecord
100
AcDbLayerTableRecord
  2
06_SURFS
 70
0
 62
7
  6
CONTINUOUS
370
-3
390
F
  0
LAYER
  5
205
100
AcDbSymbolTableRecord
100
AcDbLayerTableRecord
  2
07_COSMETICS
 70
0
 62
7
  6
CONTINUOUS
370
-3
390
F
  0
LAYER
  5
206
100
AcDbSymbolTableRecord
100
AcDbLayerTableRecord
  2
10_NOTES
 70
0
 62
7
  6
CONTINUOUS
370
-3
390
F
  0
LAYER
  5
207
100
AcDbSymbolTableRecord
100
AcDbLayerTableRecord
  2
11_NOTES_PUB
 70
0
 62
7
  6
CONTINUOUS
370
-3
390
F
  0
LAYER
  5
208
100
AcDbSymbolTableRecord
100
AcDbLayerTableRecord
  2
13_REF_GTOL
 70
0
 62
7
  6
CONTINUOUS
370
-3
390
F
  0
LAYER
  5
209
100
AcDbSymbolTableRecord
100
AcDbLayerTableRecord
  2
16_MISC
 70
0
 62
7
  6
CONTINUOUS
370
-3
390
F
  0
LAYER
  5
20A
100
AcDbSymbolTableRecord
100
AcDbLayerTableRecord
  2
17_NO_PRINT
 70
0
 62
7
  6
CONTINUOUS
370
-3
390
F
  0
LAYER
  5
20B
100
AcDbSymbolTableRecord
100
AcDbLayerTableRecord
  2
18_DATUM_CAMS_JOINTS
 70
0
 62
7
  6
CONTINUOUS
370
-3
390
F
  0
LAYER
  5
20C
100
AcDbSymbolTableRecord
100
AcDbLayerTableRecord
  2
19_DATUM_FUNCTIONAL
 70
0
 62
7
  6
CONTINUOUS
370
-3
390
F
  0
LAYER
  5
20D
100
AcDbSymbolTableRecord
100
AcDbLayerTableRecord
  2
20_DATUM_KINEMATIC_SCHEME
 70
0
 62
7
  6
CONTINUOUS
370
-3
390
F
  0
ENDTAB
  0
TABLE
  2
STYLE
  5
3
100
AcDbSymbolTable
 70
1
  0
STYLE
  5
11
100
AcDbSymbolTableRecord
100
AcDbTextStyleTableRecord
  2
STANDARD
 70
0
 40
0.0
 41
0.8
 50
0.0
 71
0
 42
0.2
  3
txt
  4

  0
STYLE
  5
20E
100
AcDbSymbolTableRecord
100
AcDbTextStyleTableRecord
  2
TEXTSTYLE_1
 70
0
 40
0.0
 41
0.8
 50
0.0
 71
0
 42
0.2
  3
gdt
  4

  0
ENDTAB
  0
TABLE
  2
VIEW
  5
6
100
AcDbSymbolTable
 70
0
  0
ENDTAB
  0
TABLE
  2
UCS
  5
7
100
AcDbSymbolTable
 70
0
  0
ENDTAB
  0
TABLE
  2
APPID
  5
9
100
AcDbSymbolTable
 70
1
  0
APPID
  5
20F
100
AcDbSymbolTableRecord
100
AcDbRegAppTableRecord
  2
ACAD
 70
0
  0
ENDTAB
  0
TABLE
  2
BLOCK_RECORD
  5
1
100
AcDbSymbolTable
 70
0
  0
BLOCK_RECORD
  5
210
100
AcDbSymbolTableRecord
100
AcDbBlockTableRecord
  2
*Model_Space
  0
BLOCK_RECORD
  5
211
100
AcDbSymbolTableRecord
100
AcDbBlockTableRecord
  2
*Paper_Space
  0
BLOCK_RECORD
  5
212
100
AcDbSymbolTableRecord
100
AcDbBlockTableRecord
  2
_FILLED
  0
ENDTAB
  0
TABLE
  2
DIMSTYLE
  5
A
100
AcDbSymbolTable
 70
1
100
AcDbDimStyleTable
 71
0
  0
DIMSTYLE
105
213
100
AcDbSymbolTableRecord
100
AcDbDimStyleTableRecord
  2
STANDARD
 70
0
  3

  4

 40
1.0
 41
0.8962266928
 42
1.0
 43
0.38
 44
1.0
 45
0.0
 46
0.0
 47
0.01
 48
0.01
140
1.25471737
141
0.09
142
0.0
143
25.4
144
1.0
145
0.0
146
1.0
147
0.625
 71
1
 72
0
 73
0
 74
0
 75
0
 76
0
 77
1
 78
8
 79
2
170
0
171
1
172
0
173
0
174
0
175
0
176
0
177
0
178
0
270
2
179
2
271
2
272
2
273
2
274
2
275
0
280
0
281
0
282
0
283
1
284
8
285
0
286
0
287
3
288
0
340
11
278
46
341
212
342
212
343
212
344
212
  0
ENDTAB
  0
ENDSEC
  0
SECTION
  2
BLOCKS
  0
BLOCK
  5
20
100
AcDbEntity
  8
0
100
AcDbBlockBegin
  2
*Model_Space
 70
0
 10
0.0
 20
0.0
 30
0.0
  3
*Model_Space
  1

  0
ENDBLK
  5
21
100
AcDbEntity
  8
0
100
AcDbBlockEnd
  0
BLOCK
  5
1C
100
AcDbEntity
  8
0
100
AcDbBlockBegin
  2
*Paper_Space
 70
0
 10
0.0
 20
0.0
 30
0.0
  3
*Paper_Space
  1

  0
ENDBLK
  5
1D
100
AcDbEntity
  8
0
100
AcDbBlockEnd
  0
BLOCK
  5
214
100
AcDbEntity
  8
0
100
AcDbBlockBegin
  2
_FILLED
 70
64
 10
0.0
 20
0.0
  3
_FILLED
  1

  0
SOLID
  5
215
100
AcDbEntity
  8
0
  6
BYBLOCK
 62
0
100
AcDbTrace
 10
0.0
 20
0.0
 11
-1.0
 21
0.25
 12
-1.0
 22
-0.25
 13
-1.0
 23
-0.25
  0
ENDBLK
  5
216
100
AcDbEntity
  8
0
  6
BYBLOCK
 62
0
100
AcDbBlockEnd
  0
ENDSEC
  0
SECTION
  2
ENTITIES
  0
LINE
  5
217
100
AcDbEntity
  8
0
100
AcDbLine
 62
7
  6
CONTINUOUS
 10
8.733699047
 20
44.2374803007
 11
8.733699047
 21
71.3357526894
  0
LINE
  5
218
100
AcDbEntity
  8
0
100
AcDbLine
 62
7
  6
CONTINUOUS
 10
8.8044182626
 20
38.634856441
 11
8.8044182626
 21
71.2949531262
  0
LINE
  5
219
100
AcDbEntity
  8
0
100
AcDbLine
 62
7
  6
CONTINUOUS
 10
8.733699047
 20
71.3357526894
 11
33.238289721
 21
85.4834002613
  0
LINE
  5
21A
100
AcDbEntity
  8
0
100
AcDbLine
 62
7
  6
CONTINUOUS
 10
8.8044182626
 20
71.2949531262
 11
35.1793913907
 21
86.5224600656
  0
LINE
  5
21B
100
AcDbEntity
  8
0
100
AcDbLine
 62
7
  6
CONTINUOUS
 10
23.2505634935
 20
77.716641655
 11
29.6852084122
 21
81.4316634553
  0
LINE
  5
21C
100
AcDbEntity
  8
0
100
AcDbLine
 62
7
  6
CONTINUOUS
 10
33.1783060784
 20
82.7952016487
 11
36.572404497
 21
84.7547735873
  0
LINE
  5
21D
100
AcDbEntity
  8
0
100
AcDbLine
 62
7
  6
CONTINUOUS
 10
23.9576854379
 20
77.3083938459
 11
29.6852084122
 21
80.6151610381
  0
LINE
  5
21E
100
AcDbEntity
  8
0
100
AcDbLine
 62
7
  6
CONTINUOUS
 10
24.523373218
 20
76.9818012423
 11
29.6852131225
 21
79.9619731114
  0
LINE
  5
21F
100
AcDbEntity
  8
0
100
AcDbLine
 62
7
  6
CONTINUOUS
 10
38.7150925139
 20
20.2091166352
 11
37.5130059811
 21
20.9031259178
  0
LINE
  5
220
100
AcDbEntity
  8
0
100
AcDbLine
 62
7
  6
CONTINUOUS
 10
29.1691112244
 20
25.7203668212
 11
27.9670246917
 21
26.4143761039
  0
LINE
  5
221
100
AcDbEntity
  8
0
100
AcDbLine
 62
7
  6
CONTINUOUS
 10
19.6231299349
 20
31.2316170072
 11
18.4210434022
 21
31.9256262899
  0
LINE
  5
222
100
AcDbEntity
  8
0
100
AcDbLine
 62
7
  6
CONTINUOUS
 10
8.8044182626
 20
38.634856441
 11
37.596021317
 21
22.0123927175
  0
LINE
  5
223
100
AcDbEntity
  8
0
100
AcDbLine
 62
7
  6
CONTINUOUS
 10
14.7087703366
 20
60.7825297759
 11
14.7087703366
 21
62.4971848519
  0
LINE
  5
224
100
AcDbEntity
  8
0
100
AcDbLine
 62
7
  6
CONTINUOUS
 10
14.7087703366
 20
63.5586379942
 11
14.7087703366
 21
63.5810841583
  0
LINE
  5
225
100
AcDbEntity
  8
0
100
AcDbLine
 62
7
  6
CONTINUOUS
 10
29.3453299386
 20
76.9896344168
 11
29.6852131225
 21
77.1858648932
  0
LINE
  5
226
100
AcDbEntity
  8
0
100
AcDbLine
 62
7
  6
CONTINUOUS
 10
39.0166095969
 20
24.47290936
 11
39.3701644595
 21
24.2687889827
  0
LINE
  5
227
100
AcDbEntity
  8
0
100
AcDbLine
 62
7
  6
CONTINUOUS
 10
42.3213521121
 20
23.842605707
 11
41.5437006483
 21
24.291572832
  0
LINE
  5
228
100
AcDbEntity
  8
0
100
AcDbLine
 62
7
  6
CONTINUOUS
 10
15.6280129792
 20
61.966471871
 11
15.6280129792
 21
60.251816795
  0
LINE
  5
229
100
AcDbEntity
  8
0
100
AcDbLine
 62
7
  6
CONTINUOUS
 10
38.2694960994
 20
79.8558682161
 11
41.663594518
 21
81.8154401547
  0
LINE
  5
22A
100
AcDbEntity
  8
0
100
AcDbLine
 62
7
  6
CONTINUOUS
 10
35.9077739935
 20
77.8391448155
 11
29.4731290748
 21
74.1241230153
  0
LINE
  5
22B
100
AcDbEntity
  8
0
100
AcDbLine
 62
7
  6
CONTINUOUS
 10
13.5838925698
 20
64.2080717834
 11
12.6646340421
 21
63.6773407931
  0
LINE
  5
22C
100
AcDbEntity
  8
0
100
AcDbLine
 62
7
  6
CONTINUOUS
 10
18.3503995521
 20
65.7837029401
 11
44.7253726802
 21
81.0112098795
  0
LINE
  5
22D
100
AcDbEntity
  8
0
100
AcDbLine
 62
7
  6
CONTINUOUS
 10
14.7204211198
 20
63.5653645369
 11
14.7087703366
 21
63.5586379942
  0
LINE
  5
22E
100
AcDbEntity
  8
0
100
AcDbLine
 62
7
  6
CONTINUOUS
 10
42.3336205591
 20
24.2577375938
 11
41.909354724
 21
24.5026820513
  0
LINE
  5
22F
100
AcDbEntity
  8
0
100
AcDbLine
 62
7
  6
CONTINUOUS
 10
38.0202871521
 20
26.8359676313
 11
37.596021317
 21
27.080912084
  0
LINE
  5
230
100
AcDbEntity
  8
0
100
AcDbLine
 62
7
  6
CONTINUOUS
 10
8.733699047
 20
44.2374803007
 11
8.8044182626
 21
44.1966514662
  0
LINE
  5
231
100
AcDbEntity
  8
0
100
AcDbLine
 62
7
  6
CONTINUOUS
 10
43.2406006428
 20
24.518389258
 11
43.0128468466
 21
24.6498867331
  0
LINE
  5
232
100
AcDbEntity
  8
0
100
AcDbLine
 62
7
  6
CONTINUOUS
 10
18.3503995521
 20
33.123606255
 11
18.3503995521
 21
65.7837029401
  0
LINE
  5
233
100
AcDbEntity
  8
0
100
AcDbLine
 62
7
  6
CONTINUOUS
 10
18.4210434022
 20
31.9256262899
 11
18.4210434022
 21
33.0828209318
  0
LINE
  5
234
100
AcDbEntity
  8
0
100
AcDbLine
 62
7
  6
CONTINUOUS
 10
20.04739577
 20
32.1438671964
 11
20.04739577
 21
31.4765740048
  0
LINE
  5
235
100
AcDbEntity
  8
0
100
AcDbLine
 62
7
  6
CONTINUOUS
 10
15.2713596011
 20
62.8219939764
 11
14.7087703366
 21
62.4971848519
  0
LINE
  5
236
100
AcDbEntity
  8
0
100
AcDbLine
 62
7
  6
CONTINUOUS
 10
32.796544783
 20
72.205391469
 11
39.2311897017
 21
75.9204132692
  0
LINE
  5
237
100
AcDbEntity
  8
0
100
AcDbLine
 62
7
  6
CONTINUOUS
 10
15.6396588774
 20
61.9731955933
 11
15.6280129792
 21
61.966471871
  0
LINE
  5
238
100
AcDbEntity
  8
0
100
AcDbLine
 62
7
  6
CONTINUOUS
 10
42.7242873678
 20
77.2839514627
 11
46.1183857865
 21
79.2435234012
  0
LINE
  5
239
100
AcDbEntity
  8
0
100
AcDbLine
 62
7
  6
CONTINUOUS
 10
33.5036667274
 20
71.7971436599
 11
39.2311897017
 21
75.1039108521
  0
LINE
  5
23A
100
AcDbEntity
  8
0
100
AcDbLine
 62
7
  6
CONTINUOUS
 10
15.6280129792
 20
61.3132515951
 11
14.7087703366
 21
60.7825297759
  0
LINE
  5
23B
100
AcDbEntity
  8
0
100
AcDbLine
 62
7
  6
CONTINUOUS
 10
34.0693545075
 20
71.4705510563
 11
39.231194412
 21
74.4507229254
  0
LINE
  5
23C
100
AcDbEntity
  8
0
100
AcDbLine
 62
7
  6
CONTINUOUS
 10
41.2665714211
 20
28.3700457176
 11
41.6201262837
 21
28.1659253403
  0
LINE
  5
23D
100
AcDbEntity
  8
0
100
AcDbLine
 62
7
  6
CONTINUOUS
 10
38.8913112281
 20
71.4783842308
 11
39.231194412
 21
71.6746147072
  0
LINE
  5
23E
100
AcDbEntity
  8
0
100
AcDbLine
 62
7
  6
CONTINUOUS
 10
24.254751626
 20
55.2712795899
 11
24.254751626
 21
56.9859346659
  0
LINE
  5
23F
100
AcDbEntity
  8
0
100
AcDbLine
 62
7
  6
CONTINUOUS
 10
24.254751626
 20
58.0473878081
 11
24.254751626
 21
58.0698339723
  0
LINE
  5
240
100
AcDbEntity
  8
0
100
AcDbLine
 62
7
  6
CONTINUOUS
 10
25.1739942687
 20
56.455221685
 11
25.1739942687
 21
54.740566609
  0
LINE
  5
241
100
AcDbEntity
  8
0
100
AcDbLine
 62
7
  6
CONTINUOUS
 10
47.8154773889
 20
74.3446180301
 11
51.2095758075
 21
76.3041899687
  0
LINE
  5
242
100
AcDbEntity
  8
0
100
AcDbLine
 62
7
  6
CONTINUOUS
 10
45.453755283
 20
72.3278946295
 11
39.0191103643
 21
68.6128728292
  0
LINE
  5
243
100
AcDbEntity
  8
0
100
AcDbLine
 62
7
  6
CONTINUOUS
 10
23.1298738593
 20
58.6968215974
 11
22.2106153316
 21
58.166090607
  0
LINE
  5
244
100
AcDbEntity
  8
0
100
AcDbLine
 62
7
  6
CONTINUOUS
 10
27.8963808416
 20
27.6123560689
 11
27.8963808416
 21
60.2724527541
  0
LINE
  5
245
100
AcDbEntity
  8
0
100
AcDbLine
 62
7
  6
CONTINUOUS
 10
27.9670246917
 20
26.4143761039
 11
27.9670246917
 21
27.5715707458
  0
LINE
  5
246
100
AcDbEntity
  8
0
100
AcDbLine
 62
7
  6
CONTINUOUS
 10
29.3453299386
 20
76.9896344168
 11
29.3453299386
 21
74.1979062117
  0
LINE
  5
247
100
AcDbEntity
  8
0
100
AcDbLine
 62
7
  6
CONTINUOUS
 10
29.5933770595
 20
26.6326170104
 11
29.5933770595
 21
25.9653238187
  0
LINE
  5
248
100
AcDbEntity
  8
0
100
AcDbLine
 62
7
  6
CONTINUOUS
 10
29.6852084122
 20
80.6151610381
 11
29.6852084122
 21
81.4316634553
  0
LINE
  5
249
100
AcDbEntity
  8
0
100
AcDbLine
 62
7
  6
CONTINUOUS
 10
29.6852131225
 20
77.1858648932
 11
29.6852131225
 21
79.9619731114
  0
LINE
  5
24A
100
AcDbEntity
  8
0
100
AcDbLine
 62
7
  6
CONTINUOUS
 10
27.8963808416
 20
60.2724527541
 11
54.2713539697
 21
75.4999596935
  0
LINE
  5
24B
100
AcDbEntity
  8
0
100
AcDbLine
 62
7
  6
CONTINUOUS
 10
24.2664024093
 20
58.0541143508
 11
24.254751626
 21
58.0473878081
  0
LINE
  5
24C
100
AcDbEntity
  8
0
100
AcDbLine
 62
7
  6
CONTINUOUS
 10
24.8173408906
 20
57.3107437903
 11
24.254751626
 21
56.9859346659
  0
LINE
  5
24D
100
AcDbEntity
  8
0
100
AcDbLine
 62
7
  6
CONTINUOUS
 10
42.3425260725
 20
66.694141283
 11
48.7771709912
 21
70.4091630832
  0
LINE
  5
24E
100
AcDbEntity
  8
0
100
AcDbLine
 62
7
  6
CONTINUOUS
 10
25.1856401669
 20
56.4619454073
 11
25.1739942687
 21
56.455221685
  0
LINE
  5
24F
100
AcDbEntity
  8
0
100
AcDbLine
 62
7
  6
CONTINUOUS
 10
52.2702686573
 20
71.7727012766
 11
55.664367076
 21
73.7322732152
  0
LINE
  5
250
100
AcDbEntity
  8
0
100
AcDbLine
 62
7
  6
CONTINUOUS
 10
43.0496480169
 20
66.2858934739
 11
48.7771709912
 21
69.5926606661
  0
LINE
  5
251
100
AcDbEntity
  8
0
100
AcDbLine
 62
7
  6
CONTINUOUS
 10
25.1739942687
 20
55.8020014091
 11
24.254751626
 21
55.2712795899
  0
LINE
  5
252
100
AcDbEntity
  8
0
100
AcDbLine
 62
7
  6
CONTINUOUS
 10
43.615335797
 20
65.9593008702
 11
48.7771757015
 21
68.9394727394
  0
LINE
  5
253
100
AcDbEntity
  8
0
100
AcDbLine
 62
7
  6
CONTINUOUS
 10
48.4372925176
 20
65.9671340448
 11
48.7771757015
 21
66.1633645211
  0
LINE
  5
254
100
AcDbEntity
  8
0
100
AcDbLine
 62
7
  6
CONTINUOUS
 10
33.8007329155
 20
49.7600294039
 11
33.8007329155
 21
51.4746844798
  0
LINE
  5
255
100
AcDbEntity
  8
0
100
AcDbLine
 62
7
  6
CONTINUOUS
 10
33.8007329155
 20
52.5361376221
 11
33.8007329155
 21
52.5585837863
  0
LINE
  5
256
100
AcDbEntity
  8
0
100
AcDbLine
 62
7
  6
CONTINUOUS
 10
34.7199755582
 20
50.943971499
 11
34.7199755582
 21
49.229316423
  0
LINE
  5
257
100
AcDbEntity
  8
0
100
AcDbLine
 62
7
  6
CONTINUOUS
 10
57.3614586784
 20
68.8333678441
 11
60.755557097
 21
70.7929397827
  0
LINE
  5
258
100
AcDbEntity
  8
0
100
AcDbLine
 62
7
  6
CONTINUOUS
 10
54.9997365724
 20
66.8166444434
 11
48.5650916538
 21
63.1016226432
  0
LINE
  5
259
100
AcDbEntity
  8
0
100
AcDbLine
 62
7
  6
CONTINUOUS
 10
32.6758551488
 20
53.1855714114
 11
31.7565966211
 21
52.654840421
  0
LINE
  5
25A
100
AcDbEntity
  8
0
100
AcDbLine
 62
7
  6
CONTINUOUS
 10
34.7199755582
 20
49.229316423
 11
33.8007329155
 21
49.7600294039
  0
LINE
  5
25B
100
AcDbEntity
  8
0
100
AcDbLine
 62
7
  6
CONTINUOUS
 10
25.1739942687
 20
54.740566609
 11
24.254751626
 21
55.2712795899
  0
LINE
  5
25C
100
AcDbEntity
  8
0
100
AcDbLine
 62
7
  6
CONTINUOUS
 10
15.6280129792
 20
60.251816795
 11
14.7087703366
 21
60.7825297759
  0
LINE
  5
25D
100
AcDbEntity
  8
0
100
AcDbLine
 62
7
  6
CONTINUOUS
 10
34.7394066048
 20
50.9327532328
 11
34.7199755582
 21
50.943971499
  0
LINE
  5
25E
100
AcDbEntity
  8
0
100
AcDbLine
 62
7
  6
CONTINUOUS
 10
33.8007329155
 20
51.4746844798
 11
31.7565966211
 21
52.654840421
  0
LINE
  5
25F
100
AcDbEntity
  8
0
100
AcDbLine
 62
7
  6
CONTINUOUS
 10
25.1934253154
 20
56.4440034188
 11
25.1739942687
 21
56.455221685
  0
LINE
  5
260
100
AcDbEntity
  8
0
100
AcDbLine
 62
7
  6
CONTINUOUS
 10
24.254751626
 20
56.9859346659
 11
22.2106153316
 21
58.166090607
  0
LINE
  5
261
100
AcDbEntity
  8
0
100
AcDbLine
 62
7
  6
CONTINUOUS
 10
15.6474440259
 20
61.9552536048
 11
15.6280129792
 21
61.966471871
  0
LINE
  5
262
100
AcDbEntity
  8
0
100
AcDbLine
 62
7
  6
CONTINUOUS
 10
14.7087703366
 20
62.4971848519
 11
12.6646340421
 21
63.6773407931
  0
LINE
  5
263
100
AcDbEntity
  8
0
100
AcDbLine
 62
7
  6
CONTINUOUS
 10
12.6646340421
 20
64.7387939353
 11
14.7087703366
 21
63.5586379942
  0
LINE
  5
264
100
AcDbEntity
  8
0
100
AcDbLine
 62
7
  6
CONTINUOUS
 10
22.2106153316
 20
59.2275437493
 11
24.254751626
 21
58.0473878081
  0
LINE
  5
265
100
AcDbEntity
  8
0
100
AcDbLine
 62
7
  6
CONTINUOUS
 10
31.7565966211
 20
53.7162935633
 11
33.8007329155
 21
52.5361376221
  0
LINE
  5
266
100
AcDbEntity
  8
0
100
AcDbLine
 62
7
  6
CONTINUOUS
 10
36.572404497
 20
80.8356623437
 11
36.572404497
 21
84.7547735873
  0
LINE
  5
267
100
AcDbEntity
  8
0
100
AcDbLine
 62
7
  6
CONTINUOUS
 10
37.5130059811
 20
20.9031259178
 11
37.5130059811
 21
22.0603205597
  0
LINE
  5
268
100
AcDbEntity
  8
0
100
AcDbLine
 62
7
  6
CONTINUOUS
 10
37.596021317
 20
22.0123927078
 11
37.596021317
 21
27.080912084
  0
LINE
  5
269
100
AcDbEntity
  8
0
100
AcDbLine
 62
7
  6
CONTINUOUS
 10
38.0202871521
 20
26.8359676313
 11
38.0202871521
 21
54.4275449142
  0
LINE
  5
26A
100
AcDbEntity
  8
0
100
AcDbLine
 62
7
  6
CONTINUOUS
 10
33.8123836988
 20
52.5428641648
 11
33.8007329155
 21
52.5361376221
  0
LINE
  5
26B
100
AcDbEntity
  8
0
100
AcDbLine
 62
7
  6
CONTINUOUS
 10
38.0202871521
 20
54.4275449142
 11
64.3952601337
 21
69.6550517791
  0
LINE
  5
26C
100
AcDbEntity
  8
0
100
AcDbLine
 62
7
  6
CONTINUOUS
 10
34.3633221801
 20
51.7994936043
 11
33.8007329155
 21
51.4746844798
  0
LINE
  5
26D
100
AcDbEntity
  8
0
100
AcDbLine
 62
7
  6
CONTINUOUS
 10
34.7316214564
 20
50.9506952213
 11
34.7199755582
 21
50.943971499
  0
LINE
  5
26E
100
AcDbEntity
  8
0
100
AcDbLine
 62
7
  6
CONTINUOUS
 10
38.8913112281
 20
71.4783842308
 11
38.8913112281
 21
68.6866560257
  0
LINE
  5
26F
100
AcDbEntity
  8
0
100
AcDbLine
 62
7
  6
CONTINUOUS
 10
39.139358349
 20
22.9034334416
 11
39.139358349
 21
20.4540736327
  0
LINE
  5
270
100
AcDbEntity
  8
0
100
AcDbLine
 62
7
  6
CONTINUOUS
 10
39.2311897017
 20
75.1039108521
 11
39.2311897017
 21
75.9204132692
  0
LINE
  5
271
100
AcDbEntity
  8
0
100
AcDbLine
 62
7
  6
CONTINUOUS
 10
39.231194412
 20
71.6746147072
 11
39.231194412
 21
74.4507229254
  0
LINE
  5
272
100
AcDbEntity
  8
0
100
AcDbLine
 62
7
  6
CONTINUOUS
 10
39.9878829536
 20
23.3933264272
 11
39.9878829536
 21
20.9439666174
  0
LINE
  5
273
100
AcDbEntity
  8
0
100
AcDbLine
 62
7
  6
CONTINUOUS
 10
34.7199755582
 20
50.2907512231
 11
33.8007329155
 21
49.7600294039
  0
LINE
  5
274
100
AcDbEntity
  8
0
100
AcDbLine
 62
7
  6
CONTINUOUS
 10
38.0202871521
 20
54.42754495
 11
8.733699047
 21
71.3357526894
  0
LINE
  5
275
100
AcDbEntity
  8
0
100
AcDbLine
 62
7
  6
CONTINUOUS
 10
41.909354724
 20
24.5026820513
 11
41.909354724
 21
26.2426312767
  0
LINE
  5
276
100
AcDbEntity
  8
0
100
AcDbLine
 62
7
  6
CONTINUOUS
 10
41.909354724
 20
27.8216319614
 11
41.909354724
 21
29.081308438
  0
LINE
  5
277
100
AcDbEntity
  8
0
100
AcDbLine
 62
7
  6
CONTINUOUS
 10
42.3213521121
 20
24.2577375938
 11
42.3213521121
 21
23.842605707
  0
LINE
  5
278
100
AcDbEntity
  8
0
100
AcDbLine
 62
7
  6
CONTINUOUS
 10
42.3336205591
 20
24.2577375938
 11
42.3336205591
 21
29.3262569699
  0
LINE
  5
279
100
AcDbEntity
  8
0
100
AcDbLine
 62
7
  6
CONTINUOUS
 10
43.1698767168
 20
24.5592229031
 11
43.1698767168
 21
24.3324986917
  0
LINE
  5
27A
100
AcDbEntity
  8
0
100
AcDbLine
 62
7
  6
CONTINUOUS
 10
65.1260837538
 20
62.8949311279
 11
63.2996066621
 21
61.8404203719
  0
LINE
  5
27B
100
AcDbEntity
  8
0
100
AcDbLine
 62
7
  6
CONTINUOUS
 10
46.1183857865
 20
75.3244121577
 11
46.1183857865
 21
79.2435234012
  0
LINE
  5
27C
100
AcDbEntity
  8
0
100
AcDbLine
 62
7
  6
CONTINUOUS
 10
63.9519062502
 20
58.6312857663
 11
65.1165412696
 21
59.3036840946
  0
LINE
  5
27D
100
AcDbEntity
  8
0
100
AcDbLine
 62
7
  6
CONTINUOUS
 10
63.2918027852
 20
57.7602841433
 11
65.5408070296
 21
59.0587396084
  0
LINE
  5
27E
100
AcDbEntity
  8
0
100
AcDbLine
 62
7
  6
CONTINUOUS
 10
48.4372925176
 20
65.9671340448
 11
48.4372925176
 21
63.1754058397
  0
LINE
  5
27F
100
AcDbEntity
  8
0
100
AcDbLine
 62
7
  6
CONTINUOUS
 10
48.7771709912
 20
69.5926606661
 11
48.7771709912
 21
70.4091630832
  0
LINE
  5
280
100
AcDbEntity
  8
0
100
AcDbLine
 62
7
  6
CONTINUOUS
 10
48.7771757015
 20
66.1633645211
 11
48.7771757015
 21
68.9394727394
  0
LINE
  5
281
100
AcDbEntity
  8
0
100
AcDbLine
 62
7
  6
CONTINUOUS
 10
20.6252968873
 20
31.8102233788
 11
19.6231299349
 21
31.2316170072
  0
LINE
  5
282
100
AcDbEntity
  8
0
100
AcDbLine
 62
7
  6
CONTINUOUS
 10
48.5650916538
 20
63.1016226432
 11
42.3425260725
 21
66.694141283
  0
LINE
  5
283
100
AcDbEntity
  8
0
100
AcDbLine
 62
7
  6
CONTINUOUS
 10
39.0191103643
 20
68.6128728292
 11
32.796544783
 21
72.205391469
  0
LINE
  5
284
100
AcDbEntity
  8
0
100
AcDbLine
 62
7
  6
CONTINUOUS
 10
29.4731290748
 20
74.1241230153
 11
23.2505634935
 21
77.716641655
  0
LINE
  5
285
100
AcDbEntity
  8
0
100
AcDbLine
 62
7
  6
CONTINUOUS
 10
55.664367076
 20
69.8131619717
 11
55.664367076
 21
73.7322732152
  0
LINE
  5
286
100
AcDbEntity
  8
0
100
AcDbLine
 62
7
  6
CONTINUOUS
 10
61.6439371533
 20
57.9492854635
 11
61.9974920159
 21
57.7451650863
  0
LINE
  5
287
100
AcDbEntity
  8
0
100
AcDbLine
 62
7
  6
CONTINUOUS
 10
50.9828337635
 20
64.4974983688
 11
48.4372925176
 21
65.9671340448
  0
LINE
  5
288
100
AcDbEntity
  8
0
100
AcDbLine
 62
7
  6
CONTINUOUS
 10
41.436852474
 20
70.0087485548
 11
38.8913112281
 21
71.4783842308
  0
LINE
  5
289
100
AcDbEntity
  8
0
100
AcDbLine
 62
7
  6
CONTINUOUS
 10
31.8908711845
 20
75.5199987409
 11
29.3453299386
 21
76.9896344168
  0
LINE
  5
28A
100
AcDbEntity
  8
0
100
AcDbLine
 62
7
  6
CONTINUOUS
 10
63.1177165622
 20
57.8607905972
 11
63.2918027852
 21
57.7602841433
  0
LINE
  5
28B
100
AcDbEntity
  8
0
100
AcDbLine
 62
7
  6
CONTINUOUS
 10
29.6852131225
 20
77.1858648932
 11
32.2307543684
 21
75.7162292172
  0
LINE
  5
28C
100
AcDbEntity
  8
0
100
AcDbLine
 62
7
  6
CONTINUOUS
 10
39.231194412
 20
71.6746147072
 11
41.7767356579
 21
70.2049790312
  0
LINE
  5
28D
100
AcDbEntity
  8
0
100
AcDbLine
 62
7
  6
CONTINUOUS
 10
48.7771757015
 20
66.1633645211
 11
51.3227169474
 21
64.6937288452
  0
LINE
  5
28E
100
AcDbEntity
  8
0
100
AcDbLine
 62
7
  6
CONTINUOUS
 10
30.1712781768
 20
26.2989731928
 11
29.1691112244
 21
25.7203668212
  0
LINE
  5
28F
100
AcDbEntity
  8
0
100
AcDbLine
 62
7
  6
CONTINUOUS
 10
65.5408071759
 20
59.0587397127
 11
65.1165413428
 21
59.3036841467
  0
LINE
  5
290
100
AcDbEntity
  8
0
100
AcDbLine
 62
7
  6
CONTINUOUS
 10
29.6852131225
 20
79.9619731114
 11
34.6349689793
 21
77.1042948844
  0
LINE
  5
291
100
AcDbEntity
  8
0
100
AcDbLine
 62
7
  6
CONTINUOUS
 10
39.231194412
 20
74.4507229254
 11
44.1809502688
 21
71.5930446984
  0
LINE
  5
292
100
AcDbEntity
  8
0
100
AcDbLine
 62
7
  6
CONTINUOUS
 10
48.7771757015
 20
68.9394727394
 11
53.7269315583
 21
66.0817945124
  0
LINE
  5
293
100
AcDbEntity
  8
0
100
AcDbLine
 62
7
  6
CONTINUOUS
 10
29.6852084122
 20
80.6151610381
 11
35.2006520491
 21
77.4308902075
  0
LINE
  5
294
100
AcDbEntity
  8
0
100
AcDbLine
 62
7
  6
CONTINUOUS
 10
39.2311897017
 20
75.1039108521
 11
44.7466333386
 21
71.9196400215
  0
LINE
  5
295
100
AcDbEntity
  8
0
100
AcDbLine
 62
7
  6
CONTINUOUS
 10
48.7771709912
 20
69.5926606661
 11
54.2926146281
 21
66.4083898355
  0
LINE
  5
296
100
AcDbEntity
  8
0
100
AcDbLine
 62
7
  6
CONTINUOUS
 10
29.6852084122
 20
81.4316634553
 11
35.9077739935
 21
77.8391448155
  0
LINE
  5
297
100
AcDbEntity
  8
0
100
AcDbLine
 62
7
  6
CONTINUOUS
 10
39.2311897017
 20
75.9204132692
 11
45.453755283
 21
72.3278946295
  0
LINE
  5
298
100
AcDbEntity
  8
0
100
AcDbLine
 62
7
  6
CONTINUOUS
 10
48.7771709912
 20
70.4091630832
 11
54.9997365724
 21
66.8166444434
  0
LINE
  5
299
100
AcDbEntity
  8
0
100
AcDbLine
 62
7
  6
CONTINUOUS
 10
63.8938989775
 20
61.8464218211
 11
64.2474538401
 21
61.6423014439
  0
LINE
  5
29A
100
AcDbEntity
  8
0
100
AcDbLine
 62
7
  6
CONTINUOUS
 10
45.1135306601
 20
25.8627098596
 11
44.7962290846
 21
25.4165263965
  0
LINE
  5
29B
100
AcDbEntity
  8
0
100
AcDbLine
 62
7
  6
CONTINUOUS
 10
42.3336205591
 20
29.3262569699
 11
38.0202871521
 21
26.8359676313
  0
LINE
  5
29C
100
AcDbEntity
  8
0
100
AcDbLine
 62
7
  6
CONTINUOUS
 10
33.1783060784
 20
82.7952016487
 11
38.2694960994
 21
79.8558682161
  0
LINE
  5
29D
100
AcDbEntity
  8
0
100
AcDbLine
 62
7
  6
CONTINUOUS
 10
42.7242873678
 20
77.2839514627
 11
47.8154773889
 21
74.3446180301
  0
LINE
  5
29E
100
AcDbEntity
  8
0
100
AcDbLine
 62
7
  6
CONTINUOUS
 10
52.2702686573
 20
71.7727012766
 11
57.3614586784
 21
68.8333678441
  0
LINE
  5
29F
100
AcDbEntity
  8
0
100
AcDbLine
 62
7
  6
CONTINUOUS
 10
41.909354724
 20
24.5026820513
 11
37.596021317
 21
22.0123927078
  0
LINE
  5
2A0
100
AcDbEntity
  8
0
100
AcDbLine
 62
7
  6
CONTINUOUS
 10
33.3089835866
 20
85.4425860624
 11
33.238289721
 21
85.4834002613
  0
LINE
  5
2A1
100
AcDbEntity
  8
0
100
AcDbLine
 62
7
  6
CONTINUOUS
 10
36.572404497
 20
84.7547735873
 11
41.663594518
 21
81.8154401547
  0
LINE
  5
2A2
100
AcDbEntity
  8
0
100
AcDbLine
 62
7
  6
CONTINUOUS
 10
46.1183857865
 20
79.2435234012
 11
51.2095758075
 21
76.3041899687
  0
LINE
  5
2A3
100
AcDbEntity
  8
0
100
AcDbLine
 62
7
  6
CONTINUOUS
 10
55.664367076
 20
73.7322732152
 11
60.755557097
 21
70.7929397827
  0
LINE
  5
2A4
100
AcDbEntity
  8
0
100
AcDbLine
 62
7
  6
CONTINUOUS
 10
64.7516679527
 20
62.6787633526
 11
65.1165412696
 21
59.3036840946
  0
LINE
  5
2A5
100
AcDbEntity
  8
0
100
AcDbLine
 62
7
  6
CONTINUOUS
 10
64.3952601337
 20
69.6550517791
 11
65.1260837538
 21
62.8949311279
  0
LINE
  5
2A6
100
AcDbEntity
  8
0
100
AcDbLine
 62
7
  6
CONTINUOUS
 10
65.5408070296
 20
59.0587396084
 11
67.7186481722
 21
38.9137026448
  0
LINE
  5
2A7
100
AcDbEntity
  8
0
100
AcDbLine
 62
7
  6
CONTINUOUS
 10
67.7186481722
 20
38.9137026448
 11
42.3336205591
 21
24.2577375938
  0
LINE
  5
2A8
100
AcDbEntity
  8
0
100
AcDbLine
 62
7
  6
CONTINUOUS
 10
43.2406006428
 20
24.518389258
 11
44.7962290846
 21
25.4165263965
  0
LINE
  5
2A9
100
AcDbEntity
  8
0
100
AcDbLine
 62
7
  6
CONTINUOUS
 10
43.1698767168
 20
24.3324986917
 11
42.3213521121
 21
23.842605707
  0
LINE
  5
2AA
100
AcDbEntity
  8
0
100
AcDbLine
 62
7
  6
CONTINUOUS
 10
39.9878829536
 20
20.9439666174
 11
38.7150925139
 21
20.2091166352
  0
LINE
  5
2AB
100
AcDbEntity
  8
0
100
AcDbLine
 62
7
  6
CONTINUOUS
 10
64.3952602807
 20
69.655051884
 11
35.1793913907
 21
86.5224600656
  0
ARC
  5
2AC
100
AcDbEntity
  8
0
100
AcDbCircle
 62
7
  6
CONTINUOUS
 10
61.9731524191
 20
59.812541133
 40
2.4393846642
100
AcDbArc
 50
300.0091837067
 51
302.7222318361
  0
ARC
  5
2AD
100
AcDbEntity
  8
0
100
AcDbCircle
 62
7
  6
CONTINUOUS
 10
64.3112254353
 20
59.8489352514
 40
2.2336932483
100
AcDbArc
 50
116.929296459
 51
120.0354145112
  0
ARC
  5
2AE
100
AcDbEntity
  8
0
100
AcDbCircle
 62
7
  6
CONTINUOUS
 10
61.9778511836
 20
58.8344835607
 40
1.130305673
100
AcDbArc
 50
271.0491386159
 51
272.413489956
  0
ARC
  5
2AF
100
AcDbEntity
  8
0
100
AcDbCircle
 62
7
  6
CONTINUOUS
 10
61.9784908269
 20
58.7906532118
 40
1.0864709722
100
AcDbArc
 50
268.3086413115
 51
271.0577341759
  0
SPLINE
  5
2B0
100
AcDbEntity
  8
0
100
AcDbSpline
 62
7
  6
CONTINUOUS
 70
0
 71
3
 72
14
 73
10
 74
0
 42
0.0000001
 43
0.0000001
 44
0.0000000001
 40
0.0
 40
0.0
 40
0.0
 40
0.0
 40
0.2888803332
 40
0.4220749286
 40
0.5479862548
 40
0.6674105517
 40
0.7815029071
 40
0.8917564888
 40
1.0
 40
1.0
 40
1.0
 40
1.0
 10
63.1117480472
 20
57.8504525922
 30
0.0
 10
63.0138219678
 20
57.7946775521
 30
0.0
 10
62.8635389709
 20
57.7242136717
 30
0.0
 10
62.6576482121
 20
57.6653560058
 30
0.0
 10
62.5115111465
 20
57.6415669516
 30
0.0
 10
62.3709202542
 20
57.6372988939
 30
0.0
 10
62.2371697129
 20
57.6526552291
 30
0.0
 10
62.1116631622
 20
57.6876467415
 30
0.0
 10
62.0340682994
 20
57.7240627024
 30
0.0
 10
61.9974962655
 20
57.7451724486
 30
0.0
  0
SPLINE
  5
2B1
100
AcDbEntity
  8
0
100
AcDbSpline
 62
7
  6
CONTINUOUS
 70
0
 71
3
 72
20
 73
16
 74
0
 42
0.0000001
 43
0.0000001
 44
0.0000000001
 40
0.0
 40
0.0
 40
0.0
 40
0.0
 40
0.0622111247
 40
0.1284855878
 40
0.2698140394
 40
0.4168652412
 40
0.5612180965
 40
0.6299289071
 40
0.6951346816
 40
0.7561933272
 40
0.81272807
 40
0.8647109145
 40
0.9125447848
 40
0.9571614498
 40
1.0
 40
1.0
 40
1.0
 40
1.0
 10
63.1281928644
 20
60.6768162906
 30
0.0
 10
63.0849602221
 20
60.652192591
 30
0.0
 10
62.9989917135
 20
60.595359268
 30
0.0
 10
62.8330279701
 20
60.4569401388
 30
0.0
 10
62.6438922835
 20
60.2431257402
 30
0.0
 10
62.4611248662
 20
59.9475464065
 30
0.0
 10
62.35192628
 20
59.6792318504
 30
0.0
 10
62.2978444438
 20
59.4630383483
 30
0.0
 10
62.275625176
 20
59.308382802
 30
0.0
 10
62.2716143977
 20
59.1618755755
 30
0.0
 10
62.2859622497
 20
59.026549546
 30
0.0
 10
62.3185076994
 20
58.905192926
 30
0.0
 10
62.3689774933
 20
58.8004013419
 30
0.0
 10
62.4365752503
 20
58.7147063557
 30
0.0
 10
62.4928188323
 20
58.6716370275
 30
0.0
 10
62.5224862226
 20
58.6545022996
 30
0.0
  0
SPLINE
  5
2B2
100
AcDbEntity
  8
0
100
AcDbSpline
 62
7
  6
CONTINUOUS
 70
0
 71
3
 72
23
 73
19
 74
0
 42
0.0000001
 43
0.0000001
 44
0.0000000001
 40
0.0
 40
0.0
 40
0.0
 40
0.0
 40
0.0428190861
 40
0.0874162515
 40
0.1352316229
 40
0.187191437
 40
0.2437024857
 40
0.3047348271
 40
0.3699120476
 40
0.4385938025
 40
0.5099526656
 40
0.5830296793
 40
0.6567836507
 40
0.7301509611
 40
0.8020799198
 40
0.8715738228
 40
0.937802355
 40
1.0
 40
1.0
 40
1.0
 40
1.0
 10
64.2474495906
 20
61.6422940816
 30
0.0
 10
64.3030831076
 20
61.6101818555
 30
0.0
 10
64.4085137357
 20
61.5293953604
 30
0.0
 10
64.5353071532
 20
61.3687569445
 30
0.0
 10
64.6298957901
 20
61.1722451087
 30
0.0
 10
64.690942363
 20
60.9447088083
 30
0.0
 10
64.7178389668
 20
60.6909699568
 30
0.0
 10
64.7103159986
 20
60.4162661316
 30
0.0
 10
64.6686630038
 20
60.1263005586
 30
0.0
 10
64.5938439906
 20
59.8271644858
 30
0.0
 10
64.4874679221
 20
59.5252030854
 30
0.0
 10
64.3517916048
 20
59.2268754895
 30
0.0
 10
64.1897419988
 20
58.9385639532
 30
0.0
 10
64.0047911082
 20
58.6664505165
 30
0.0
 10
63.8009086512
 20
58.4163861045
 30
0.0
 10
63.5824180291
 20
58.1936640868
 30
0.0
 10
63.3540147508
 20
58.0031686312
 30
0.0
 10
63.1928266419
 20
57.8966319337
 30
0.0
 10
63.1117480472
 20
57.8504525922
 30
0.0
  0
SPLINE
  5
2B3
100
AcDbEntity
  8
0
100
AcDbSpline
 62
7
  6
CONTINUOUS
 70
0
 71
3
 72
12
 73
8
 74
0
 42
0.0000001
 43
0.0000001
 44
0.0000000001
 40
0.0
 40
0.0
 40
0.0
 40
0.0
 40
0.1083605876
 40
0.2187374669
 40
0.4518629125
 40
0.7108669265
 40
1.0
 40
1.0
 40
1.0
 40
1.0
 10
63.7224596335
 20
60.7329642305
 30
0.0
 10
63.7029571968
 20
60.7442280774
 30
0.0
 10
63.6615594709
 20
60.7636353879
 30
0.0
 10
63.5707475644
 20
60.7889737271
 30
0.0
 10
63.4435956372
 20
60.7928952016
 30
0.0
 10
63.2842645603
 20
60.7552163205
 30
0.0
 10
63.1804101682
 20
60.706557318
 30
0.0
 10
63.1281928644
 20
60.6768162906
 30
0.0
  0
SPLINE
  5
2B4
100
AcDbEntity
  8
0
100
AcDbSpline
 62
7
  6
CONTINUOUS
 70
0
 71
3
 72
10
 73
6
 74
0
 42
0.0000001
 43
0.0000001
 44
0.0000000001
 40
0.0
 40
0.0
 40
0.0
 40
0.0
 40
0.2411491551
 40
0.486132535
 40
1.0
 40
1.0
 40
1.0
 40
1.0
 10
63.8938940979
 20
61.8464133685
 30
0.0
 10
63.8601178545
 20
61.8659095344
 30
0.0
 10
63.7888086031
 20
61.8999342148
 30
0.0
 10
63.6334464182
 20
61.9465073815
 30
0.0
 10
63.5089441612
 20
61.9547967798
 30
0.0
 10
63.4259598133
 20
61.9503432031
 30
0.0
  0
SPLINE
  5
2B5
100
AcDbEntity
  8
0
100
AcDbSpline
 62
7
  6
CONTINUOUS
 70
0
 71
3
 72
14
 73
10
 74
0
 42
0.0000001
 43
0.0000001
 44
0.0000000001
 40
0.0
 40
0.0
 40
0.0
 40
0.0
 40
0.2888803332
 40
0.4220749286
 40
0.5479862548
 40
0.6674105517
 40
0.7815029071
 40
0.8917564888
 40
1.0
 40
1.0
 40
1.0
 40
1.0
 10
63.1331978088
 20
61.5370139379
 30
0.0
 10
63.2311238882
 20
61.592788978
 30
0.0
 10
63.3814068851
 20
61.6632528584
 30
0.0
 10
63.5872976439
 20
61.7221105243
 30
0.0
 10
63.7334347095
 20
61.7458995785
 30
0.0
 10
63.8740256019
 20
61.7501676362
 30
0.0
 10
64.0077761432
 20
61.734811301
 30
0.0
 10
64.1332826938
 20
61.6998197886
 30
0.0
 10
64.2108775566
 20
61.6634038277
 30
0.0
 10
64.2474495906
 20
61.6422940816
 30
0.0
  0
SPLINE
  5
2B6
100
AcDbEntity
  8
0
100
AcDbSpline
 62
7
  6
CONTINUOUS
 70
0
 71
3
 72
20
 73
16
 74
0
 42
0.0000001
 43
0.0000001
 44
0.0000000001
 40
0.0
 40
0.0
 40
0.0
 40
0.0
 40
0.0622111247
 40
0.1284855878
 40
0.2698140394
 40
0.4168652412
 40
0.5612180965
 40
0.6299289071
 40
0.6951346816
 40
0.7561933272
 40
0.81272807
 40
0.8647109145
 40
0.9125447848
 40
0.9571614498
 40
1.0
 40
1.0
 40
1.0
 40
1.0
 10
63.1167529916
 20
58.7106502395
 30
0.0
 10
63.1599856339
 20
58.7352739391
 30
0.0
 10
63.2459541425
 20
58.7921072621
 30
0.0
 10
63.411917886
 20
58.9305263913
 30
0.0
 10
63.6010535725
 20
59.1443407899
 30
0.0
 10
63.7838209898
 20
59.4399201236
 30
0.0
 10
63.893019576
 20
59.7082346797
 30
0.0
 10
63.9471014122
 20
59.9244281818
 30
0.0
 10
63.96932068
 20
60.0790837281
 30
0.0
 10
63.9733314583
 20
60.2255909546
 30
0.0
 10
63.9589836063
 20
60.3609169841
 30
0.0
 10
63.9264381566
 20
60.4822736041
 30
0.0
 10
63.8759683627
 20
60.5870651882
 30
0.0
 10
63.8083706057
 20
60.6727601744
 30
0.0
 10
63.7521270238
 20
60.7158295026
 30
0.0
 10
63.7224596335
 20
60.7329642305
 30
0.0
  0
SPLINE
  5
2B7
100
AcDbEntity
  8
0
100
AcDbSpline
 62
7
  6
CONTINUOUS
 70
0
 71
3
 72
12
 73
8
 74
0
 42
0.0000001
 43
0.0000001
 44
0.0000000001
 40
0.0
 40
0.0
 40
0.0
 40
0.0
 40
0.1083605876
 40
0.2187374669
 40
0.4518629125
 40
0.7108669265
 40
1.0
 40
1.0
 40
1.0
 40
1.0
 10
62.5224862226
 20
58.6545022996
 30
0.0
 10
62.5419886592
 20
58.6432384527
 30
0.0
 10
62.5833863851
 20
58.6238311422
 30
0.0
 10
62.6741982916
 20
58.598492803
 30
0.0
 10
62.8013502189
 20
58.5945713285
 30
0.0
 10
62.9606812957
 20
58.6322502096
 30
0.0
 10
63.0645356878
 20
58.6809092121
 30
0.0
 10
63.1167529916
 20
58.7106502395
 30
0.0
  0
SPLINE
  5
2B8
100
AcDbEntity
  8
0
100
AcDbSpline
 62
7
  6
CONTINUOUS
 70
0
 71
3
 72
15
 73
11
 74
0
 42
0.0000001
 43
0.0000001
 44
0.0000000001
 40
0.0
 40
0.0
 40
0.0
 40
0.0
 40
0.1000877413
 40
0.2036534806
 40
0.3136154985
 40
0.4319994316
 40
0.5599007044
 40
0.697579267
 40
0.8445989314
 40
1.0
 40
1.0
 40
1.0
 40
1.0
 10
61.9974962655
 20
57.7451724486
 30
0.0
 10
61.9468564054
 20
57.7744022855
 30
0.0
 10
61.8505474748
 20
57.846392803
 30
0.0
 10
61.7314638438
 20
57.9874251684
 30
0.0
 10
61.6386217596
 20
58.1590235857
 30
0.0
 10
61.5732255982
 20
58.3575741955
 30
0.0
 10
61.5359689345
 20
58.5795130889
 30
0.0
 10
61.527279293
 20
58.8209846659
 30
0.0
 10
61.547106728
 20
59.0777870134
 30
0.0
 10
61.5783429943
 20
59.2519932102
 30
0.0
 10
61.5983068803
 20
59.3405547782
 30
0.0
  0
SPLINE
  5
2B9
100
AcDbEntity
  8
0
100
AcDbSpline
 62
7
  6
CONTINUOUS
 70
0
 71
3
 72
15
 73
11
 74
0
 42
0.0000001
 43
0.0000001
 44
0.0000000001
 40
0.0
 40
0.0
 40
0.0
 40
0.0
 40
0.124238195
 40
0.2529952536
 40
0.3841596767
 40
0.5154941444
 40
0.6447562901
 40
0.7697867518
 40
0.8887421815
 40
1.0
 40
1.0
 40
1.0
 40
1.0
 10
61.5983068803
 20
59.3405547782
 30
0.0
 10
61.6233338906
 20
59.451576815
 30
0.0
 10
61.6869354779
 20
59.674953162
 30
0.0
 10
61.8165220639
 20
60.0026775875
 30
0.0
 10
61.9792506616
 20
60.3226024024
 30
0.0
 10
62.170987319
 20
60.6265651145
 30
0.0
 10
62.3868801069
 20
60.9068399316
 30
0.0
 10
62.621466763
 20
61.1564183182
 30
0.0
 10
62.8688155499
 20
61.3688493613
 30
0.0
 10
63.0446377169
 20
61.4865734148
 30
0.0
 10
63.1331978088
 20
61.5370139379
 30
0.0
  0
SPLINE
  5
2BA
100
AcDbEntity
  8
0
100
AcDbSpline
 62
7
  6
CONTINUOUS
 70
0
 71
3
 72
14
 73
10
 74
0
 42
0.0000001
 43
0.0000001
 44
0.0000000001
 40
0.0
 40
0.0
 40
0.0
 40
0.0
 40
0.2892626464
 40
0.422561931
 40
0.548506772
 40
0.6678895468
 40
0.7818696723
 40
0.8919547865
 40
1.0
 40
1.0
 40
1.0
 40
1.0
 10
40.4951453716
 20
24.380226723
 30
0.0
 10
40.3963881817
 20
24.3232095732
 30
0.0
 10
40.2447526108
 20
24.2510437772
 30
0.0
 10
40.0368092698
 20
24.1904065511
 30
0.0
 10
39.8892094631
 20
24.1656397221
 30
0.0
 10
39.7471986069
 20
24.1607285464
 30
0.0
 10
39.6121057912
 20
24.1757784859
 30
0.0
 10
39.4853756778
 20
24.210822131
 30
0.0
 10
39.4070583089
 20
24.2475025772
 30
0.0
 10
39.3701682775
 20
24.2687955984
 30
0.0
  0
SPLINE
  5
2BB
100
AcDbEntity
  8
0
100
AcDbSpline
 62
7
  6
CONTINUOUS
 70
0
 71
3
 72
20
 73
16
 74
0
 42
0.0000001
 43
0.0000001
 44
0.0000000001
 40
0.0
 40
0.0
 40
0.0
 40
0.0
 40
0.0623922742
 40
0.1288113815
 40
0.2703051135
 40
0.4173659372
 40
0.5616163023
 40
0.6302526218
 40
0.6953796438
 40
0.7563625467
 40
0.8128321537
 40
0.8647649878
 40
0.9125666548
 40
0.9571676003
 40
1.0
 40
1.0
 40
1.0
 40
1.0
 10
40.4951453716
 20
27.1971600621
 30
0.0
 10
40.4520505735
 20
27.1722794174
 30
0.0
 10
40.3664014727
 20
27.1150141551
 30
0.0
 10
40.2011917973
 20
26.976013477
 30
0.0
 10
40.0131177395
 20
26.7619902116
 30
0.0
 10
39.8315917005
 20
26.4667046277
 30
0.0
 10
39.7233419278
 20
26.1990116761
 30
0.0
 10
39.6699102661
 20
25.9834960006
 30
0.0
 10
39.6480889189
 20
25.8294010531
 30
0.0
 10
39.6443820042
 20
25.6834634011
 30
0.0
 10
39.658925972
 20
25.5486874284
 30
0.0
 10
39.6915638213
 20
25.4278353634
 30
0.0
 10
39.742016543
 20
25.3234798141
 30
0.0
 10
39.809487502
 20
25.238126255
 30
0.0
 10
39.865577252
 20
25.1952124072
 30
0.0
 10
39.8951590644
 20
25.1781268887
 30
0.0
  0
SPLINE
  5
2BC
100
AcDbEntity
  8
0
100
AcDbSpline
 62
7
  6
CONTINUOUS
 70
0
 71
3
 72
19
 73
15
 74
0
 42
0.0000001
 43
0.0000001
 44
0.0000000001
 40
0.0
 40
0.0
 40
0.0
 40
0.0
 40
0.1461925812
 40
0.2952706292
 40
0.4414913824
 40
0.5794432688
 40
0.6439718005
 40
0.7049549056
 40
0.7621713577
 40
0.81560095
 40
0.8654552238
 40
0.9122341078
 40
0.9567288254
 40
1.0
 40
1.0
 40
1.0
 40
1.0
 10
39.4896698662
 20
27.7209103744
 30
0.0
 10
39.3701302579
 20
27.5898784102
 30
0.0
 10
39.148835103
 20
27.3062844013
 30
0.0
 10
38.8800886271
 20
26.8410836778
 30
0.0
 10
38.6818778121
 20
26.3524017582
 30
0.0
 10
38.5825011519
 20
25.9390350477
 30
0.0
 10
38.5500314466
 20
25.6206218361
 30
0.0
 10
38.549278863
 20
25.398522154
 30
0.0
 10
38.5716390711
 20
25.1910158516
 30
0.0
 10
38.6168752508
 20
25.001002027
 30
0.0
 10
38.6846149289
 20
24.8312199039
 30
0.0
 10
38.7741101559
 20
24.6841696608
 30
0.0
 10
38.8843396038
 20
24.5624010836
 30
0.0
 10
38.971146206
 20
24.4991613506
 30
0.0
 10
39.0166140578
 20
24.4729170873
 30
0.0
  0
SPLINE
  5
2BD
100
AcDbEntity
  8
0
100
AcDbSpline
 62
7
  6
CONTINUOUS
 70
0
 71
3
 72
23
 73
19
 74
0
 42
0.0000001
 43
0.0000001
 44
0.0000000001
 40
0.0
 40
0.0
 40
0.0
 40
0.0
 40
0.0428133054
 40
0.0873947107
 40
0.135177968
 40
0.1870881093
 40
0.2435340971
 40
0.3044909865
 40
0.3695895378
 40
0.4381971115
 40
0.5094943314
 40
0.5825304115
 40
0.6562716379
 40
0.7296607999
 40
0.8016508481
 40
0.8712477624
 40
0.9376210051
 40
1.0
 40
1.0
 40
1.0
 40
1.0
 10
41.6201224657
 20
28.1659187247
 30
0.0
 10
41.6755961772
 20
28.1338991555
 30
0.0
 10
41.7807342455
 20
28.0533983627
 30
0.0
 10
41.9072923375
 20
27.8934033698
 30
0.0
 10
42.0018510105
 20
27.6977093945
 30
0.0
 10
42.0630670991
 20
27.4711183197
 30
0.0
 10
42.090334128
 20
27.2184109878
 30
0.0
 10
42.0833785481
 20
26.9447753501
 30
0.0
 10
42.0424735262
 20
26.6558605453
 30
0.0
 10
41.9685629485
 20
26.3577014134
 30
0.0
 10
41.8632294061
 20
26.0565860094
 30
0.0
 10
41.7286946648
 20
25.7589185771
 30
0.0
 10
41.567843078
 20
25.4710319224
 30
0.0
 10
41.3841029347
 20
25.1990640091
 30
0.0
 10
41.1813968543
 20
24.9488292817
 30
0.0
 10
40.9639982501
 20
24.7255968174
 30
0.0
 10
40.7365550164
 20
24.5342345489
 30
0.0
 10
40.5759655329
 20
24.4268879863
 30
0.0
 10
40.4951453716
 20
24.380226723
 30
0.0
  0
SPLINE
  5
2BE
100
AcDbEntity
  8
0
100
AcDbSpline
 62
7
  6
CONTINUOUS
 70
0
 71
3
 72
12
 73
8
 74
0
 42
0.0000001
 43
0.0000001
 44
0.0000000001
 40
0.0
 40
0.0
 40
0.0
 40
0.0
 40
0.1081625846
 40
0.2183729763
 40
0.4513395893
 40
0.7104797563
 40
1.0
 40
1.0
 40
1.0
 40
1.0
 10
41.0951316788
 20
27.2565874344
 30
0.0
 10
41.0754599103
 20
27.2679492252
 30
0.0
 10
41.0336785196
 20
27.2875018373
 30
0.0
 10
40.9419538232
 20
27.3128774776
 30
0.0
 10
40.8134634261
 20
27.3163262608
 30
0.0
 10
40.6525726389
 20
27.2773860983
 30
0.0
 10
40.5478061103
 20
27.2275635723
 30
0.0
 10
40.4951453716
 20
27.1971600621
 30
0.0
  0
SPLINE
  5
2BF
100
AcDbEntity
  8
0
100
AcDbSpline
 62
7
  6
CONTINUOUS
 70
0
 71
3
 72
10
 73
6
 74
0
 42
0.0000001
 43
0.0000001
 44
0.0000000001
 40
0.0
 40
0.0
 40
0.0
 40
0.0
 40
0.2409635244
 40
0.4858438043
 40
1.0
 40
1.0
 40
1.0
 40
1.0
 10
41.2665669602
 20
28.3700379902
 30
0.0
 10
41.2324018755
 20
28.3897582418
 30
0.0
 10
41.1602189546
 20
28.4241160775
 30
0.0
 10
41.0028142887
 20
28.4708546724
 30
0.0
 10
40.8766734423
 20
28.4786182557
 30
0.0
 10
40.792649367
 20
28.4736281415
 30
0.0
  0
SPLINE
  5
2C0
100
AcDbEntity
  8
0
100
AcDbSpline
 62
7
  6
CONTINUOUS
 70
0
 71
3
 72
14
 73
10
 74
0
 42
0.0000001
 43
0.0000001
 44
0.0000000001
 40
0.0
 40
0.0
 40
0.0
 40
0.0
 40
0.2892626464
 40
0.422561931
 40
0.548506772
 40
0.6678895468
 40
0.7818696723
 40
0.8919547865
 40
1.0
 40
1.0
 40
1.0
 40
1.0
 10
40.4951453716
 20
28.0544876001
 30
0.0
 10
40.5939025615
 20
28.1115047499
 30
0.0
 10
40.7455381324
 20
28.1836705459
 30
0.0
 10
40.9534814734
 20
28.244307772
 30
0.0
 10
41.1010812801
 20
28.269074601
 30
0.0
 10
41.2430921363
 20
28.2739857767
 30
0.0
 10
41.378184952
 20
28.2589358372
 30
0.0
 10
41.5049150653
 20
28.223892192
 30
0.0
 10
41.5832324343
 20
28.1872117459
 30
0.0
 10
41.6201224657
 20
28.1659187247
 30
0.0
  0
SPLINE
  5
2C1
100
AcDbEntity
  8
0
100
AcDbSpline
 62
7
  6
CONTINUOUS
 70
0
 71
3
 72
20
 73
16
 74
0
 42
0.0000001
 43
0.0000001
 44
0.0000000001
 40
0.0
 40
0.0
 40
0.0
 40
0.0
 40
0.0623922742
 40
0.1288113815
 40
0.2703051135
 40
0.4173659372
 40
0.5616163023
 40
0.6302526218
 40
0.6953796438
 40
0.7563625467
 40
0.8128321537
 40
0.8647649878
 40
0.9125666548
 40
0.9571676003
 40
1.0
 40
1.0
 40
1.0
 40
1.0
 10
40.4951453716
 20
25.237554261
 30
0.0
 10
40.5382401696
 20
25.2624349057
 30
0.0
 10
40.6238892704
 20
25.319700168
 30
0.0
 10
40.7890989458
 20
25.458700846
 30
0.0
 10
40.9771730037
 20
25.6727241115
 30
0.0
 10
41.1586990426
 20
25.9680096953
 30
0.0
 10
41.2669488153
 20
26.2357026469
 30
0.0
 10
41.320380477
 20
26.4512183225
 30
0.0
 10
41.3422018242
 20
26.60531327
 30
0.0
 10
41.3459087389
 20
26.7512509219
 30
0.0
 10
41.3313647711
 20
26.8860268946
 30
0.0
 10
41.2987269219
 20
27.0068789597
 30
0.0
 10
41.2482742002
 20
27.1112345089
 30
0.0
 10
41.1808032412
 20
27.1965880681
 30
0.0
 10
41.1247134912
 20
27.2395019159
 30
0.0
 10
41.0951316788
 20
27.2565874344
 30
0.0
  0
SPLINE
  5
2C2
100
AcDbEntity
  8
0
100
AcDbSpline
 62
7
  6
CONTINUOUS
 70
0
 71
3
 72
12
 73
8
 74
0
 42
0.0000001
 43
0.0000001
 44
0.0000000001
 40
0.0
 40
0.0
 40
0.0
 40
0.0
 40
0.1081625846
 40
0.2183729763
 40
0.4513395893
 40
0.7104797563
 40
1.0
 40
1.0
 40
1.0
 40
1.0
 10
39.8951590644
 20
25.1781268887
 30
0.0
 10
39.9148308329
 20
25.1667650979
 30
0.0
 10
39.9566122236
 20
25.1472124858
 30
0.0
 10
40.04833692
 20
25.1218368455
 30
0.0
 10
40.1768273171
 20
25.1183880622
 30
0.0
 10
40.3377181042
 20
25.1573282248
 30
0.0
 10
40.4424846329
 20
25.2071507508
 30
0.0
 10
40.4951453716
 20
25.237554261
 30
0.0
  0
SPLINE
  5
2C3
100
AcDbEntity
  8
0
100
AcDbSpline
 62
7
  6
CONTINUOUS
 70
0
 71
3
 72
9
 73
5
 74
0
 42
0.0000001
 43
0.0000001
 44
0.0000000001
 40
0.0
 40
0.0
 40
0.0
 40
0.0
 40
0.4917783736
 40
1.0
 40
1.0
 40
1.0
 40
1.0
 10
39.3701682775
 20
24.2687955984
 30
0.0
 10
39.3205393624
 20
24.2974415359
 30
0.0
 10
39.2261130032
 20
24.3676611629
 30
0.0
 10
39.1497089979
 20
24.4569272319
 30
0.0
 10
39.1157973653
 20
24.5054748925
 30
0.0
  0
SPLINE
  5
2C4
100
AcDbEntity
  8
0
100
AcDbSpline
 62
7
  6
CONTINUOUS
 70
0
 71
3
 72
12
 73
8
 74
0
 42
0.0000001
 43
0.0000001
 44
0.0000000001
 40
0.0
 40
0.0
 40
0.0
 40
0.0
 40
0.2104972924
 40
0.3253022989
 40
0.4469806015
 40
0.7108153069
 40
1.0
 40
1.0
 40
1.0
 40
1.0
 10
39.1157973653
 20
24.5054748925
 30
0.0
 10
39.0594879718
 20
24.5860870338
 30
0.0
 10
38.9925955444
 20
24.7254051762
 30
0.0
 10
38.9378789609
 20
24.9271010571
 30
0.0
 10
38.9018301684
 20
25.1585126026
 30
0.0
 10
38.9008574318
 20
25.4754873765
 30
0.0
 10
38.9411427531
 20
25.7316807938
 30
0.0
 10
38.9708190862
 20
25.8634701745
 30
0.0
  0
SPLINE
  5
2C5
100
AcDbEntity
  8
0
100
AcDbSpline
 62
7
  6
CONTINUOUS
 70
0
 71
3
 72
15
 73
11
 74
0
 42
0.0000001
 43
0.0000001
 44
0.0000000001
 40
0.0
 40
0.0
 40
0.0
 40
0.0
 40
0.1241216268
 40
0.2527506639
 40
0.3837995694
 40
0.5150562711
 40
0.6443009272
 40
0.7693924918
 40
0.888500124
 40
1.0
 40
1.0
 40
1.0
 40
1.0
 10
38.9708190862
 20
25.8634701745
 30
0.0
 10
38.9956913096
 20
25.9739250249
 30
0.0
 10
39.0588490168
 20
26.1961698905
 30
0.0
 10
39.187460797
 20
26.5223195379
 30
0.0
 10
39.3489345082
 20
26.8408455276
 30
0.0
 10
39.5392091335
 20
27.1437000487
 30
0.0
 10
39.7535170822
 20
27.4232596119
 30
0.0
 10
39.9864878565
 20
27.6726013447
 30
0.0
 10
40.2322863199
 20
27.8853412352
 30
0.0
 10
40.4070640931
 20
28.0036341538
 30
0.0
 10
40.4951453716
 20
28.0544876001
 30
0.0
  0
SPLINE
  5
2C6
100
AcDbEntity
  8
0
100
AcDbSpline
 62
7
  6
CONTINUOUS
 70
0
 71
3
 72
14
 73
10
 74
0
 42
0.0000001
 43
0.0000001
 44
0.0000000001
 40
0.0
 40
0.0
 40
0.0
 40
0.0
 40
0.1080466357
 40
0.2181307812
 40
0.3321113461
 40
0.4515001674
 40
0.5774437985
 40
0.7107269735
 40
1.0
 40
1.0
 40
1.0
 40
1.0
 10
15.2713313172
 20
58.6650781797
 30
0.0
 10
15.3303547571
 20
58.6991551681
 30
0.0
 10
15.4438204282
 20
58.7783604691
 30
0.0
 10
15.5937956413
 20
58.9259038606
 30
0.0
 10
15.7227162716
 20
59.1010775338
 30
0.0
 10
15.8295232692
 20
59.3017929163
 30
0.0
 10
15.9132844255
 20
59.5261293313
 30
0.0
 10
15.9956341394
 20
59.8627790918
 30
0.0
 10
16.0169374591
 20
60.1306329057
 30
0.0
 10
16.0169374591
 20
60.313102247
 30
0.0
  0
SPLINE
  5
2C7
100
AcDbEntity
  8
0
100
AcDbSpline
 62
7
  6
CONTINUOUS
 70
0
 71
3
 72
15
 73
11
 74
0
 42
0.0000001
 43
0.0000001
 44
0.0000000001
 40
0.0
 40
0.0
 40
0.0
 40
0.0
 40
0.1141555516
 40
0.2373276756
 40
0.3669773296
 40
0.5000011
 40
0.6330247168
 40
0.7626739247
 40
0.885845342
 40
1.0
 40
1.0
 40
1.0
 40
1.0
 10
16.0169374591
 20
60.313102247
 30
0.0
 10
16.0169374591
 20
60.5143281167
 30
0.0
 10
15.9800800782
 20
60.9330644236
 30
0.0
 10
15.8331488691
 20
61.5647736108
 30
0.0
 10
15.5977735491
 20
62.2046443565
 30
0.0
 10
15.2827505634
 20
62.8286154721
 30
0.0
 10
14.899884859
 20
63.4134164587
 30
0.0
 10
14.4634268923
 20
63.9371887746
 30
0.0
 10
13.9898160907
 20
64.3802840683
 30
0.0
 10
13.645608785
 20
64.6215672249
 30
0.0
 10
13.4713424486
 20
64.722177665
 30
0.0
  0
SPLINE
  5
2C8
100
AcDbEntity
  8
0
100
AcDbSpline
 62
7
  6
CONTINUOUS
 70
0
 71
3
 72
14
 73
10
 74
0
 42
0.0000001
 43
0.0000001
 44
0.0000000001
 40
0.0
 40
0.0
 40
0.0
 40
0.0
 40
0.2892720607
 40
0.422554976
 40
0.5484985194
 40
0.6678874407
 40
0.781868291
 40
0.8919528621
 40
1.0
 40
1.0
 40
1.0
 40
1.0
 10
13.4713424486
 20
64.722177665
 30
0.0
 10
13.3133232308
 20
64.813408039
 30
0.0
 10
13.0707094878
 20
64.9288799745
 30
0.0
 10
12.7379962931
 20
65.0258822874
 30
0.0
 10
12.5018408853
 20
65.0655083939
 30
0.0
 10
12.2746186403
 20
65.0733670051
 30
0.0
 10
12.0584588668
 20
65.0493051614
 30
0.0
 10
11.8556996775
 20
64.9931957549
 30
0.0
 10
11.7303757129
 20
64.9345359807
 30
0.0
 10
11.6713535799
 20
64.9004597469
 30
0.0
  0
SPLINE
  5
2C9
100
AcDbEntity
  8
0
100
AcDbSpline
 62
7
  6
CONTINUOUS
 70
0
 71
3
 72
14
 73
10
 74
0
 42
0.0000001
 43
0.0000001
 44
0.0000000001
 40
0.0
 40
0.0
 40
0.0
 40
0.0
 40
0.1080466357
 40
0.2181307812
 40
0.3321113461
 40
0.4515001674
 40
0.5774437985
 40
0.7107269735
 40
1.0
 40
1.0
 40
1.0
 40
1.0
 10
11.6713535799
 20
64.9004597469
 30
0.0
 10
11.6123301401
 20
64.8663827585
 30
0.0
 10
11.498864469
 20
64.7871774575
 30
0.0
 10
11.3488892559
 20
64.639634066
 30
0.0
 10
11.2199686255
 20
64.4644603928
 30
0.0
 10
11.113161628
 20
64.2637450103
 30
0.0
 10
11.0294004717
 20
64.0394085953
 30
0.0
 10
10.9470507577
 20
63.7027588348
 30
0.0
 10
10.9257474381
 20
63.4349050209
 30
0.0
 10
10.9257474381
 20
63.2524356796
 30
0.0
  0
SPLINE
  5
2CA
100
AcDbEntity
  8
0
100
AcDbSpline
 62
7
  6
CONTINUOUS
 70
0
 71
3
 72
14
 73
10
 74
0
 42
0.0000001
 43
0.0000001
 44
0.0000000001
 40
0.0
 40
0.0
 40
0.0
 40
0.0
 40
0.2892720607
 40
0.422554976
 40
0.5484985194
 40
0.6678874407
 40
0.781868291
 40
0.8919528621
 40
1.0
 40
1.0
 40
1.0
 40
1.0
 10
13.4713424486
 20
58.8433602616
 30
0.0
 10
13.6293616664
 20
58.7521298876
 30
0.0
 10
13.8719754094
 20
58.6366579521
 30
0.0
 10
14.204688604
 20
58.5396556392
 30
0.0
 10
14.4408440119
 20
58.5000295327
 30
0.0
 10
14.6680662569
 20
58.4921709215
 30
0.0
 10
14.8842260304
 20
58.5162327652
 30
0.0
 10
15.0869852197
 20
58.5723421717
 30
0.0
 10
15.2123091843
 20
58.6310019459
 30
0.0
 10
15.2713313172
 20
58.6650781797
 30
0.0
  0
SPLINE
  5
2CB
100
AcDbEntity
  8
0
100
AcDbSpline
 62
7
  6
CONTINUOUS
 70
0
 71
3
 72
9
 73
5
 74
0
 42
0.0000001
 43
0.0000001
 44
0.0000000001
 40
0.0
 40
0.0
 40
0.0
 40
0.0
 40
0.4803125454
 40
1.0
 40
1.0
 40
1.0
 40
1.0
 10
15.8845083287
 20
59.5284144711
 30
0.0
 10
15.7636031062
 20
59.5572868935
 30
0.0
 10
15.5169496581
 20
59.6395952485
 30
0.0
 10
15.2848684439
 20
59.7558998485
 30
0.0
 10
15.1683916579
 20
59.8231462309
 30
0.0
  0
SPLINE
  5
2CC
100
AcDbEntity
  8
0
100
AcDbSpline
 62
7
  6
CONTINUOUS
 70
0
 71
3
 72
15
 73
11
 74
0
 42
0.0000001
 43
0.0000001
 44
0.0000000001
 40
0.0
 40
0.0
 40
0.0
 40
0.0
 40
0.1141555516
 40
0.2373276756
 40
0.3669773296
 40
0.5000011
 40
0.6330247168
 40
0.7626739247
 40
0.885845342
 40
1.0
 40
1.0
 40
1.0
 40
1.0
 10
10.9257474381
 20
63.2524356796
 30
0.0
 10
10.9257474381
 20
63.0512098099
 30
0.0
 10
10.962604819
 20
62.632473503
 30
0.0
 10
11.1095360281
 20
62.0007643158
 30
0.0
 10
11.3449113481
 20
61.3608935701
 30
0.0
 10
11.6599343338
 20
60.7369224545
 30
0.0
 10
12.0428000382
 20
60.1521214679
 30
0.0
 10
12.4792580049
 20
59.628349152
 30
0.0
 10
12.9528688065
 20
59.1852538583
 30
0.0
 10
13.2970761122
 20
58.9439707017
 30
0.0
 10
13.4713424486
 20
58.8433602616
 30
0.0
  0
SPLINE
  5
2CD
100
AcDbEntity
  8
0
100
AcDbSpline
 62
7
  6
CONTINUOUS
 70
0
 71
3
 72
15
 73
11
 74
0
 42
0.0000001
 43
0.0000001
 44
0.0000000001
 40
0.0
 40
0.0
 40
0.0
 40
0.0
 40
0.1122730722
 40
0.2326688673
 40
0.359281091
 40
0.489833586
 40
0.6217656032
 40
0.75243039
 40
0.8792956325
 40
1.0
 40
1.0
 40
1.0
 40
1.0
 10
15.1683916579
 20
59.8231462309
 30
0.0
 10
15.0150077591
 20
59.9117004628
 30
0.0
 10
14.711151286
 20
60.1200773268
 30
0.0
 10
14.2871872041
 20
60.4980612017
 30
0.0
 10
13.8892614164
 20
60.9428236172
 30
0.0
 10
13.529090951
 20
61.4411401368
 30
0.0
 10
13.2172828331
 20
61.9784340792
 30
0.0
 10
12.9629440903
 20
62.5388771676
 30
0.0
 10
12.7736933214
 20
63.1058580446
 30
0.0
 10
12.6920711604
 20
63.4889160275
 30
0.0
 10
12.6646340421
 20
63.6773407931
 30
0.0
  0
SPLINE
  5
2CE
100
AcDbEntity
  8
0
100
AcDbSpline
 62
7
  6
CONTINUOUS
 70
0
 71
3
 72
9
 73
5
 74
0
 42
0.0000001
 43
0.0000001
 44
0.0000000001
 40
0.0
 40
0.0
 40
0.0
 40
0.0
 40
0.2552229319
 40
1.0
 40
1.0
 40
1.0
 40
1.0
 10
12.6646340421
 20
64.7387939353
 30
0.0
 10
12.6684040776
 20
64.7603315396
 30
0.0
 10
12.6842750911
 20
64.8445207477
 30
0.0
 10
12.7046185714
 20
64.9278829577
 30
0.0
 10
12.7224946843
 20
64.9891330743
 30
0.0
  0
SPLINE
  5
2CF
100
AcDbEntity
  8
0
100
AcDbSpline
 62
7
  6
CONTINUOUS
 70
0
 71
3
 72
14
 73
10
 74
0
 42
0.0000001
 43
0.0000001
 44
0.0000000001
 40
0.0
 40
0.0
 40
0.0
 40
0.0
 40
0.1080466357
 40
0.2181307812
 40
0.3321113461
 40
0.4515001674
 40
0.5774437985
 40
0.7107269735
 40
1.0
 40
1.0
 40
1.0
 40
1.0
 10
24.8173126067
 20
53.1538279937
 30
0.0
 10
24.8763360466
 20
53.187904982
 30
0.0
 10
24.9898017177
 20
53.2671102831
 30
0.0
 10
25.1397769308
 20
53.4146536745
 30
0.0
 10
25.2686975611
 20
53.5898273478
 30
0.0
 10
25.3755045587
 20
53.7905427302
 30
0.0
 10
25.459265715
 20
54.0148791452
 30
0.0
 10
25.5416154289
 20
54.3515289057
 30
0.0
 10
25.5629187486
 20
54.6193827196
 30
0.0
 10
25.5629187486
 20
54.801852061
 30
0.0
  0
SPLINE
  5
2D0
100
AcDbEntity
  8
0
100
AcDbSpline
 62
7
  6
CONTINUOUS
 70
0
 71
3
 72
15
 73
11
 74
0
 42
0.0000001
 43
0.0000001
 44
0.0000000001
 40
0.0
 40
0.0
 40
0.0
 40
0.0
 40
0.1141555516
 40
0.2373276756
 40
0.3669773296
 40
0.5000011
 40
0.6330247168
 40
0.7626739247
 40
0.885845342
 40
1.0
 40
1.0
 40
1.0
 40
1.0
 10
25.5629187486
 20
54.801852061
 30
0.0
 10
25.5629187486
 20
55.0030779307
 30
0.0
 10
25.5260613677
 20
55.4218142376
 30
0.0
 10
25.3791301586
 20
56.0535234248
 30
0.0
 10
25.1437548386
 20
56.6933941705
 30
0.0
 10
24.8287318529
 20
57.3173652861
 30
0.0
 10
24.4458661485
 20
57.9021662726
 30
0.0
 10
24.0094081818
 20
58.4259385886
 30
0.0
 10
23.5357973802
 20
58.8690338823
 30
0.0
 10
23.1915900744
 20
59.1103170388
 30
0.0
 10
23.0173237381
 20
59.2109274789
 30
0.0
  0
SPLINE
  5
2D1
100
AcDbEntity
  8
0
100
AcDbSpline
 62
7
  6
CONTINUOUS
 70
0
 71
3
 72
14
 73
10
 74
0
 42
0.0000001
 43
0.0000001
 44
0.0000000001
 40
0.0
 40
0.0
 40
0.0
 40
0.0
 40
0.2892720607
 40
0.422554976
 40
0.5484985194
 40
0.6678874407
 40
0.781868291
 40
0.8919528621
 40
1.0
 40
1.0
 40
1.0
 40
1.0
 10
23.0173237381
 20
59.2109274789
 30
0.0
 10
22.8593045203
 20
59.302157853
 30
0.0
 10
22.6166907773
 20
59.4176297885
 30
0.0
 10
22.2839775826
 20
59.5146321013
 30
0.0
 10
22.0478221748
 20
59.5542582079
 30
0.0
 10
21.8205999298
 20
59.5621168191
 30
0.0
 10
21.6044401562
 20
59.5380549754
 30
0.0
 10
21.401680967
 20
59.4819455688
 30
0.0
 10
21.2763570024
 20
59.4232857946
 30
0.0
 10
21.2173348694
 20
59.3892095608
 30
0.0
  0
SPLINE
  5
2D2
100
AcDbEntity
  8
0
100
AcDbSpline
 62
7
  6
CONTINUOUS
 70
0
 71
3
 72
14
 73
10
 74
0
 42
0.0000001
 43
0.0000001
 44
0.0000000001
 40
0.0
 40
0.0
 40
0.0
 40
0.0
 40
0.1080466357
 40
0.2181307812
 40
0.3321113461
 40
0.4515001674
 40
0.5774437985
 40
0.7107269735
 40
1.0
 40
1.0
 40
1.0
 40
1.0
 10
21.2173348694
 20
59.3892095608
 30
0.0
 10
21.1583114296
 20
59.3551325725
 30
0.0
 10
21.0448457585
 20
59.2759272715
 30
0.0
 10
20.8948705454
 20
59.12838388
 30
0.0
 10
20.765949915
 20
58.9532102067
 30
0.0
 10
20.6591429175
 20
58.7524948243
 30
0.0
 10
20.5753817612
 20
58.5281584093
 30
0.0
 10
20.4930320472
 20
58.1915086488
 30
0.0
 10
20.4717287275
 20
57.9236548349
 30
0.0
 10
20.4717287275
 20
57.7411854935
 30
0.0
  0
SPLINE
  5
2D3
100
AcDbEntity
  8
0
100
AcDbSpline
 62
7
  6
CONTINUOUS
 70
0
 71
3
 72
14
 73
10
 74
0
 42
0.0000001
 43
0.0000001
 44
0.0000000001
 40
0.0
 40
0.0
 40
0.0
 40
0.0
 40
0.2892720607
 40
0.422554976
 40
0.5484985194
 40
0.6678874407
 40
0.781868291
 40
0.8919528621
 40
1.0
 40
1.0
 40
1.0
 40
1.0
 10
23.0173237381
 20
53.3321100756
 30
0.0
 10
23.1753429559
 20
53.2408797016
 30
0.0
 10
23.4179566989
 20
53.1254077661
 30
0.0
 10
23.7506698935
 20
53.0284054532
 30
0.0
 10
23.9868253013
 20
52.9887793467
 30
0.0
 10
24.2140475464
 20
52.9809207354
 30
0.0
 10
24.4302073199
 20
53.0049825791
 30
0.0
 10
24.6329665091
 20
53.0610919857
 30
0.0
 10
24.7582904738
 20
53.1197517599
 30
0.0
 10
24.8173126067
 20
53.1538279937
 30
0.0
  0
SPLINE
  5
2D4
100
AcDbEntity
  8
0
100
AcDbSpline
 62
7
  6
CONTINUOUS
 70
0
 71
3
 72
9
 73
5
 74
0
 42
0.0000001
 43
0.0000001
 44
0.0000000001
 40
0.0
 40
0.0
 40
0.0
 40
0.0
 40
0.4803125454
 40
1.0
 40
1.0
 40
1.0
 40
1.0
 10
25.4304896182
 20
54.0171642851
 30
0.0
 10
25.3095843957
 20
54.0460367075
 30
0.0
 10
25.0629309475
 20
54.1283450625
 30
0.0
 10
24.8308497333
 20
54.2446496625
 30
0.0
 10
24.7143729474
 20
54.3118960449
 30
0.0
  0
SPLINE
  5
2D5
100
AcDbEntity
  8
0
100
AcDbSpline
 62
7
  6
CONTINUOUS
 70
0
 71
3
 72
15
 73
11
 74
0
 42
0.0000001
 43
0.0000001
 44
0.0000000001
 40
0.0
 40
0.0
 40
0.0
 40
0.0
 40
0.1141555516
 40
0.2373276756
 40
0.3669773296
 40
0.5000011
 40
0.6330247168
 40
0.7626739247
 40
0.885845342
 40
1.0
 40
1.0
 40
1.0
 40
1.0
 10
20.4717287275
 20
57.7411854935
 30
0.0
 10
20.4717287275
 20
57.5399596238
 30
0.0
 10
20.5085861085
 20
57.121223317
 30
0.0
 10
20.6555173176
 20
56.4895141297
 30
0.0
 10
20.8908926375
 20
55.8496433841
 30
0.0
 10
21.2059156233
 20
55.2256722685
 30
0.0
 10
21.5887813277
 20
54.6408712819
 30
0.0
 10
22.0252392944
 20
54.117098966
 30
0.0
 10
22.4988500959
 20
53.6740036722
 30
0.0
 10
22.8430574017
 20
53.4327205157
 30
0.0
 10
23.0173237381
 20
53.3321100756
 30
0.0
  0
SPLINE
  5
2D6
100
AcDbEntity
  8
0
100
AcDbSpline
 62
7
  6
CONTINUOUS
 70
0
 71
3
 72
15
 73
11
 74
0
 42
0.0000001
 43
0.0000001
 44
0.0000000001
 40
0.0
 40
0.0
 40
0.0
 40
0.0
 40
0.1122730722
 40
0.2326688673
 40
0.359281091
 40
0.489833586
 40
0.6217656032
 40
0.75243039
 40
0.8792956325
 40
1.0
 40
1.0
 40
1.0
 40
1.0
 10
24.7143729474
 20
54.3118960449
 30
0.0
 10
24.5609890485
 20
54.4004502768
 30
0.0
 10
24.2571325755
 20
54.6088271408
 30
0.0
 10
23.8331684936
 20
54.9868110157
 30
0.0
 10
23.4352427059
 20
55.4315734312
 30
0.0
 10
23.0750722405
 20
55.9298899507
 30
0.0
 10
22.7632641226
 20
56.4671838931
 30
0.0
 10
22.5089253798
 20
57.0276269816
 30
0.0
 10
22.3196746109
 20
57.5946078585
 30
0.0
 10
22.2380524499
 20
57.9776658415
 30
0.0
 10
22.2106153316
 20
58.166090607
 30
0.0
  0
SPLINE
  5
2D7
100
AcDbEntity
  8
0
100
AcDbSpline
 62
7
  6
CONTINUOUS
 70
0
 71
3
 72
9
 73
5
 74
0
 42
0.0000001
 43
0.0000001
 44
0.0000000001
 40
0.0
 40
0.0
 40
0.0
 40
0.0
 40
0.2552229319
 40
1.0
 40
1.0
 40
1.0
 40
1.0
 10
22.2106153316
 20
59.2275437493
 30
0.0
 10
22.2143853671
 20
59.2490813536
 30
0.0
 10
22.2302563805
 20
59.3332705617
 30
0.0
 10
22.2505998609
 20
59.4166327716
 30
0.0
 10
22.2684759738
 20
59.4778828883
 30
0.0
  0
SPLINE
  5
2D8
100
AcDbEntity
  8
0
100
AcDbSpline
 62
7
  6
CONTINUOUS
 70
0
 71
3
 72
14
 73
10
 74
0
 42
0.0000001
 43
0.0000001
 44
0.0000000001
 40
0.0
 40
0.0
 40
0.0
 40
0.0
 40
0.1080466357
 40
0.2181307812
 40
0.3321113461
 40
0.4515001674
 40
0.5774437985
 40
0.7107269735
 40
1.0
 40
1.0
 40
1.0
 40
1.0
 10
34.3632938962
 20
47.6425778077
 30
0.0
 10
34.4223173361
 20
47.676654796
 30
0.0
 10
34.5357830071
 20
47.755860097
 30
0.0
 10
34.6857582202
 20
47.9034034885
 30
0.0
 10
34.8146788506
 20
48.0785771618
 30
0.0
 10
34.9214858481
 20
48.2792925442
 30
0.0
 10
35.0052470045
 20
48.5036289592
 30
0.0
 10
35.0875967184
 20
48.8402787197
 30
0.0
 10
35.1089000381
 20
49.1081325336
 30
0.0
 10
35.1089000381
 20
49.290601875
 30
0.0
  0
SPLINE
  5
2D9
100
AcDbEntity
  8
0
100
AcDbSpline
 62
7
  6
CONTINUOUS
 70
0
 71
3
 72
15
 73
11
 74
0
 42
0.0000001
 43
0.0000001
 44
0.0000000001
 40
0.0
 40
0.0
 40
0.0
 40
0.0
 40
0.1141555516
 40
0.2373276756
 40
0.3669773296
 40
0.5000011
 40
0.6330247168
 40
0.7626739247
 40
0.885845342
 40
1.0
 40
1.0
 40
1.0
 40
1.0
 10
35.1089000381
 20
49.290601875
 30
0.0
 10
35.1089000381
 20
49.4918277447
 30
0.0
 10
35.0720426572
 20
49.9105640515
 30
0.0
 10
34.925111448
 20
50.5422732388
 30
0.0
 10
34.6897361281
 20
51.1821439845
 30
0.0
 10
34.3747131423
 20
51.8061151001
 30
0.0
 10
33.9918474379
 20
52.3909160866
 30
0.0
 10
33.5553894712
 20
52.9146884026
 30
0.0
 10
33.0817786697
 20
53.3577836963
 30
0.0
 10
32.7375713639
 20
53.5990668528
 30
0.0
 10
32.5633050276
 20
53.6996772929
 30
0.0
  0
SPLINE
  5
2DA
100
AcDbEntity
  8
0
100
AcDbSpline
 62
7
  6
CONTINUOUS
 70
0
 71
3
 72
14
 73
10
 74
0
 42
0.0000001
 43
0.0000001
 44
0.0000000001
 40
0.0
 40
0.0
 40
0.0
 40
0.0
 40
0.2892720607
 40
0.422554976
 40
0.5484985194
 40
0.6678874407
 40
0.781868291
 40
0.8919528621
 40
1.0
 40
1.0
 40
1.0
 40
1.0
 10
32.5633050276
 20
53.6996772929
 30
0.0
 10
32.4052858098
 20
53.7909076669
 30
0.0
 10
32.1626720667
 20
53.9063796025
 30
0.0
 10
31.8299588721
 20
54.0033819153
 30
0.0
 10
31.5938034643
 20
54.0430080218
 30
0.0
 10
31.3665812192
 20
54.0508666331
 30
0.0
 10
31.1504214457
 20
54.0268047894
 30
0.0
 10
30.9476622565
 20
53.9706953828
 30
0.0
 10
30.8223382918
 20
53.9120356086
 30
0.0
 10
30.7633161589
 20
53.8779593748
 30
0.0
  0
SPLINE
  5
2DB
100
AcDbEntity
  8
0
100
AcDbSpline
 62
7
  6
CONTINUOUS
 70
0
 71
3
 72
20
 73
16
 74
0
 42
0.0000001
 43
0.0000001
 44
0.0000000001
 40
0.0
 40
0.0
 40
0.0
 40
0.0
 40
0.0623909853
 40
0.1288082127
 40
0.2703011189
 40
0.4173630174
 40
0.5616159251
 40
0.6302525764
 40
0.6953795014
 40
0.7563621035
 40
0.8128315392
 40
0.8647643011
 40
0.9125661212
 40
0.9571674039
 40
1.0
 40
1.0
 40
1.0
 40
1.0
 10
63.1931833506
 20
61.7826796565
 30
0.0
 10
63.1034043738
 20
61.7308460495
 30
0.0
 10
62.924971896
 20
61.611548163
 30
0.0
 10
62.5807913674
 20
61.3219661862
 30
0.0
 10
62.188968058
 20
60.8760904469
 30
0.0
 10
61.810785471
 20
60.2609083323
 30
0.0
 10
61.5852612126
 20
59.7032091516
 30
0.0
 10
61.4739438412
 20
59.2542137403
 30
0.0
 10
61.4284822109
 20
58.9331827355
 30
0.0
 10
61.420760132
 20
58.6291469214
 30
0.0
 10
61.4510586951
 20
58.3483644323
 30
0.0
 10
61.5190541529
 20
58.0965893436
 30
0.0
 10
61.6241638621
 20
57.8791813113
 30
0.0
 10
61.7647277516
 20
57.701359132
 30
0.0
 10
61.8815831404
 20
57.6119560897
 30
0.0
 10
61.943212055
 20
57.5763608437
 30
0.0
  0
SPLINE
  5
2DC
100
AcDbEntity
  8
0
100
AcDbSpline
 62
7
  6
CONTINUOUS
 70
0
 71
3
 72
9
 73
5
 74
0
 42
0.0000001
 43
0.0000001
 44
0.0000000001
 40
0.0
 40
0.0
 40
0.0
 40
0.0
 40
0.4803125454
 40
1.0
 40
1.0
 40
1.0
 40
1.0
 10
34.9764709077
 20
48.505914099
 30
0.0
 10
34.8555656852
 20
48.5347865215
 30
0.0
 10
34.608912237
 20
48.6170948765
 30
0.0
 10
34.3768310228
 20
48.7333994765
 30
0.0
 10
34.2603542369
 20
48.8006458589
 30
0.0
  0
SPLINE
  5
2DD
100
AcDbEntity
  8
0
100
AcDbSpline
 62
7
  6
CONTINUOUS
 70
0
 71
3
 72
14
 73
10
 74
0
 42
0.0000001
 43
0.0000001
 44
0.0000000001
 40
0.0
 40
0.0
 40
0.0
 40
0.0
 40
0.1080466357
 40
0.2181307812
 40
0.3321113461
 40
0.4515001674
 40
0.5774437985
 40
0.7107269735
 40
1.0
 40
1.0
 40
1.0
 40
1.0
 10
30.7633161589
 20
53.8779593748
 30
0.0
 10
30.704292719
 20
53.8438823865
 30
0.0
 10
30.590827048
 20
53.7646770855
 30
0.0
 10
30.4408518349
 20
53.617133694
 30
0.0
 10
30.3119312045
 20
53.4419600207
 30
0.0
 10
30.205124207
 20
53.2412446383
 30
0.0
 10
30.1213630506
 20
53.0169082233
 30
0.0
 10
30.0390133367
 20
52.6802584628
 30
0.0
 10
30.017710017
 20
52.4124046489
 30
0.0
 10
30.017710017
 20
52.2299353075
 30
0.0
  0
SPLINE
  5
2DE
100
AcDbEntity
  8
0
100
AcDbSpline
 62
7
  6
CONTINUOUS
 70
0
 71
3
 72
13
 73
9
 74
0
 42
0.0000001
 43
0.0000001
 44
0.0000000001
 40
0.0
 40
0.0
 40
0.0
 40
0.0
 40
0.1080965563
 40
0.2182389973
 40
0.3322538209
 40
0.4516815414
 40
0.7106596944
 40
1.0
 40
1.0
 40
1.0
 40
1.0
 10
61.943212055
 20
57.5763608437
 30
0.0
 10
61.9841951518
 20
57.552690081
 30
0.0
 10
62.0712280838
 20
57.5119434548
 30
0.0
 10
62.2120404051
 20
57.4730479386
 30
0.0
 10
62.3621306946
 20
57.4562478611
 30
0.0
 10
62.5782568229
 20
57.4637878131
 30
0.0
 10
62.8653888633
 20
57.5329845914
 30
0.0
 10
63.0834737745
 20
57.6368270957
 30
0.0
 10
63.1931833506
 20
57.7001675708
 30
0.0
  0
SPLINE
  5
2DF
100
AcDbEntity
  8
0
100
AcDbSpline
 62
7
  6
CONTINUOUS
 70
0
 71
3
 72
9
 73
5
 74
0
 42
0.0000001
 43
0.0000001
 44
0.0000000001
 40
0.0
 40
0.0
 40
0.0
 40
0.0
 40
0.2552229319
 40
1.0
 40
1.0
 40
1.0
 40
1.0
 10
31.7565966211
 20
53.7162935633
 30
0.0
 10
31.7603666566
 20
53.7378311676
 30
0.0
 10
31.77623767
 20
53.8220203756
 30
0.0
 10
31.7965811504
 20
53.9053825856
 30
0.0
 10
31.8144572633
 20
53.9666327022
 30
0.0
  0
SPLINE
  5
2E0
100
AcDbEntity
  8
0
100
AcDbSpline
 62
7
  6
CONTINUOUS
 70
0
 71
3
 72
14
 73
10
 74
0
 42
0.0000001
 43
0.0000001
 44
0.0000000001
 40
0.0
 40
0.0
 40
0.0
 40
0.0
 40
0.2892720607
 40
0.422554976
 40
0.5484985194
 40
0.6678874407
 40
0.781868291
 40
0.8919528621
 40
1.0
 40
1.0
 40
1.0
 40
1.0
 10
32.5633050276
 20
47.8208598896
 30
0.0
 10
32.7213242453
 20
47.7296295156
 30
0.0
 10
32.9639379884
 20
47.61415758
 30
0.0
 10
33.296651183
 20
47.5171552672
 30
0.0
 10
33.5328065908
 20
47.4775291607
 30
0.0
 10
33.7600288359
 20
47.4696705494
 30
0.0
 10
33.9761886094
 20
47.4937323931
 30
0.0
 10
34.1789477986
 20
47.5498417997
 30
0.0
 10
34.3042717633
 20
47.6085015739
 30
0.0
 10
34.3632938962
 20
47.6425778077
 30
0.0
  0
SPLINE
  5
2E1
100
AcDbEntity
  8
0
100
AcDbSpline
 62
7
  6
CONTINUOUS
 70
0
 71
3
 72
15
 73
11
 74
0
 42
0.0000001
 43
0.0000001
 44
0.0000000001
 40
0.0
 40
0.0
 40
0.0
 40
0.0
 40
0.1122730722
 40
0.2326688673
 40
0.359281091
 40
0.489833586
 40
0.6217656032
 40
0.75243039
 40
0.8792956325
 40
1.0
 40
1.0
 40
1.0
 40
1.0
 10
34.2603542369
 20
48.8006458589
 30
0.0
 10
34.106970338
 20
48.8892000908
 30
0.0
 10
33.803113865
 20
49.0975769547
 30
0.0
 10
33.3791497831
 20
49.4755608296
 30
0.0
 10
32.9812239954
 20
49.9203232452
 30
0.0
 10
32.62105353
 20
50.4186397647
 30
0.0
 10
32.3092454121
 20
50.9559337071
 30
0.0
 10
32.0549066692
 20
51.5163767955
 30
0.0
 10
31.8656559004
 20
52.0833576725
 30
0.0
 10
31.7840337393
 20
52.4664156555
 30
0.0
 10
31.7565966211
 20
52.654840421
 30
0.0
  0
SPLINE
  5
2E2
100
AcDbEntity
  8
0
100
AcDbSpline
 62
7
  6
CONTINUOUS
 70
0
 71
3
 72
15
 73
11
 74
0
 42
0.0000001
 43
0.0000001
 44
0.0000000001
 40
0.0
 40
0.0
 40
0.0
 40
0.0
 40
0.1141555516
 40
0.2373276756
 40
0.3669773296
 40
0.5000011
 40
0.6330247168
 40
0.7626739247
 40
0.885845342
 40
1.0
 40
1.0
 40
1.0
 40
1.0
 10
30.017710017
 20
52.2299353075
 30
0.0
 10
30.017710017
 20
52.0287094378
 30
0.0
 10
30.0545673979
 20
51.609973131
 30
0.0
 10
30.2014986071
 20
50.9782639437
 30
0.0
 10
30.436873927
 20
50.338393198
 30
0.0
 10
30.7518969128
 20
49.7144220824
 30
0.0
 10
31.1347626172
 20
49.1296210959
 30
0.0
 10
31.5712205839
 20
48.6058487799
 30
0.0
 10
32.0448313854
 20
48.1627534862
 30
0.0
 10
32.3890386912
 20
47.9214703297
 30
0.0
 10
32.5633050276
 20
47.8208598896
 30
0.0
  0
SPLINE
  5
2E3
100
AcDbEntity
  8
0
100
AcDbSpline
 62
7
  6
CONTINUOUS
 70
0
 71
3
 72
9
 73
5
 74
0
 42
0.0000001
 43
0.0000001
 44
0.0000000001
 40
0.0
 40
0.0
 40
0.0
 40
0.0
 40
0.2561830945
 40
1.0
 40
1.0
 40
1.0
 40
1.0
 10
61.9464231029
 20
57.70465559
 30
0.0
 10
61.9263964568
 20
57.7052511758
 30
0.0
 10
61.8483132205
 20
57.7097841008
 30
0.0
 10
61.7706954835
 20
57.7234976225
 30
0.0
 10
61.71468309
 20
57.7392017949
 30
0.0
  0
ENDSEC
  0
SECTION
  2
OBJECTS
  0
DICTIONARY
  5
C
100
AcDbDictionary
280
0
281
1
  3
ACAD_GROUP
350
D
  3
ACAD_MLINESTYLE
350
17
  3
ACAD_LAYOUT
350
1A
  3
ACAD_PLOTSETTINGS
350
19
  3
ACAD_PLOTSTYLENAME
350
E
  0
DICTIONARY
  5
D
102
{ACAD_REACTORS
330
C
102
}
100
AcDbDictionary
280
0
281
1
  0
ACDBDICTIONARYWDFLT
  5
E
102
{ACAD_REACTORS
330
C
102
}
100
AcDbDictionary
281
1
  3
Normal
350
F
100
AcDbDictionaryWithDefault
340
F
  0
DICTIONARY
  5
17
102
{ACAD_REACTORS
330
C
102
}
100
AcDbDictionary
280
0
281
1
  3
Standard
350
18
  0
DICTIONARY
  5
19
102
{ACAD_REACTORS
330
C
102
}
100
AcDbDictionary
281
1
  0
DICTIONARY
  5
1A
102
{ACAD_REACTORS
330
C
102
}
100
AcDbDictionary
281
1
  3
Model
350
2E4
  3
Layout1
350
2E5
  0
ACDBPLACEHOLDER
  5
F
102
{ACAD_REACTORS
330
E
102
}
  0
MLINESTYLE
  5
18
102
{ACAD_REACTORS
330
17
102
}
100
AcDbMlineStyle
  2
STANDARD
 70
0
  3

 62
256
 51
90.0
 52
90.0
 71
2
 49
0.5
 62
256
  6
BYLAYER
 49
-0.5
 62
256
  6
BYLAYER
  0
LAYOUT
  5
2E4
102
{ACAD_REACTORS
330
1A
102
}
100
AcDbPlotSettings
  1

  2
none_device
  4

  6

 40
0.0
 41
0.0
 42
0.0
 43
0.0
 44
210.0
 45
297.0
 46
0.0
 47
0.0
 48
0.0
 49
0.0
140
0.0
141
0.0
142
1.0
143
1.0
 70
1024
 72
1
 73
0
 74
0
  7

 75
0
147
1.0
148
0.0
149
0.0
100
AcDbLayout
  1
Model
 70
0
 71
0
 10
0.0
 20
0.0
 11
210.0
 21
297.0
 12
0.0
 22
0.0
 32
0.0
 14
0.0
 24
0.0
 34
0.0
 15
0.0
 25
0.0
 35
0.0
146
0.0
 13
0.0
 23
0.0
 33
0.0
 16
1.0
 26
0.0
 36
0.0
 17
0.0
 27
1.0
 37
0.0
 76
0
330
210
345
0
346
0
  0
LAYOUT
  5
2E5
102
{ACAD_REACTORS
330
1A
102
}
100
AcDbPlotSettings
  1

  2
none_device
  4

  6

 40
0.0
 41
0.0
 42
0.0
 43
0.0
 44
210.0
 45
297.0
 46
0.0
 47
0.0
 48
0.0
 49
0.0
140
0.0
141
0.0
142
1.0
143
1.0
 70
0
 72
1
 73
0
 74
0
  7

 75
0
147
1.0
148
0.0
149
0.0
100
AcDbLayout
  1
Layout1
 70
0
 71
1
 10
0.0
 20
0.0
 11
210.0
 21
297.0
 12
0.0
 22
0.0
 32
0.0
 14
0.0
 24
0.0
 34
0.0
 15
0.0
 25
0.0
 35
0.0
146
0.0
 13
0.0
 23
0.0
 33
0.0
 16
1.0
 26
0.0
 36
0.0
 17
0.0
 27
1.0
 37
0.0
 76
0
330
211
345
0
346
0
  0
ENDSEC
  0
EOF
