999
DXF file: C:\Users\sesa63760\Dev\_Creo\CAD\MCADID0004815_3D-CAD\drw0001_1.dxf
999
Pro/ENGINEER 2019471 by Parametric Technology Corporation
  0
SECTION
  2
HEADER
  9
$ACADVER
  1
AC1024
  9
$DWGCODEPAGE
  3
ANSI_1252
  9
$EXTMAX
 10
67.7519855513
 20
95.8206652797
 30
0.0
  9
$EXTMIN
 10
0.0
 20
0.0
 30
0.0
  9
$LIMMIN
 10
0.0
 20
0.0
  9
$LIMMAX
 10
67.7519855513
 20
95.8206652797
  9
$VIEWCTR
 10
33.8759927757
 20
47.9103326399
  9
$VIEWSIZE
 40
95.8206652797
  9
$CLAYER
  8
0
  9
$LTSCALE
 40
6.2460878108
  9
$CELTYPE
  6
BYLAYER
  9
$DIMSCALE
 40
1.0
  9
$DIMASZ
 40
0.8065712566
  9
$DIMEXO
 40
1.0
  9
$DIMDLI
 40
4.3154788511
  9
$DIMEXE
 40
1.0
  9
$DIMCEN
 40
1.0220870963
  9
$DIMLFAC
 40
1.0
  9
$DIMBLK
  1
_FILLED
  9
$DIMALT
 70
0
  9
$DIMALTF
 40
0.0393700787
  9
$DIMTXT
 40
1.1291997592
  9
$DIMTOL
 70
1
  9
$DIMLIM
 70
0
  9
$DIMTFAC
 40
1.0
  9
$DIMTP
 40
0.01
  9
$DIMTM
 40
0.01
  9
$DIMGAP
 40
0.625
  9
$DIMDSEP
 70
46
  9
$AUNITS
 70
0
  9
$PDMODE
 70
3
  9
$PDSIZE
 40
0.3125
  9
$HANDSEED
  5
2F2
  9
$TILEMODE
 70
1
  9
$MEASUREMENT
 70
1
  9
$INSUNITS
 70
4
  0
ENDSEC
  0
SECTION
  2
CLASSES
  0
CLASS
  1
ACDBDICTIONARYWDFLT
  2
AcDbDictionaryWithDefault
  3
AutoCAD 2000
 90
0
 91
1
280
0
281
0
  0
CLASS
  1
ACDBPLACEHOLDER
  2
AcDbPlaceHolder
  3
AutoCAD 2000
 90
0
 91
1
280
0
281
0
  0
CLASS
  1
LAYOUT
  2
AcDbLayout
  3
AutoCAD 2000
 90
0
 91
0
280
0
281
0
  0
ENDSEC
  0
SECTION
  2
TABLES
  0
TABLE
  2
VPORT
  5
8
100
AcDbSymbolTable
 70
2
  0
VPORT
  5
1F4
100
AcDbSymbolTableRecord
100
AcDbViewportTableRecord
  2
*ACTIVE
 70
0
 10
0.0
 20
0.0
 11
1.0
 21
1.0
 12
33.8759927757
 22
47.9103326399
 13
0.0
 23
0.0
 14
1.0
 24
1.0
 15
0.0
 25
0.0
 16
0.0
 26
0.0
 36
1.0
 17
0.0
 27
0.0
 37
0.0
 40
95.8206652797
 41
0.7070707071
 42
50.0
 43
0.0
 44
0.0
 50
0.0
 51
0.0
 71
0
 72
100
 73
1
 74
1
 75
0
 76
0
 77
0
 78
0
  0
ENDTAB
  0
TABLE
  2
LTYPE
  5
5
100
AcDbSymbolTable
 70
6
  0
LTYPE
  5
14
100
AcDbSymbolTableRecord
100
AcDbLinetypeTableRecord
  2
BYBLOCK
 70
0
  3

 72
65
 73
0
 40
0.0
  0
LTYPE
  5
15
100
AcDbSymbolTableRecord
100
AcDbLinetypeTableRecord
  2
BYLAYER
 70
0
  3

 72
65
 73
0
 40
0.0
  0
LTYPE
  5
16
100
AcDbSymbolTableRecord
100
AcDbLinetypeTableRecord
  2
CONTINUOUS
 70
64
  3
Solid line
 72
65
 73
0
 40
0.0
  0
LTYPE
  5
1F5
100
AcDbSymbolTableRecord
100
AcDbLinetypeTableRecord
  2
CENTER
 70
64
  3
____ _ ____ _ ____ _ ____ _ ____ _ ____ _ ____
 72
65
 73
4
 40
0.6
 49
0.375
 74
0
 49
-0.075
 74
0
 49
0.075
 74
0
 49
-0.075
 74
0
  0
LTYPE
  5
1F6
100
AcDbSymbolTableRecord
100
AcDbLinetypeTableRecord
  2
HIDDEN
 70
64
  3
- - - - - - - - - - - - - - - - - - - -
 72
65
 73
2
 40
0.2
 49
0.1
 74
0
 49
-0.1
 74
0
  0
LTYPE
  5
1F7
100
AcDbSymbolTableRecord
100
AcDbLinetypeTableRecord
  2
PHANTOM
 70
64
  3
_____ _ _ _____ _ _ _____ _ _ _____
 72
65
 73
6
 40
0.8
 49
0.45
 74
0
 49
-0.05
 74
0
 49
0.1
 74
0
 49
-0.05
 74
0
 49
0.1
 74
0
 49
-0.05
 74
0
  0
LTYPE
  5
1F8
100
AcDbSymbolTableRecord
100
AcDbLinetypeTableRecord
  2
DOT
 70
64
  3
. . . . . . . . . . . . . . . . . . . .
 72
65
 73
2
 40
0.2
 49
0.1
 74
0
 49
-0.1
 74
0
  0
LTYPE
  5
1F9
100
AcDbSymbolTableRecord
100
AcDbLinetypeTableRecord
  2
DASHED
 70
64
  3
- - - - - - - - - - - - - - - - - - - -
 72
65
 73
2
 40
0.2
 49
0.1
 74
0
 49
-0.1
 74
0
  0
ENDTAB
  0
TABLE
  2
LAYER
  5
2
100
AcDbSymbolTable
 70
36
  0
LAYER
  5
10
100
AcDbSymbolTableRecord
100
AcDbLayerTableRecord
  2
0
 70
0
 62
7
  6
CONTINUOUS
370
-3
390
F
  0
LAYER
  5
1FA
100
AcDbSymbolTableRecord
100
AcDbLayerTableRecord
  2
DEFAULT_1
 70
0
 62
7
  6
CENTER
370
-3
390
F
  0
LAYER
  5
1FB
100
AcDbSymbolTableRecord
100
AcDbLayerTableRecord
  2
DEFAULT_2
 70
0
 62
7
  6
HIDDEN
370
-3
390
F
  0
LAYER
  5
1FC
100
AcDbSymbolTableRecord
100
AcDbLayerTableRecord
  2
DEFAULT_3
 70
0
 62
7
  6
PHANTOM
370
-3
390
F
  0
LAYER
  5
1FD
100
AcDbSymbolTableRecord
100
AcDbLayerTableRecord
  2
00_COMPONENTS
 70
0
 62
7
  6
CONTINUOUS
370
-3
390
F
  0
LAYER
  5
1FE
100
AcDbSymbolTableRecord
100
AcDbLayerTableRecord
  2
01_1_DEFAULT_DATUMS
 70
0
 62
7
  6
CONTINUOUS
370
-3
390
F
  0
LAYER
  5
1FF
100
AcDbSymbolTableRecord
100
AcDbLayerTableRecord
  2
01_PLANES
 70
0
 62
7
  6
CONTINUOUS
370
-3
390
F
  0
LAYER
  5
200
100
AcDbSymbolTableRecord
100
AcDbLayerTableRecord
  2
02_COORD_SYS
 70
0
 62
7
  6
CONTINUOUS
370
-3
390
F
  0
LAYER
  5
201
100
AcDbSymbolTableRecord
100
AcDbLayerTableRecord
  2
03_AXES
 70
0
 62
7
  6
CONTINUOUS
370
-3
390
F
  0
LAYER
  5
202
100
AcDbSymbolTableRecord
100
AcDbLayerTableRecord
  2
04_POINTS
 70
0
 62
7
  6
CONTINUOUS
370
-3
390
F
  0
LAYER
  5
203
100
AcDbSymbolTableRecord
100
AcDbLayerTableRecord
  2
05_CURVES
 70
0
 62
7
  6
CONTINUOUS
370
-3
390
F
  0
LAYER
  5
204
100
AcDbSymbolTableRecord
100
AcDbLayerTableRecord
  2
06_SURFS
 70
0
 62
7
  6
CONTINUOUS
370
-3
390
F
  0
LAYER
  5
205
100
AcDbSymbolTableRecord
100
AcDbLayerTableRecord
  2
07_COSMETICS
 70
0
 62
7
  6
CONTINUOUS
370
-3
390
F
  0
LAYER
  5
206
100
AcDbSymbolTableRecord
100
AcDbLayerTableRecord
  2
10_NOTES
 70
0
 62
7
  6
CONTINUOUS
370
-3
390
F
  0
LAYER
  5
207
100
AcDbSymbolTableRecord
100
AcDbLayerTableRecord
  2
11_NOTES_PUB
 70
0
 62
7
  6
CONTINUOUS
370
-3
390
F
  0
LAYER
  5
208
100
AcDbSymbolTableRecord
100
AcDbLayerTableRecord
  2
13_REF_GTOL
 70
0
 62
7
  6
CONTINUOUS
370
-3
390
F
  0
LAYER
  5
209
100
AcDbSymbolTableRecord
100
AcDbLayerTableRecord
  2
16_MISC
 70
0
 62
7
  6
CONTINUOUS
370
-3
390
F
  0
LAYER
  5
20A
100
AcDbSymbolTableRecord
100
AcDbLayerTableRecord
  2
17_NO_PRINT
 70
0
 62
7
  6
CONTINUOUS
370
-3
390
F
  0
LAYER
  5
20B
100
AcDbSymbolTableRecord
100
AcDbLayerTableRecord
  2
18_DATUM_CAMS_JOINTS
 70
0
 62
7
  6
CONTINUOUS
370
-3
390
F
  0
LAYER
  5
20C
100
AcDbSymbolTableRecord
100
AcDbLayerTableRecord
  2
19_DATUM_FUNCTIONAL
 70
0
 62
7
  6
CONTINUOUS
370
-3
390
F
  0
LAYER
  5
20D
100
AcDbSymbolTableRecord
100
AcDbLayerTableRecord
  2
20_DATUM_KINEMATIC_SCHEME
 70
0
 62
7
  6
CONTINUOUS
370
-3
390
F
  0
ENDTAB
  0
TABLE
  2
STYLE
  5
3
100
AcDbSymbolTable
 70
1
  0
STYLE
  5
11
100
AcDbSymbolTableRecord
100
AcDbTextStyleTableRecord
  2
STANDARD
 70
0
 40
0.0
 41
1.0
 50
0.0
 71
0
 42
0.2
  3
ARIAL.TTF
  4

  0
STYLE
  5
20E
100
AcDbSymbolTableRecord
100
AcDbTextStyleTableRecord
  2
TEXTSTYLE_1
 70
0
 40
0.0
 41
0.8
 50
0.0
 71
0
 42
0.2
  3
gdt
  4

  0
ENDTAB
  0
TABLE
  2
VIEW
  5
6
100
AcDbSymbolTable
 70
0
  0
ENDTAB
  0
TABLE
  2
UCS
  5
7
100
AcDbSymbolTable
 70
0
  0
ENDTAB
  0
TABLE
  2
APPID
  5
9
100
AcDbSymbolTable
 70
1
  0
APPID
  5
20F
100
AcDbSymbolTableRecord
100
AcDbRegAppTableRecord
  2
ACAD
 70
0
  0
ENDTAB
  0
TABLE
  2
BLOCK_RECORD
  5
1
100
AcDbSymbolTable
 70
0
  0
BLOCK_RECORD
  5
210
100
AcDbSymbolTableRecord
100
AcDbBlockTableRecord
  2
*Model_Space
  0
BLOCK_RECORD
  5
211
100
AcDbSymbolTableRecord
100
AcDbBlockTableRecord
  2
*Paper_Space
  0
BLOCK_RECORD
  5
212
100
AcDbSymbolTableRecord
100
AcDbBlockTableRecord
  2
_FILLED
  0
ENDTAB
  0
TABLE
  2
DIMSTYLE
  5
A
100
AcDbSymbolTable
 70
1
100
AcDbDimStyleTable
 71
0
  0
DIMSTYLE
105
213
100
AcDbSymbolTableRecord
100
AcDbDimStyleTableRecord
  2
STANDARD
 70
0
  3

  4

 40
1.0
 41
0.8065712566
 42
1.0
 43
0.38
 44
1.0
 45
0.0
 46
0.0
 47
0.01
 48
0.01
140
1.1291997592
141
0.09
142
0.0
143
25.4
144
1.0
145
0.0
146
1.0
147
0.625
 71
1
 72
0
 73
0
 74
0
 75
0
 76
0
 77
1
 78
8
 79
2
170
0
171
1
172
0
173
0
174
0
175
0
176
0
177
0
178
0
270
2
179
2
271
2
272
2
273
2
274
2
275
0
280
0
281
0
282
0
283
1
284
8
285
0
286
0
287
3
288
0
340
11
278
46
341
212
342
212
343
212
344
212
  0
ENDTAB
  0
ENDSEC
  0
SECTION
  2
BLOCKS
  0
BLOCK
  5
20
100
AcDbEntity
  8
0
100
AcDbBlockBegin
  2
*Model_Space
 70
0
 10
0.0
 20
0.0
 30
0.0
  3
*Model_Space
  1

  0
ENDBLK
  5
21
100
AcDbEntity
  8
0
100
AcDbBlockEnd
  0
BLOCK
  5
1C
100
AcDbEntity
  8
0
100
AcDbBlockBegin
  2
*Paper_Space
 70
0
 10
0.0
 20
0.0
 30
0.0
  3
*Paper_Space
  1

  0
ENDBLK
  5
1D
100
AcDbEntity
  8
0
100
AcDbBlockEnd
  0
BLOCK
  5
214
100
AcDbEntity
  8
0
100
AcDbBlockBegin
  2
_FILLED
 70
64
 10
0.0
 20
0.0
  3
_FILLED
  1

  0
SOLID
  5
215
100
AcDbEntity
  8
0
  6
BYBLOCK
 62
0
100
AcDbTrace
 10
0.0
 20
0.0
 11
-1.0
 21
0.25
 12
-1.0
 22
-0.25
 13
-1.0
 23
-0.25
  0
ENDBLK
  5
216
100
AcDbEntity
  8
0
  6
BYBLOCK
 62
0
100
AcDbBlockEnd
  0
ENDSEC
  0
SECTION
  2
ENTITIES
  0
LWPOLYLINE
  5
217
100
AcDbEntity
  8
0
100
AcDbPolyline
 62
7
  6
BYLAYER
 90
4
 70
0
 10
7.8600100186
 20
38.0076507008
 10
7.9041753238
 20
37.5762214121
 10
8.4122025752
 20
36.5589405593
 10
9.3866686336
 20
35.764970726
  0
LINE
  5
218
100
AcDbEntity
  8
0
100
AcDbLine
 62
7
  6
BYLAYER
 10
9.3866242992
 20
35.7649963067
 11
9.324490603
 21
35.9023321511
  0
LINE
  5
219
100
AcDbEntity
  8
0
100
AcDbLine
 62
7
  6
BYLAYER
 10
7.8600099721
 20
38.0076509475
 11
7.860009829
 21
38.4822267138
  0
LINE
  5
21A
100
AcDbEntity
  8
0
100
AcDbLine
 62
7
  6
BYLAYER
 10
7.860009829
 20
49.9790163048
 11
7.860009829
 21
50.4527968614
  0
LINE
  5
21B
100
AcDbEntity
  8
0
100
AcDbLine
 62
7
  6
BYLAYER
 10
9.32449061
 20
35.9023321471
 11
9.3244906429
 21
36.4368319652
  0
LINE
  5
21C
100
AcDbEntity
  8
0
100
AcDbLine
 62
7
  6
BYLAYER
 10
9.3244906429
 20
47.9419695147
 11
9.3244906101
 21
48.4764693708
  0
LWPOLYLINE
  5
21D
100
AcDbEntity
  8
0
100
AcDbPolyline
 62
7
  6
BYLAYER
 90
3
 70
0
 10
8.0494230212
 20
51.2373176157
 10
7.9110474073
 20
50.8645584803
 10
7.8600099366
 20
50.4532046459
  0
LINE
  5
21E
100
AcDbEntity
  8
0
100
AcDbLine
 62
7
  6
BYLAYER
 10
8.0494230898
 20
51.2373177941
 11
8.0494820023
 21
51.2374363386
  0
LWPOLYLINE
  5
21F
100
AcDbEntity
  8
0
100
AcDbPolyline
 62
7
  6
BYLAYER
 90
4
 70
0
 10
26.6479539713
 20
25.8991378127
 10
26.6810541405
 20
25.894621818
 10
26.820439195
 20
25.8845643395
 10
26.878317446
 20
25.884118556
  0
LWPOLYLINE
  5
220
100
AcDbEntity
  8
0
100
AcDbPolyline
 62
7
  6
BYLAYER
 90
4
 70
0
 10
26.2158510211
 20
26.0488575388
 10
26.3807501694
 20
25.9699643135
 10
26.5645431196
 20
25.9145448122
 10
26.6479594995
 20
25.8991369878
  0
LINE
  5
221
100
AcDbEntity
  8
0
100
AcDbLine
 62
7
  6
BYLAYER
 10
9.3866242992
 20
35.7649963067
 11
26.2158358059
 21
26.0488663214
  0
LINE
  5
222
100
AcDbEntity
  8
0
100
AcDbLine
 62
7
  6
BYLAYER
 10
26.1537022377
 20
26.1862020918
 11
9.32449061
 21
35.9023321471
  0
LINE
  5
223
100
AcDbEntity
  8
0
100
AcDbLine
 62
7
  6
BYLAYER
 10
13.955991337
 20
43.226174863
 11
13.955991337
 21
45.2680318348
  0
LWPOLYLINE
  5
224
100
AcDbEntity
  8
0
100
AcDbPolyline
 62
7
  6
BYLAYER
 90
3
 70
0
 10
26.8784344093
 20
25.8840567972
 10
27.1968746846
 20
25.9380174149
 10
27.4459063247
 20
26.0434985934
  0
LINE
  5
225
100
AcDbEntity
  8
0
100
AcDbLine
 62
7
  6
BYLAYER
 10
26.8783202818
 20
25.8840505929
 11
26.8784344093
 21
25.8840567972
  0
LINE
  5
226
100
AcDbEntity
  8
0
100
AcDbLine
 62
7
  6
BYLAYER
 10
9.3244906429
 20
36.4368319652
 11
26.1537021014
 21
26.7207020076
  0
LINE
  5
227
100
AcDbEntity
  8
0
100
AcDbLine
 62
7
  6
BYLAYER
 10
26.2597594339
 20
27.9294352236
 11
28.0982447193
 21
26.8680092618
  0
LINE
  5
228
100
AcDbEntity
  8
0
100
AcDbLine
 62
7
  6
BYLAYER
 10
14.7692249283
 20
34.7681812473
 11
17.373920689
 21
33.2643934689
  0
LINE
  5
229
100
AcDbEntity
  8
0
100
AcDbLine
 62
7
  6
BYLAYER
 10
17.9628289138
 20
32.9243948386
 11
20.6735911332
 21
31.3593709471
  0
LINE
  5
22A
100
AcDbEntity
  8
0
100
AcDbLine
 62
7
  6
BYLAYER
 10
21.2648375055
 20
31.7031083145
 11
16.0420118353
 21
34.7184399052
  0
LINE
  5
22B
100
AcDbEntity
  8
0
100
AcDbLine
 62
7
  6
BYLAYER
 10
15.6919542061
 20
46.5149131572
 11
15.6889631482
 21
46.9124047297
  0
LINE
  5
22C
100
AcDbEntity
  8
0
100
AcDbLine
 62
7
  6
BYLAYER
 10
16.1187429645
 20
46.268512127
 11
16.1136040865
 21
46.9514346329
  0
LINE
  5
22D
100
AcDbEntity
  8
0
100
AcDbLine
 62
7
  6
BYLAYER
 10
14.5888110712
 20
44.2530113005
 11
14.5888110712
 21
44.9026814563
  0
LINE
  5
22E
100
AcDbEntity
  8
0
100
AcDbLine
 62
7
  6
BYLAYER
 10
15.6176906536
 20
46.5577882693
 11
15.6176906536
 21
46.8715430614
  0
LINE
  5
22F
100
AcDbEntity
  8
0
100
AcDbLine
 62
7
  6
BYLAYER
 10
15.9359453765
 20
47.0540036165
 11
15.9359453765
 21
47.8437146924
  0
LINE
  5
230
100
AcDbEntity
  8
0
100
AcDbLine
 62
7
  6
BYLAYER
 10
16.0420118353
 20
35.5081509811
 11
16.0420118353
 21
34.7184399052
  0
LWPOLYLINE
  5
231
100
AcDbEntity
  8
0
100
AcDbPolyline
 62
7
  6
BYLAYER
 90
4
 70
0
 10
8.7809333807
 20
52.1127281967
 10
8.4945724476
 20
51.8522488486
 10
8.2190236922
 20
51.5212815778
 10
8.0494820023
 20
51.2374363386
  0
LINE
  5
232
100
AcDbEntity
  8
0
100
AcDbLine
 62
7
  6
BYLAYER
 10
8.7800873517
 20
52.1120408475
 11
8.7809335107
 21
52.1127283135
  0
LINE
  5
233
100
AcDbEntity
  8
0
100
AcDbLine
 62
7
  6
BYLAYER
 10
39.9395115632
 20
70.1362360968
 11
39.9394889043
 21
70.1362276663
  0
LINE
  5
234
100
AcDbEntity
  8
0
100
AcDbLine
 62
7
  6
BYLAYER
 10
40.3605011802
 20
70.1296556034
 11
40.2590409456
 21
70.0922841353
  0
LINE
  5
235
100
AcDbEntity
  8
0
100
AcDbLine
 62
7
  6
BYLAYER
 10
21.9463780402
 20
32.0993406809
 11
16.0420118353
 21
35.5081509811
  0
LINE
  5
236
100
AcDbEntity
  8
0
100
AcDbLine
 62
7
  6
BYLAYER
 10
27.4901078711
 20
29.0890887391
 11
28.0982447193
 21
28.7379887091
  0
LINE
  5
237
100
AcDbEntity
  8
0
100
AcDbLine
 62
7
  6
BYLAYER
 10
17.8264893427
 20
45.2825666009
 11
17.8251037184
 21
45.310714624
  0
LWPOLYLINE
  5
238
100
AcDbEntity
  8
0
100
AcDbPolyline
 62
7
  6
BYLAYER
 90
3
 70
0
 10
9.2310870204
 20
52.4151309585
 10
9.1748435374
 20
52.3822303723
 10
8.7800873517
 20
52.1120408475
  0
LINE
  5
239
100
AcDbEntity
  8
0
100
AcDbLine
 62
7
  6
BYLAYER
 10
9.2310801804
 20
52.41512702
 11
39.8592713365
 21
70.0982159003
  0
LINE
  5
23A
100
AcDbEntity
  8
0
100
AcDbLine
 62
7
  6
BYLAYER
 10
39.8588792939
 20
70.0979895444
 11
39.858663332
 21
70.0978648288
  0
LINE
  5
23B
100
AcDbEntity
  8
0
100
AcDbLine
 62
7
  6
BYLAYER
 10
9.1580941175
 20
52.1362512951
 11
33.9977129614
 21
66.4773263168
  0
LINE
  5
23C
100
AcDbEntity
  8
0
100
AcDbLine
 62
7
  6
BYLAYER
 10
35.1384316647
 20
67.1359166361
 11
40.2590409456
 21
70.0922841353
  0
LINE
  5
23D
100
AcDbEntity
  8
0
100
AcDbLine
 62
7
  6
BYLAYER
 10
39.9394889043
 20
70.1362276663
 11
39.9136416675
 21
70.1235324383
  0
LINE
  5
23E
100
AcDbEntity
  8
0
100
AcDbLine
 62
7
  6
BYLAYER
 10
39.9395044177
 20
70.1362334388
 11
39.8589852886
 21
70.0980377828
  0
LINE
  5
23F
100
AcDbEntity
  8
0
100
AcDbLine
 62
7
  6
BYLAYER
 10
39.9136416393
 20
70.1235324282
 11
39.8588792939
 21
70.0979895444
  0
LINE
  5
240
100
AcDbEntity
  8
0
100
AcDbLine
 62
7
  6
BYLAYER
 10
26.1537021097
 20
26.1862021657
 11
26.2158318653
 21
26.0488685965
  0
LINE
  5
241
100
AcDbEntity
  8
0
100
AcDbLine
 62
7
  6
BYLAYER
 10
15.7944766224
 20
42.1647489012
 11
13.955991337
 21
43.226174863
  0
LINE
  5
242
100
AcDbEntity
  8
0
100
AcDbLine
 62
7
  6
BYLAYER
 10
17.9820864546
 20
32.9198456373
 11
18.0007303942
 21
32.9987685968
  0
LINE
  5
243
100
AcDbEntity
  8
0
100
AcDbLine
 62
7
  6
BYLAYER
 10
16.8165424468
 20
42.9481429586
 11
17.0286725512
 21
43.3163358596
  0
LINE
  5
244
100
AcDbEntity
  8
0
100
AcDbLine
 62
7
  6
BYLAYER
 10
42.293210733
 20
67.2455006835
 11
43.3538664888
 21
67.8578669143
  0
LINE
  5
245
100
AcDbEntity
  8
0
100
AcDbLine
 62
7
  6
BYLAYER
 10
27.6545635851
 20
36.5055103016
 11
16.8197771863
 21
42.7608356312
  0
LINE
  5
246
100
AcDbEntity
  8
0
100
AcDbLine
 62
7
  6
BYLAYER
 10
27.5300749533
 20
36.7628220126
 11
16.8165424468
 21
42.9481429586
  0
LINE
  5
247
100
AcDbEntity
  8
0
100
AcDbLine
 62
7
  6
BYLAYER
 10
28.0982447193
 20
36.4943319218
 11
27.4901078711
 21
36.8454319518
  0
LINE
  5
248
100
AcDbEntity
  8
0
100
AcDbLine
 62
7
  6
BYLAYER
 10
27.4901078711
 20
37.2765599995
 11
17.0286725512
 21
43.3163358596
  0
LINE
  5
249
100
AcDbEntity
  8
0
100
AcDbLine
 62
7
  6
BYLAYER
 10
26.1537021014
 20
38.2258395571
 11
9.3244906429
 21
47.9419695147
  0
LINE
  5
24A
100
AcDbEntity
  8
0
100
AcDbLine
 62
7
  6
BYLAYER
 10
9.3244906101
 20
48.4764693708
 11
26.1537022425
 21
38.7603393128
  0
LINE
  5
24B
100
AcDbEntity
  8
0
100
AcDbLine
 62
7
  6
BYLAYER
 10
26.3658332526
 20
39.1277633656
 11
9.5366217941
 21
48.8438933231
  0
LINE
  5
24C
100
AcDbEntity
  8
0
100
AcDbLine
 62
7
  6
BYLAYER
 10
14.6631584695
 20
47.1088752155
 11
15.9359453765
 21
47.8437146924
  0
LINE
  5
24D
100
AcDbEntity
  8
0
100
AcDbLine
 62
7
  6
BYLAYER
 10
20.5675246745
 20
43.7000649152
 11
17.8264893427
 21
45.2825666009
  0
LINE
  5
24E
100
AcDbEntity
  8
0
100
AcDbLine
 62
7
  6
BYLAYER
 10
17.5102602601
 20
45.4651374166
 11
14.6631584695
 21
47.1088752155
  0
LINE
  5
24F
100
AcDbEntity
  8
0
100
AcDbLine
 62
7
  6
BYLAYER
 10
15.9359453765
 20
47.0540036165
 11
21.1563919509
 21
44.0400455663
  0
LINE
  5
250
100
AcDbEntity
  8
0
100
AcDbLine
 62
7
  6
BYLAYER
 10
15.9359453765
 20
47.8437146924
 11
21.8403115815
 21
44.4349043922
  0
LINE
  5
251
100
AcDbEntity
  8
0
100
AcDbLine
 62
7
  6
BYLAYER
 10
26.1537021014
 20
26.7207020076
 11
26.1537022377
 21
26.1862020918
  0
LINE
  5
252
100
AcDbEntity
  8
0
100
AcDbLine
 62
7
  6
BYLAYER
 10
26.1537022425
 20
38.7603393128
 11
26.1537021014
 21
38.2258395571
  0
LINE
  5
253
100
AcDbEntity
  8
0
100
AcDbLine
 62
7
  6
BYLAYER
 10
27.4901078711
 20
37.2947231563
 11
27.4901078711
 21
36.8454319518
  0
LINE
  5
254
100
AcDbEntity
  8
0
100
AcDbLine
 62
7
  6
BYLAYER
 10
27.4901078711
 20
29.0890887391
 11
27.4901078711
 21
28.6397975347
  0
LINE
  5
255
100
AcDbEntity
  8
0
100
AcDbLine
 62
7
  6
BYLAYER
 10
18.0005750015
 20
32.9987804605
 11
17.9628350155
 21
32.9243913158
  0
LINE
  5
256
100
AcDbEntity
  8
0
100
AcDbLine
 62
7
  6
BYLAYER
 10
15.3450153038
 20
46.7152138944
 11
15.9359453765
 21
47.0540036165
  0
LINE
  5
257
100
AcDbEntity
  8
0
100
AcDbLine
 62
7
  6
BYLAYER
 10
27.8507583762
 20
26.5128072165
 11
27.8507583762
 21
26.724126258
  0
LINE
  5
258
100
AcDbEntity
  8
0
100
AcDbLine
 62
7
  6
BYLAYER
 10
27.8507655983
 20
38.4337457729
 11
27.8507583762
 21
38.2224234651
  0
LINE
  5
259
100
AcDbEntity
  8
0
100
AcDbLine
 62
7
  6
BYLAYER
 10
28.0982447193
 20
38.3643113691
 11
28.0982447193
 21
36.4943319218
  0
LINE
  5
25A
100
AcDbEntity
  8
0
100
AcDbLine
 62
7
  6
BYLAYER
 10
28.0982447193
 20
28.7379887091
 11
28.0982447193
 21
26.8680092618
  0
LINE
  5
25B
100
AcDbEntity
  8
0
100
AcDbLine
 62
7
  6
BYLAYER
 10
9.3244612032
 20
40.5335072205
 11
13.955991337
 21
43.226174863
  0
LINE
  5
25C
100
AcDbEntity
  8
0
100
AcDbLine
 62
7
  6
BYLAYER
 10
17.0286725512
 20
43.3163358596
 11
17.1821051586
 21
43.4054762881
  0
LINE
  5
25D
100
AcDbEntity
  8
0
100
AcDbLine
 62
7
  6
BYLAYER
 10
19.1238254332
 20
44.5335662044
 11
19.7108484691
 21
44.8746116043
  0
LINE
  5
25E
100
AcDbEntity
  8
0
100
AcDbLine
 62
7
  6
BYLAYER
 10
17.9339386073
 20
45.9004877829
 11
17.3432375934
 21
45.5615658166
  0
LINE
  5
25F
100
AcDbEntity
  8
0
100
AcDbLine
 62
7
  6
BYLAYER
 10
15.1534139782
 20
44.5767151902
 11
14.5888110712
 21
44.2530113004
  0
LINE
  5
260
100
AcDbEntity
  8
0
100
AcDbLine
 62
7
  6
BYLAYER
 10
15.7944766224
 20
42.1647489012
 11
16.8197771863
 21
42.7608356312
  0
LINE
  5
261
100
AcDbEntity
  8
0
100
AcDbLine
 62
7
  6
BYLAYER
 10
21.8403115815
 20
44.4349043922
 11
20.5675246745
 21
43.7000649152
  0
LINE
  5
262
100
AcDbEntity
  8
0
100
AcDbLine
 62
7
  6
BYLAYER
 10
16.0420118353
 20
35.5081509811
 11
14.7692249283
 21
34.7681812473
  0
LINE
  5
263
100
AcDbEntity
  8
0
100
AcDbLine
 62
7
  6
BYLAYER
 10
56.6121738353
 20
60.203352767
 11
55.5515180795
 21
59.5909865362
  0
LINE
  5
264
100
AcDbEntity
  8
0
100
AcDbLine
 62
7
  6
BYLAYER
 10
16.0420118353
 20
34.7184399052
 11
15.4487015626
 21
34.3758941043
  0
LINE
  5
265
100
AcDbEntity
  8
0
100
AcDbLine
 62
7
  6
BYLAYER
 10
54.1108073109
 20
54.8356995097
 11
54.1108477919
 21
54.835715514
  0
LINE
  5
266
100
AcDbEntity
  8
0
100
AcDbLine
 62
7
  6
BYLAYER
 10
54.6943778461
 20
55.1093571389
 11
54.6944980561
 21
55.1094265502
  0
LINE
  5
267
100
AcDbEntity
  8
0
100
AcDbLine
 62
7
  6
BYLAYER
 10
60.4823790848
 20
58.416598556
 11
55.3617683653
 21
55.4602302256
  0
LINE
  5
268
100
AcDbEntity
  8
0
100
AcDbLine
 62
7
  6
BYLAYER
 10
54.2210511008
 20
54.8016407371
 11
26.8749586358
 21
39.0134611342
  0
LWPOLYLINE
  5
269
100
AcDbEntity
  8
0
100
AcDbPolyline
 62
7
  6
BYLAYER
 90
4
 70
0
 10
54.6944942374
 20
55.1094331815
 10
54.5239021626
 20
55.0175322505
 10
54.2789434937
 20
54.9045105972
 10
54.1108594648
 20
54.8357452924
  0
LINE
  5
26A
100
AcDbEntity
  8
0
100
AcDbLine
 62
7
  6
BYLAYER
 10
27.8507655983
 20
38.4337457729
 11
60.7988853865
 21
57.4562389563
  0
LINE
  5
26B
100
AcDbEntity
  8
0
100
AcDbLine
 62
7
  6
BYLAYER
 10
28.0982447193
 20
38.3643113691
 11
27.8507583762
 21
38.2224234651
  0
LINE
  5
26C
100
AcDbEntity
  8
0
100
AcDbLine
 62
7
  6
BYLAYER
 10
43.3538664888
 20
66.6331446507
 11
43.3538664888
 21
67.8578669143
  0
LINE
  5
26D
100
AcDbEntity
  8
0
100
AcDbLine
 62
7
  6
BYLAYER
 10
55.1682781893
 20
55.4445421792
 11
55.16845876
 21
55.4446943062
  0
LWPOLYLINE
  5
26E
100
AcDbEntity
  8
0
100
AcDbPolyline
 62
7
  6
BYLAYER
 90
4
 70
0
 10
55.1683912791
 20
55.4446591029
 10
55.0384864666
 20
55.3398391764
 10
54.8402569549
 20
55.1990073173
 10
54.6943778461
 20
55.1093571389
  0
LINE
  5
26F
100
AcDbEntity
  8
0
100
AcDbLine
 62
7
  6
BYLAYER
 10
20.6735911332
 20
31.3593709471
 11
21.9463780402
 21
32.0993406809
  0
LINE
  5
270
100
AcDbEntity
  8
0
100
AcDbLine
 62
7
  6
BYLAYER
 10
27.4879637048
 20
28.6434856136
 11
26.2597594339
 21
27.9294352236
  0
LINE
  5
271
100
AcDbEntity
  8
0
100
AcDbLine
 62
7
  6
BYLAYER
 10
54.1108477919
 20
54.835715514
 11
54.2210511009
 21
54.8016407372
  0
LINE
  5
272
100
AcDbEntity
  8
0
100
AcDbLine
 62
7
  6
BYLAYER
 10
28.0982447193
 20
26.8680092618
 11
27.8507583762
 21
26.724126258
  0
LINE
  5
273
100
AcDbEntity
  8
0
100
AcDbLine
 62
7
  6
BYLAYER
 10
60.7988853865
 20
45.5353036662
 11
27.8507583762
 21
26.5128072165
  0
LINE
  5
274
100
AcDbEntity
  8
0
100
AcDbLine
 62
7
  6
BYLAYER
 10
27.4990650136
 20
26.0730108157
 11
60.7826063424
 21
45.2891576566
  0
LINE
  5
275
100
AcDbEntity
  8
0
100
AcDbLine
 62
7
  6
BYLAYER
 10
27.4740005448
 20
26.0590507136
 11
27.4990650136
 21
26.0730108157
  0
LINE
  5
276
100
AcDbEntity
  8
0
100
AcDbLine
 62
7
  6
BYLAYER
 10
27.4459063247
 20
26.0434985934
 11
27.4743781163
 21
26.0585140698
  0
LWPOLYLINE
  5
277
100
AcDbEntity
  8
0
100
AcDbPolyline
 62
7
  6
BYLAYER
 90
4
 70
0
 10
60.7814585004
 20
45.2885171547
 10
60.8426369325
 20
45.333431509
 10
60.9452884066
 20
45.574667609
 10
60.9453339006
 20
45.5692654703
  0
LINE
  5
278
100
AcDbEntity
  8
0
100
AcDbLine
 62
7
  6
BYLAYER
 10
55.5515180795
 20
59.5909865362
 11
42.293210733
 21
67.2455006835
  0
LWPOLYLINE
  5
279
100
AcDbEntity
  8
0
100
AcDbPolyline
 62
7
  6
BYLAYER
 90
4
 70
0
 10
40.3605209379
 20
70.1296484995
 10
40.2256423847
 20
70.1637219094
 10
40.0486357924
 20
70.1641926848
 10
39.9395115632
 20
70.1362360968
  0
LINE
  5
27A
100
AcDbEntity
  8
0
100
AcDbLine
 62
7
  6
BYLAYER
 10
40.3362017062
 20
70.0645093034
 11
40.2590409456
 21
70.0922841353
  0
LINE
  5
27B
100
AcDbEntity
  8
0
100
AcDbLine
 62
7
  6
BYLAYER
 10
40.3605734945
 20
70.1296295587
 11
40.3605011802
 21
70.1296556034
  0
LINE
  5
27C
100
AcDbEntity
  8
0
100
AcDbLine
 62
7
  6
BYLAYER
 10
40.3344005283
 20
70.0628440874
 11
40.2590409456
 21
70.0922841353
  0
LINE
  5
27D
100
AcDbEntity
  8
0
100
AcDbLine
 62
7
  6
BYLAYER
 10
43.3538664888
 20
67.8578669143
 11
56.6121738353
 21
60.203352767
  0
LINE
  5
27E
100
AcDbEntity
  8
0
100
AcDbLine
 62
7
  6
BYLAYER
 10
60.6863846417
 20
58.3916063105
 11
60.6857455582
 21
58.3921954688
  0
LINE
  5
27F
100
AcDbEntity
  8
0
100
AcDbLine
 62
7
  6
BYLAYER
 10
60.7988853865
 20
57.4562389563
 11
60.7988853865
 21
45.5353036662
  0
LINE
  5
280
100
AcDbEntity
  8
0
100
AcDbLine
 62
7
  6
BYLAYER
 10
60.9453305139
 20
45.5694101589
 11
60.9453305239
 21
57.8306074702
  0
LWPOLYLINE
  5
281
100
AcDbEntity
  8
0
100
AcDbPolyline
 62
7
  6
BYLAYER
 90
4
 70
0
 10
60.886829794
 20
58.1065308212
 10
60.8401052034
 20
58.1952635165
 10
60.7391359303
 20
58.3370781846
 10
60.6857920336
 20
58.3921528639
  0
LINE
  5
282
100
AcDbEntity
  8
0
100
AcDbLine
 62
7
  6
BYLAYER
 10
60.8868308522
 20
58.1065285461
 11
60.8868190126
 21
58.1065539351
  0
LINE
  5
283
100
AcDbEntity
  8
0
100
AcDbLine
 62
7
  6
BYLAYER
 10
60.9453338092
 20
57.8311274727
 11
60.8868190126
 21
58.1065539351
  0
ARC
  5
284
100
AcDbEntity
  8
0
100
AcDbCircle
 62
7
  6
BYLAYER
 10
21.5093081547
 20
12.9216866313
 40
60.0470346621
100
AcDbArc
 50
60.0013749416
 51
60.7867167013
  0
ARC
  5
285
100
AcDbEntity
  8
0
100
AcDbCircle
 62
7
  6
BYLAYER
 10
22.3597311307
 20
14.3877173274
 40
58.3522035381
100
AcDbArc
 50
58.9168280916
 51
60.0048245616
  0
ARC
  5
286
100
AcDbEntity
  8
0
100
AcDbCircle
 62
7
  6
BYLAYER
 10
46.8830248659
 20
56.8907243307
 40
9.5071324309
100
AcDbArc
 50
50.3746119501
 51
53.3997628308
  0
ARC
  5
287
100
AcDbEntity
  8
0
100
AcDbCircle
 62
7
  6
BYLAYER
 10
48.7496460575
 20
60.1179807637
 40
5.7660851061
100
AcDbArc
 50
68.4188138336
 51
69.3981947326
  0
ARC
  5
288
100
AcDbEntity
  8
0
100
AcDbCircle
 62
7
  6
BYLAYER
 10
48.836969573
 20
60.3538867966
 40
5.5145391508
100
AcDbArc
 50
69.3850048612
 51
71.4666802579
  0
ARC
  5
289
100
AcDbEntity
  8
0
100
AcDbCircle
 62
7
  6
BYLAYER
 10
52.2625678348
 20
59.7606845918
 40
5.331770124
100
AcDbArc
 50
290.5656570619
 51
291.5506311679
  0
ARC
  5
28A
100
AcDbEntity
  8
0
100
AcDbCircle
 62
7
  6
BYLAYER
 10
38.5565604814
 20
66.9850097304
 40
4.2943618458
100
AcDbArc
 50
297.7323315674
 51
299.3487254295
  0
ARC
  5
28B
100
AcDbEntity
  8
0
100
AcDbCircle
 62
7
  6
BYLAYER
 10
38.6643350055
 20
66.7946646193
 40
4.0756241829
100
AcDbArc
 50
299.3395978143
 51
301.1436524658
  0
ARC
  5
28C
100
AcDbEntity
  8
0
100
AcDbCircle
 62
7
  6
BYLAYER
 10
50.7353536314
 20
55.0716812427
 40
3.7331310968
100
AcDbArc
 50
119.9897496019
 51
121.635345253
  0
ARC
  5
28D
100
AcDbEntity
  8
0
100
AcDbCircle
 62
7
  6
BYLAYER
 10
50.7299060546
 20
52.060627217
 40
3.7217427555
100
AcDbArc
 50
119.9941014501
 51
122.2574680322
  0
ARC
  5
28E
100
AcDbEntity
  8
0
100
AcDbCircle
 62
7
  6
BYLAYER
 10
36.5807615286
 20
60.2372515077
 40
3.7080406901
100
AcDbArc
 50
119.9923135739
 51
122.581390241
  0
ARC
  5
28F
100
AcDbEntity
  8
0
100
AcDbCircle
 62
7
  6
BYLAYER
 10
38.6729293957
 20
60.2968746798
 40
3.6381981327
100
AcDbArc
 50
56.9361330938
 51
60.0044368248
  0
ARC
  5
290
100
AcDbEntity
  8
0
100
AcDbCircle
 62
7
  6
BYLAYER
 10
52.8818046561
 20
52.2357972232
 40
3.5148802519
100
AcDbArc
 50
56.768489067
 51
57.2802630118
  0
ARC
  5
291
100
AcDbEntity
  8
0
100
AcDbCircle
 62
7
  6
BYLAYER
 10
53.7356609485
 20
57.0915104966
 40
2.3278862216
100
AcDbArc
 50
293.9811886855
 51
295.8999315518
  0
ARC
  5
292
100
AcDbEntity
  8
0
100
AcDbCircle
 62
7
  6
BYLAYER
 10
53.8267524803
 20
56.9044289241
 40
2.1198066059
100
AcDbArc
 50
295.8938560446
 51
299.9239644478
  0
ARC
  5
293
100
AcDbEntity
  8
0
100
AcDbCircle
 62
7
  6
BYLAYER
 10
53.8897142186
 20
56.7480037325
 40
1.9558389792
100
AcDbArc
 50
314.5905905847
 51
318.8201588422
  0
ARC
  5
294
100
AcDbEntity
  8
0
100
AcDbCircle
 62
7
  6
BYLAYER
 10
53.935016853
 20
56.7022757522
 40
1.8914701151
100
AcDbArc
 50
313.0673593703
 51
314.5857685859
  0
ARC
  5
295
100
AcDbEntity
  8
0
100
AcDbCircle
 62
7
  6
BYLAYER
 10
54.4714804894
 20
56.6413971852
 40
1.354358258
100
AcDbArc
 50
359.432068449
 51
0.0009827836
  0
ARC
  5
296
100
AcDbEntity
  8
0
100
AcDbCircle
 62
7
  6
BYLAYER
 10
26.7332324138
 20
27.1902783933
 40
1.1593206824
100
AcDbArc
 50
240.0074240219
 51
247.2783664408
  0
ARC
  5
297
100
AcDbEntity
  8
0
100
AcDbCircle
 62
7
  6
BYLAYER
 10
26.799051307
 20
39.8793327103
 40
0.8674852945
100
AcDbArc
 50
240.0401598493
 51
263.1308579652
  0
ARC
  5
298
100
AcDbEntity
  8
0
100
AcDbCircle
 62
7
  6
BYLAYER
 10
40.0210434673
 20
69.8197180004
 40
0.3222395516
100
AcDbArc
 50
104.6626868618
 51
109.469117437
  0
SPLINE
  5
299
100
AcDbEntity
  8
0
100
AcDbSpline
 62
7
  6
BYLAYER
 70
0
 71
3
 72
23
 73
19
 74
0
 42
0.0000001
 43
0.0000001
 44
0.0000000001
 40
0.0
 40
0.0
 40
0.0
 40
0.0
 40
0.0374049072
 40
0.0772388269
 40
0.1209730478
 40
0.1696882819
 40
0.2236899333
 40
0.2828364508
 40
0.3467068825
 40
0.4146716595
 40
0.4859621692
 40
0.5597105405
 40
0.6349789001
 40
0.7107925532
 40
0.78615897
 40
0.8600929952
 40
0.9316841277
 40
1.0
 40
1.0
 40
1.0
 40
1.0
 10
47.6758386344
 20
56.6414204163
 30
0.0
 10
47.6758386344
 20
56.5484960656
 30
0.0
 10
47.6995033013
 20
56.3559171893
 30
0.0
 10
47.8050970202
 20
56.0720323574
 30
0.0
 10
47.9821223356
 20
55.7926851875
 30
0.0
 10
48.2295496779
 20
55.5237395363
 30
0.0
 10
48.5442493816
 20
55.2713277788
 30
0.0
 10
48.9209134768
 20
55.0423046581
 30
0.0
 10
49.3521587085
 20
54.8423963946
 30
0.0
 10
49.8294877126
 20
54.6763965622
 30
0.0
 10
50.3435371617
 20
54.5480821978
 30
0.0
 10
50.8843668622
 20
54.4602824014
 30
0.0
 10
51.4416313695
 20
54.4148469981
 30
0.0
 10
52.0047510432
 20
54.4127045549
 30
0.0
 10
52.5630456083
 20
54.4539113744
 30
0.0
 10
53.1060025342
 20
54.5376131361
 30
0.0
 10
53.6230863252
 20
54.6620676806
 30
0.0
 10
53.9529975634
 20
54.773371329
 30
0.0
 10
54.1108477919
 20
54.835715514
 30
0.0
  0
SPLINE
  5
29A
100
AcDbEntity
  8
0
100
AcDbSpline
 62
7
  6
BYLAYER
 70
0
 71
3
 72
11
 73
7
 74
0
 42
0.0000001
 43
0.0000001
 44
0.0000000001
 40
0.0
 40
0.0
 40
0.0
 40
0.0
 40
0.2913887628
 40
0.5504116556
 40
0.7832805805
 40
1.0
 40
1.0
 40
1.0
 40
1.0
 10
55.1682781893
 20
55.4445421792
 30
0.0
 10
55.2727399141
 20
55.5327038447
 30
0.0
 10
55.4582798338
 20
55.7143261624
 30
0.0
 10
55.6703119535
 20
56.0174733635
 30
0.0
 10
55.7972825906
 20
56.3279658633
 30
0.0
 10
55.8258386344
 20
56.5397561206
 30
0.0
 10
55.8258386344
 20
56.6414204163
 30
0.0
  0
SPLINE
  5
29B
100
AcDbEntity
  8
0
100
AcDbSpline
 62
7
  6
BYLAYER
 70
0
 71
3
 72
13
 73
9
 74
0
 42
0.0000001
 43
0.0000001
 44
0.0000000001
 40
0.0
 40
0.0
 40
0.0
 40
0.0
 40
0.0910216727
 40
0.1904500963
 40
0.3011958896
 40
0.4240458456
 40
0.7001937215
 40
1.0
 40
1.0
 40
1.0
 40
1.0
 10
17.8252108348
 20
45.3107212863
 30
0.0
 10
17.823120896
 20
45.3219215714
 30
0.0
 10
17.8147933679
 20
45.344732231
 30
0.0
 10
17.7921604536
 20
45.3753636375
 30
0.0
 10
17.7603009201
 20
45.4026906969
 30
0.0
 10
17.7049063316
 20
45.4349033058
 30
0.0
 10
17.6202689379
 20
45.4609743066
 30
0.0
 10
17.5477689785
 20
45.4663446703
 30
0.0
 10
17.5102602601
 20
45.4651374166
 30
0.0
  0
SPLINE
  5
29C
100
AcDbEntity
  8
0
100
AcDbSpline
 62
7
  6
BYLAYER
 70
0
 71
3
 72
11
 73
7
 74
0
 42
0.0000001
 43
0.0000001
 44
0.0000000001
 40
0.0
 40
0.0
 40
0.0
 40
0.0
 40
0.2266418463
 40
0.4693445237
 40
0.727572746
 40
1.0
 40
1.0
 40
1.0
 40
1.0
 10
48.8067839275
 20
63.5401300298
 30
0.0
 10
49.00588466
 20
63.4834153064
 30
0.0
 10
49.4099595515
 20
63.3358059871
 30
0.0
 10
50.0030209007
 20
63.0329492597
 30
0.0
 10
50.5952940614
 20
62.6457933321
 30
0.0
 10
50.9745775296
 20
62.3427460557
 30
0.0
 10
51.1622578955
 20
62.1793486628
 30
0.0
  0
SPLINE
  5
29D
100
AcDbEntity
  8
0
100
AcDbSpline
 62
7
  6
BYLAYER
 70
0
 71
3
 72
9
 73
5
 74
0
 42
0.0000001
 43
0.0000001
 44
0.0000000001
 40
0.0
 40
0.0
 40
0.0
 40
0.0
 40
0.5218087369
 40
1.0
 40
1.0
 40
1.0
 40
1.0
 10
27.3449983557
 20
38.0478239433
 30
0.0
 10
27.3909266684
 20
37.9220481952
 30
0.0
 10
27.4617531482
 20
37.6742713613
 30
0.0
 10
27.4901078711
 20
37.4174296942
 30
0.0
 10
27.4901078711
 20
37.2947231563
 30
0.0
  0
SPLINE
  5
29E
100
AcDbEntity
  8
0
100
AcDbSpline
 62
7
  6
BYLAYER
 70
0
 71
3
 72
12
 73
8
 74
0
 42
0.0000001
 43
0.0000001
 44
0.0000000001
 40
0.0
 40
0.0
 40
0.0
 40
0.0
 40
0.2894756982
 40
0.548597229
 40
0.7816435137
 40
0.8918627902
 40
1.0
 40
1.0
 40
1.0
 40
1.0
 10
27.4901078711
 20
28.6397975347
 30
0.0
 10
27.4901078711
 20
28.5518755342
 30
0.0
 10
27.4768051165
 20
28.3846633309
 30
0.0
 10
27.4094511733
 20
28.1549584808
 30
0.0
 10
27.3125867049
 20
27.9963215712
 30
0.0
 10
27.2148044863
 20
27.8994449636
 30
0.0
 10
27.16025175
 20
27.8610633517
 30
0.0
 10
27.1318780123
 20
27.8445200136
 30
0.0
  0
SPLINE
  5
29F
100
AcDbEntity
  8
0
100
AcDbSpline
 62
7
  6
BYLAYER
 70
0
 71
3
 72
9
 73
5
 74
0
 42
0.0000001
 43
0.0000001
 44
0.0000000001
 40
0.0
 40
0.0
 40
0.0
 40
0.0
 40
0.5112253912
 40
1.0
 40
1.0
 40
1.0
 40
1.0
 10
40.3605011802
 20
70.1296556034
 30
0.0
 10
42.20574578
 20
69.4665069386
 30
0.0
 10
45.7694972315
 20
68.0373526107
 30
0.0
 10
49.2073532476
 20
66.3248098256
 30
0.0
 10
50.8455445869
 20
65.413353041
 30
0.0
  0
SPLINE
  5
2A0
100
AcDbEntity
  8
0
100
AcDbSpline
 62
7
  6
BYLAYER
 70
0
 71
3
 72
23
 73
19
 74
0
 42
0.0000001
 43
0.0000001
 44
0.0000000001
 40
0.0
 40
0.0
 40
0.0
 40
0.0
 40
0.0620324458
 40
0.1288152256
 40
0.1994480476
 40
0.2729244725
 40
0.3481228658
 40
0.4238715083
 40
0.4989822485
 40
0.5722862987
 40
0.6426717833
 40
0.7091258386
 40
0.7707823025
 40
0.8269966858
 40
0.8774424886
 40
0.9222631344
 40
0.9625466284
 40
1.0
 40
1.0
 40
1.0
 40
1.0
 10
40.6170142237
 20
63.3182464492
 30
0.0
 10
40.4723561925
 20
63.2308181022
 30
0.0
 10
40.1593450856
 20
63.0696982074
 30
0.0
 10
39.6502966165
 20
62.8767313962
 30
0.0
 10
39.0943156215
 20
62.7279344867
 30
0.0
 10
38.5044899597
 20
62.6272347712
 30
0.0
 10
37.8942733383
 20
62.5772367895
 30
0.0
 10
37.2775797388
 20
62.579168642
 30
0.0
 10
36.6683985319
 20
62.6329716134
 30
0.0
 10
36.0805961721
 20
62.7373021911
 30
0.0
 10
35.5276703248
 20
62.8895119923
 30
0.0
 10
35.022490547
 20
63.0855909775
 30
0.0
 10
34.5769107485
 20
63.3200364646
 30
0.0
 10
34.2013734166
 20
63.5860279705
 30
0.0
 10
33.9042792208
 20
63.875388065
 30
0.0
 10
33.6904586336
 20
64.1797292676
 30
0.0
 10
33.5624498479
 20
64.4914693888
 30
0.0
 10
33.5336441315
 20
64.7041827915
 30
0.0
 10
33.5336441315
 20
64.8062355067
 30
0.0
  0
SPLINE
  5
2A1
100
AcDbEntity
  8
0
100
AcDbSpline
 62
7
  6
BYLAYER
 70
0
 71
3
 72
15
 73
11
 74
0
 42
0.0000001
 43
0.0000001
 44
0.0000000001
 40
0.0
 40
0.0
 40
0.0
 40
0.0
 40
0.1008488793
 40
0.2052911528
 40
0.3154299196
 40
0.4331615726
 40
0.5600632797
 40
0.6968002345
 40
0.8435234429
 40
1.0
 40
1.0
 40
1.0
 40
1.0
 10
41.6836441315
 20
64.8062355067
 30
0.0
 10
41.6836441315
 20
64.7419822668
 30
0.0
 10
41.6726022746
 20
64.6109430939
 30
0.0
 10
41.6230022032
 20
64.4153445623
 30
0.0
 10
41.5394383918
 20
64.2199351673
 30
0.0
 10
41.4214539201
 20
64.0263219053
 30
0.0
 10
41.2689507955
 20
63.8363926447
 30
0.0
 10
41.0826719944
 20
63.6521964358
 30
0.0
 10
40.8637149477
 20
63.4765142108
 30
0.0
 10
40.7023366578
 20
63.3698135784
 30
0.0
 10
40.6170142237
 20
63.3182464492
 30
0.0
  0
SPLINE
  5
2A2
100
AcDbEntity
  8
0
100
AcDbSpline
 62
7
  6
BYLAYER
 70
0
 71
3
 72
9
 73
5
 74
0
 42
0.0000001
 43
0.0000001
 44
0.0000000001
 40
0.0
 40
0.0
 40
0.0
 40
0.0
 40
0.5142500154
 40
1.0
 40
1.0
 40
1.0
 40
1.0
 10
52.5207280863
 20
64.4458025683
 30
0.0
 10
54.0171755681
 20
63.548557512
 30
0.0
 10
56.8509063404
 20
61.6720315286
 30
0.0
 10
59.4779892479
 20
59.5123604439
 30
0.0
 10
60.6863846417
 20
58.3916063105
 30
0.0
  0
SPLINE
  5
2A3
100
AcDbEntity
  8
0
100
AcDbSpline
 62
7
  6
BYLAYER
 70
0
 71
3
 72
9
 73
5
 74
0
 42
0.0000001
 43
0.0000001
 44
0.0000000001
 40
0.0
 40
0.0
 40
0.0
 40
0.0
 40
0.4812721508
 40
1.0
 40
1.0
 40
1.0
 40
1.0
 10
50.8705230317
 20
65.4798478183
 30
0.0
 10
51.1596657683
 20
65.3654987209
 30
0.0
 10
51.742146453
 20
65.0803132333
 30
0.0
 10
52.2823595784
 20
64.7229580183
 30
0.0
 10
52.5514453045
 20
64.5231929214
 30
0.0
  0
SPLINE
  5
2A4
100
AcDbEntity
  8
0
100
AcDbSpline
 62
7
  6
BYLAYER
 70
0
 71
3
 72
17
 73
13
 74
0
 42
0.0000001
 43
0.0000001
 44
0.0000000001
 40
0.0
 40
0.0
 40
0.0
 40
0.0
 40
0.1466401945
 40
0.2979494617
 40
0.4464190636
 40
0.5855809639
 40
0.7101507866
 40
0.8179272066
 40
0.8662370772
 40
0.9117478839
 40
0.9558240557
 40
1.0
 40
1.0
 40
1.0
 40
1.0
 10
17.3739145869
 20
33.2643969919
 30
0.0
 10
17.4108023524
 20
33.2745054082
 30
0.0
 10
17.4877297876
 20
33.2881737809
 30
0.0
 10
17.604543225
 20
33.2909396439
 30
0.0
 10
17.7185524855
 20
33.2760484481
 30
0.0
 10
17.8219130069
 20
33.2443695631
 30
0.0
 10
17.9078847491
 20
33.198160279
 30
0.0
 10
17.9624126753
 20
33.1473994415
 30
0.0
 10
17.9899797663
 20
33.1022489866
 30
0.0
 10
18.0020385072
 20
33.0680509864
 30
0.0
 10
18.0059799168
 20
33.0330854522
 30
0.0
 10
18.0031798184
 20
33.0099993878
 30
0.0
 10
18.0005427381
 20
32.9987829428
 30
0.0
  0
SPLINE
  5
2A5
100
AcDbEntity
  8
0
100
AcDbSpline
 62
7
  6
BYLAYER
 70
0
 71
3
 72
12
 73
8
 74
0
 42
0.0000001
 43
0.0000001
 44
0.0000000001
 40
0.0
 40
0.0
 40
0.0
 40
0.0
 40
0.1081861021
 40
0.2183814085
 40
0.4512932521
 40
0.7103649448
 40
1.0
 40
1.0
 40
1.0
 40
1.0
 10
27.1318780123
 20
27.8445200136
 30
0.0
 10
27.1033390184
 20
27.8278803226
 30
0.0
 10
27.0427152008
 20
27.7991826749
 30
0.0
 10
26.9094833925
 20
27.7618567956
 30
0.0
 10
26.7227023514
 20
27.756432086
 30
0.0
 10
26.4887056136
 20
27.812791535
 30
0.0
 10
26.336353559
 20
27.8852145852
 30
0.0
 10
26.2597594339
 20
27.9294352236
 30
0.0
  0
SPLINE
  5
2A6
100
AcDbEntity
  8
0
100
AcDbSpline
 62
7
  6
BYLAYER
 70
0
 71
3
 72
15
 73
11
 74
0
 42
0.0000001
 43
0.0000001
 44
0.0000000001
 40
0.0
 40
0.0
 40
0.0
 40
0.0
 40
0.1120601916
 40
0.2339849095
 40
0.3632321369
 40
0.4965587107
 40
0.6303654681
 40
0.7610217972
 40
0.8851531589
 40
1.0
 40
1.0
 40
1.0
 40
1.0
 10
54.7817034698
 20
55.1929525594
 30
0.0
 10
54.5881069545
 20
55.317336551
 30
0.0
 10
54.1583783566
 20
55.5382549409
 30
0.0
 10
53.4492419743
 20
55.7764274419
 30
0.0
 10
52.6723140239
 20
55.9284315325
 30
0.0
 10
51.8586974693
 20
55.9881231916
 30
0.0
 10
51.0407618698
 20
55.9532087519
 30
0.0
 10
50.2511035712
 20
55.8249981753
 30
0.0
 10
49.5213671309
 20
55.6087202759
 30
0.0
 10
49.0736042499
 20
55.401858561
 30
0.0
 10
48.8693665044
 20
55.2839425476
 30
0.0
  0
SPLINE
  5
2A7
100
AcDbEntity
  8
0
100
AcDbSpline
 62
7
  6
BYLAYER
 70
0
 71
3
 72
15
 73
11
 74
0
 42
0.0000001
 43
0.0000001
 44
0.0000000001
 40
0.0
 40
0.0
 40
0.0
 40
0.0
 40
0.1141465952
 40
0.2373352439
 40
0.366975646
 40
0.4999989181
 40
0.6330223406
 40
0.7626631822
 40
0.8858525235
 40
1.0
 40
1.0
 40
1.0
 40
1.0
 10
15.7944766224
 20
42.1647489012
 30
0.0
 10
15.711945156
 20
42.2123973876
 30
0.0
 10
15.5489195862
 20
42.3266885413
 30
0.0
 10
15.3245916827
 20
42.536537833
 30
0.0
 10
15.1178872261
 20
42.7846312297
 30
0.0
 10
14.9365429433
 20
43.0615935323
 30
0.0
 10
14.7873571287
 20
43.3571230577
 30
0.0
 10
14.6758522142
 20
43.660181478
 30
0.0
 10
14.6062790711
 20
43.9593809711
 30
0.0
 10
14.5888110712
 20
44.1577119749
 30
0.0
 10
14.5888110712
 20
44.2530113005
 30
0.0
  0
SPLINE
  5
2A8
100
AcDbEntity
  8
0
100
AcDbSpline
 62
7
  6
BYLAYER
 70
0
 71
3
 72
13
 73
9
 74
0
 42
0.0000001
 43
0.0000001
 44
0.0000000001
 40
0.0
 40
0.0
 40
0.0
 40
0.0
 40
0.2401934437
 40
0.3644846545
 40
0.4912413747
 40
0.6196480297
 40
0.7482063384
 40
1.0
 40
1.0
 40
1.0
 40
1.0
 10
8.0494799809
 20
51.2374374842
 30
0.0
 10
8.0667888277
 20
51.2721242837
 30
0.0
 10
8.1035271043
 20
51.3203136705
 30
0.0
 10
8.1673284608
 20
51.3679404955
 30
0.0
 10
8.2226660489
 20
51.3949680949
 30
0.0
 10
8.2822727328
 20
51.4127498416
 30
0.0
 10
8.3639449842
 20
51.4234530088
 30
0.0
 10
8.426041871
 20
51.4182908939
 30
0.0
 10
8.4658394289
 20
51.4100699899
 30
0.0
  0
SPLINE
  5
2A9
100
AcDbEntity
  8
0
100
AcDbSpline
 62
7
  6
BYLAYER
 70
0
 71
3
 72
12
 73
8
 74
0
 42
0.0000001
 43
0.0000001
 44
0.0000000001
 40
0.0
 40
0.0
 40
0.0
 40
0.0
 40
0.1209951273
 40
0.2423454327
 40
0.4887133447
 40
0.7421342326
 40
1.0
 40
1.0
 40
1.0
 40
1.0
 10
8.7809827363
 20
52.1126588917
 30
0.0
 10
8.7934100178
 20
52.12277947
 30
0.0
 10
8.8200651455
 20
52.141017375
 30
0.0
 10
8.8792797762
 20
52.1678014704
 30
0.0
 10
8.9615832274
 20
52.1831091972
 30
0.0
 10
9.062445262
 20
52.1724934933
 30
0.0
 10
9.1269969794
 20
52.150303211
 30
0.0
 10
9.1581416625
 20
52.1362784298
 30
0.0
  0
SPLINE
  5
2AA
100
AcDbEntity
  8
0
100
AcDbSpline
 62
7
  6
BYLAYER
 70
0
 71
3
 72
11
 73
7
 74
0
 42
0.0000001
 43
0.0000001
 44
0.0000000001
 40
0.0
 40
0.0
 40
0.0
 40
0.0
 40
0.2307939495
 40
0.4747079275
 40
0.7327448389
 40
1.0
 40
1.0
 40
1.0
 40
1.0
 10
55.1684678293
 20
55.4446838312
 30
0.0
 10
55.1803923851
 20
55.4547699998
 30
0.0
 10
55.2089148556
 20
55.4710899045
 30
0.0
 10
55.2582111717
 20
55.4810261538
 30
0.0
 10
55.310632907
 20
55.4770871702
 30
0.0
 10
55.3449447138
 20
55.466890732
 30
0.0
 10
55.361765722
 20
55.4602470076
 30
0.0
  0
SPLINE
  5
2AB
100
AcDbEntity
  8
0
100
AcDbSpline
 62
7
  6
BYLAYER
 70
0
 71
3
 72
13
 73
9
 74
0
 42
0.0000001
 43
0.0000001
 44
0.0000000001
 40
0.0
 40
0.0
 40
0.0
 40
0.0
 40
0.0516077157
 40
0.124531099
 40
0.219831315
 40
0.3367672279
 40
0.6311189882
 40
1.0
 40
1.0
 40
1.0
 40
1.0
 10
9.2310918971
 20
52.4151354285
 30
0.0
 10
9.2267491564
 20
52.4126184165
 30
0.0
 10
9.2185700579
 20
52.4030662114
 30
0.0
 10
9.2090340206
 20
52.3839779178
 30
0.0
 10
9.1996763778
 20
52.3577759147
 30
0.0
 10
9.1866527656
 20
52.3102525745
 30
0.0
 10
9.1720280823
 20
52.2356993144
 30
0.0
 10
9.1628132805
 20
52.1718512099
 30
0.0
 10
9.1581417158
 20
52.1362787759
 30
0.0
  0
SPLINE
  5
2AC
100
AcDbEntity
  8
0
100
AcDbSpline
 62
7
  6
BYLAYER
 70
0
 71
3
 72
11
 73
7
 74
0
 42
0.0000001
 43
0.0000001
 44
0.0000000001
 40
0.0
 40
0.0
 40
0.0
 40
0.0
 40
0.2871263697
 40
0.5487112929
 40
0.7852112255
 40
1.0
 40
1.0
 40
1.0
 40
1.0
 10
9.3244906265
 20
48.4764693614
 30
0.0
 10
9.1471152661
 20
48.5788748645
 30
0.0
 10
8.8199100403
 20
48.7964325382
 30
0.0
 10
8.4047525289
 20
49.17631409
 30
0.0
 10
8.0969431031
 20
49.5851525925
 30
0.0
 10
7.9641188341
 20
49.882664737
 30
0.0
 10
7.9215331274
 20
50.0298415932
 30
0.0
  0
SPLINE
  5
2AD
100
AcDbEntity
  8
0
100
AcDbSpline
 62
7
  6
BYLAYER
 70
0
 71
3
 72
9
 73
5
 74
0
 42
0.0000001
 43
0.0000001
 44
0.0000000001
 40
0.0
 40
0.0
 40
0.0
 40
0.0
 40
0.5066920904
 40
1.0
 40
1.0
 40
1.0
 40
1.0
 10
7.9215331274
 20
50.0298415932
 30
0.0
 10
7.9014184275
 20
50.0993583049
 30
0.0
 10
7.8706430983
 20
50.2393406666
 30
0.0
 10
7.8600121948
 20
50.3823413894
 30
0.0
 10
7.8600104846
 20
50.4527981174
 30
0.0
  0
SPLINE
  5
2AE
100
AcDbEntity
  8
0
100
AcDbSpline
 62
7
  6
BYLAYER
 70
0
 71
3
 72
28
 73
24
 74
0
 42
0.0000001
 43
0.0000001
 44
0.0000000001
 40
0.0
 40
0.0
 40
0.0
 40
0.0
 40
0.071679924
 40
0.1470969989
 40
0.2246893805
 40
0.3027579168
 40
0.3795643648
 40
0.4534594111
 40
0.5230034895
 40
0.5871137275
 40
0.6452366778
 40
0.6975638473
 40
0.7219320399
 40
0.7453786457
 40
0.7682140833
 40
0.7907929422
 40
0.8134922125
 40
0.836678834
 40
0.8606815043
 40
0.8857668632
 40
0.9121418404
 40
0.9399511809
 40
1.0
 40
1.0
 40
1.0
 40
1.0
 10
35.1384316647
 20
67.1359166361
 30
0.0
 10
35.366293005
 20
67.2259122584
 30
0.0
 10
35.846989559
 20
67.3785020009
 30
0.0
 10
36.6026070952
 20
67.5237298752
 30
0.0
 10
37.3913071312
 20
67.5879250257
 30
0.0
 10
38.1870701631
 20
67.5689799842
 30
0.0
 10
38.9639023334
 20
67.4674961872
 30
0.0
 10
39.6964207131
 20
67.2867779123
 30
0.0
 10
40.3608724044
 20
67.0326150858
 30
0.0
 10
40.9360088589
 20
66.7126964399
 30
0.0
 10
41.4033712153
 20
66.3365573907
 30
0.0
 10
41.6969307416
 20
65.9751442172
 30
0.0
 10
41.8562108494
 20
65.6710681427
 30
0.0
 10
41.9370385882
 20
65.4425830832
 30
0.0
 10
41.9811401485
 20
65.2104275859
 30
0.0
 10
41.9879318911
 20
64.9767328134
 30
0.0
 10
41.9573454653
 20
64.7437573397
 30
0.0
 10
41.8897582023
 20
64.5137012266
 30
0.0
 10
41.7859452827
 20
64.2886532305
 30
0.0
 10
41.6470870398
 20
64.0704689206
 30
0.0
 10
41.4743783981
 20
63.8609036324
 30
0.0
 10
41.1940352205
 20
63.5883229645
 30
0.0
 10
40.9478376439
 20
63.4126051714
 30
0.0
 10
40.7721889443
 20
63.3064467
 30
0.0
  0
SPLINE
  5
2AF
100
AcDbEntity
  8
0
100
AcDbSpline
 62
7
  6
BYLAYER
 70
0
 71
3
 72
9
 73
5
 74
0
 42
0.0000001
 43
0.0000001
 44
0.0000000001
 40
0.0
 40
0.0
 40
0.0
 40
0.0
 40
0.4885736869
 40
1.0
 40
1.0
 40
1.0
 40
1.0
 10
50.8159853023
 20
65.33127589
 30
0.0
 10
49.1801324539
 20
66.2461112402
 30
0.0
 10
45.7446029551
 20
67.9652133255
 30
0.0
 10
42.1818598015
 20
69.3990773777
 30
0.0
 10
40.3362017062
 20
70.0645093034
 30
0.0
  0
SPLINE
  5
2B0
100
AcDbEntity
  8
0
100
AcDbSpline
 62
7
  6
BYLAYER
 70
0
 71
3
 72
13
 73
9
 74
0
 42
0.0000001
 43
0.0000001
 44
0.0000000001
 40
0.0
 40
0.0
 40
0.0
 40
0.0
 40
0.227246912
 40
0.3606859447
 40
0.5005109418
 40
0.6402450625
 40
0.7734469106
 40
1.0
 40
1.0
 40
1.0
 40
1.0
 10
9.3244906389
 20
48.4764693541
 30
0.0
 10
9.3244906203
 20
48.5098137461
 30
0.0
 10
9.3335097272
 20
48.5628724242
 30
0.0
 10
9.3585106374
 20
48.6319873797
 30
0.0
 10
9.3856393514
 20
48.6863605834
 30
0.0
 10
9.4191853116
 20
48.736984859
 30
0.0
 10
9.4664867753
 20
48.7930429281
 30
0.0
 10
9.5078329291
 20
48.8272720662
 30
0.0
 10
9.5366219138
 20
48.8438932541
 30
0.0
  0
SPLINE
  5
2B1
100
AcDbEntity
  8
0
100
AcDbSpline
 62
7
  6
BYLAYER
 70
0
 71
3
 72
13
 73
9
 74
0
 42
0.0000001
 43
0.0000001
 44
0.0000000001
 40
0.0
 40
0.0
 40
0.0
 40
0.0
 40
0.2277806393
 40
0.3614015562
 40
0.501295713
 40
0.6409593622
 40
0.7739787227
 40
1.0
 40
1.0
 40
1.0
 40
1.0
 10
26.1537022335
 20
38.760339318
 30
0.0
 10
26.1537023138
 20
38.7937620007
 30
0.0
 10
26.1627593184
 20
38.8469261511
 30
0.0
 10
26.1878404753
 20
38.9161342783
 30
0.0
 10
26.2150152497
 20
38.9705142967
 30
0.0
 10
26.2485778162
 20
39.0210948726
 30
0.0
 10
26.2958381634
 20
39.0770370958
 30
0.0
 10
26.3371116323
 20
39.1111812404
 30
0.0
 10
26.3658329283
 20
39.1277635528
 30
0.0
  0
SPLINE
  5
2B2
100
AcDbEntity
  8
0
100
AcDbSpline
 62
7
  6
BYLAYER
 70
0
 71
3
 72
11
 73
7
 74
0
 42
0.0000001
 43
0.0000001
 44
0.0000000001
 40
0.0
 40
0.0
 40
0.0
 40
0.0
 40
0.2385513994
 40
0.5280811283
 40
0.801768615
 40
1.0
 40
1.0
 40
1.0
 40
1.0
 10
26.5844229641
 20
38.5857046754
 30
0.0
 10
26.590714201
 20
38.6206638359
 30
0.0
 10
26.6065886705
 20
38.6976999856
 30
0.0
 10
26.634354249
 20
38.8138321318
 30
0.0
 10
26.6642279884
 20
38.9232171508
 30
0.0
 10
26.6852602992
 20
38.9903147417
 30
0.0
 10
26.6952983819
 20
39.0180724588
 30
0.0
  0
SPLINE
  5
2B3
100
AcDbEntity
  8
0
100
AcDbSpline
 62
7
  6
BYLAYER
 70
0
 71
3
 72
13
 73
9
 74
0
 42
0.0000001
 43
0.0000001
 44
0.0000000001
 40
0.0
 40
0.0
 40
0.0
 40
0.0
 40
0.2423520028
 40
0.5340924874
 40
0.6771062618
 40
0.806381803
 40
0.914775579
 40
1.0
 40
1.0
 40
1.0
 40
1.0
 10
26.8212894782
 20
38.5196411201
 30
0.0
 10
26.8332672865
 20
38.5581927738
 30
0.0
 10
26.8541560712
 20
38.6448488358
 30
0.0
 10
26.8713909223
 20
38.7564516853
 30
0.0
 10
26.8793964669
 20
38.8500928025
 30
0.0
 10
26.8817276123
 20
38.9134967397
 30
0.0
 10
26.880424199
 20
38.9672973519
 30
0.0
 10
26.8772374706
 20
38.9994485383
 30
0.0
 10
26.8749635313
 20
39.013461399
 30
0.0
  0
SPLINE
  5
2B4
100
AcDbEntity
  8
0
100
AcDbSpline
 62
7
  6
BYLAYER
 70
0
 71
3
 72
15
 73
11
 74
0
 42
0.0000001
 43
0.0000001
 44
0.0000000001
 40
0.0
 40
0.0
 40
0.0
 40
0.0
 40
0.0991991417
 40
0.2101628373
 40
0.3306446918
 40
0.4582310578
 40
0.590844263
 40
0.7266504607
 40
0.8638417844
 40
1.0
 40
1.0
 40
1.0
 40
1.0
 10
27.8507654482
 20
38.4337461379
 30
0.0
 10
27.8373889191
 20
38.4704255041
 30
0.0
 10
27.7975316495
 20
38.5440137535
 30
0.0
 10
27.7132279153
 20
38.6439448038
 30
0.0
 10
27.605321479
 20
38.7360304221
 30
0.0
 10
27.4788989895
 20
38.8171323244
 30
0.0
 10
27.3388218921
 20
38.8861070377
 30
0.0
 10
27.1891470764
 20
38.9423302497
 30
0.0
 10
27.0337124352
 20
38.9850420771
 30
0.0
 10
26.9279890474
 20
39.0057467982
 30
0.0
 10
26.8749586358
 20
39.0134611342
 30
0.0
  0
SPLINE
  5
2B5
100
AcDbEntity
  8
0
100
AcDbSpline
 62
7
  6
BYLAYER
 70
0
 71
3
 72
9
 73
5
 74
0
 42
0.0000001
 43
0.0000001
 44
0.0000000001
 40
0.0
 40
0.0
 40
0.0
 40
0.0
 40
0.5229878805
 40
1.0
 40
1.0
 40
1.0
 40
1.0
 10
26.5844222073
 20
38.5857048797
 30
0.0
 10
26.5069406616
 20
38.6098071435
 30
0.0
 10
26.3596978868
 20
38.6588986878
 30
0.0
 10
26.2177981889
 20
38.7233360638
 30
0.0
 10
26.153702172
 20
38.7603393538
 30
0.0
  0
SPLINE
  5
2B6
100
AcDbEntity
  8
0
100
AcDbSpline
 62
7
  6
BYLAYER
 70
0
 71
3
 72
9
 73
5
 74
0
 42
0.0000001
 43
0.0000001
 44
0.0000000001
 40
0.0
 40
0.0
 40
0.0
 40
0.0
 40
0.2518324829
 40
1.0
 40
1.0
 40
1.0
 40
1.0
 10
26.8212830258
 20
38.5196429951
 30
0.0
 10
26.8011774718
 20
38.5243317558
 30
0.0
 10
26.7215889655
 20
38.5440306072
 30
0.0
 10
26.6429891298
 20
38.5674894267
 30
0.0
 10
26.5844222073
 20
38.5857048797
 30
0.0
  0
SPLINE
  5
2B7
100
AcDbEntity
  8
0
100
AcDbSpline
 62
7
  6
BYLAYER
 70
0
 71
3
 72
11
 73
7
 74
0
 42
0.0000001
 43
0.0000001
 44
0.0000000001
 40
0.0
 40
0.0
 40
0.0
 40
0.0
 40
0.2163532338
 40
0.4577942073
 40
0.7213823131
 40
1.0
 40
1.0
 40
1.0
 40
1.0
 10
27.8507619873
 20
38.4337447743
 30
0.0
 10
27.7794654384
 20
38.4093015853
 30
0.0
 10
27.6191931254
 20
38.3857715007
 30
0.0
 10
27.3675628372
 20
38.4002190949
 30
0.0
 10
27.0990850099
 20
38.4520304957
 30
0.0
 10
26.9152829484
 20
38.4954590875
 30
0.0
 10
26.8212830258
 20
38.5196429951
 30
0.0
  0
SPLINE
  5
2B8
100
AcDbEntity
  8
0
100
AcDbSpline
 62
7
  6
BYLAYER
 70
0
 71
3
 72
9
 73
5
 74
0
 42
0.0000001
 43
0.0000001
 44
0.0000000001
 40
0.0
 40
0.0
 40
0.0
 40
0.0
 40
0.4857133149
 40
1.0
 40
1.0
 40
1.0
 40
1.0
 10
60.4823790848
 20
58.416598556
 30
0.0
 10
59.2979933713
 20
59.5150843585
 30
0.0
 10
56.724660312
 20
61.6338291057
 30
0.0
 10
53.9507134614
 20
63.4785509204
 30
0.0
 10
52.4859127497
 20
64.3616389147
 30
0.0
  0
SPLINE
  5
2B9
100
AcDbEntity
  8
0
100
AcDbSpline
 62
7
  6
BYLAYER
 70
0
 71
3
 72
26
 73
22
 74
0
 42
0.0000001
 43
0.0000001
 44
0.0000000001
 40
0.0
 40
0.0
 40
0.0
 40
0.0
 40
0.0714314357
 40
0.1464700004
 40
0.2237246908
 40
0.301704393
 40
0.3788521071
 40
0.4536712001
 40
0.5248075361
 40
0.5911648619
 40
0.6520311363
 40
0.7072363781
 40
0.7573369928
 40
0.7809416364
 40
0.8038834681
 40
0.8264703665
 40
0.8490342169
 40
0.871907038
 40
0.8953978786
 40
0.9451878223
 40
1.0
 40
1.0
 40
1.0
 40
1.0
 10
49.280626169
 20
58.9711015461
 30
0.0
 10
49.4955144032
 20
59.0559733384
 30
0.0
 10
49.9477814285
 20
59.2014495522
 30
0.0
 10
50.6583093875
 20
59.3451171761
 30
0.0
 10
51.4009747128
 20
59.4166594215
 30
0.0
 10
52.1538252326
 20
59.4140385529
 30
0.0
 10
52.8948866292
 20
59.3372718339
 30
0.0
 10
53.6024515762
 20
59.1886391349
 30
0.0
 10
54.2559331593
 20
58.9723912136
 30
0.0
 10
54.8364679045
 20
58.6946430076
 30
0.0
 10
55.3274691173
 20
58.3627196314
 30
0.0
 10
55.7146866428
 20
57.985214198
 30
0.0
 10
55.9450067346
 20
57.6321481956
 30
0.0
 10
56.0601364595
 20
57.3405401388
 30
0.0
 10
56.1122321692
 20
57.1222640732
 30
0.0
 10
56.1312905266
 20
56.9020186031
 30
0.0
 10
56.1169453898
 20
56.6816355004
 30
0.0
 10
56.0695113855
 20
56.4629765621
 30
0.0
 10
55.9607103698
 20
56.1706249029
 30
0.0
 10
55.7379386438
 20
55.8158853865
 30
0.0
 10
55.4972534955
 20
55.5745743245
 30
0.0
 10
55.3617683653
 20
55.4602302256
 30
0.0
  0
SPLINE
  5
2BA
100
AcDbEntity
  8
0
100
AcDbSpline
 62
7
  6
BYLAYER
 70
0
 71
3
 72
9
 73
5
 74
0
 42
0.0000001
 43
0.0000001
 44
0.0000000001
 40
0.0
 40
0.0
 40
0.0
 40
0.0
 40
0.2406195812
 40
1.0
 40
1.0
 40
1.0
 40
1.0
 10
48.5583724876
 20
58.6134620522
 30
0.0
 10
48.6134480833
 20
58.6473961754
 30
0.0
 10
48.8458151694
 20
58.7827555761
 30
0.0
 10
49.0907411032
 20
58.8961049511
 30
0.0
 10
49.280626169
 20
58.9711015461
 30
0.0
  0
SPLINE
  5
2BB
100
AcDbEntity
  8
0
100
AcDbSpline
 62
7
  6
BYLAYER
 70
0
 71
3
 72
28
 73
24
 74
0
 42
0.0000001
 43
0.0000001
 44
0.0000000001
 40
0.0
 40
0.0
 40
0.0
 40
0.0
 40
0.072297216
 40
0.1481060065
 40
0.2259001639
 40
0.3040010876
 40
0.3807128149
 40
0.4544320011
 40
0.5237684754
 40
0.5876860275
 40
0.6456698268
 40
0.6979342147
 40
0.7222989334
 40
0.7457568316
 40
0.7686126033
 40
0.7912132183
 40
0.8139276226
 40
0.8371154637
 40
0.8610995979
 40
0.8861437561
 40
0.9124542748
 40
0.9401772325
 40
1.0
 40
1.0
 40
1.0
 40
1.0
 10
54.1355147826
 20
54.7687067887
 30
0.0
 10
53.9069953276
 20
54.6829509149
 30
0.0
 10
53.426782942
 20
54.5383645871
 30
0.0
 10
52.6746925495
 20
54.4034857642
 30
0.0
 10
51.8929364128
 20
54.3481594246
 30
0.0
 10
51.1066617074
 20
54.3742172742
 30
0.0
 10
50.3410132328
 20
54.4808149324
 30
0.0
 10
49.6204460186
 20
54.6645732983
 30
0.0
 10
48.9678060409
 20
54.9197354291
 30
0.0
 10
48.4035049493
 20
55.2387609766
 30
0.0
 10
47.9452702495
 20
55.6123573739
 30
0.0
 10
47.6576470794
 20
55.9702628254
 30
0.0
 10
47.501450232
 20
56.2709855699
 30
0.0
 10
47.4220636667
 20
56.4969204389
 30
0.0
 10
47.3785574196
 20
56.7264125707
 30
0.0
 10
47.3715254851
 20
56.9574139548
 30
0.0
 10
47.4010038719
 20
57.187747045
 30
0.0
 10
47.4666698531
 20
57.415285761
 30
0.0
 10
47.5677630555
 20
57.6380158233
 30
0.0
 10
47.7031783172
 20
57.8541300831
 30
0.0
 10
47.87176668
 20
58.0619317074
 30
0.0
 10
48.1455871355
 20
58.3325155411
 30
0.0
 10
48.3864244647
 20
58.507518479
 30
0.0
 10
48.5583724876
 20
58.6134620522
 30
0.0
  0
SPLINE
  5
2BC
100
AcDbEntity
  8
0
100
AcDbSpline
 62
7
  6
BYLAYER
 70
0
 71
3
 72
9
 73
5
 74
0
 42
0.0000001
 43
0.0000001
 44
0.0000000001
 40
0.0
 40
0.0
 40
0.0
 40
0.0
 40
0.2503378768
 40
1.0
 40
1.0
 40
1.0
 40
1.0
 10
26.6952974585
 20
39.018072257
 30
0.0
 10
26.7101980049
 20
39.0162762023
 30
0.0
 10
26.7699199694
 20
39.0107599457
 30
0.0
 10
26.8300801082
 20
39.0110334847
 30
0.0
 10
26.8749586902
 20
39.0134607991
 30
0.0
  0
SPLINE
  5
2BD
100
AcDbEntity
  8
0
100
AcDbSpline
 62
7
  6
BYLAYER
 70
0
 71
3
 72
15
 73
11
 74
0
 42
0.0000001
 43
0.0000001
 44
0.0000000001
 40
0.0
 40
0.0
 40
0.0
 40
0.0
 40
0.117469163
 40
0.2294868932
 40
0.3403665863
 40
0.4545717845
 40
0.5757708088
 40
0.706423363
 40
0.847769267
 40
1.0
 40
1.0
 40
1.0
 40
1.0
 10
8.4658794192
 20
51.410112978
 30
0.0
 10
8.4012131054
 20
51.3057852034
 30
0.0
 10
8.2958653946
 20
51.0876307121
 30
0.0
 10
8.2219313039
 20
50.7360038327
 30
0.0
 10
8.2399275974
 20
50.3803803532
 30
0.0
 10
8.34655028
 20
50.0311556682
 30
0.0
 10
8.5369600619
 20
49.6963852693
 30
0.0
 10
8.8039727663
 20
49.3815026171
 30
0.0
 10
9.1412779242
 20
49.0916158991
 30
0.0
 10
9.398865783
 20
48.9234251698
 30
0.0
 10
9.5366217787
 20
48.8438933142
 30
0.0
  0
SPLINE
  5
2BE
100
AcDbEntity
  8
0
100
AcDbSpline
 62
7
  6
BYLAYER
 70
0
 71
3
 72
9
 73
5
 74
0
 42
0.0000001
 43
0.0000001
 44
0.0000000001
 40
0.0
 40
0.0
 40
0.0
 40
0.0
 40
0.2668009097
 40
1.0
 40
1.0
 40
1.0
 40
1.0
 10
9.1581009299
 20
52.1362482275
 30
0.0
 10
9.0861632395
 20
52.0829972591
 30
0.0
 10
8.8245229691
 20
51.8733666637
 30
0.0
 10
8.595462288
 20
51.6191730786
 30
0.0
 10
8.4658797289
 20
51.410112914
 30
0.0
  0
SPLINE
  5
2BF
100
AcDbEntity
  8
0
100
AcDbSpline
 62
7
  6
BYLAYER
 70
0
 71
3
 72
26
 73
22
 74
0
 42
0.0000001
 43
0.0000001
 44
0.0000000001
 40
0.0
 40
0.0
 40
0.0
 40
0.0
 40
0.0714314355
 40
0.1464699995
 40
0.2237246895
 40
0.3017043918
 40
0.3788521073
 40
0.4536712031
 40
0.5248075437
 40
0.591164876
 40
0.6520311584
 40
0.7072364088
 40
0.7573370315
 40
0.7809416779
 40
0.8038835114
 40
0.8264704107
 40
0.849034261
 40
0.87190708
 40
0.8953979173
 40
0.9451878486
 40
1.0
 40
1.0
 40
1.0
 40
1.0
 10
40.0788565969
 20
62.9664558272
 30
0.0
 10
39.8639683985
 20
62.881584049
 30
0.0
 10
39.411701452
 20
62.7361078552
 30
0.0
 10
38.7011736181
 20
62.5924402368
 30
0.0
 10
37.9585084211
 20
62.5208979727
 30
0.0
 10
37.2056580219
 20
62.5235187985
 30
0.0
 10
36.464596728
 20
62.6002854515
 30
0.0
 10
35.7570318557
 20
62.7489180643
 30
0.0
 10
35.1035503109
 20
62.9651658827
 30
0.0
 10
34.5230155606
 20
63.2429139738
 30
0.0
 10
34.0320142942
 20
63.5748372271
 30
0.0
 10
33.6447966644
 20
63.952342536
 30
0.0
 10
33.4144764305
 20
64.3054084337
 30
0.0
 10
33.2993465648
 20
64.597016423
 30
0.0
 10
33.2472507428
 20
64.8152924419
 30
0.0
 10
33.2281922549
 20
65.0355378717
 30
0.0
 10
33.2425372319
 20
65.2559209434
 30
0.0
 10
33.2899710733
 20
65.474579864
 30
0.0
 10
33.3987719696
 20
65.7669314575
 30
0.0
 10
33.6215433146
 20
66.1216709053
 30
0.0
 10
33.8622278925
 20
66.3629823226
 30
0.0
 10
33.9977129614
 20
66.4773263168
 30
0.0
  0
SPLINE
  5
2C0
100
AcDbEntity
  8
0
100
AcDbSpline
 62
7
  6
BYLAYER
 70
0
 71
3
 72
9
 73
5
 74
0
 42
0.0000001
 43
0.0000001
 44
0.0000000001
 40
0.0
 40
0.0
 40
0.0
 40
0.0
 40
0.2443071071
 40
1.0
 40
1.0
 40
1.0
 40
1.0
 10
40.5549056615
 20
63.183936171
 30
0.0
 10
40.517173039
 20
63.1640909105
 30
0.0
 10
40.3615530028
 20
63.0851002661
 30
0.0
 10
40.2015099045
 20
63.0148987124
 30
0.0
 10
40.0788565969
 20
62.9664558272
 30
0.0
  0
SPLINE
  5
2C1
100
AcDbEntity
  8
0
100
AcDbSpline
 62
7
  6
BYLAYER
 70
0
 71
3
 72
12
 73
8
 74
0
 42
0.0000001
 43
0.0000001
 44
0.0000000001
 40
0.0
 40
0.0
 40
0.0
 40
0.0
 40
0.2573185488
 40
0.5191137927
 40
0.7707908681
 40
0.8889335108
 40
1.0
 40
1.0
 40
1.0
 40
1.0
 10
15.7151128328
 20
44.239263482
 30
0.0
 10
15.7623750421
 20
44.0848021553
 30
0.0
 10
15.8871658179
 20
43.7816247212
 30
0.0
 10
16.1434469574
 20
43.3689485854
 30
0.0
 10
16.4077275446
 20
43.0700414619
 30
0.0
 10
16.6393832373
 20
42.8757982517
 30
0.0
 10
16.7593963851
 20
42.7956957144
 30
0.0
 10
16.8197771863
 20
42.7608356312
 30
0.0
  0
SPLINE
  5
2C2
100
AcDbEntity
  8
0
100
AcDbSpline
 62
7
  6
BYLAYER
 70
0
 71
3
 72
11
 73
7
 74
0
 42
0.0000001
 43
0.0000001
 44
0.0000000001
 40
0.0
 40
0.0
 40
0.0
 40
0.0
 40
0.2280922192
 40
0.4779973071
 40
0.7393480497
 40
1.0
 40
1.0
 40
1.0
 40
1.0
 10
16.8165424468
 20
42.9481429586
 30
0.0
 10
16.711640665
 20
43.0087066604
 30
0.0
 10
16.5068450625
 20
43.1622470417
 30
0.0
 10
16.2387506162
 20
43.4513323421
 30
0.0
 10
16.0095669623
 20
43.7930800026
 30
0.0
 10
15.8910398726
 20
44.0451314692
 30
0.0
 10
15.8425233123
 20
44.1747708415
 30
0.0
  0
SPLINE
  5
2C3
100
AcDbEntity
  8
0
100
AcDbSpline
 62
7
  6
BYLAYER
 70
0
 71
3
 72
15
 73
11
 74
0
 42
0.0000001
 43
0.0000001
 44
0.0000000001
 40
0.0
 40
0.0
 40
0.0
 40
0.0
 40
0.1141300247
 40
0.2372866161
 40
0.3669313293
 40
0.4999583186
 40
0.6329894636
 40
0.7626521155
 40
0.8858368675
 40
1.0
 40
1.0
 40
1.0
 40
1.0
 10
40.4917844696
 20
63.4477875432
 30
0.0
 10
40.2945614851
 20
63.561786017
 30
0.0
 10
39.8632324915
 20
63.7628603164
 30
0.0
 10
39.1607390444
 20
63.9766187663
 30
0.0
 10
38.4000804275
 20
64.108254316
 30
0.0
 10
37.6098515084
 20
64.1527582292
 30
0.0
 10
36.8195719089
 20
64.1085234689
 30
0.0
 10
36.0587672815
 20
63.9771467296
 30
0.0
 10
35.3560392727
 20
63.7636189287
 30
0.0
 10
34.9245095749
 20
63.562689859
 30
0.0
 10
34.7271720015
 20
63.448757638
 30
0.0
  0
SPLINE
  5
2C4
100
AcDbEntity
  8
0
100
AcDbSpline
 62
7
  6
BYLAYER
 70
0
 71
3
 72
11
 73
7
 74
0
 42
0.0000001
 43
0.0000001
 44
0.0000000001
 40
0.0
 40
0.0
 40
0.0
 40
0.0
 40
0.2326659168
 40
0.4781402713
 40
0.7346590113
 40
1.0
 40
1.0
 40
1.0
 40
1.0
 10
28.9467693239
 20
33.1060533001
 30
0.0
 10
28.9467693239
 20
32.7593127882
 30
0.0
 10
28.9075528558
 20
32.0463782548
 30
0.0
 10
28.7440597519
 20
30.9623924844
 30
0.0
 10
28.47643738
 20
29.8492794596
 30
0.0
 10
28.2348409922
 20
29.1090831135
 30
0.0
 10
28.0982447193
 20
28.7379887091
 30
0.0
  0
SPLINE
  5
2C5
100
AcDbEntity
  8
0
100
AcDbSpline
 62
7
  6
BYLAYER
 70
0
 71
3
 72
23
 73
19
 74
0
 42
0.0000001
 43
0.0000001
 44
0.0000000001
 40
0.0
 40
0.0
 40
0.0
 40
0.0
 40
0.0671573242
 40
0.1372182311
 40
0.2093598084
 40
0.2827793343
 40
0.356580925
 40
0.4298596262
 40
0.5017343208
 40
0.5713736698
 40
0.6380394363
 40
0.7011228031
 40
0.760190534
 40
0.8150458506
 40
0.8657880072
 40
0.9128788976
 40
0.9571948291
 40
1.0
 40
1.0
 40
1.0
 40
1.0
 10
35.3078176816
 20
66.7480129764
 30
0.0
 10
35.4636673656
 20
66.8095670303
 30
0.0
 10
35.7886563202
 20
66.9191999953
 30
0.0
 10
36.297181385
 20
67.0413176509
 30
0.0
 10
36.8295914746
 20
67.1228089627
 30
0.0
 10
37.3760671924
 20
67.1622444551
 30
0.0
 10
37.9267873806
 20
67.1589058373
 30
0.0
 10
38.4717317856
 20
67.1128620722
 30
0.0
 10
39.0010132788
 20
67.0249346526
 30
0.0
 10
39.5050497549
 20
66.8966983516
 30
0.0
 10
39.9747552038
 20
66.7304801199
 30
0.0
 10
40.4016930261
 20
66.5291971907
 30
0.0
 10
40.7782126132
 20
66.2962948684
 30
0.0
 10
41.0975894505
 20
66.0356874904
 30
0.0
 10
41.3539583567
 20
65.7515663203
 30
0.0
 10
41.5421189391
 20
65.4482917728
 30
0.0
 10
41.6574939228
 20
65.1312136682
 30
0.0
 10
41.6836497074
 20
64.913039166
 30
0.0
 10
41.6836425995
 20
64.8062355067
 30
0.0
  0
SPLINE
  5
2C6
100
AcDbEntity
  8
0
100
AcDbSpline
 62
7
  6
BYLAYER
 70
0
 71
3
 72
15
 73
11
 74
0
 42
0.0000001
 43
0.0000001
 44
0.0000000001
 40
0.0
 40
0.0
 40
0.0
 40
0.0
 40
0.1125902309
 40
0.2255826767
 40
0.3409081338
 40
0.4602779699
 40
0.585062971
 40
0.7162793595
 40
0.8545680354
 40
1.0
 40
1.0
 40
1.0
 40
1.0
 10
7.8600106493
 20
38.0076525139
 30
0.0
 10
7.8600516265
 20
37.9067953125
 30
0.0
 10
7.8761414879
 20
37.704336564
 30
0.0
 10
7.9492059996
 20
37.4065498515
 30
0.0
 10
8.0700904076
 20
37.118186874
 30
0.0
 10
8.2374132148
 20
36.8418038462
 30
0.0
 10
8.4491494241
 20
36.5794113876
 30
0.0
 10
8.703137976
 20
36.3328505299
 30
0.0
 10
8.9967813874
 20
36.1039513491
 30
0.0
 10
9.2116672483
 20
35.9674693307
 30
0.0
 10
9.3244906264
 20
35.9023321375
 30
0.0
  0
SPLINE
  5
2C7
100
AcDbEntity
  8
0
100
AcDbSpline
 62
7
  6
BYLAYER
 70
0
 71
3
 72
11
 73
7
 74
0
 42
0.0000001
 43
0.0000001
 44
0.0000000001
 40
0.0
 40
0.0
 40
0.0
 40
0.0
 40
0.2151474677
 40
0.4100788796
 40
0.618836001
 40
1.0
 40
1.0
 40
1.0
 40
1.0
 10
34.245321414
 20
66.1345792734
 30
0.0
 10
34.2453244249
 20
66.1663832588
 30
0.0
 10
34.2335461388
 20
66.227146285
 30
0.0
 10
34.1939099634
 20
66.3102849974
 30
0.0
 10
34.123310867
 20
66.4028898543
 30
0.0
 10
34.0501240398
 20
66.4566566909
 30
0.0
 10
33.9977177055
 20
66.4773535863
 30
0.0
  0
SPLINE
  5
2C8
100
AcDbEntity
  8
0
100
AcDbSpline
 62
7
  6
BYLAYER
 70
0
 71
3
 72
11
 73
7
 74
0
 42
0.0000001
 43
0.0000001
 44
0.0000000001
 40
0.0
 40
0.0
 40
0.0
 40
0.0
 40
0.2245981541
 40
0.4651716155
 40
0.7235046027
 40
1.0
 40
1.0
 40
1.0
 40
1.0
 10
28.0982447193
 20
36.4943319218
 30
0.0
 10
28.2410035576
 20
36.2713382501
 30
0.0
 10
28.4930427849
 20
35.7806126603
 30
0.0
 10
28.7564847299
 20
34.9662383981
 30
0.0
 10
28.9141472018
 20
34.0632305645
 30
0.0
 10
28.9467693239
 20
33.4320101665
 30
0.0
 10
28.9467693239
 20
33.1060533001
 30
0.0
  0
SPLINE
  5
2C9
100
AcDbEntity
  8
0
100
AcDbSpline
 62
7
  6
BYLAYER
 70
0
 71
3
 72
9
 73
5
 74
0
 42
0.0000001
 43
0.0000001
 44
0.0000000001
 40
0.0
 40
0.0
 40
0.0
 40
0.0
 40
0.4913817072
 40
1.0
 40
1.0
 40
1.0
 40
1.0
 10
50.8455799864
 20
65.4133799797
 30
0.0
 10
50.966281041
 20
65.3462144266
 30
0.0
 10
51.2028506474
 20
65.1929934884
 30
0.0
 10
51.4228880203
 20
65.0175546949
 30
0.0
 10
51.5315775655
 20
64.9246645377
 30
0.0
  0
SPLINE
  5
2CA
100
AcDbEntity
  8
0
100
AcDbSpline
 62
7
  6
BYLAYER
 70
0
 71
3
 72
10
 73
6
 74
0
 42
0.0000001
 43
0.0000001
 44
0.0000000001
 40
0.0
 40
0.0
 40
0.0
 40
0.0
 40
0.2686795112
 40
0.52375432
 40
1.0
 40
1.0
 40
1.0
 40
1.0
 10
34.4752641616
 20
66.850066379
 30
0.0
 10
34.428109739
 20
66.8228428654
 30
0.0
 10
34.3376091034
 20
66.7671881057
 30
0.0
 10
34.1722771164
 20
66.6499842942
 30
0.0
 10
34.0612923702
 20
66.549937166
 30
0.0
 10
33.9977129613
 20
66.4773263165
 30
0.0
  0
SPLINE
  5
2CB
100
AcDbEntity
  8
0
100
AcDbSpline
 62
7
  6
BYLAYER
 70
0
 71
3
 72
14
 73
10
 74
0
 42
0.0000001
 43
0.0000001
 44
0.0000000001
 40
0.0
 40
0.0
 40
0.0
 40
0.0
 40
0.22996959
 40
0.3681024349
 40
0.5126759914
 40
0.6550999559
 40
0.7873655362
 40
0.9028138139
 40
1.0
 40
1.0
 40
1.0
 40
1.0
 10
34.7271752153
 20
66.4640227781
 30
0.0
 10
34.727177719
 20
66.5011389274
 30
0.0
 10
34.7159986916
 20
66.5607102855
 30
0.0
 10
34.6852569338
 20
66.6376062505
 30
0.0
 10
34.6518138408
 20
66.6978035763
 30
0.0
 10
34.6108321819
 20
66.7519017906
 30
0.0
 10
34.5662864901
 20
66.7967331259
 30
0.0
 10
34.5210861183
 20
66.8296295247
 30
0.0
 10
34.4900342973
 20
66.8448126538
 30
0.0
 10
34.4752614692
 20
66.850084936
 30
0.0
  0
SPLINE
  5
2CC
100
AcDbEntity
  8
0
100
AcDbSpline
 62
7
  6
BYLAYER
 70
0
 71
3
 72
9
 73
5
 74
0
 42
0.0000001
 43
0.0000001
 44
0.0000000001
 40
0.0
 40
0.0
 40
0.0
 40
0.0
 40
0.2682933082
 40
1.0
 40
1.0
 40
1.0
 40
1.0
 10
40.2590407463
 20
70.0922839911
 30
0.0
 10
40.2388852717
 20
70.1011888041
 30
0.0
 10
40.1623262362
 20
70.1307565103
 30
0.0
 10
40.0791248731
 20
70.1453132238
 30
0.0
 10
40.0190751411
 20
70.1429781224
 30
0.0
  0
SPLINE
  5
2CD
100
AcDbEntity
  8
0
100
AcDbSpline
 62
7
  6
BYLAYER
 70
0
 71
3
 72
9
 73
5
 74
0
 42
0.0000001
 43
0.0000001
 44
0.0000000001
 40
0.0
 40
0.0
 40
0.0
 40
0.0
 40
0.2560673947
 40
1.0
 40
1.0
 40
1.0
 40
1.0
 10
40.0190751411
 20
70.1429781224
 30
0.0
 10
40.012207871
 20
70.1427110809
 30
0.0
 10
39.9854229249
 20
70.1410028873
 30
0.0
 10
39.9587891331
 20
70.13652576
 30
0.0
 10
39.9394756237
 20
70.1314631135
 30
0.0
  0
SPLINE
  5
2CE
100
AcDbEntity
  8
0
100
AcDbSpline
 62
7
  6
BYLAYER
 70
0
 71
3
 72
11
 73
7
 74
0
 42
0.0000001
 43
0.0000001
 44
0.0000000001
 40
0.0
 40
0.0
 40
0.0
 40
0.0
 40
0.2282360119
 40
0.4661947889
 40
0.7218622253
 40
1.0
 40
1.0
 40
1.0
 40
1.0
 10
33.5336440186
 20
64.8062355067
 30
0.0
 10
33.5336420306
 20
64.9244127716
 30
0.0
 10
33.5659093431
 20
65.1668536812
 30
0.0
 10
33.7074755128
 20
65.5164291275
 30
0.0
 10
33.9369333507
 20
65.8469451009
 30
0.0
 10
34.1352613012
 20
66.0416978582
 30
0.0
 10
34.245319655
 20
66.1345831158
 30
0.0
  0
SPLINE
  5
2CF
100
AcDbEntity
  8
0
100
AcDbSpline
 62
7
  6
BYLAYER
 70
0
 71
3
 72
9
 73
5
 74
0
 42
0.0000001
 43
0.0000001
 44
0.0000000001
 40
0.0
 40
0.0
 40
0.0
 40
0.0
 40
0.2603243597
 40
1.0
 40
1.0
 40
1.0
 40
1.0
 10
60.7460616177
 20
58.0962002472
 30
0.0
 10
60.7347295035
 20
58.1165937071
 30
0.0
 10
60.6892072963
 20
58.1937830635
 30
0.0
 10
60.6357283569
 20
58.2664812555
 30
0.0
 10
60.5912633015
 20
58.3156468571
 30
0.0
  0
SPLINE
  5
2D0
100
AcDbEntity
  8
0
100
AcDbSpline
 62
7
  6
BYLAYER
 70
0
 71
3
 72
9
 73
5
 74
0
 42
0.0000001
 43
0.0000001
 44
0.0000000001
 40
0.0
 40
0.0
 40
0.0
 40
0.0
 40
0.2631167619
 40
1.0
 40
1.0
 40
1.0
 40
1.0
 10
60.5912633015
 20
58.3156468571
 30
0.0
 10
60.5825211388
 20
58.3253131824
 30
0.0
 10
60.5485525655
 20
58.3613583509
 30
0.0
 10
60.5115234314
 20
58.3946235934
 30
0.0
 10
60.4823790502
 20
58.4165985361
 30
0.0
  0
SPLINE
  5
2D1
100
AcDbEntity
  8
0
100
AcDbSpline
 62
7
  6
BYLAYER
 70
0
 71
3
 72
10
 73
6
 74
0
 42
0.0000001
 43
0.0000001
 44
0.0000000001
 40
0.0
 40
0.0
 40
0.0
 40
0.0
 40
0.497971034
 40
0.7521516637
 40
1.0
 40
1.0
 40
1.0
 40
1.0
 10
60.7988861667
 20
57.4562385193
 30
0.0
 10
60.8293102083
 20
57.5607816476
 30
0.0
 10
60.8482805702
 20
57.7286950188
 30
0.0
 10
60.8126845018
 20
57.9453425234
 30
0.0
 10
60.7723715957
 20
58.0488239598
 30
0.0
 10
60.7460628366
 20
58.0962007564
 30
0.0
  0
SPLINE
  5
2D2
100
AcDbEntity
  8
0
100
AcDbSpline
 62
7
  6
BYLAYER
 70
0
 71
3
 72
9
 73
5
 74
0
 42
0.0000001
 43
0.0000001
 44
0.0000000001
 40
0.0
 40
0.0
 40
0.0
 40
0.0
 40
0.5032799382
 40
1.0
 40
1.0
 40
1.0
 40
1.0
 10
52.520747528
 20
64.4458243298
 30
0.0
 10
52.3624960954
 20
64.5407237505
 30
0.0
 10
52.0382982668
 20
64.7132765721
 30
0.0
 10
51.7012495907
 20
64.8584906197
 30
0.0
 10
51.5315775655
 20
64.9246645377
 30
0.0
  0
SPLINE
  5
2D3
100
AcDbEntity
  8
0
100
AcDbSpline
 62
7
  6
BYLAYER
 70
0
 71
3
 72
9
 73
5
 74
0
 42
0.0000001
 43
0.0000001
 44
0.0000000001
 40
0.0
 40
0.0
 40
0.0
 40
0.0
 40
0.4837830333
 40
1.0
 40
1.0
 40
1.0
 40
1.0
 10
60.9453275734
 20
57.8305393657
 30
0.0
 10
60.9453324149
 20
57.7647858349
 30
0.0
 10
60.9154853211
 20
57.6282680943
 30
0.0
 10
60.8430748913
 20
57.510736349
 30
0.0
 10
60.7988853865
 20
57.4562389563
 30
0.0
  0
SPLINE
  5
2D4
100
AcDbEntity
  8
0
100
AcDbSpline
 62
7
  6
BYLAYER
 70
0
 71
3
 72
14
 73
10
 74
0
 42
0.0000001
 43
0.0000001
 44
0.0000000001
 40
0.0
 40
0.0
 40
0.0
 40
0.0
 40
0.0543727646
 40
0.1245642859
 40
0.2184914384
 40
0.3370448283
 40
0.4781313302
 40
0.6386509494
 40
1.0
 40
1.0
 40
1.0
 40
1.0
 10
60.8867788366
 20
58.1065349514
 30
0.0
 10
60.8856381947
 20
58.1089368543
 30
0.0
 10
60.8811054894
 20
58.113525276
 30
0.0
 10
60.8708222961
 20
58.1170464385
 30
0.0
 10
60.8570027165
 20
58.1183652127
 30
0.0
 10
60.839691889
 20
58.1176193592
 30
0.0
 10
60.8193081963
 20
58.1148862078
 30
0.0
 10
60.7875229721
 20
58.1084179936
 30
0.0
 10
60.7629227465
 20
58.1014879516
 30
0.0
 10
60.7460609679
 20
58.0962016444
 30
0.0
  0
SPLINE
  5
2D5
100
AcDbEntity
  8
0
100
AcDbSpline
 62
7
  6
BYLAYER
 70
0
 71
3
 72
11
 73
7
 74
0
 42
0.0000001
 43
0.0000001
 44
0.0000000001
 40
0.0
 40
0.0
 40
0.0
 40
0.0
 40
0.2352933801
 40
0.4816158313
 40
0.7384731584
 40
1.0
 40
1.0
 40
1.0
 40
1.0
 10
60.685700271
 20
58.3921464741
 30
0.0
 10
60.6733186986
 20
58.4035491604
 30
0.0
 10
60.6434751361
 20
58.4223615734
 30
0.0
 10
60.5913013933
 20
58.4346547842
 30
0.0
 10
60.5361061351
 20
58.432435351
 30
0.0
 10
60.4999854958
 20
58.4229261102
 30
0.0
 10
60.4823790848
 20
58.416598556
 30
0.0
  0
SPLINE
  5
2D6
100
AcDbEntity
  8
0
100
AcDbSpline
 62
7
  6
BYLAYER
 70
0
 71
3
 72
12
 73
8
 74
0
 42
0.0000001
 43
0.0000001
 44
0.0000000001
 40
0.0
 40
0.0
 40
0.0
 40
0.0
 40
0.1091085938
 40
0.221692742
 40
0.4626539671
 40
0.725398935
 40
1.0
 40
1.0
 40
1.0
 40
1.0
 10
54.6945262283
 20
55.1093779581
 30
0.0
 10
54.7009809683
 20
55.113145532
 30
0.0
 10
54.7150433921
 20
55.1193007796
 30
0.0
 10
54.7464113327
 20
55.1251187645
 30
0.0
 10
54.7892907301
 20
55.1205564242
 30
0.0
 10
54.8388915815
 20
55.0997539357
 30
0.0
 10
54.8695162823
 20
55.0789573947
 30
0.0
 10
54.8842203349
 20
55.0672269178
 30
0.0
  0
SPLINE
  5
2D7
100
AcDbEntity
  8
0
100
AcDbSpline
 62
7
  6
BYLAYER
 70
0
 71
3
 72
14
 73
10
 74
0
 42
0.0000001
 43
0.0000001
 44
0.0000000001
 40
0.0
 40
0.0
 40
0.0
 40
0.0
 40
0.1051863803
 40
0.2051660312
 40
0.307021001
 40
0.4169940605
 40
0.5394965485
 40
0.6769741603
 40
1.0
 40
1.0
 40
1.0
 40
1.0
 10
60.7825413346
 20
45.2893039424
 30
0.0
 10
60.7907356084
 20
45.2940997394
 30
0.0
 10
60.8057642748
 20
45.3053230165
 30
0.0
 10
60.8228450231
 20
45.3275924585
 30
0.0
 10
60.8333210499
 20
45.3540689671
 30
0.0
 10
60.8373893943
 20
45.3842051345
 30
0.0
 10
60.8355701618
 20
45.4176963047
 30
0.0
 10
60.8253185104
 20
45.4694332614
 30
0.0
 10
60.8105939601
 20
45.508600958
 30
0.0
 10
60.7988864767
 20
45.5353048044
 30
0.0
  0
SPLINE
  5
2D8
100
AcDbEntity
  8
0
100
AcDbSpline
 62
7
  6
BYLAYER
 70
0
 71
3
 72
11
 73
7
 74
0
 42
0.0000001
 43
0.0000001
 44
0.0000000001
 40
0.0
 40
0.0
 40
0.0
 40
0.0
 40
0.2518325571
 40
0.5010689539
 40
0.7493710105
 40
1.0
 40
1.0
 40
1.0
 40
1.0
 10
27.4990260703
 20
26.0730397676
 30
0.0
 10
27.541013695
 20
26.0972705284
 30
0.0
 10
27.6209110538
 20
26.1522149578
 30
0.0
 10
27.7240637381
 20
26.2543508078
 30
0.0
 10
27.8035331757
 20
26.3757648818
 30
0.0
 10
27.8381700501
 20
26.466232386
 30
0.0
 10
27.8507583762
 20
26.5128072165
 30
0.0
  0
SPLINE
  5
2D9
100
AcDbEntity
  8
0
100
AcDbSpline
 62
7
  6
BYLAYER
 70
0
 71
3
 72
11
 73
7
 74
0
 42
0.0000001
 43
0.0000001
 44
0.0000000001
 40
0.0
 40
0.0
 40
0.0
 40
0.0
 40
0.3565836799
 40
0.6431027382
 40
0.8555443548
 40
1.0
 40
1.0
 40
1.0
 40
1.0
 10
60.7988853865
 20
45.5353036662
 30
0.0
 10
60.8163860129
 20
45.5339250011
 30
0.0
 10
60.8480468589
 20
45.5326162668
 30
0.0
 10
60.8902723787
 20
45.5355306454
 30
0.0
 10
60.9211200269
 20
45.5424878677
 30
0.0
 10
60.9371295587
 20
45.5518517708
 30
0.0
 10
60.941348096
 20
45.5575771043
 30
0.0
  0
SPLINE
  5
2DA
100
AcDbEntity
  8
0
100
AcDbSpline
 62
7
  6
BYLAYER
 70
0
 71
3
 72
9
 73
5
 74
0
 42
0.0000001
 43
0.0000001
 44
0.0000000001
 40
0.0
 40
0.0
 40
0.0
 40
0.0
 40
0.2598125539
 40
1.0
 40
1.0
 40
1.0
 40
1.0
 10
60.941348096
 20
45.5575771043
 30
0.0
 10
60.9419908641
 20
45.5584494594
 30
0.0
 10
60.9442437397
 20
45.5619650248
 30
0.0
 10
60.9453265922
 20
45.5662250392
 30
0.0
 10
60.945324857
 20
45.5693120923
 30
0.0
  0
SPLINE
  5
2DB
100
AcDbEntity
  8
0
100
AcDbSpline
 62
7
  6
BYLAYER
 70
0
 71
3
 72
9
 73
5
 74
0
 42
0.0000001
 43
0.0000001
 44
0.0000000001
 40
0.0
 40
0.0
 40
0.0
 40
0.0
 40
0.5236033189
 40
1.0
 40
1.0
 40
1.0
 40
1.0
 10
16.540015045
 20
43.7651214328
 30
0.0
 10
16.61011406
 20
43.6722461571
 30
0.0
 10
16.7587663711
 20
43.5054496204
 30
0.0
 10
16.9369863952
 20
43.3692696889
 30
0.0
 10
17.0286725512
 20
43.3163358596
 30
0.0
  0
SPLINE
  5
2DC
100
AcDbEntity
  8
0
100
AcDbSpline
 62
7
  6
BYLAYER
 70
0
 71
3
 72
14
 73
10
 74
0
 42
0.0000001
 43
0.0000001
 44
0.0000000001
 40
0.0
 40
0.0
 40
0.0
 40
0.0
 40
0.1090063483
 40
0.2199054668
 40
0.3344358258
 40
0.454032549
 40
0.5798193307
 40
0.7125948171
 40
1.0
 40
1.0
 40
1.0
 40
1.0
 10
47.6758413783
 20
56.6414204162
 30
0.0
 10
47.6758473103
 20
56.7153615666
 30
0.0
 10
47.6881454558
 20
56.864801722
 30
0.0
 10
47.7430156098
 20
57.0858431489
 30
0.0
 10
47.8337526105
 20
57.3025103984
 30
0.0
 10
47.9591559821
 20
57.5128274795
 30
0.0
 10
48.1180876533
 20
57.7150086536
 30
0.0
 10
48.3793622335
 20
57.9783322336
 30
0.0
 10
48.6113072367
 20
58.1478174995
 30
0.0
 10
48.777284452
 20
58.250082236
 30
0.0
  0
SPLINE
  5
2DD
100
AcDbEntity
  8
0
100
AcDbSpline
 62
7
  6
BYLAYER
 70
0
 71
3
 72
15
 73
11
 74
0
 42
0.0000001
 43
0.0000001
 44
0.0000000001
 40
0.0
 40
0.0
 40
0.0
 40
0.0
 40
0.1169852148
 40
0.2407303268
 40
0.3692685918
 40
0.5002690512
 40
0.6312322346
 40
0.7596816589
 40
0.883280391
 40
1.0
 40
1.0
 40
1.0
 40
1.0
 10
50.4212048472
 20
54.5773434484
 30
0.0
 10
50.5181765774
 20
54.6222443229
 30
0.0
 10
50.7241358365
 20
54.7011814606
 30
0.0
 10
51.0515069376
 20
54.7850268634
 30
0.0
 10
51.3984974662
 20
54.8361031178
 30
0.0
 10
51.7553722301
 20
54.8530208237
 30
0.0
 10
52.1121260914
 20
54.8352529617
 30
0.0
 10
52.4587364717
 20
54.7832851431
 30
0.0
 10
52.7854214888
 20
54.6986255315
 30
0.0
 10
52.9908192082
 20
54.6192645474
 30
0.0
 10
53.0874176228
 20
54.5741363356
 30
0.0
  0
SPLINE
  5
2DE
100
AcDbEntity
  8
0
100
AcDbSpline
 62
7
  6
BYLAYER
 70
0
 71
3
 72
9
 73
5
 74
0
 42
0.0000001
 43
0.0000001
 44
0.0000000001
 40
0.0
 40
0.0
 40
0.0
 40
0.0
 40
0.5124025309
 40
1.0
 40
1.0
 40
1.0
 40
1.0
 10
54.8842186058
 20
55.0672176026
 30
0.0
 10
54.947312277
 20
55.1036570372
 30
0.0
 10
55.0666150591
 20
55.1816956527
 30
0.0
 10
55.1759690647
 20
55.2731160543
 30
0.0
 10
55.2266217841
 20
55.3204595928
 30
0.0
  0
SPLINE
  5
2DF
100
AcDbEntity
  8
0
100
AcDbSpline
 62
7
  6
BYLAYER
 70
0
 71
3
 72
9
 73
5
 74
0
 42
0.0000001
 43
0.0000001
 44
0.0000000001
 40
0.0
 40
0.0
 40
0.0
 40
0.0
 40
0.2581622107
 40
1.0
 40
1.0
 40
1.0
 40
1.0
 10
54.2210511005
 20
54.8016407372
 30
0.0
 10
54.2614377106
 20
54.8134245976
 30
0.0
 10
54.4174386645
 20
54.8604161109
 30
0.0
 10
54.5713478889
 20
54.9154251342
 30
0.0
 10
54.6817993109
 20
54.9645698628
 30
0.0
  0
SPLINE
  5
2E0
100
AcDbEntity
  8
0
100
AcDbSpline
 62
7
  6
BYLAYER
 70
0
 71
3
 72
23
 73
19
 74
0
 42
0.0000001
 43
0.0000001
 44
0.0000000001
 40
0.0
 40
0.0
 40
0.0
 40
0.0
 40
0.0624363678
 40
0.1288663772
 40
0.1985341933
 40
0.2705956163
 40
0.344051624
 40
0.4178494174
 40
0.4909227601
 40
0.5622358213
 40
0.6308326183
 40
0.695891613
 40
0.7567850184
 40
0.813147762
 40
0.8649628695
 40
0.9126593975
 40
0.9571860335
 40
1.0
 40
1.0
 40
1.0
 40
1.0
 10
48.8693665044
 20
58.305001491
 30
0.0
 10
49.0161158596
 20
58.3897267649
 30
0.0
 10
49.330725018
 20
58.5447528086
 30
0.0
 10
49.8382194521
 20
58.7284575883
 30
0.0
 10
50.3867243485
 20
58.8673314564
 30
0.0
 10
50.964345493
 20
58.9584990323
 30
0.0
 10
51.5588493068
 20
58.9999585068
 30
0.0
 10
52.1574605755
 20
58.9908549298
 30
0.0
 10
52.7473578301
 20
58.9313940312
 30
0.0
 10
53.3159126384
 20
58.8228334528
 30
0.0
 10
53.8509817937
 20
58.6674595808
 30
0.0
 10
54.3412061199
 20
58.4685469155
 30
0.0
 10
54.7762468429
 20
58.2301778897
 30
0.0
 10
55.1469479857
 20
57.9570430984
 30
0.0
 10
55.4453501484
 20
57.6542742594
 30
0.0
 10
55.6645174717
 20
57.3272597381
 30
0.0
 10
55.798170934
 20
56.9825275109
 30
0.0
 10
55.8269240104
 20
56.7441633464
 30
0.0
 10
55.8257722129
 20
56.6279726329
 30
0.0
  0
SPLINE
  5
2E1
100
AcDbEntity
  8
0
100
AcDbSpline
 62
7
  6
BYLAYER
 70
0
 71
3
 72
9
 73
5
 74
0
 42
0.0000001
 43
0.0000001
 44
0.0000000001
 40
0.0
 40
0.0
 40
0.0
 40
0.0
 40
0.5142246006
 40
1.0
 40
1.0
 40
1.0
 40
1.0
 10
34.7271748293
 20
66.4640432814
 30
0.0
 10
34.6404362957
 20
66.4139790226
 30
0.0
 10
34.4743586809
 20
66.3119565359
 30
0.0
 10
34.3176298702
 20
66.1956121708
 30
0.0
 10
34.2453239562
 20
66.1345978391
 30
0.0
  0
SPLINE
  5
2E2
100
AcDbEntity
  8
0
100
AcDbSpline
 62
7
  6
BYLAYER
 70
0
 71
3
 72
14
 73
10
 74
0
 42
0.0000001
 43
0.0000001
 44
0.0000000001
 40
0.0
 40
0.0
 40
0.0
 40
0.0
 40
0.225011035
 40
0.359114275
 40
0.5004683406
 40
0.6420567084
 40
0.7763957233
 40
0.8967880791
 40
1.0
 40
1.0
 40
1.0
 40
1.0
 10
35.3078296244
 20
66.7480130231
 30
0.0
 10
35.3078298496
 20
66.7805542106
 30
0.0
 10
35.3010377921
 20
66.8325596569
 30
0.0
 10
35.2820777422
 20
66.9024407767
 30
0.0
 10
35.261042012
 20
66.9590823716
 30
0.0
 10
35.2345737857
 20
67.0134119024
 30
0.0
 10
35.2046389922
 20
67.0624158363
 30
0.0
 10
35.1727887619
 20
67.1033598484
 30
0.0
 10
35.1498351698
 20
67.1263186508
 30
0.0
 10
35.1384278771
 20
67.1359454659
 30
0.0
  0
SPLINE
  5
2E3
100
AcDbEntity
  8
0
100
AcDbSpline
 62
7
  6
BYLAYER
 70
0
 71
3
 72
9
 73
5
 74
0
 42
0.0000001
 43
0.0000001
 44
0.0000000001
 40
0.0
 40
0.0
 40
0.0
 40
0.0
 40
0.5160845258
 40
1.0
 40
1.0
 40
1.0
 40
1.0
 10
35.1384316653
 20
67.1359166361
 30
0.0
 10
35.0189739446
 20
67.1010510634
 30
0.0
 10
34.7921999267
 20
67.0169307927
 30
0.0
 10
34.576315497
 20
66.9084102441
 30
0.0
 10
34.4752641616
 20
66.850066379
 30
0.0
  0
SPLINE
  5
2E4
100
AcDbEntity
  8
0
100
AcDbSpline
 62
7
  6
BYLAYER
 70
0
 71
3
 72
9
 73
5
 74
0
 42
0.0000001
 43
0.0000001
 44
0.0000000001
 40
0.0
 40
0.0
 40
0.0
 40
0.0
 40
0.2560284805
 40
1.0
 40
1.0
 40
1.0
 40
1.0
 10
35.3078214494
 20
66.7480331205
 30
0.0
 10
35.2564875621
 20
66.7277542338
 30
0.0
 10
35.0578067096
 20
66.6439453679
 30
0.0
 10
34.8660620558
 20
66.5442409127
 30
0.0
 10
34.7271730914
 20
66.4640352567
 30
0.0
  0
SPLINE
  5
2E5
100
AcDbEntity
  8
0
100
AcDbSpline
 62
7
  6
BYLAYER
 70
0
 71
3
 72
15
 73
11
 74
0
 42
0.0000001
 43
0.0000001
 44
0.0000000001
 40
0.0
 40
0.0
 40
0.0
 40
0.0
 40
0.1167965189
 40
0.2404043522
 40
0.3688596206
 40
0.4998375231
 40
0.6308363397
 40
0.7593749278
 40
0.8831093545
 40
1.0
 40
1.0
 40
1.0
 40
1.0
 10
36.2718775706
 20
62.7388413043
 30
0.0
 10
36.3685894308
 20
62.7840168971
 30
0.0
 10
36.5741326453
 20
62.8635196485
 30
0.0
 10
36.9010802453
 20
62.9481900095
 30
0.0
 10
37.2478989844
 20
63.000102233
 30
0.0
 10
37.6048470427
 20
63.0178439253
 30
0.0
 10
37.9619092765
 20
63.000860386
 30
0.0
 10
38.3090423211
 20
62.9496186017
 30
0.0
 10
38.6364397336
 20
62.8656103241
 30
0.0
 10
38.8424039777
 20
62.7866451704
 30
0.0
 10
38.9393179978
 20
62.7417000579
 30
0.0
  0
SPLINE
  5
2E6
100
AcDbEntity
  8
0
100
AcDbSpline
 62
7
  6
BYLAYER
 70
0
 71
3
 72
13
 73
9
 74
0
 42
0.0000001
 43
0.0000001
 44
0.0000000001
 40
0.0
 40
0.0
 40
0.0
 40
0.0
 40
0.3411556196
 40
0.4963053451
 40
0.6357582919
 40
0.7566514997
 40
0.8572771136
 40
1.0
 40
1.0
 40
1.0
 40
1.0
 10
26.5844216176
 20
26.0416984285
 30
0.0
 10
26.5874479904
 20
26.0235843647
 30
0.0
 10
26.5927613946
 20
25.997355084
 30
0.0
 10
26.6022762247
 20
25.9644492393
 30
0.0
 10
26.6100091057
 20
25.9434628362
 30
0.0
 10
26.6185841521
 20
25.9258806482
 30
0.0
 10
26.6291477233
 20
25.9096563017
 30
0.0
 10
26.6403515566
 20
25.9003240041
 30
0.0
 10
26.6479544804
 20
25.8992170983
 30
0.0
  0
SPLINE
  5
2E7
100
AcDbEntity
  8
0
100
AcDbSpline
 62
7
  6
BYLAYER
 70
0
 71
3
 72
15
 73
11
 74
0
 42
0.0000001
 43
0.0000001
 44
0.0000000001
 40
0.0
 40
0.0
 40
0.0
 40
0.0
 40
0.3787610366
 40
0.5481991689
 40
0.6966780408
 40
0.8194804924
 40
0.9125520098
 40
0.9722477212
 40
0.9895100201
 40
1.0
 40
1.0
 40
1.0
 40
1.0
 10
26.8212830832
 20
26.0369063351
 30
0.0
 10
26.827136443
 20
26.0170354306
 30
0.0
 10
26.8358580666
 20
25.9883475674
 30
0.0
 10
26.8477284479
 20
25.9521361631
 30
0.0
 10
26.855700854
 20
25.9293948521
 30
0.0
 10
26.8628264423
 20
25.9107582756
 30
0.0
 10
26.8688303042
 20
25.8969824562
 30
0.0
 10
26.8732363833
 20
25.8886669311
 30
0.0
 10
26.8762727647
 20
25.8850199835
 30
0.0
 10
26.8777166712
 20
25.8842072628
 30
0.0
 10
26.8782900347
 20
25.8842273368
 30
0.0
  0
SPLINE
  5
2E8
100
AcDbEntity
  8
0
100
AcDbSpline
 62
7
  6
BYLAYER
 70
0
 71
3
 72
11
 73
7
 74
0
 42
0.0000001
 43
0.0000001
 44
0.0000000001
 40
0.0
 40
0.0
 40
0.0
 40
0.0
 40
0.2513100914
 40
0.506593205
 40
0.7597770154
 40
1.0
 40
1.0
 40
1.0
 40
1.0
 10
26.8212830199
 20
26.0369063815
 30
0.0
 10
26.9173100105
 20
26.0436846839
 30
0.0
 10
27.1092728249
 20
26.0844666339
 30
0.0
 10
27.3778975846
 20
26.1988631173
 30
0.0
 10
27.6265476629
 20
26.3428478325
 30
0.0
 10
27.7797072736
 20
26.45433307
 30
0.0
 10
27.8507583762
 20
26.5128072165
 30
0.0
  0
SPLINE
  5
2E9
100
AcDbEntity
  8
0
100
AcDbSpline
 62
7
  6
BYLAYER
 70
0
 71
3
 72
9
 73
5
 74
0
 42
0.0000001
 43
0.0000001
 44
0.0000000001
 40
0.0
 40
0.0
 40
0.0
 40
0.0
 40
0.2464086863
 40
1.0
 40
1.0
 40
1.0
 40
1.0
 10
26.5844222144
 20
26.0416983706
 30
0.0
 10
26.6037622593
 20
26.039418856
 30
0.0
 10
26.6825301685
 20
26.0325271888
 30
0.0
 10
26.7618227257
 20
26.0335127883
 30
0.0
 10
26.8212830199
 20
26.0369063815
 30
0.0
  0
SPLINE
  5
2EA
100
AcDbEntity
  8
0
100
AcDbSpline
 62
7
  6
BYLAYER
 70
0
 71
3
 72
9
 73
5
 74
0
 42
0.0000001
 43
0.0000001
 44
0.0000000001
 40
0.0
 40
0.0
 40
0.0
 40
0.0
 40
0.242862163
 40
1.0
 40
1.0
 40
1.0
 40
1.0
 10
26.2854397643
 20
26.1209299057
 30
0.0
 10
26.3085763918
 20
26.1112409914
 30
0.0
 10
26.4051004597
 20
26.0744522254
 30
0.0
 10
26.5067600819
 20
26.0508471952
 30
0.0
 10
26.5844222144
 20
26.0416983706
 30
0.0
  0
ELLIPSE
  5
2EB
100
AcDbEntity
  8
0
100
AcDbEllipse
 62
7
  6
BYLAYER
 10
12.860009829
 20
49.9689395707
 30
0.0
 11
4.9999924905
 21
-0.015062332
 31
0.0
 40
0.575323159
 41
-3.139859511
 42
-2.3544571842
  0
ELLIPSE
  5
2EC
100
AcDbEntity
  8
0
100
AcDbEllipse
 62
7
  6
BYLAYER
 10
27.0022267061
 20
38.7123123706
 30
0.0
 11
1.1999981977
 21
-0.0036149597
 31
0.0
 40
0.575323159
 41
-2.3544571842
 42
-0.7836608574
  0
ELLIPSE
  5
2ED
100
AcDbEntity
  8
0
100
AcDbEllipse
 62
7
  6
BYLAYER
 10
21.2893150433
 20
29.3621714847
 30
0.0
 11
4.9738187865
 21
8.6753520842
 31
0.0
 40
0.5753331358
 41
-1.2820782657
 42
-0.2922100131
  0
ELLIPSE
  5
2EE
100
AcDbEntity
  8
0
100
AcDbEllipse
 62
7
  6
BYLAYER
 10
27.0022267061
 20
27.2140151635
 30
0.0
 11
1.1999981467
 21
0.0036402846
 31
0.0
 40
0.5793538371
 41
-2.3579478384
 42
-0.7871515116
  0
ELLIPSE
  5
2EF
100
AcDbEntity
  8
0
100
AcDbEllipse
 62
7
  6
BYLAYER
 10
12.860009829
 20
38.4923034479
 30
0.0
 11
4.9999922779
 21
0.0151678526
 31
0.0
 40
0.5793538371
 41
2.354441142
 42
3.9252374688
  0
ENDSEC
  0
SECTION
  2
OBJECTS
  0
DICTIONARY
  5
C
100
AcDbDictionary
280
0
281
1
  3
ACAD_GROUP
350
D
  3
ACAD_MLINESTYLE
350
17
  3
ACAD_LAYOUT
350
1A
  3
ACAD_PLOTSETTINGS
350
19
  3
ACAD_PLOTSTYLENAME
350
E
  0
DICTIONARY
  5
D
102
{ACAD_REACTORS
330
C
102
}
100
AcDbDictionary
280
0
281
1
  0
ACDBDICTIONARYWDFLT
  5
E
102
{ACAD_REACTORS
330
C
102
}
100
AcDbDictionary
281
1
  3
Normal
350
F
100
AcDbDictionaryWithDefault
340
F
  0
DICTIONARY
  5
17
102
{ACAD_REACTORS
330
C
102
}
100
AcDbDictionary
280
0
281
1
  3
Standard
350
18
  0
DICTIONARY
  5
19
102
{ACAD_REACTORS
330
C
102
}
100
AcDbDictionary
281
1
  0
DICTIONARY
  5
1A
102
{ACAD_REACTORS
330
C
102
}
100
AcDbDictionary
281
1
  3
Model
350
2F0
  3
Layout1
350
2F1
  0
ACDBPLACEHOLDER
  5
F
102
{ACAD_REACTORS
330
E
102
}
  0
MLINESTYLE
  5
18
102
{ACAD_REACTORS
330
17
102
}
100
AcDbMlineStyle
  2
STANDARD
 70
0
  3

 62
256
 51
90.0
 52
90.0
 71
2
 49
0.5
 62
256
  6
BYLAYER
 49
-0.5
 62
256
  6
BYLAYER
  0
LAYOUT
  5
2F0
102
{ACAD_REACTORS
330
1A
102
}
100
AcDbPlotSettings
  1

  2
none_device
  4

  6

 40
0.0
 41
0.0
 42
0.0
 43
0.0
 44
210.0
 45
297.0
 46
0.0
 47
0.0
 48
0.0
 49
0.0
140
0.0
141
0.0
142
1.0
143
1.0
 70
1024
 72
1
 73
0
 74
0
  7

 75
0
147
1.0
148
0.0
149
0.0
100
AcDbLayout
  1
Model
 70
0
 71
0
 10
0.0
 20
0.0
 11
210.0
 21
297.0
 12
0.0
 22
0.0
 32
0.0
 14
0.0
 24
0.0
 34
0.0
 15
0.0
 25
0.0
 35
0.0
146
0.0
 13
0.0
 23
0.0
 33
0.0
 16
1.0
 26
0.0
 36
0.0
 17
0.0
 27
1.0
 37
0.0
 76
0
330
210
345
0
346
0
  0
LAYOUT
  5
2F1
102
{ACAD_REACTORS
330
1A
102
}
100
AcDbPlotSettings
  1

  2
none_device
  4

  6

 40
0.0
 41
0.0
 42
0.0
 43
0.0
 44
210.0
 45
297.0
 46
0.0
 47
0.0
 48
0.0
 49
0.0
140
0.0
141
0.0
142
1.0
143
1.0
 70
0
 72
1
 73
0
 74
0
  7

 75
0
147
1.0
148
0.0
149
0.0
100
AcDbLayout
  1
Layout1
 70
0
 71
1
 10
0.0
 20
0.0
 11
210.0
 21
297.0
 12
0.0
 22
0.0
 32
0.0
 14
0.0
 24
0.0
 34
0.0
 15
0.0
 25
0.0
 35
0.0
146
0.0
 13
0.0
 23
0.0
 33
0.0
 16
1.0
 26
0.0
 36
0.0
 17
0.0
 27
1.0
 37
0.0
 76
0
330
211
345
0
346
0
  0
ENDSEC
  0
EOF
