999
DXF file: C:\Users\sesa63760\Dev\_Creo\CAD\MCADID0004657_3D-CAD\drw0001_1.dxf
999
Pro/ENGINEER 2019471 by Parametric Technology Corporation
  0
SECTION
  2
HEADER
  9
$ACADVER
  1
AC1024
  9
$DWGCODEPAGE
  3
ANSI_1252
  9
$EXTMAX
 10
62.9352752177
 20
89.008460665
 30
0.0
  9
$EXTMIN
 10
0.0
 20
0.0
 30
0.0
  9
$LIMMIN
 10
0.0
 20
0.0
  9
$LIMMAX
 10
62.9352752177
 20
89.008460665
  9
$VIEWCTR
 10
31.4676376088
 20
44.5042303325
  9
$VIEWSIZE
 40
89.008460665
  9
$CLAYER
  8
0
  9
$LTSCALE
 40
5.8020329915
  9
$CELTYPE
  6
BYLAYER
  9
$DIMSCALE
 40
1.0
  9
$DIMASZ
 40
0.7492294669
  9
$DIMEXO
 40
1.0
  9
$DIMDLI
 40
4.0086773396
  9
$DIMEXE
 40
1.0
  9
$DIMCEN
 40
0.9494235804
  9
$DIMLFAC
 40
1.0
  9
$DIMBLK
  1
_FILLED
  9
$DIMALT
 70
0
  9
$DIMALTF
 40
0.0393700787
  9
$DIMTXT
 40
1.0489212536
  9
$DIMTOL
 70
1
  9
$DIMLIM
 70
0
  9
$DIMTFAC
 40
1.0
  9
$DIMTP
 40
0.01
  9
$DIMTM
 40
0.01
  9
$DIMGAP
 40
0.625
  9
$DIMDSEP
 70
46
  9
$AUNITS
 70
0
  9
$PDMODE
 70
3
  9
$PDSIZE
 40
0.3125
  9
$HANDSEED
  5
2EE
  9
$TILEMODE
 70
1
  9
$MEASUREMENT
 70
1
  9
$INSUNITS
 70
4
  0
ENDSEC
  0
SECTION
  2
CLASSES
  0
CLASS
  1
ACDBDICTIONARYWDFLT
  2
AcDbDictionaryWithDefault
  3
AutoCAD 2000
 90
0
 91
1
280
0
281
0
  0
CLASS
  1
ACDBPLACEHOLDER
  2
AcDbPlaceHolder
  3
AutoCAD 2000
 90
0
 91
1
280
0
281
0
  0
CLASS
  1
LAYOUT
  2
AcDbLayout
  3
AutoCAD 2000
 90
0
 91
0
280
0
281
0
  0
ENDSEC
  0
SECTION
  2
TABLES
  0
TABLE
  2
VPORT
  5
8
100
AcDbSymbolTable
 70
2
  0
VPORT
  5
1F4
100
AcDbSymbolTableRecord
100
AcDbViewportTableRecord
  2
*ACTIVE
 70
0
 10
0.0
 20
0.0
 11
1.0
 21
1.0
 12
31.4676376088
 22
44.5042303325
 13
0.0
 23
0.0
 14
1.0
 24
1.0
 15
0.0
 25
0.0
 16
0.0
 26
0.0
 36
1.0
 17
0.0
 27
0.0
 37
0.0
 40
89.008460665
 41
0.7070707071
 42
50.0
 43
0.0
 44
0.0
 50
0.0
 51
0.0
 71
0
 72
100
 73
1
 74
1
 75
0
 76
0
 77
0
 78
0
  0
ENDTAB
  0
TABLE
  2
LTYPE
  5
5
100
AcDbSymbolTable
 70
6
  0
LTYPE
  5
14
100
AcDbSymbolTableRecord
100
AcDbLinetypeTableRecord
  2
BYBLOCK
 70
0
  3

 72
65
 73
0
 40
0.0
  0
LTYPE
  5
15
100
AcDbSymbolTableRecord
100
AcDbLinetypeTableRecord
  2
BYLAYER
 70
0
  3

 72
65
 73
0
 40
0.0
  0
LTYPE
  5
16
100
AcDbSymbolTableRecord
100
AcDbLinetypeTableRecord
  2
CONTINUOUS
 70
64
  3
Solid line
 72
65
 73
0
 40
0.0
  0
LTYPE
  5
1F5
100
AcDbSymbolTableRecord
100
AcDbLinetypeTableRecord
  2
CENTER
 70
64
  3
____ _ ____ _ ____ _ ____ _ ____ _ ____ _ ____
 72
65
 73
4
 40
0.6
 49
0.375
 74
0
 49
-0.075
 74
0
 49
0.075
 74
0
 49
-0.075
 74
0
  0
LTYPE
  5
1F6
100
AcDbSymbolTableRecord
100
AcDbLinetypeTableRecord
  2
HIDDEN
 70
64
  3
- - - - - - - - - - - - - - - - - - - -
 72
65
 73
2
 40
0.2
 49
0.1
 74
0
 49
-0.1
 74
0
  0
LTYPE
  5
1F7
100
AcDbSymbolTableRecord
100
AcDbLinetypeTableRecord
  2
PHANTOM
 70
64
  3
_____ _ _ _____ _ _ _____ _ _ _____
 72
65
 73
6
 40
0.8
 49
0.45
 74
0
 49
-0.05
 74
0
 49
0.1
 74
0
 49
-0.05
 74
0
 49
0.1
 74
0
 49
-0.05
 74
0
  0
LTYPE
  5
1F8
100
AcDbSymbolTableRecord
100
AcDbLinetypeTableRecord
  2
DOT
 70
64
  3
. . . . . . . . . . . . . . . . . . . .
 72
65
 73
2
 40
0.2
 49
0.1
 74
0
 49
-0.1
 74
0
  0
LTYPE
  5
1F9
100
AcDbSymbolTableRecord
100
AcDbLinetypeTableRecord
  2
DASHED
 70
64
  3
- - - - - - - - - - - - - - - - - - - -
 72
65
 73
2
 40
0.2
 49
0.1
 74
0
 49
-0.1
 74
0
  0
ENDTAB
  0
TABLE
  2
LAYER
  5
2
100
AcDbSymbolTable
 70
36
  0
LAYER
  5
10
100
AcDbSymbolTableRecord
100
AcDbLayerTableRecord
  2
0
 70
0
 62
7
  6
CONTINUOUS
370
-3
390
F
  0
LAYER
  5
1FA
100
AcDbSymbolTableRecord
100
AcDbLayerTableRecord
  2
DEFAULT_1
 70
0
 62
7
  6
CENTER
370
-3
390
F
  0
LAYER
  5
1FB
100
AcDbSymbolTableRecord
100
AcDbLayerTableRecord
  2
DEFAULT_2
 70
0
 62
7
  6
HIDDEN
370
-3
390
F
  0
LAYER
  5
1FC
100
AcDbSymbolTableRecord
100
AcDbLayerTableRecord
  2
DEFAULT_3
 70
0
 62
7
  6
PHANTOM
370
-3
390
F
  0
LAYER
  5
1FD
100
AcDbSymbolTableRecord
100
AcDbLayerTableRecord
  2
00_COMPONENTS
 70
0
 62
7
  6
CONTINUOUS
370
-3
390
F
  0
LAYER
  5
1FE
100
AcDbSymbolTableRecord
100
AcDbLayerTableRecord
  2
01_1_DEFAULT_DATUMS
 70
0
 62
7
  6
CONTINUOUS
370
-3
390
F
  0
LAYER
  5
1FF
100
AcDbSymbolTableRecord
100
AcDbLayerTableRecord
  2
01_PLANES
 70
0
 62
7
  6
CONTINUOUS
370
-3
390
F
  0
LAYER
  5
200
100
AcDbSymbolTableRecord
100
AcDbLayerTableRecord
  2
02_COORD_SYS
 70
0
 62
7
  6
CONTINUOUS
370
-3
390
F
  0
LAYER
  5
201
100
AcDbSymbolTableRecord
100
AcDbLayerTableRecord
  2
03_AXES
 70
0
 62
7
  6
CONTINUOUS
370
-3
390
F
  0
LAYER
  5
202
100
AcDbSymbolTableRecord
100
AcDbLayerTableRecord
  2
04_POINTS
 70
0
 62
7
  6
CONTINUOUS
370
-3
390
F
  0
LAYER
  5
203
100
AcDbSymbolTableRecord
100
AcDbLayerTableRecord
  2
05_CURVES
 70
0
 62
7
  6
CONTINUOUS
370
-3
390
F
  0
LAYER
  5
204
100
AcDbSymbolTableRecord
100
AcDbLayerTableRecord
  2
06_SURFS
 70
0
 62
7
  6
CONTINUOUS
370
-3
390
F
  0
LAYER
  5
205
100
AcDbSymbolTableRecord
100
AcDbLayerTableRecord
  2
07_COSMETICS
 70
0
 62
7
  6
CONTINUOUS
370
-3
390
F
  0
LAYER
  5
206
100
AcDbSymbolTableRecord
100
AcDbLayerTableRecord
  2
10_NOTES
 70
0
 62
7
  6
CONTINUOUS
370
-3
390
F
  0
LAYER
  5
207
100
AcDbSymbolTableRecord
100
AcDbLayerTableRecord
  2
11_NOTES_PUB
 70
0
 62
7
  6
CONTINUOUS
370
-3
390
F
  0
LAYER
  5
208
100
AcDbSymbolTableRecord
100
AcDbLayerTableRecord
  2
13_REF_GTOL
 70
0
 62
7
  6
CONTINUOUS
370
-3
390
F
  0
LAYER
  5
209
100
AcDbSymbolTableRecord
100
AcDbLayerTableRecord
  2
16_MISC
 70
0
 62
7
  6
CONTINUOUS
370
-3
390
F
  0
LAYER
  5
20A
100
AcDbSymbolTableRecord
100
AcDbLayerTableRecord
  2
17_NO_PRINT
 70
0
 62
7
  6
CONTINUOUS
370
-3
390
F
  0
LAYER
  5
20B
100
AcDbSymbolTableRecord
100
AcDbLayerTableRecord
  2
18_DATUM_CAMS_JOINTS
 70
0
 62
7
  6
CONTINUOUS
370
-3
390
F
  0
LAYER
  5
20C
100
AcDbSymbolTableRecord
100
AcDbLayerTableRecord
  2
19_DATUM_FUNCTIONAL
 70
0
 62
7
  6
CONTINUOUS
370
-3
390
F
  0
LAYER
  5
20D
100
AcDbSymbolTableRecord
100
AcDbLayerTableRecord
  2
20_DATUM_KINEMATIC_SCHEME
 70
0
 62
7
  6
CONTINUOUS
370
-3
390
F
  0
ENDTAB
  0
TABLE
  2
STYLE
  5
3
100
AcDbSymbolTable
 70
1
  0
STYLE
  5
11
100
AcDbSymbolTableRecord
100
AcDbTextStyleTableRecord
  2
STANDARD
 70
0
 40
0.0
 41
1.0
 50
0.0
 71
0
 42
0.2
  3
ARIAL.TTF
  4

  0
STYLE
  5
20E
100
AcDbSymbolTableRecord
100
AcDbTextStyleTableRecord
  2
TEXTSTYLE_1
 70
0
 40
0.0
 41
0.8
 50
0.0
 71
0
 42
0.2
  3
gdt
  4

  0
ENDTAB
  0
TABLE
  2
VIEW
  5
6
100
AcDbSymbolTable
 70
0
  0
ENDTAB
  0
TABLE
  2
UCS
  5
7
100
AcDbSymbolTable
 70
0
  0
ENDTAB
  0
TABLE
  2
APPID
  5
9
100
AcDbSymbolTable
 70
1
  0
APPID
  5
20F
100
AcDbSymbolTableRecord
100
AcDbRegAppTableRecord
  2
ACAD
 70
0
  0
ENDTAB
  0
TABLE
  2
BLOCK_RECORD
  5
1
100
AcDbSymbolTable
 70
0
  0
BLOCK_RECORD
  5
210
100
AcDbSymbolTableRecord
100
AcDbBlockTableRecord
  2
*Model_Space
  0
BLOCK_RECORD
  5
211
100
AcDbSymbolTableRecord
100
AcDbBlockTableRecord
  2
*Paper_Space
  0
BLOCK_RECORD
  5
212
100
AcDbSymbolTableRecord
100
AcDbBlockTableRecord
  2
_FILLED
  0
ENDTAB
  0
TABLE
  2
DIMSTYLE
  5
A
100
AcDbSymbolTable
 70
1
100
AcDbDimStyleTable
 71
0
  0
DIMSTYLE
105
213
100
AcDbSymbolTableRecord
100
AcDbDimStyleTableRecord
  2
STANDARD
 70
0
  3

  4

 40
1.0
 41
0.7492294669
 42
1.0
 43
0.38
 44
1.0
 45
0.0
 46
0.0
 47
0.01
 48
0.01
140
1.0489212536
141
0.09
142
0.0
143
25.4
144
1.0
145
0.0
146
1.0
147
0.625
 71
1
 72
0
 73
0
 74
0
 75
0
 76
0
 77
1
 78
8
 79
2
170
0
171
1
172
0
173
0
174
0
175
0
176
0
177
0
178
0
270
2
179
2
271
2
272
2
273
2
274
2
275
0
280
0
281
0
282
0
283
1
284
8
285
0
286
0
287
3
288
0
340
11
278
46
341
212
342
212
343
212
344
212
  0
ENDTAB
  0
ENDSEC
  0
SECTION
  2
BLOCKS
  0
BLOCK
  5
20
100
AcDbEntity
  8
0
100
AcDbBlockBegin
  2
*Model_Space
 70
0
 10
0.0
 20
0.0
 30
0.0
  3
*Model_Space
  1

  0
ENDBLK
  5
21
100
AcDbEntity
  8
0
100
AcDbBlockEnd
  0
BLOCK
  5
1C
100
AcDbEntity
  8
0
100
AcDbBlockBegin
  2
*Paper_Space
 70
0
 10
0.0
 20
0.0
 30
0.0
  3
*Paper_Space
  1

  0
ENDBLK
  5
1D
100
AcDbEntity
  8
0
100
AcDbBlockEnd
  0
BLOCK
  5
214
100
AcDbEntity
  8
0
100
AcDbBlockBegin
  2
_FILLED
 70
64
 10
0.0
 20
0.0
  3
_FILLED
  1

  0
SOLID
  5
215
100
AcDbEntity
  8
0
  6
BYBLOCK
 62
0
100
AcDbTrace
 10
0.0
 20
0.0
 11
-1.0
 21
0.25
 12
-1.0
 22
-0.25
 13
-1.0
 23
-0.25
  0
ENDBLK
  5
216
100
AcDbEntity
  8
0
  6
BYBLOCK
 62
0
100
AcDbBlockEnd
  0
ENDSEC
  0
SECTION
  2
ENTITIES
  0
LINE
  5
217
100
AcDbEntity
  8
0
100
AcDbLine
 62
7
  6
BYLAYER
 10
30.1886194405
 20
80.9902536786
 11
29.4815156032
 21
80.5820095247
  0
LINE
  5
218
100
AcDbEntity
  8
0
100
AcDbLine
 62
7
  6
BYLAYER
 10
28.986556165
 20
78.4591475731
 11
28.9363458683
 21
78.4301588178
  0
LINE
  5
219
100
AcDbEntity
  8
0
100
AcDbLine
 62
7
  6
BYLAYER
 10
33.7241533464
 20
80.990262177
 11
32.2152117209
 21
80.1190795236
  0
LINE
  5
21A
100
AcDbEntity
  8
0
100
AcDbLine
 62
7
  6
BYLAYER
 10
30.9904719486
 20
79.4119799072
 11
29.5586166581
 21
78.5853028044
  0
LINE
  5
21B
100
AcDbEntity
  8
0
100
AcDbLine
 62
7
  6
BYLAYER
 10
30.2657263833
 20
78.1770620498
 11
31.6975816737
 21
79.0037391526
  0
LINE
  5
21C
100
AcDbEntity
  8
0
100
AcDbLine
 62
7
  6
BYLAYER
 10
34.4312630715
 20
80.5820214224
 11
32.2152117209
 21
79.3025771064
  0
LINE
  5
21D
100
AcDbEntity
  8
0
100
AcDbLine
 62
7
  6
BYLAYER
 10
30.256073682
 20
78.171474984
 11
29.5586166581
 21
77.7688003872
  0
LINE
  5
21E
100
AcDbEntity
  8
0
100
AcDbLine
 62
7
  6
BYLAYER
 10
29.997010456
 20
77.817797686
 11
30.0472207528
 21
77.8467864413
  0
LINE
  5
21F
100
AcDbEntity
  8
0
100
AcDbLine
 62
7
  6
BYLAYER
 10
33.7241739541
 20
78.1325649976
 11
34.4312777913
 21
78.5408091515
  0
LINE
  5
220
100
AcDbEntity
  8
0
100
AcDbLine
 62
7
  6
BYLAYER
 10
24.9176843292
 20
66.2103747531
 11
24.7224131068
 21
65.6455378149
  0
LINE
  5
221
100
AcDbEntity
  8
0
100
AcDbLine
 62
7
  6
BYLAYER
 10
24.9176843292
 20
62.9443650846
 11
24.7224131068
 21
62.3795281464
  0
LINE
  5
222
100
AcDbEntity
  8
0
100
AcDbLine
 62
7
  6
BYLAYER
 10
24.7063966973
 20
59.8020508436
 11
24.7063966973
 21
62.3332083367
  0
LINE
  5
223
100
AcDbEntity
  8
0
100
AcDbLine
 62
7
  6
BYLAYER
 10
24.7063966973
 20
63.5579619624
 11
24.7063966973
 21
65.5992180052
  0
LINE
  5
224
100
AcDbEntity
  8
0
100
AcDbLine
 62
7
  6
BYLAYER
 10
24.7063966973
 20
66.8239716309
 11
24.7063966973
 21
68.0487252566
  0
LINE
  5
225
100
AcDbEntity
  8
0
100
AcDbLine
 62
7
  6
BYLAYER
 10
24.7063966973
 20
70.4165822662
 11
24.7063966973
 21
78.173355229
  0
LINE
  5
226
100
AcDbEntity
  8
0
100
AcDbLine
 62
7
  6
BYLAYER
 10
24.8563966973
 20
66.3883687961
 11
24.8563966973
 21
65.5992180052
  0
LINE
  5
227
100
AcDbEntity
  8
0
100
AcDbLine
 62
7
  6
BYLAYER
 10
24.8563966973
 20
63.1223591276
 11
24.8563966973
 21
62.3332083367
  0
LINE
  5
228
100
AcDbEntity
  8
0
100
AcDbLine
 62
7
  6
BYLAYER
 10
26.8063966973
 20
46.9048309978
 11
26.8063966973
 21
46.4965797892
  0
LINE
  5
229
100
AcDbEntity
  8
0
100
AcDbLine
 62
7
  6
BYLAYER
 10
35.6709437937
 20
53.1693979959
 11
36.0245047656
 21
53.3735323545
  0
LINE
  5
22A
100
AcDbEntity
  8
0
100
AcDbLine
 62
7
  6
BYLAYER
 10
27.5563966973
 20
46.9048309978
 11
27.5563966973
 21
51.8528828889
  0
LINE
  5
22B
100
AcDbEntity
  8
0
100
AcDbLine
 62
7
  6
BYLAYER
 10
27.8563966973
 20
79.1531581295
 11
27.8563966973
 21
75.275115696
  0
LINE
  5
22C
100
AcDbEntity
  8
0
100
AcDbLine
 62
7
  6
BYLAYER
 10
28.5758569802
 20
75.020561165
 11
28.5758569802
 21
77.8137804951
  0
LINE
  5
22D
100
AcDbEntity
  8
0
100
AcDbLine
 62
7
  6
BYLAYER
 10
28.986556165
 20
78.4591475731
 11
28.986556165
 21
74.9115794933
  0
LINE
  5
22E
100
AcDbEntity
  8
0
100
AcDbLine
 62
7
  6
BYLAYER
 10
29.2063966973
 20
8.447567151
 11
29.2063966973
 21
43.2641461579
  0
LINE
  5
22F
100
AcDbEntity
  8
0
100
AcDbLine
 62
7
  6
BYLAYER
 10
29.5586166581
 20
77.7688003872
 11
29.5586166581
 21
78.5853028044
  0
LINE
  5
230
100
AcDbEntity
  8
0
100
AcDbLine
 62
7
  6
BYLAYER
 10
29.636521568
 20
77.2014193633
 11
29.636521568
 21
74.7391069909
  0
LINE
  5
231
100
AcDbEntity
  8
0
100
AcDbLine
 62
7
  6
BYLAYER
 10
28.6969379792
 20
43.6182661737
 11
27.3540128404
 21
45.1623621485
  0
LINE
  5
232
100
AcDbEntity
  8
0
100
AcDbLine
 62
7
  6
BYLAYER
 10
26.2744715676
 20
55.2014516975
 11
25.5098074122
 21
57.9828956298
  0
LINE
  5
233
100
AcDbEntity
  8
0
100
AcDbLine
 62
7
  6
BYLAYER
 10
27.606634149
 20
51.6625935835
 11
26.9341753418
 21
54.2097315249
  0
LINE
  5
234
100
AcDbEntity
  8
0
100
AcDbLine
 62
7
  6
BYLAYER
 10
30.2657263833
 20
78.1770620498
 11
30.2667591489
 21
78.152967102
  0
LINE
  5
235
100
AcDbEntity
  8
0
100
AcDbLine
 62
7
  6
BYLAYER
 10
30.1886194405
 20
80.9902536786
 11
30.1886194405
 21
80.1737512615
  0
LINE
  5
236
100
AcDbEntity
  8
0
100
AcDbLine
 62
7
  6
BYLAYER
 10
30.2657263833
 20
78.1770620498
 11
30.2657263833
 21
78.152967102
  0
LINE
  5
237
100
AcDbEntity
  8
0
100
AcDbLine
 62
7
  6
BYLAYER
 10
30.9904697934
 20
79.7108341254
 11
30.9904719486
 21
78.59547749
  0
LINE
  5
238
100
AcDbEntity
  8
0
100
AcDbLine
 62
7
  6
BYLAYER
 10
31.6975736307
 20
80.1190782793
 11
31.6975736307
 21
79.3025758622
  0
LINE
  5
239
100
AcDbEntity
  8
0
100
AcDbLine
 62
7
  6
BYLAYER
 10
32.2152117209
 20
79.3025771064
 11
32.2152117209
 21
80.1190795236
  0
LWPOLYLINE
  5
23A
100
AcDbEntity
  8
0
100
AcDbPolyline
 62
7
  6
BYLAYER
 90
7
 70
0
 10
39.1904486654
 20
66.7777512024
 10
38.6537009945
 20
65.2210351768
 10
37.082979416
 20
63.8642590319
 10
34.7396435919
 20
62.9589760444
 10
31.9695194914
 20
62.6382538587
 10
29.1963965196
 20
62.9534177215
 10
26.8298938775
 20
63.8642015153
  0
LINE
  5
23B
100
AcDbEntity
  8
0
100
AcDbLine
 62
7
  6
BYLAYER
 10
25.2582816378
 20
58.2002253683
 11
24.7063966973
 21
59.8020508436
  0
LINE
  5
23C
100
AcDbEntity
  8
0
100
AcDbLine
 62
7
  6
BYLAYER
 10
25.2576510465
 20
61.9570198625
 11
24.7223058452
 21
63.5117912555
  0
LINE
  5
23D
100
AcDbEntity
  8
0
100
AcDbLine
 62
7
  6
BYLAYER
 10
32.9223236011
 20
78.5954821336
 11
32.922321446
 21
79.710838769
  0
LINE
  5
23E
100
AcDbEntity
  8
0
100
AcDbLine
 62
7
  6
BYLAYER
 10
33.7241533464
 20
80.990262177
 11
33.7241533464
 21
80.1737597598
  0
LINE
  5
23F
100
AcDbEntity
  8
0
100
AcDbLine
 62
7
  6
BYLAYER
 10
34.7063966973
 20
8.447567151
 11
34.7063966973
 21
43.1736491972
  0
LWPOLYLINE
  5
240
100
AcDbEntity
  8
0
100
AcDbPolyline
 62
7
  6
BYLAYER
 90
6
 70
0
 10
39.2063966973
 20
70.4165822662
 10
39.0060856666
 20
69.4394600393
 10
37.8217876485
 20
67.9562862288
 10
35.7445370281
 20
66.8476701874
 10
33.0905763818
 20
66.2823886577
 10
30.26394716
 20
66.3465006283
  0
LINE
  5
241
100
AcDbEntity
  8
0
100
AcDbLine
 62
7
  6
BYLAYER
 10
36.3061592456
 20
51.6625935835
 11
36.9962281993
 21
54.2764351979
  0
LINE
  5
242
100
AcDbEntity
  8
0
100
AcDbLine
 62
7
  6
BYLAYER
 10
37.638321827
 20
55.2014516975
 11
38.402987517
 21
57.9829012116
  0
LWPOLYLINE
  5
243
100
AcDbEntity
  8
0
100
AcDbPolyline
 62
7
  6
BYLAYER
 90
3
 70
0
 10
39.2063966973
 20
59.8020508436
 10
38.6545348591
 20
58.200257569
 10
37.0830307896
 20
56.8423565184
  0
LWPOLYLINE
  5
244
100
AcDbEntity
  8
0
100
AcDbPolyline
 62
7
  6
BYLAYER
 90
7
 70
0
 10
39.1904486654
 20
63.5117415339
 10
38.6537009945
 20
61.9550255083
 10
37.082979416
 20
60.5982493634
 10
34.7396435919
 20
59.6929663759
 10
31.9695194914
 20
59.3722441901
 10
29.1963965196
 20
59.687408053
 10
26.8298938775
 20
60.5981918468
  0
LINE
  5
245
100
AcDbEntity
  8
0
100
AcDbLine
 62
7
  6
BYLAYER
 10
36.5587805542
 20
45.1623621485
 11
35.5980117818
 21
44.3941399035
  0
LINE
  5
246
100
AcDbEntity
  8
0
100
AcDbLine
 62
7
  6
BYLAYER
 10
35.2158554154
 20
43.6182661737
 11
34.5354284348
 21
43.0742027553
  0
LINE
  5
247
100
AcDbEntity
  8
0
100
AcDbLine
 62
7
  6
BYLAYER
 10
25.2576510465
 20
65.223029531
 11
24.7223058452
 21
66.777800924
  0
LWPOLYLINE
  5
248
100
AcDbEntity
  8
0
100
AcDbPolyline
 62
7
  6
BYLAYER
 90
3
 70
0
 10
25.9663861634
 20
68.1098547269
 10
26.1764361415
 20
67.4923529435
 10
27.5369977147
 20
66.313701712
  0
LINE
  5
249
100
AcDbEntity
  8
0
100
AcDbLine
 62
7
  6
BYLAYER
 10
36.0563966973
 20
79.1531581295
 11
36.0563966973
 21
75.293586557
  0
LINE
  5
24A
100
AcDbEntity
  8
0
100
AcDbLine
 62
7
  6
BYLAYER
 10
36.3563966973
 20
46.9048309978
 11
36.3563966973
 21
51.8528828889
  0
LINE
  5
24B
100
AcDbEntity
  8
0
100
AcDbLine
 62
7
  6
BYLAYER
 10
37.1063966973
 20
46.9048309978
 11
37.1063966973
 21
46.4965797892
  0
LINE
  5
24C
100
AcDbEntity
  8
0
100
AcDbLine
 62
7
  6
BYLAYER
 10
35.2158554154
 20
43.6182661737
 11
36.5587805542
 21
45.1623621485
  0
LINE
  5
24D
100
AcDbEntity
  8
0
100
AcDbLine
 62
7
  6
BYLAYER
 10
39.0563966973
 20
66.388963587
 11
39.0563966973
 21
65.5992180052
  0
LINE
  5
24E
100
AcDbEntity
  8
0
100
AcDbLine
 62
7
  6
BYLAYER
 10
39.0563966973
 20
63.1229539185
 11
39.0563966973
 21
62.3332083367
  0
LINE
  5
24F
100
AcDbEntity
  8
0
100
AcDbLine
 62
7
  6
BYLAYER
 10
39.2063966973
 20
59.8020508436
 11
39.2063966973
 21
62.3332083367
  0
LINE
  5
250
100
AcDbEntity
  8
0
100
AcDbLine
 62
7
  6
BYLAYER
 10
39.2063966973
 20
63.5579619624
 11
39.2063966973
 21
65.5992180052
  0
LINE
  5
251
100
AcDbEntity
  8
0
100
AcDbLine
 62
7
  6
BYLAYER
 10
39.2063966973
 20
66.8239716309
 11
39.2063966973
 21
68.0487252566
  0
LINE
  5
252
100
AcDbEntity
  8
0
100
AcDbLine
 62
7
  6
BYLAYER
 10
39.2063966973
 20
70.4165822662
 11
39.2063966973
 21
78.173355229
  0
LINE
  5
253
100
AcDbEntity
  8
0
100
AcDbLine
 62
7
  6
BYLAYER
 10
27.8883927969
 20
53.373472213
 11
28.2419447155
 21
53.1693430813
  0
LINE
  5
254
100
AcDbEntity
  8
0
100
AcDbLine
 62
7
  6
BYLAYER
 10
26.8298938775
 20
56.842280728
 11
25.2582816378
 21
58.2002253683
  0
LWPOLYLINE
  5
255
100
AcDbEntity
  8
0
100
AcDbPolyline
 62
7
  6
BYLAYER
 90
3
 70
0
 10
37.1064509967
 20
46.9048309965
 10
36.9323567196
 20
47.6712450187
 10
36.3563966973
 20
48.3254553369
  0
LINE
  5
256
100
AcDbEntity
  8
0
100
AcDbLine
 62
7
  6
BYLAYER
 10
26.8298938775
 20
60.5981918468
 11
25.2576510465
 21
61.9570198625
  0
LINE
  5
257
100
AcDbEntity
  8
0
100
AcDbLine
 62
7
  6
BYLAYER
 10
26.8298938775
 20
63.8642015153
 11
25.2576510465
 21
65.223029531
  0
LWPOLYLINE
  5
258
100
AcDbEntity
  8
0
100
AcDbPolyline
 62
7
  6
BYLAYER
 90
3
 70
0
 10
26.7553049645
 20
76.0066134762
 10
25.9315017926
 20
77.2958110251
 10
25.8563966973
 20
77.8467542621
  0
LINE
  5
259
100
AcDbEntity
  8
0
100
AcDbLine
 62
7
  6
BYLAYER
 10
39.1906373788
 20
62.3791988755
 11
38.9959199862
 21
62.9475548057
  0
LINE
  5
25A
100
AcDbEntity
  8
0
100
AcDbLine
 62
7
  6
BYLAYER
 10
39.1906373788
 20
65.645208544
 11
38.9959199862
 21
66.2135644742
  0
LINE
  5
25B
100
AcDbEntity
  8
0
100
AcDbLine
 62
7
  6
BYLAYER
 10
30.26394716
 20
66.3465006283
 11
27.6949780381
 21
67.030245633
  0
LWPOLYLINE
  5
25C
100
AcDbEntity
  8
0
100
AcDbPolyline
 62
7
  6
BYLAYER
 90
7
 70
0
 10
27.5369977147
 20
66.313701712
 10
29.5669299499
 20
65.5309629072
 10
31.9527197026
 20
65.2568444781
 10
34.3478970467
 20
65.5314539965
 10
36.373735982
 20
66.3125229356
 10
37.7262471273
 20
67.4782616984
 10
37.9477454716
 20
68.1140314429
  0
LINE
  5
25D
100
AcDbEntity
  8
0
100
AcDbLine
 62
7
  6
BYLAYER
 10
27.3810069543
 20
75.5483694426
 11
26.7553049645
 21
76.0066134762
  0
LINE
  5
25E
100
AcDbEntity
  8
0
100
AcDbLine
 62
7
  6
BYLAYER
 10
28.1358144511
 20
75.1373292819
 11
27.360114541
 21
75.5198422309
  0
LINE
  5
25F
100
AcDbEntity
  8
0
100
AcDbLine
 62
7
  6
BYLAYER
 10
28.8553584357
 20
79.214395798
 11
28.686691074
 21
79.3532056882
  0
LINE
  5
260
100
AcDbEntity
  8
0
100
AcDbLine
 62
7
  6
BYLAYER
 10
31.3553688442
 20
77.7710467687
 11
31.1867014825
 21
77.9098566588
  0
LINE
  5
261
100
AcDbEntity
  8
0
100
AcDbLine
 62
7
  6
BYLAYER
 10
31.3553480272
 20
80.657756846
 11
31.1866793883
 21
80.796566392
  0
LINE
  5
262
100
AcDbEntity
  8
0
100
AcDbLine
 62
7
  6
BYLAYER
 10
33.8553584356
 20
79.2144078166
 11
33.6866897967
 21
79.3532173626
  0
LINE
  5
263
100
AcDbEntity
  8
0
100
AcDbLine
 62
7
  6
BYLAYER
 10
29.4815156032
 20
80.5820095247
 11
31.6975736307
 21
79.3025758622
  0
LINE
  5
264
100
AcDbEntity
  8
0
100
AcDbLine
 62
7
  6
BYLAYER
 10
32.2152197639
 20
79.0037403969
 11
33.7241739541
 21
78.1325649976
  0
LINE
  5
265
100
AcDbEntity
  8
0
100
AcDbLine
 62
7
  6
BYLAYER
 10
34.4312777913
 20
78.5408091515
 11
32.9223236011
 21
79.4119845508
  0
LINE
  5
266
100
AcDbEntity
  8
0
100
AcDbLine
 62
7
  6
BYLAYER
 10
31.6975736307
 20
80.1190782793
 11
30.1886194405
 21
80.9902536786
  0
LINE
  5
267
100
AcDbEntity
  8
0
100
AcDbLine
 62
7
  6
BYLAYER
 10
36.0563966973
 20
79.0248225156
 11
36.0622564662
 21
79.0217763925
  0
LINE
  5
268
100
AcDbEntity
  8
0
100
AcDbLine
 62
7
  6
BYLAYER
 10
34.4312630715
 20
80.5820214224
 11
33.7241533464
 21
80.990262177
  0
LINE
  5
269
100
AcDbEntity
  8
0
100
AcDbLine
 62
7
  6
BYLAYER
 10
36.0570036256
 20
79.0251389945
 11
36.0622564662
 21
79.0217763925
  0
ARC
  5
26A
100
AcDbEntity
  8
0
100
AcDbCircle
 62
7
  6
BYLAYER
 10
31.0580189577
 20
82.8074966531
 40
8.6970174483
100
AcDbArc
 50
247.2513648882
 51
249.6081735773
  0
ARC
  5
26B
100
AcDbEntity
  8
0
100
AcDbCircle
 62
7
  6
BYLAYER
 10
32.592557855
 20
73.6423231089
 40
7.6453934854
100
AcDbArc
 50
67.3088965299
 51
71.3779214721
  0
ARC
  5
26C
100
AcDbEntity
  8
0
100
AcDbCircle
 62
7
  6
BYLAYER
 10
31.9562366274
 20
83.704250476
 40
6.2212549122
100
AcDbArc
 50
265.9193102085
 51
274.7203467349
  0
ARC
  5
26D
100
AcDbEntity
  8
0
100
AcDbCircle
 62
7
  6
BYLAYER
 10
31.9493492241
 20
83.5921807848
 40
6.1089793211
100
AcDbArc
 50
265.24647447
 51
265.908945727
  0
ARC
  5
26E
100
AcDbEntity
  8
0
100
AcDbCircle
 62
7
  6
BYLAYER
 10
31.9644118119
 20
83.5763080679
 40
6.0930741654
100
AcDbArc
 50
274.7427385064
 51
275.3158510805
  0
ARC
  5
26F
100
AcDbEntity
  8
0
100
AcDbCircle
 62
7
  6
BYLAYER
 10
31.9469900433
 20
83.5639864491
 40
6.0806864583
100
AcDbArc
 50
264.4911871766
 51
265.2466121794
  0
ARC
  5
270
100
AcDbEntity
  8
0
100
AcDbCircle
 62
7
  6
BYLAYER
 10
33.6381029736
 20
79.9367589988
 40
5.282279638
100
AcDbArc
 50
301.9904441035
 51
303.500478101
  0
ARC
  5
271
100
AcDbEntity
  8
0
100
AcDbCircle
 62
7
  6
BYLAYER
 10
33.444494678
 20
74.9380017159
 40
4.8507622221
100
AcDbArc
 50
57.4131787341
 51
58.0768659258
  0
ARC
  5
272
100
AcDbEntity
  8
0
100
AcDbCircle
 62
7
  6
BYLAYER
 10
32.7460895957
 20
77.579932459
 40
4.0131732476
100
AcDbArc
 50
60.0117032439
 51
63.0150487329
  0
ARC
  5
273
100
AcDbEntity
  8
0
100
AcDbCircle
 62
7
  6
BYLAYER
 10
32.7424687887
 20
46.0540425704
 40
3.4891395082
100
AcDbArc
 50
299.9975729643
 51
301.0554252607
  0
ARC
  5
274
100
AcDbEntity
  8
0
100
AcDbCircle
 62
7
  6
BYLAYER
 10
32.8045085521
 20
46.072531051
 40
3.4620884172
100
AcDbArc
 50
299.1140320241
 51
299.9976241973
  0
ARC
  5
275
100
AcDbEntity
  8
0
100
AcDbCircle
 62
7
  6
BYLAYER
 10
32.9038553451
 20
78.2590287415
 40
3.1997322132
100
AcDbArc
 50
56.750033273
 51
60.0361968331
  0
ARC
  5
276
100
AcDbEntity
  8
0
100
AcDbCircle
 62
7
  6
BYLAYER
 10
36.7953695025
 20
62.3332238009
 40
2.4110186649
100
AcDbArc
 50
359.9996325235
 51
1.0949423495
  0
ARC
  5
277
100
AcDbEntity
  8
0
100
AcDbCircle
 62
7
  6
BYLAYER
 10
36.7953695025
 20
65.5992334694
 40
2.4110186649
100
AcDbArc
 50
359.9996325235
 51
1.0949423495
  0
ARC
  5
278
100
AcDbEntity
  8
0
100
AcDbCircle
 62
7
  6
BYLAYER
 10
36.7955543345
 20
66.8240330742
 40
2.4108347633
100
AcDbArc
 50
358.8976377446
 51
359.9985398611
  0
ARC
  5
279
100
AcDbEntity
  8
0
100
AcDbCircle
 62
7
  6
BYLAYER
 10
36.7955543347
 20
63.5580234057
 40
2.4108347632
100
AcDbArc
 50
358.8976377446
 51
359.9985398611
  0
ARC
  5
27A
100
AcDbEntity
  8
0
100
AcDbCircle
 62
7
  6
BYLAYER
 10
27.1168784673
 20
66.8239217501
 40
2.4104741703
100
AcDbArc
 50
179.9988144799
 51
181.0986851825
  0
ARC
  5
27B
100
AcDbEntity
  8
0
100
AcDbCircle
 62
7
  6
BYLAYER
 10
27.1168784673
 20
63.5579120816
 40
2.4104741703
100
AcDbArc
 50
179.9988144799
 51
181.0986851825
  0
ARC
  5
27C
100
AcDbEntity
  8
0
100
AcDbCircle
 62
7
  6
BYLAYER
 10
27.1167734365
 20
65.5991915088
 40
2.4103682093
100
AcDbArc
 50
178.8958785293
 51
179.9993701843
  0
ARC
  5
27D
100
AcDbEntity
  8
0
100
AcDbCircle
 62
7
  6
BYLAYER
 10
27.1167734365
 20
62.3331818403
 40
2.4103682094
100
AcDbArc
 50
178.8958785293
 51
179.9993701843
  0
ARC
  5
27E
100
AcDbEntity
  8
0
100
AcDbCircle
 62
7
  6
BYLAYER
 10
33.8686295766
 20
78.9357767055
 40
2.239103875
100
AcDbArc
 50
33.5946522949
 51
37.5018017278
  0
ARC
  5
27F
100
AcDbEntity
  8
0
100
AcDbCircle
 62
7
  6
BYLAYER
 10
35.8970953818
 20
77.3359471598
 40
2.1612230417
100
AcDbArc
 50
13.4454537464
 51
15.3428911823
  0
ARC
  5
280
100
AcDbEntity
  8
0
100
AcDbCircle
 62
7
  6
BYLAYER
 10
35.9531086144
 20
77.34864661
 40
2.1037922724
100
AcDbArc
 50
8.2904798318
 51
13.4637769011
  0
ARC
  5
281
100
AcDbEntity
  8
0
100
AcDbCircle
 62
7
  6
BYLAYER
 10
27.9560981518
 20
77.349272868
 40
2.100136186
100
AcDbArc
 50
166.761697206
 51
174.4193726995
  0
ARC
  5
282
100
AcDbEntity
  8
0
100
AcDbCircle
 62
7
  6
BYLAYER
 10
35.2859362535
 20
46.921885689
 40
1.8220112755
100
AcDbArc
 50
344.6767598428
 51
346.7225455018
  0
ARC
  5
283
100
AcDbEntity
  8
0
100
AcDbCircle
 62
7
  6
BYLAYER
 10
35.3520860669
 20
46.9073632393
 40
1.7542946865
100
AcDbArc
 50
346.6879856878
 51
359.9172962591
  0
SPLINE
  5
284
100
AcDbEntity
  8
0
100
AcDbSpline
 62
7
  6
BYLAYER
 70
0
 71
3
 72
25
 73
21
 74
0
 42
0.0000001
 43
0.0000001
 44
0.0000000001
 40
0.0
 40
0.0
 40
0.0
 40
0.0
 40
0.0664502624
 40
0.1359750327
 40
0.2077546918
 40
0.2809768083
 40
0.3547268516
 40
0.4280786539
 40
0.5001253247
 40
0.5700036983
 40
0.6369439847
 40
0.7003073859
 40
0.7596320043
 40
0.814696545
 40
0.8655838459
 40
0.9127496878
 40
0.9352286391
 40
0.9571448627
 40
0.9786721876
 40
1.0
 40
1.0
 40
1.0
 40
1.0
 10
36.2178153565
 20
81.5596918623
 30
0.0
 10
35.9420578799
 20
81.6753610534
 30
0.0
 10
35.3650050506
 20
81.8823861299
 30
0.0
 10
34.4585267519
 20
82.1158675314
 30
0.0
 10
33.5053167773
 20
82.2758272813
 30
0.0
 10
32.5234093169
 20
82.3593806278
 30
0.0
 10
31.5309065499
 20
82.3649637048
 30
0.0
 10
30.5463287443
 20
82.2924826779
 30
0.0
 10
29.5879951017
 20
82.1432847661
 30
0.0
 10
28.6737164347
 20
81.9200836441
 30
0.0
 10
27.8204167757
 20
81.6270473044
 30
0.0
 10
27.0438140802
 20
81.2694705366
 30
0.0
 10
26.3581904647
 20
80.8536448038
 30
0.0
 10
25.7760894385
 20
80.3866673369
 30
0.0
 10
25.3084893424
 20
79.8764710292
 30
0.0
 10
25.0176128681
 20
79.4141327844
 30
0.0
 10
24.8556401051
 20
79.034492773
 30
0.0
 10
24.7697513402
 20
78.74985993
 30
0.0
 10
24.7179502133
 20
78.4623835504
 30
0.0
 10
24.7064101228
 20
78.2693330965
 30
0.0
 10
24.7064207119
 20
78.1733553164
 30
0.0
  0
SPLINE
  5
285
100
AcDbEntity
  8
0
100
AcDbSpline
 62
7
  6
BYLAYER
 70
0
 71
3
 72
15
 73
11
 74
0
 42
0.0000001
 43
0.0000001
 44
0.0000000001
 40
0.0
 40
0.0
 40
0.0
 40
0.0
 40
0.1528365273
 40
0.2974105198
 40
0.4330806842
 40
0.5599348738
 40
0.6785584512
 40
0.7901109211
 40
0.8964470968
 40
1.0
 40
1.0
 40
1.0
 40
1.0
 10
27.6949780381
 20
67.030245633
 30
0.0
 10
27.4706135213
 20
67.1243575406
 30
0.0
 10
27.0415794874
 20
67.3264317022
 30
0.0
 10
26.4483459803
 20
67.6800083734
 30
0.0
 10
25.9303378259
 20
68.0719357055
 30
0.0
 10
25.4948668544
 20
68.4970539882
 30
0.0
 10
25.1478930107
 20
68.9500385356
 30
0.0
 10
24.895129562
 20
69.4255033951
 30
0.0
 10
24.7410695137
 20
69.9166571507
 30
0.0
 10
24.7064270499
 20
70.2517344937
 30
0.0
 10
24.7064089162
 20
70.4165822667
 30
0.0
  0
SPLINE
  5
286
100
AcDbEntity
  8
0
100
AcDbSpline
 62
7
  6
BYLAYER
 70
0
 71
3
 72
15
 73
11
 74
0
 42
0.0000001
 43
0.0000001
 44
0.0000000001
 40
0.0
 40
0.0
 40
0.0
 40
0.0
 40
0.0999436894
 40
0.213772725
 40
0.3398242627
 40
0.4744563611
 40
0.6128867324
 40
0.7498335639
 40
0.8803699149
 40
1.0
 40
1.0
 40
1.0
 40
1.0
 10
35.2260985468
 20
79.3532187298
 30
0.0
 10
35.19530555
 20
79.3152582757
 30
0.0
 10
35.116165379
 20
79.2446754127
 30
0.0
 10
34.969515026
 20
79.1644560364
 30
0.0
 10
34.79494065
 20
79.1062657509
 30
0.0
 10
34.6018797713
 20
79.0732443146
 30
0.0
 10
34.4008285526
 20
79.067135379
 30
0.0
 10
34.2027587223
 20
79.0882008792
 30
0.0
 10
34.0187245515
 20
79.1353983247
 30
0.0
 10
33.9060277241
 20
79.185154551
 30
0.0
 10
33.8553584356
 20
79.2144078166
 30
0.0
  0
SPLINE
  5
287
100
AcDbEntity
  8
0
100
AcDbSpline
 62
7
  6
BYLAYER
 70
0
 71
3
 72
15
 73
11
 74
0
 42
0.0000001
 43
0.0000001
 44
0.0000000001
 40
0.0
 40
0.0
 40
0.0
 40
0.0
 40
0.0999436894
 40
0.213772725
 40
0.3398242627
 40
0.4744563611
 40
0.6128867324
 40
0.7498335639
 40
0.8803699149
 40
1.0
 40
1.0
 40
1.0
 40
1.0
 10
32.7260881384
 20
80.7965677592
 30
0.0
 10
32.6952951415
 20
80.7586073051
 30
0.0
 10
32.6161549705
 20
80.688024442
 30
0.0
 10
32.4695046175
 20
80.6078050658
 30
0.0
 10
32.2949302415
 20
80.5496147803
 30
0.0
 10
32.1018693629
 20
80.516593344
 30
0.0
 10
31.9008181441
 20
80.5104844084
 30
0.0
 10
31.7027483139
 20
80.5315499086
 30
0.0
 10
31.518714143
 20
80.5787473541
 30
0.0
 10
31.4060173156
 20
80.6285035804
 30
0.0
 10
31.3553480272
 20
80.657756846
 30
0.0
  0
SPLINE
  5
288
100
AcDbEntity
  8
0
100
AcDbSpline
 62
7
  6
BYLAYER
 70
0
 71
3
 72
15
 73
11
 74
0
 42
0.0000001
 43
0.0000001
 44
0.0000000001
 40
0.0
 40
0.0
 40
0.0
 40
0.0
 40
0.0999435535
 40
0.2137753306
 40
0.3398286628
 40
0.4744586042
 40
0.6128895067
 40
0.7498371759
 40
0.8803718307
 40
1.0
 40
1.0
 40
1.0
 40
1.0
 10
30.2260986649
 20
79.353206681
 30
0.0
 10
30.1953056273
 20
79.31524634
 30
0.0
 10
30.1161650179
 20
79.2446619228
 30
0.0
 10
29.9695114288
 20
79.1644437992
 30
0.0
 10
29.794936528
 20
79.1062517051
 30
0.0
 10
29.6018751188
 20
79.0732320373
 30
0.0
 10
29.4008243235
 20
79.0671236772
 30
0.0
 10
29.2027547078
 20
79.0881897111
 30
0.0
 10
29.0187217682
 20
79.1353867055
 30
0.0
 10
28.9060269171
 20
79.1851429984
 30
0.0
 10
28.8553584357
 20
79.214395798
 30
0.0
  0
SPLINE
  5
289
100
AcDbEntity
  8
0
100
AcDbSpline
 62
7
  6
BYLAYER
 70
0
 71
3
 72
15
 73
11
 74
0
 42
0.0000001
 43
0.0000001
 44
0.0000000001
 40
0.0
 40
0.0
 40
0.0
 40
0.0
 40
0.0999436894
 40
0.213772725
 40
0.3398242627
 40
0.4744563611
 40
0.6128867324
 40
0.7498335639
 40
0.8803699149
 40
1.0
 40
1.0
 40
1.0
 40
1.0
 10
32.7261089554
 20
77.9098576819
 30
0.0
 10
32.6953159585
 20
77.8718972278
 30
0.0
 10
32.6161757875
 20
77.8013143647
 30
0.0
 10
32.4695254345
 20
77.7210949885
 30
0.0
 10
32.2949510585
 20
77.662904703
 30
0.0
 10
32.1018901799
 20
77.6298832667
 30
0.0
 10
31.9008389611
 20
77.6237743311
 30
0.0
 10
31.7027691309
 20
77.6448398313
 30
0.0
 10
31.51873496
 20
77.6920372768
 30
0.0
 10
31.4060381326
 20
77.7417935031
 30
0.0
 10
31.3553688442
 20
77.7710467687
 30
0.0
  0
SPLINE
  5
28A
100
AcDbEntity
  8
0
100
AcDbSpline
 62
7
  6
BYLAYER
 70
0
 71
3
 72
11
 73
7
 74
0
 42
0.0000001
 43
0.0000001
 44
0.0000000001
 40
0.0
 40
0.0
 40
0.0
 40
0.0
 40
0.2736702198
 40
0.5281030847
 40
0.7680115503
 40
1.0
 40
1.0
 40
1.0
 40
1.0
 10
27.5201319225
 20
48.4150099042
 30
0.0
 10
27.4084592697
 20
48.3056601176
 30
0.0
 10
27.2078075015
 20
48.0783973638
 30
0.0
 10
26.9786936954
 20
47.7013343231
 30
0.0
 10
26.83814482
 20
47.3077890286
 30
0.0
 10
26.8064279025
 20
47.0373213239
 30
0.0
 10
26.8064144688
 20
46.9048309967
 30
0.0
  0
SPLINE
  5
28B
100
AcDbEntity
  8
0
100
AcDbSpline
 62
7
  6
BYLAYER
 70
0
 71
3
 72
9
 73
5
 74
0
 42
0.0000001
 43
0.0000001
 44
0.0000000001
 40
0.0
 40
0.0
 40
0.0
 40
0.0
 40
0.4919626217
 40
1.0
 40
1.0
 40
1.0
 40
1.0
 10
32.9563982949
 20
79.5614093381
 30
0.0
 10
32.9563982949
 20
79.5361256507
 30
0.0
 10
32.9504431341
 20
79.4845744424
 30
0.0
 10
32.9333151355
 20
79.4356680717
 30
0.0
 10
32.9223236011
 20
79.4119845508
 30
0.0
  0
SPLINE
  5
28C
100
AcDbEntity
  8
0
100
AcDbSpline
 62
7
  6
BYLAYER
 70
0
 71
3
 72
20
 73
16
 74
0
 42
0.0000001
 43
0.0000001
 44
0.0000000001
 40
0.0
 40
0.0
 40
0.0
 40
0.0
 40
0.1291093976
 40
0.1974213999
 40
0.2673777774
 40
0.4087975342
 40
0.5467651978
 40
0.612645971
 40
0.6756952942
 40
0.7356638357
 40
0.7925918793
 40
0.8468243975
 40
0.8990127529
 40
0.9497679053
 40
1.0
 40
1.0
 40
1.0
 40
1.0
 10
34.567092887
 20
81.156174415
 30
0.0
 10
34.259844148
 20
81.312839994
 30
0.0
 10
33.7599840635
 20
81.4961653534
 30
0.0
 10
33.0614953955
 20
81.6473980129
 30
0.0
 10
32.3192396573
 20
81.7405122916
 30
0.0
 10
31.3815698758
 20
81.7384137587
 30
0.0
 10
30.4673049862
 20
81.5817720818
 30
0.0
 10
29.7879851364
 20
81.361914981
 30
0.0
 10
29.3257886349
 20
81.1568554907
 30
0.0
 10
28.9112035267
 20
80.9111225363
 30
0.0
 10
28.551666168
 20
80.6262258732
 30
0.0
 10
28.2548107093
 20
80.3035621784
 30
0.0
 10
28.0305653296
 20
79.9453639444
 30
0.0
 10
27.8887890785
 20
79.5581635464
 30
0.0
 10
27.8563966973
 20
79.2873413332
 30
0.0
 10
27.8563966973
 20
79.1531581295
 30
0.0
  0
SPLINE
  5
28D
100
AcDbEntity
  8
0
100
AcDbSpline
 62
7
  6
BYLAYER
 70
0
 71
3
 72
10
 73
6
 74
0
 42
0.0000001
 43
0.0000001
 44
0.0000000001
 40
0.0
 40
0.0
 40
0.0
 40
0.0
 40
0.2473299158
 40
0.4950286472
 40
1.0
 40
1.0
 40
1.0
 40
1.0
 10
36.0563966973
 20
79.1531581295
 30
0.0
 10
36.0563966973
 20
79.2425868939
 30
0.0
 10
36.0421555888
 20
79.4219347114
 30
0.0
 10
35.9578206544
 20
79.7746232572
 30
0.0
 10
35.8347428956
 20
80.0225968454
 30
0.0
 10
35.7337423977
 20
80.1747037927
 30
0.0
  0
SPLINE
  5
28E
100
AcDbEntity
  8
0
100
AcDbSpline
 62
7
  6
BYLAYER
 70
0
 71
3
 72
9
 73
5
 74
0
 42
0.0000001
 43
0.0000001
 44
0.0000000001
 40
0.0
 40
0.0
 40
0.0
 40
0.0
 40
0.2470807915
 40
1.0
 40
1.0
 40
1.0
 40
1.0
 10
35.6449872507
 20
80.2989126402
 30
0.0
 10
35.6290210403
 20
80.3197420066
 30
0.0
 10
35.5629775666
 20
80.402946642
 30
0.0
 10
35.4914341452
 20
80.4817531234
 30
0.0
 10
35.4350901482
 20
80.5385091052
 30
0.0
  0
SPLINE
  5
28F
100
AcDbEntity
  8
0
100
AcDbSpline
 62
7
  6
BYLAYER
 70
0
 71
3
 72
9
 73
5
 74
0
 42
0.0000001
 43
0.0000001
 44
0.0000000001
 40
0.0
 40
0.0
 40
0.0
 40
0.0
 40
0.2415456977
 40
1.0
 40
1.0
 40
1.0
 40
1.0
 10
35.4350901482
 20
80.5385091052
 30
0.0
 10
35.3863986343
 20
80.5875566493
 30
0.0
 10
35.176994975
 20
80.782820817
 30
0.0
 10
34.9399062741
 20
80.9473474768
 30
0.0
 10
34.7519662695
 20
81.0558522343
 30
0.0
  0
SPLINE
  5
290
100
AcDbEntity
  8
0
100
AcDbSpline
 62
7
  6
BYLAYER
 70
0
 71
3
 72
13
 73
9
 74
0
 42
0.0000001
 43
0.0000001
 44
0.0000000001
 40
0.0
 40
0.0
 40
0.0
 40
0.0
 40
0.289349928
 40
0.5483264854
 40
0.6677518694
 40
0.7817655023
 40
0.8919060743
 40
1.0
 40
1.0
 40
1.0
 40
1.0
 10
30.011861145
 20
7.3248957279
 30
0.0
 10
29.8911741493
 20
7.394572821
 30
0.0
 10
29.6722963821
 20
7.5452159937
 30
0.0
 10
29.4484451756
 20
7.780690034
 30
0.0
 10
29.322394082
 20
7.9824332464
 30
0.0
 10
29.2558475303
 20
8.1346527055
 30
0.0
 10
29.2154499332
 20
8.2901863342
 30
0.0
 10
29.2064037022
 20
8.3955070173
 30
0.0
 10
29.2064124927
 20
8.4475671526
 30
0.0
  0
SPLINE
  5
291
100
AcDbEntity
  8
0
100
AcDbSpline
 62
7
  6
BYLAYER
 70
0
 71
3
 72
15
 73
11
 74
0
 42
0.0000001
 43
0.0000001
 44
0.0000000001
 40
0.0
 40
0.0
 40
0.0
 40
0.0
 40
0.1141464977
 40
0.2373352781
 40
0.3669759338
 40
0.4999994786
 40
0.633023096
 40
0.7626639634
 40
0.8858530776
 40
1.0
 40
1.0
 40
1.0
 40
1.0
 10
33.9009484414
 20
7.3249050761
 30
0.0
 10
33.7678388853
 20
7.2480546967
 30
0.0
 10
33.4767326005
 20
7.112516714
 30
0.0
 10
33.0027188811
 20
6.9684143865
 30
0.0
 10
32.4894993603
 20
6.8797673004
 30
0.0
 10
31.9564080725
 20
6.8498213997
 30
0.0
 10
31.4233163586
 20
6.8797647702
 30
0.0
 10
30.9100955788
 20
6.9684094195
 30
0.0
 10
30.4360798186
 20
7.1125094937
 30
0.0
 10
30.1449717505
 20
7.2480460225
 30
0.0
 10
30.011861145
 20
7.3248957279
 30
0.0
  0
SPLINE
  5
292
100
AcDbEntity
  8
0
100
AcDbSpline
 62
7
  6
BYLAYER
 70
0
 71
3
 72
9
 73
5
 74
0
 42
0.0000001
 43
0.0000001
 44
0.0000000001
 40
0.0
 40
0.0
 40
0.0
 40
0.0
 40
0.2465190042
 40
1.0
 40
1.0
 40
1.0
 40
1.0
 10
30.2668770838
 20
78.152967073
 30
0.0
 10
30.2668711128
 20
78.1448634216
 30
0.0
 10
30.2652576917
 20
78.1120015885
 30
0.0
 10
30.2571413297
 20
78.0795394791
 30
0.0
 10
30.2480380521
 20
78.056504341
 30
0.0
  0
SPLINE
  5
293
100
AcDbEntity
  8
0
100
AcDbSpline
 62
7
  6
BYLAYER
 70
0
 71
3
 72
10
 73
6
 74
0
 42
0.0000001
 43
0.0000001
 44
0.0000000001
 40
0.0
 40
0.0
 40
0.0
 40
0.0
 40
0.4597962825
 40
0.7196821503
 40
1.0
 40
1.0
 40
1.0
 40
1.0
 10
30.2480380521
 20
78.056504341
 30
0.0
 10
30.2314334602
 20
78.0144877086
 30
0.0
 10
30.1895070563
 20
77.9547089859
 30
0.0
 10
30.115577128
 20
77.8898984599
 30
0.0
 10
30.0710741241
 20
77.8605581095
 30
0.0
 10
30.0472207528
 20
77.8467864413
 30
0.0
  0
SPLINE
  5
294
100
AcDbEntity
  8
0
100
AcDbSpline
 62
7
  6
BYLAYER
 70
0
 71
3
 72
13
 73
9
 74
0
 42
0.0000001
 43
0.0000001
 44
0.0000000001
 40
0.0
 40
0.0
 40
0.0
 40
0.0
 40
0.1144340429
 40
0.2382564555
 40
0.5009740678
 40
0.7628312095
 40
0.8859320765
 40
1.0
 40
1.0
 40
1.0
 40
1.0
 10
29.636521568
 20
77.2014193633
 30
0.0
 10
29.636521568
 20
77.2296812525
 30
0.0
 10
29.6421305415
 20
77.2885689089
 30
0.0
 10
29.6710391316
 20
77.4091513194
 30
0.0
 10
29.7370477744
 20
77.5567566303
 30
0.0
 10
29.8337358949
 20
77.6860896619
 30
0.0
 10
29.9244315434
 20
77.7699242404
 30
0.0
 10
29.9726132123
 20
77.8037120149
 30
0.0
 10
29.997010456
 20
77.817797686
 30
0.0
  0
SPLINE
  5
295
100
AcDbEntity
  8
0
100
AcDbSpline
 62
7
  6
BYLAYER
 70
0
 71
3
 72
13
 73
9
 74
0
 42
0.0000001
 43
0.0000001
 44
0.0000000001
 40
0.0
 40
0.0
 40
0.0
 40
0.0
 40
0.1080936316
 40
0.2182319596
 40
0.3322552351
 40
0.451683196
 40
0.7106208532
 40
1.0
 40
1.0
 40
1.0
 40
1.0
 10
34.7063764826
 20
8.447567151
 30
0.0
 10
34.7063764833
 20
8.3955077057
 30
0.0
 10
34.6973627438
 20
8.2901884485
 30
0.0
 10
34.6569602766
 20
8.1346496388
 30
0.0
 10
34.590379632
 20
7.9824435508
 30
0.0
 10
34.4643659288
 20
7.7806974629
 30
0.0
 10
34.2405238138
 20
7.5452180918
 30
0.0
 10
34.0216458485
 20
7.3945893406
 30
0.0
 10
33.9009484414
 20
7.3249050761
 30
0.0
  0
SPLINE
  5
296
100
AcDbEntity
  8
0
100
AcDbSpline
 62
7
  6
BYLAYER
 70
0
 71
3
 72
9
 73
5
 74
0
 42
0.0000001
 43
0.0000001
 44
0.0000000001
 40
0.0
 40
0.0
 40
0.0
 40
0.0
 40
0.4999998183
 40
1.0
 40
1.0
 40
1.0
 40
1.0
 10
32.2152197639
 20
79.0037403969
 30
0.0
 10
32.1297150197
 20
78.9905127357
 30
0.0
 10
31.9564008123
 20
78.9776204766
 30
0.0
 10
31.7830865467
 20
78.9905119121
 30
0.0
 10
31.6975816737
 20
79.0037391526
 30
0.0
  0
SPLINE
  5
297
100
AcDbEntity
  8
0
100
AcDbSpline
 62
7
  6
BYLAYER
 70
0
 71
3
 72
9
 73
5
 74
0
 42
0.0000001
 43
0.0000001
 44
0.0000000001
 40
0.0
 40
0.0
 40
0.0
 40
0.0
 40
0.5080378773
 40
1.0
 40
1.0
 40
1.0
 40
1.0
 10
30.9904719486
 20
79.4119799072
 30
0.0
 10
30.9794797392
 20
79.4356640937
 30
0.0
 10
30.9623506527
 20
79.4845719212
 30
0.0
 10
30.9563950996
 20
79.5361248414
 30
0.0
 10
30.9563950997
 20
79.5614093381
 30
0.0
  0
SPLINE
  5
298
100
AcDbEntity
  8
0
100
AcDbSpline
 62
7
  6
BYLAYER
 70
0
 71
3
 72
9
 73
5
 74
0
 42
0.0000001
 43
0.0000001
 44
0.0000000001
 40
0.0
 40
0.0
 40
0.0
 40
0.0
 40
0.2411221763
 40
1.0
 40
1.0
 40
1.0
 40
1.0
 10
35.2158554154
 20
43.6182661737
 30
0.0
 10
35.1697744885
 20
43.5652823017
 30
0.0
 10
34.9685492188
 20
43.3543595663
 30
0.0
 10
34.7317193656
 20
43.1790198946
 30
0.0
 10
34.5424007801
 20
43.0650060477
 30
0.0
  0
SPLINE
  5
299
100
AcDbEntity
  8
0
100
AcDbSpline
 62
7
  6
BYLAYER
 70
0
 71
3
 72
16
 73
12
 74
0
 42
0.0000001
 43
0.0000001
 44
0.0000000001
 40
0.0
 40
0.0
 40
0.0
 40
0.0
 40
0.1202648624
 40
0.2487644614
 40
0.3825726058
 40
0.51770086
 40
0.6499056125
 40
0.7137686138
 40
0.7756132266
 40
0.8923238729
 40
1.0
 40
1.0
 40
1.0
 40
1.0
 10
34.4869105434
 20
43.0322852221
 30
0.0
 10
34.2717666622
 20
42.9080725858
 30
0.0
 10
33.7993574131
 20
42.6972805418
 30
0.0
 10
33.0319656631
 20
42.4972066647
 30
0.0
 10
32.2132625039
 20
42.4063267892
 30
0.0
 10
31.3824695088
 20
42.4279331173
 30
0.0
 10
30.7049398304
 20
42.5402472819
 30
0.0
 10
30.1923300811
 20
42.6872876655
 30
0.0
 10
29.7234141886
 20
42.8643178891
 30
0.0
 10
29.1987856364
 20
43.1445386524
 30
0.0
 10
28.8429011977
 20
43.4504375945
 30
0.0
 10
28.6969379792
 20
43.6182661737
 30
0.0
  0
SPLINE
  5
29A
100
AcDbEntity
  8
0
100
AcDbSpline
 62
7
  6
BYLAYER
 70
0
 71
3
 72
11
 73
7
 74
0
 42
0.0000001
 43
0.0000001
 44
0.0000000001
 40
0.0
 40
0.0
 40
0.0
 40
0.0
 40
0.2691517484
 40
0.5225655767
 40
0.7643753963
 40
1.0
 40
1.0
 40
1.0
 40
1.0
 10
27.3540131004
 20
45.1623622239
 30
0.0
 10
27.2673414287
 20
45.2620221315
 30
0.0
 10
27.1121732774
 20
45.4676297289
 30
0.0
 10
26.9370400991
 20
45.8014105624
 30
0.0
 10
26.8304288949
 20
46.1460296691
 30
0.0
 10
26.8063962762
 20
46.3809559425
 30
0.0
 10
26.8064091078
 20
46.4965797888
 30
0.0
  0
SPLINE
  5
29B
100
AcDbEntity
  8
0
100
AcDbSpline
 62
7
  6
BYLAYER
 70
0
 71
3
 72
11
 73
7
 74
0
 42
0.0000001
 43
0.0000001
 44
0.0000000001
 40
0.0
 40
0.0
 40
0.0
 40
0.0
 40
0.2356342103
 40
0.477460942
 40
0.73087402
 40
1.0
 40
1.0
 40
1.0
 40
1.0
 10
37.1063842868
 20
46.4965797897
 30
0.0
 10
37.1063714546
 20
46.3809511609
 30
0.0
 10
37.0824101233
 20
46.1460037435
 30
0.0
 10
36.9756875833
 20
45.8014024572
 30
0.0
 10
36.8006434259
 20
45.467586503
 30
0.0
 10
36.6454448036
 20
45.2620115031
 30
0.0
 10
36.5587799443
 20
45.1623623253
 30
0.0
  0
SPLINE
  5
29C
100
AcDbEntity
  8
0
100
AcDbSpline
 62
7
  6
BYLAYER
 70
0
 71
3
 72
12
 73
8
 74
0
 42
0.0000001
 43
0.0000001
 44
0.0000000001
 40
0.0
 40
0.0
 40
0.0
 40
0.0
 40
0.2832517915
 40
0.54265477
 40
0.7798792306
 40
0.8917049581
 40
1.0
 40
1.0
 40
1.0
 40
1.0
 10
36.0244842056
 20
53.3735442241
 30
0.0
 10
36.2286622595
 20
53.4914298414
 30
0.0
 10
36.6060158957
 20
53.7431161311
 30
0.0
 10
37.0843729387
 20
54.1863550079
 30
0.0
 10
37.3858425226
 20
54.5985733035
 30
0.0
 10
37.5541655452
 20
54.9408766478
 30
0.0
 10
37.6143974481
 20
55.1145390827
 30
0.0
 10
37.6382916169
 20
55.2014544658
 30
0.0
  0
SPLINE
  5
29D
100
AcDbEntity
  8
0
100
AcDbSpline
 62
7
  6
BYLAYER
 70
0
 71
3
 72
11
 73
7
 74
0
 42
0.0000001
 43
0.0000001
 44
0.0000000001
 40
0.0
 40
0.0
 40
0.0
 40
0.0
 40
0.2198080143
 40
0.4570986548
 40
0.7166922697
 40
1.0
 40
1.0
 40
1.0
 40
1.0
 10
26.2744716066
 20
55.201451701
 30
0.0
 10
26.3229589594
 20
55.0251051912
 30
0.0
 10
26.4737051165
 20
54.6709470711
 30
0.0
 10
26.8284053073
 20
54.1864948497
 30
0.0
 10
27.3069147629
 20
53.743015016
 30
0.0
 10
27.6842470648
 20
53.49133314
 30
0.0
 10
27.8883927969
 20
53.373472213
 30
0.0
  0
SPLINE
  5
29E
100
AcDbEntity
  8
0
100
AcDbSpline
 62
7
  6
BYLAYER
 70
0
 71
3
 72
9
 73
5
 74
0
 42
0.0000001
 43
0.0000001
 44
0.0000000001
 40
0.0
 40
0.0
 40
0.0
 40
0.0
 40
0.49564633
 40
1.0
 40
1.0
 40
1.0
 40
1.0
 10
37.4813673188
 20
76.887363922
 30
0.0
 10
37.4813675303
 20
76.7865284221
 30
0.0
 10
37.4645707825
 20
76.5827418536
 30
0.0
 10
37.4149808307
 20
76.3844576291
 30
0.0
 10
37.3826546228
 20
76.2870759013
 30
0.0
  0
SPLINE
  5
29F
100
AcDbEntity
  8
0
100
AcDbSpline
 62
7
  6
BYLAYER
 70
0
 71
3
 72
9
 73
5
 74
0
 42
0.0000001
 43
0.0000001
 44
0.0000000001
 40
0.0
 40
0.0
 40
0.0
 40
0.0
 40
0.5052799658
 40
1.0
 40
1.0
 40
1.0
 40
1.0
 10
26.5518496966
 20
76.2249951607
 30
0.0
 10
26.5125660132
 20
76.3318377276
 30
0.0
 10
26.4520321123
 20
76.5501525006
 30
0.0
 10
26.4314263096
 20
76.7759073999
 30
0.0
 10
26.4314260758
 20
76.887363922
 30
0.0
  0
SPLINE
  5
2A0
100
AcDbEntity
  8
0
100
AcDbSpline
 62
7
  6
BYLAYER
 70
0
 71
3
 72
11
 73
7
 74
0
 42
0.0000001
 43
0.0000001
 44
0.0000000001
 40
0.0
 40
0.0
 40
0.0
 40
0.0
 40
0.2424765437
 40
0.4880786284
 40
0.7397233763
 40
1.0
 40
1.0
 40
1.0
 40
1.0
 10
38.0563864166
 20
77.8467542617
 30
0.0
 10
38.0563968708
 20
77.7517183107
 30
0.0
 10
38.042887997
 20
77.5601571133
 30
0.0
 10
37.9824250917
 20
77.2757229872
 30
0.0
 10
37.8823559003
 20
76.9953247145
 30
0.0
 10
37.791400623
 20
76.8158389632
 30
0.0
 10
37.7401837155
 20
76.7276155137
 30
0.0
  0
SPLINE
  5
2A1
100
AcDbEntity
  8
0
100
AcDbSpline
 62
7
  6
BYLAYER
 70
0
 71
3
 72
10
 73
6
 74
0
 42
0.0000001
 43
0.0000001
 44
0.0000000001
 40
0.0
 40
0.0
 40
0.0
 40
0.0
 40
0.4715319213
 40
0.7284259267
 40
1.0
 40
1.0
 40
1.0
 40
1.0
 10
37.7401837155
 20
76.7276155137
 30
0.0
 10
37.6062920385
 20
76.4969810187
 30
0.0
 10
37.3453881974
 20
76.1706291598
 30
0.0
 10
36.9238943147
 20
75.7930146392
 30
0.0
 10
36.6816991243
 20
75.616746233
 30
0.0
 10
36.5536252282
 20
75.5319652288
 30
0.0
  0
SPLINE
  5
2A2
100
AcDbEntity
  8
0
100
AcDbSpline
 62
7
  6
BYLAYER
 70
0
 71
3
 72
15
 73
11
 74
0
 42
0.0000001
 43
0.0000001
 44
0.0000000001
 40
0.0
 40
0.0
 40
0.0
 40
0.0
 40
0.1124861485
 40
0.2331986826
 40
0.3601892294
 40
0.4910527444
 40
0.6231363071
 40
0.7536976573
 40
0.880117676
 40
1.0
 40
1.0
 40
1.0
 40
1.0
 10
36.5526736321
 20
75.5198452135
 30
0.0
 10
36.2706691076
 20
75.3570054702
 30
0.0
 10
35.6588118399
 20
75.0654421359
 30
0.0
 10
34.6654385882
 20
74.7408897172
 30
0.0
 10
33.5894829966
 20
74.5210779275
 30
0.0
 10
32.4638442015
 20
74.4127254384
 30
0.0
 10
31.3227319123
 20
74.4191287066
 30
0.0
 10
30.2008411574
 20
74.5400379362
 30
0.0
 10
29.1326461934
 20
74.7718201917
 30
0.0
 10
28.4558542566
 20
75.0030854315
 30
0.0
 10
28.1358144511
 20
75.1373292819
 30
0.0
  0
SPLINE
  5
2A3
100
AcDbEntity
  8
0
100
AcDbSpline
 62
7
  6
BYLAYER
 70
0
 71
3
 72
15
 73
11
 74
0
 42
0.0000001
 43
0.0000001
 44
0.0000000001
 40
0.0
 40
0.0
 40
0.0
 40
0.0
 40
0.1035522984
 40
0.2098863241
 40
0.3214364021
 40
0.4400595807
 40
0.5669143486
 40
0.7025865352
 40
0.8471632409
 40
1.0
 40
1.0
 40
1.0
 40
1.0
 10
39.2063726827
 20
78.1733551415
 30
0.0
 10
39.2063544954
 20
78.3382017414
 30
0.0
 10
39.1717160603
 20
78.6732743684
 30
0.0
 10
39.0176629724
 20
79.1644212967
 30
0.0
 10
38.7649046487
 20
79.6398790374
 30
0.0
 10
38.4179384753
 20
80.0928639205
 30
0.0
 10
37.9824688719
 20
80.5179876732
 30
0.0
 10
37.4644569271
 20
80.9099229092
 30
0.0
 10
36.8712167913
 20
81.2635022822
 30
0.0
 10
36.4421799271
 20
81.465579932
 30
0.0
 10
36.2178153565
 20
81.5596918623
 30
0.0
  0
SPLINE
  5
2A4
100
AcDbEntity
  8
0
100
AcDbSpline
 62
7
  6
BYLAYER
 70
0
 71
3
 72
9
 73
5
 74
0
 42
0.0000001
 43
0.0000001
 44
0.0000000001
 40
0.0
 40
0.0
 40
0.0
 40
0.0
 40
0.49830426
 40
1.0
 40
1.0
 40
1.0
 40
1.0
 10
24.7063966973
 20
68.0487252566
 30
0.0
 10
24.7063966973
 20
68.2708962837
 30
0.0
 10
24.755036558
 20
68.7180808156
 30
0.0
 10
24.8969362595
 20
69.1443787843
 30
0.0
 10
24.9876098127
 20
69.3488597138
 30
0.0
  0
SPLINE
  5
2A5
100
AcDbEntity
  8
0
100
AcDbSpline
 62
7
  6
BYLAYER
 70
0
 71
3
 72
9
 73
5
 74
0
 42
0.0000001
 43
0.0000001
 44
0.0000000001
 40
0.0
 40
0.0
 40
0.0
 40
0.0
 40
0.5018620151
 40
1.0
 40
1.0
 40
1.0
 40
1.0
 10
38.9399194043
 20
69.3153705283
 30
0.0
 10
39.025998613
 20
69.1154459487
 30
0.0
 10
39.1603725261
 20
68.6997181787
 30
0.0
 10
39.2063966973
 20
68.2647783168
 30
0.0
 10
39.2063966973
 20
68.0487252566
 30
0.0
  0
SPLINE
  5
2A6
100
AcDbEntity
  8
0
100
AcDbSpline
 62
7
  6
BYLAYER
 70
0
 71
3
 72
15
 73
11
 74
0
 42
0.0000001
 43
0.0000001
 44
0.0000000001
 40
0.0
 40
0.0
 40
0.0
 40
0.0
 40
0.1191192638
 40
0.2431580243
 40
0.3706156589
 40
0.4998483709
 40
0.6290992596
 40
0.7566319985
 40
0.8807740183
 40
1.0
 40
1.0
 40
1.0
 40
1.0
 10
28.0276446783
 20
74.655506453
 30
0.0
 10
28.3247746687
 20
74.5449275645
 30
0.0
 10
28.9433839458
 20
74.350678008
 30
0.0
 10
29.908995816
 20
74.1433018548
 30
0.0
 10
30.915624044
 20
74.0167707675
 30
0.0
 10
31.9430618182
 20
73.9735317907
 30
0.0
 10
32.9707916406
 20
74.0145585847
 30
0.0
 10
33.9782055264
 20
74.1390231989
 30
0.0
 10
34.9450176184
 20
74.3443626646
 30
0.0
 10
35.5646756579
 20
74.5371230655
 30
0.0
 10
35.8623539836
 20
74.6470399245
 30
0.0
  0
SPLINE
  5
2A7
100
AcDbEntity
  8
0
100
AcDbSpline
 62
7
  6
BYLAYER
 70
0
 71
3
 72
15
 73
11
 74
0
 42
0.0000001
 43
0.0000001
 44
0.0000000001
 40
0.0
 40
0.0
 40
0.0
 40
0.0
 40
0.154143349
 40
0.2998313363
 40
0.4364117773
 40
0.5637118044
 40
0.6821779849
 40
0.7929711479
 40
0.8980276542
 40
1.0
 40
1.0
 40
1.0
 40
1.0
 10
35.8623539836
 20
74.6470399245
 30
0.0
 10
36.1109277364
 20
74.7388250623
 30
0.0
 10
36.5870438901
 20
74.9385335061
 30
0.0
 10
37.247999126
 20
75.296206433
 30
0.0
 10
37.8274849424
 20
75.6990225769
 30
0.0
 10
38.3164211979
 20
76.1413551166
 30
0.0
 10
38.7070905335
 20
76.6169747604
 30
0.0
 10
38.9926540458
 20
77.1194474314
 30
0.0
 10
39.1669880074
 20
77.6410442657
 30
0.0
 10
39.2063920226
 20
77.9980608848
 30
0.0
 10
39.2063726827
 20
78.1733551415
 30
0.0
  0
SPLINE
  5
2A8
100
AcDbEntity
  8
0
100
AcDbSpline
 62
7
  6
BYLAYER
 70
0
 71
3
 72
22
 73
18
 74
0
 42
0.0000001
 43
0.0000001
 44
0.0000000001
 40
0.0
 40
0.0
 40
0.0
 40
0.0
 40
0.0780964574
 40
0.1523701348
 40
0.222499255
 40
0.2884749496
 40
0.3504838863
 40
0.4089201895
 40
0.4644449525
 40
0.5179746688
 40
0.5706266306
 40
0.6236111575
 40
0.678101928
 40
0.7351174395
 40
0.7954343226
 40
0.8595763967
 40
1.0
 40
1.0
 40
1.0
 40
1.0
 10
35.7769789435
 20
81.2093811761
 30
0.0
 10
35.9617747652
 20
81.1318667475
 30
0.0
 10
36.316545651
 20
80.9662551843
 30
0.0
 10
36.8112440911
 20
80.6796398073
 30
0.0
 10
37.2500745568
 20
80.3635380601
 30
0.0
 10
37.6278680795
 20
80.0216269852
 30
0.0
 10
37.9402667054
 20
79.6574753326
 30
0.0
 10
38.1833612679
 20
79.2749132562
 30
0.0
 10
38.3537656354
 20
78.8781372374
 30
0.0
 10
38.4486270411
 20
78.471835983
 30
0.0
 10
38.466365051
 20
78.061374515
 30
0.0
 10
38.4063671476
 20
77.652494361
 30
0.0
 10
38.2700706249
 20
77.2507364421
 30
0.0
 10
38.0596120718
 20
76.8611959378
 30
0.0
 10
37.7782794592
 20
76.488107104
 30
0.0
 10
37.2992353273
 20
76.0038069521
 30
0.0
 10
36.8647128
 20
75.7000280601
 30
0.0
 10
36.5526736321
 20
75.5198452135
 30
0.0
  0
SPLINE
  5
2A9
100
AcDbEntity
  8
0
100
AcDbSpline
 62
7
  6
BYLAYER
 70
0
 71
3
 72
11
 73
7
 74
0
 42
0.0000001
 43
0.0000001
 44
0.0000000001
 40
0.0
 40
0.0
 40
0.0
 40
0.0
 40
0.2281399066
 40
0.4660556588
 40
0.7218250967
 40
1.0
 40
1.0
 40
1.0
 40
1.0
 10
27.8564309234
 20
79.1531581313
 30
0.0
 10
27.8564494818
 20
79.0339678105
 30
0.0
 10
27.8889717599
 20
78.789404604
 30
0.0
 10
28.0321817143
 20
78.4368212707
 30
0.0
 10
28.2642168678
 20
78.103627497
 30
0.0
 10
28.4646475433
 20
77.9073406581
 30
0.0
 10
28.5758569802
 20
77.8137804951
 30
0.0
  0
SPLINE
  5
2AA
100
AcDbEntity
  8
0
100
AcDbSpline
 62
7
  6
BYLAYER
 70
0
 71
3
 72
13
 73
9
 74
0
 42
0.0000001
 43
0.0000001
 44
0.0000000001
 40
0.0
 40
0.0
 40
0.0
 40
0.0
 40
0.1140858802
 40
0.2372119517
 40
0.4990666565
 40
0.7617847385
 40
0.8855831569
 40
1.0
 40
1.0
 40
1.0
 40
1.0
 10
28.9363458683
 20
78.4301588178
 30
0.0
 10
28.9119448133
 20
78.4160709462
 30
0.0
 10
28.8637677065
 20
78.3822556372
 30
0.0
 10
28.7730944777
 20
78.2983858774
 30
0.0
 10
28.6763632522
 20
78.1690876041
 30
0.0
 10
28.6103124799
 20
78.0214995879
 30
0.0
 10
28.5814426445
 20
77.9009162685
 30
0.0
 10
28.5758569802
 20
77.8420381025
 30
0.0
 10
28.5758569802
 20
77.8137804951
 30
0.0
  0
SPLINE
  5
2AB
100
AcDbEntity
  8
0
100
AcDbSpline
 62
7
  6
BYLAYER
 70
0
 71
3
 72
21
 73
17
 74
0
 42
0.0000001
 43
0.0000001
 44
0.0000000001
 40
0.0
 40
0.0
 40
0.0
 40
0.0
 40
0.0671217967
 40
0.137189075
 40
0.2826356586
 40
0.4296411257
 40
0.5015408217
 40
0.5712099239
 40
0.637904717
 40
0.7010182713
 40
0.7601123214
 40
0.814992289
 40
0.8657531446
 40
0.9128585334
 40
0.9571866503
 40
1.0
 40
1.0
 40
1.0
 40
1.0
 10
29.636521568
 20
77.2014193633
 30
0.0
 10
29.7932516935
 20
77.1393236343
 30
0.0
 10
30.1202354736
 20
77.028692182
 30
0.0
 10
30.8110466398
 20
76.8621684011
 30
0.0
 10
31.7202153805
 20
76.7616810657
 30
0.0
 10
32.6383762654
 20
76.8017085113
 30
0.0
 10
33.3541346317
 20
76.9201730201
 30
0.0
 10
33.8617928548
 20
77.0490546939
 30
0.0
 10
34.3348790316
 20
77.2162401641
 30
0.0
 10
34.764943338
 20
77.418715627
 30
0.0
 10
35.1442123207
 20
77.6531211618
 30
0.0
 10
35.4659724188
 20
77.915393482
 30
0.0
 10
35.7242285139
 20
78.2014213344
 30
0.0
 10
35.9137787925
 20
78.5067358535
 30
0.0
 10
36.0300950834
 20
78.8259504041
 30
0.0
 10
36.056367923
 20
79.0456282181
 30
0.0
 10
36.0563727513
 20
79.1531581299
 30
0.0
  0
SPLINE
  5
2AC
100
AcDbEntity
  8
0
100
AcDbSpline
 62
7
  6
BYLAYER
 70
0
 71
3
 72
9
 73
5
 74
0
 42
0.0000001
 43
0.0000001
 44
0.0000000001
 40
0.0
 40
0.0
 40
0.0
 40
0.0
 40
0.4685894651
 40
1.0
 40
1.0
 40
1.0
 40
1.0
 10
31.4110861959
 20
80.6378198746
 30
0.0
 10
31.4170292424
 20
80.6640299877
 30
0.0
 10
31.44189057
 20
80.7174285657
 30
0.0
 10
31.4823350693
 20
80.7592557383
 30
0.0
 10
31.505851351
 20
80.7786444619
 30
0.0
  0
SPLINE
  5
2AD
100
AcDbEntity
  8
0
100
AcDbSpline
 62
7
  6
BYLAYER
 70
0
 71
3
 72
13
 73
9
 74
0
 42
0.0000001
 43
0.0000001
 44
0.0000000001
 40
0.0
 40
0.0
 40
0.0
 40
0.0
 40
0.1072481653
 40
0.22620249
 40
0.4880230569
 40
0.7565208529
 40
0.8833367201
 40
1.0
 40
1.0
 40
1.0
 40
1.0
 10
31.505851351
 20
80.7786444619
 30
0.0
 10
31.5301664747
 20
80.7986918154
 30
0.0
 10
31.5865691081
 20
80.8348883405
 30
0.0
 10
31.7195325272
 20
80.8899720575
 30
0.0
 10
31.9100393867
 20
80.9223005019
 30
0.0
 10
32.1047736788
 20
80.9085434541
 30
0.0
 10
32.2500517622
 20
80.8678793644
 30
0.0
 10
32.3156055582
 20
80.8381873481
 30
0.0
 10
32.3452933993
 20
80.8210474528
 30
0.0
  0
SPLINE
  5
2AE
100
AcDbEntity
  8
0
100
AcDbSpline
 62
7
  6
BYLAYER
 70
0
 71
3
 72
19
 73
15
 74
0
 42
0.0000001
 43
0.0000001
 44
0.0000000001
 40
0.0
 40
0.0
 40
0.0
 40
0.0
 40
0.0495727098
 40
0.0954877417
 40
0.1400678878
 40
0.1859490785
 40
0.2354330752
 40
0.2899979851
 40
0.4155496867
 40
0.5599059832
 40
0.7133605383
 40
0.8637478135
 40
0.9343271599
 40
1.0
 40
1.0
 40
1.0
 40
1.0
 10
31.1866718216
 20
80.7965643448
 30
0.0
 10
31.1666779695
 20
80.8211972275
 30
0.0
 10
31.1329837625
 20
80.8730304942
 30
0.0
 10
31.1054975647
 20
80.9596320556
 30
0.0
 10
31.1052366543
 20
81.0483190739
 30
0.0
 10
31.1323051076
 20
81.1350107168
 30
0.0
 10
31.1847521038
 20
81.2165178648
 30
0.0
 10
31.29034507
 20
81.3200732313
 30
0.0
 10
31.4759002444
 20
81.4211257653
 30
0.0
 10
31.7401186674
 20
81.4891861923
 30
0.0
 10
32.0284430271
 20
81.5032939074
 30
0.0
 10
32.2674432356
 20
81.4680082108
 30
0.0
 10
32.4420116637
 20
81.4104746762
 30
0.0
 10
32.5210254842
 20
81.3727864428
 30
0.0
 10
32.5574245504
 20
81.3517719075
 30
0.0
  0
SPLINE
  5
2AF
100
AcDbEntity
  8
0
100
AcDbSpline
 62
7
  6
BYLAYER
 70
0
 71
3
 72
9
 73
5
 74
0
 42
0.0000001
 43
0.0000001
 44
0.0000000001
 40
0.0
 40
0.0
 40
0.0
 40
0.0
 40
0.5080378773
 40
1.0
 40
1.0
 40
1.0
 40
1.0
 10
32.922321446
 20
79.710838769
 30
0.0
 10
32.9333136554
 20
79.6871545825
 30
0.0
 10
32.9504427419
 20
79.638246755
 30
0.0
 10
32.956398295
 20
79.5866938348
 30
0.0
 10
32.9563982949
 20
79.5614093381
 30
0.0
  0
SPLINE
  5
2B0
100
AcDbEntity
  8
0
100
AcDbSpline
 62
7
  6
BYLAYER
 70
0
 71
3
 72
9
 73
5
 74
0
 42
0.0000001
 43
0.0000001
 44
0.0000000001
 40
0.0
 40
0.0
 40
0.0
 40
0.0
 40
0.4999998183
 40
1.0
 40
1.0
 40
1.0
 40
1.0
 10
31.6975736307
 20
80.1190782793
 30
0.0
 10
31.7830783749
 20
80.1323059405
 30
0.0
 10
31.9563925823
 20
80.1451981996
 30
0.0
 10
32.1297068479
 20
80.132306764
 30
0.0
 10
32.2152117209
 20
80.1190795236
 30
0.0
  0
SPLINE
  5
2B1
100
AcDbEntity
  8
0
100
AcDbSpline
 62
7
  6
BYLAYER
 70
0
 71
3
 72
10
 73
6
 74
0
 42
0.0000001
 43
0.0000001
 44
0.0000000001
 40
0.0
 40
0.0
 40
0.0
 40
0.0
 40
0.2281189384
 40
0.4752609828
 40
1.0
 40
1.0
 40
1.0
 40
1.0
 10
28.986556165
 20
78.4591475731
 30
0.0
 10
29.0255349992
 20
78.4816518792
 30
0.0
 10
29.1112854883
 20
78.5208944516
 30
0.0
 10
29.3012611035
 20
78.5756960906
 30
0.0
 10
29.4551370094
 20
78.5886319264
 30
0.0
 10
29.5586166581
 20
78.5853028044
 30
0.0
  0
SPLINE
  5
2B2
100
AcDbEntity
  8
0
100
AcDbSpline
 62
7
  6
BYLAYER
 70
0
 71
3
 72
26
 73
22
 74
0
 42
0.0000001
 43
0.0000001
 44
0.0000000001
 40
0.0
 40
0.0
 40
0.0
 40
0.0
 40
0.0661788236
 40
0.1373557474
 40
0.2122312446
 40
0.2893021907
 40
0.3668663796
 40
0.4432022807
 40
0.5166683183
 40
0.5858334212
 40
0.6496172207
 40
0.707460376
 40
0.7595376204
 40
0.7837819537
 40
0.8071032943
 40
0.8298056276
 40
0.8522410232
 40
0.8747798774
 40
0.8977862177
 40
0.9463754678
 40
1.0
 40
1.0
 40
1.0
 40
1.0
 10
34.5019705113
 20
81.031088292
 30
0.0
 10
34.3398122909
 20
81.1247082663
 30
0.0
 10
33.9869928159
 20
81.2915290964
 30
0.0
 10
33.4135989413
 20
81.4745263966
 30
0.0
 10
32.7924694798
 20
81.5947863251
 30
0.0
 10
32.14411343
 20
81.6485144476
 30
0.0
 10
31.4895726265
 20
81.6338726281
 30
0.0
 10
30.850318348
 20
81.551371632
 30
0.0
 10
30.2471948206
 20
81.4036711881
 30
0.0
 10
29.6997447845
 20
81.1955224456
 30
0.0
 10
29.2254444182
 20
80.9332222703
 30
0.0
 10
28.8395156848
 20
80.6245806186
 30
0.0
 10
28.5964909802
 20
80.3278467663
 30
0.0
 10
28.4641582327
 20
80.0779862148
 30
0.0
 10
28.3965998177
 20
79.8902319833
 30
0.0
 10
28.3592378777
 20
79.6993742249
 30
0.0
 10
28.3525794881
 20
79.5071986303
 30
0.0
 10
28.376549907
 20
79.3155417123
 30
0.0
 10
28.450396139
 20
79.0586407528
 30
0.0
 10
28.6239590442
 20
78.7443477692
 30
0.0
 10
28.8230016464
 20
78.531019331
 30
0.0
 10
28.9363458683
 20
78.4301588178
 30
0.0
  0
SPLINE
  5
2B3
100
AcDbEntity
  8
0
100
AcDbSpline
 62
7
  6
BYLAYER
 70
0
 71
3
 72
9
 73
5
 74
0
 42
0.0000001
 43
0.0000001
 44
0.0000000001
 40
0.0
 40
0.0
 40
0.0
 40
0.0
 40
0.4873348596
 40
1.0
 40
1.0
 40
1.0
 40
1.0
 10
29.997010456
 20
77.817797686
 30
0.0
 10
30.2104610274
 20
77.7378448375
 30
0.0
 10
30.6612027434
 20
77.6067877399
 30
0.0
 10
31.1245780226
 20
77.5344041317
 30
0.0
 10
31.3632510994
 20
77.51138398
 30
0.0
  0
SPLINE
  5
2B4
100
AcDbEntity
  8
0
100
AcDbSpline
 62
7
  6
BYLAYER
 70
0
 71
3
 72
22
 73
18
 74
0
 42
0.0000001
 43
0.0000001
 44
0.0000000001
 40
0.0
 40
0.0
 40
0.0
 40
0.0
 40
0.1639807479
 40
0.2419732178
 40
0.3162183769
 40
0.3861450041
 40
0.4514006324
 40
0.5119193624
 40
0.5680026487
 40
0.6203678923
 40
0.6701912145
 40
0.7190167815
 40
0.7685552243
 40
0.8203925426
 40
0.8757698225
 40
0.9355226619
 40
1.0
 40
1.0
 40
1.0
 40
1.0
 10
32.5289110942
 20
77.5094395721
 30
0.0
 10
32.837570369
 20
77.5381602156
 30
0.0
 10
33.2912413773
 20
77.6151547542
 30
0.0
 10
33.8631498888
 20
77.7912393213
 30
0.0
 10
34.2517809192
 20
77.9523599371
 30
0.0
 10
34.6003391415
 20
78.1418097512
 30
0.0
 10
34.9028375576
 20
78.356556423
 30
0.0
 10
35.1539570613
 20
78.5932064518
 30
0.0
 10
35.3491900177
 20
78.8480611007
 30
0.0
 10
35.4843052313
 20
79.1172809643
 30
0.0
 10
35.5559427622
 20
79.396094017
 30
0.0
 10
35.5615942312
 20
79.6787455145
 30
0.0
 10
35.5010536637
 20
79.9586546704
 30
0.0
 10
35.3765251672
 20
80.2298474422
 30
0.0
 10
35.1912481321
 20
80.4874786107
 30
0.0
 10
34.9492834295
 20
80.7275039221
 30
0.0
 10
34.7601651449
 20
80.8680683372
 30
0.0
 10
34.6582452999
 20
80.9349215126
 30
0.0
  0
SPLINE
  5
2B5
100
AcDbEntity
  8
0
100
AcDbSpline
 62
7
  6
BYLAYER
 70
0
 71
3
 72
14
 73
10
 74
0
 42
0.0000001
 43
0.0000001
 44
0.0000000001
 40
0.0
 40
0.0
 40
0.0
 40
0.0
 40
0.1513282129
 40
0.2906732236
 40
0.5348325471
 40
0.6473394707
 40
0.7591700039
 40
0.8753442365
 40
1.0
 40
1.0
 40
1.0
 40
1.0
 10
32.5574453674
 20
78.4650618302
 30
0.0
 10
32.5868253716
 20
78.4480996606
 30
0.0
 10
32.6413056223
 20
78.4117591301
 30
0.0
 10
32.7300503714
 20
78.3309409851
 30
0.0
 10
32.7916356945
 20
78.2331637099
 30
0.0
 10
32.8095768773
 20
78.1284821168
 30
0.0
 10
32.8020285566
 20
78.0515915777
 30
0.0
 10
32.7739433232
 20
77.9768529047
 30
0.0
 10
32.7437139744
 20
77.9315604906
 30
0.0
 10
32.7261089554
 20
77.9098576819
 30
0.0
  0
SPLINE
  5
2B6
100
AcDbEntity
  8
0
100
AcDbSpline
 62
7
  6
BYLAYER
 70
0
 71
3
 72
14
 73
10
 74
0
 42
0.0000001
 43
0.0000001
 44
0.0000000001
 40
0.0
 40
0.0
 40
0.0
 40
0.0
 40
0.1513287359
 40
0.2906737574
 40
0.5348324177
 40
0.6473392871
 40
0.7591697089
 40
0.8753440865
 40
1.0
 40
1.0
 40
1.0
 40
1.0
 10
30.0574349589
 20
79.9084108596
 30
0.0
 10
30.0868150687
 20
79.8914486291
 30
0.0
 10
30.1412954404
 20
79.8551080465
 30
0.0
 10
30.2300401472
 20
79.774289858
 30
0.0
 10
30.2916252805
 20
79.6765126725
 30
0.0
 10
30.3095665708
 20
79.5718313081
 30
0.0
 10
30.3020184966
 20
79.4949406973
 30
0.0
 10
30.2739328394
 20
79.4202021424
 30
0.0
 10
30.2437037533
 20
79.3749094817
 30
0.0
 10
30.2260986649
 20
79.353206681
 30
0.0
  0
SPLINE
  5
2B7
100
AcDbEntity
  8
0
100
AcDbSpline
 62
7
  6
BYLAYER
 70
0
 71
3
 72
14
 73
10
 74
0
 42
0.0000001
 43
0.0000001
 44
0.0000000001
 40
0.0
 40
0.0
 40
0.0
 40
0.0
 40
0.1513282129
 40
0.2906732236
 40
0.5348325471
 40
0.6473394707
 40
0.7591700039
 40
0.8753442365
 40
1.0
 40
1.0
 40
1.0
 40
1.0
 10
32.5574245504
 20
81.3517719075
 30
0.0
 10
32.5868045546
 20
81.3348097379
 30
0.0
 10
32.6412848053
 20
81.2984692074
 30
0.0
 10
32.7300295544
 20
81.2176510624
 30
0.0
 10
32.7916148775
 20
81.1198737872
 30
0.0
 10
32.8095560603
 20
81.0151921941
 30
0.0
 10
32.8020077397
 20
80.938301655
 30
0.0
 10
32.7739225062
 20
80.863562982
 30
0.0
 10
32.7436931575
 20
80.8182705679
 30
0.0
 10
32.7260881384
 20
80.7965677592
 30
0.0
  0
SPLINE
  5
2B8
100
AcDbEntity
  8
0
100
AcDbSpline
 62
7
  6
BYLAYER
 70
0
 71
3
 72
14
 73
10
 74
0
 42
0.0000001
 43
0.0000001
 44
0.0000000001
 40
0.0
 40
0.0
 40
0.0
 40
0.0
 40
0.1513282129
 40
0.2906732236
 40
0.5348325471
 40
0.6473394707
 40
0.7591700039
 40
0.8753442365
 40
1.0
 40
1.0
 40
1.0
 40
1.0
 10
35.0574349589
 20
79.9084228781
 30
0.0
 10
35.0868149631
 20
79.8914607085
 30
0.0
 10
35.1412952138
 20
79.855120178
 30
0.0
 10
35.2300399628
 20
79.774302033
 30
0.0
 10
35.291625286
 20
79.6765247579
 30
0.0
 10
35.3095664688
 20
79.5718431647
 30
0.0
 10
35.3020181481
 20
79.4949526257
 30
0.0
 10
35.2739329147
 20
79.4202139526
 30
0.0
 10
35.2437035659
 20
79.3749215385
 30
0.0
 10
35.2260985468
 20
79.3532187298
 30
0.0
  0
SPLINE
  5
2B9
100
AcDbEntity
  8
0
100
AcDbSpline
 62
7
  6
BYLAYER
 70
0
 71
3
 72
9
 73
5
 74
0
 42
0.0000001
 43
0.0000001
 44
0.0000000001
 40
0.0
 40
0.0
 40
0.0
 40
0.0
 40
0.2572354701
 40
1.0
 40
1.0
 40
1.0
 40
1.0
 10
29.5586166581
 20
77.7688003872
 30
0.0
 10
29.5871624949
 20
77.7678820175
 30
0.0
 10
29.6979515147
 20
77.7606104395
 30
0.0
 10
29.8080461213
 20
77.7388933323
 30
0.0
 10
29.8864303306
 20
77.7132621529
 30
0.0
  0
SPLINE
  5
2BA
100
AcDbEntity
  8
0
100
AcDbSpline
 62
7
  6
BYLAYER
 70
0
 71
3
 72
25
 73
21
 74
0
 42
0.0000001
 43
0.0000001
 44
0.0000000001
 40
0.0
 40
0.0
 40
0.0
 40
0.0
 40
0.0623732873
 40
0.1287280218
 40
0.1983137587
 40
0.270291811
 40
0.3436696548
 40
0.4174010062
 40
0.4904256047
 40
0.5617127428
 40
0.6303100593
 40
0.6953973776
 40
0.7563453621
 40
0.8127834338
 40
0.864683742
 40
0.9124580736
 40
0.9351030738
 40
0.9571079646
 40
0.9786682232
 40
1.0
 40
1.0
 40
1.0
 40
1.0
 10
26.8298938775
 20
65.088955141
 30
0.0
 10
27.0903312157
 20
64.9385949753
 30
0.0
 10
27.6485828446
 20
64.6634036103
 30
0.0
 10
28.5490119406
 20
64.3370697053
 30
0.0
 10
29.5221532159
 20
64.090084141
 30
0.0
 10
30.5470057912
 20
63.9275373429
 30
0.0
 10
31.6019671821
 20
63.8529806529
 30
0.0
 10
32.6644757397
 20
63.8679456349
 30
0.0
 10
33.7118820548
 20
63.9720942432
 30
0.0
 10
34.7218697383
 20
64.1632333315
 30
0.0
 10
35.6729677212
 20
64.4373542734
 30
0.0
 10
36.5450789071
 20
64.7887136401
 30
0.0
 10
37.3198868069
 20
65.2101025078
 30
0.0
 10
37.9811884999
 20
65.69333574
 30
0.0
 10
38.5147839575
 20
66.2290881396
 30
0.0
 10
38.8487811793
 20
66.7206338439
 30
0.0
 10
39.0349651807
 20
67.1264391548
 30
0.0
 10
39.1336272268
 20
67.4308670528
 30
0.0
 10
39.1930817719
 20
67.7388417534
 30
0.0
 10
39.2063956576
 20
67.9458766156
 30
0.0
 10
39.2063966971
 20
68.0487252566
 30
0.0
  0
SPLINE
  5
2BB
100
AcDbEntity
  8
0
100
AcDbSpline
 62
7
  6
BYLAYER
 70
0
 71
3
 72
9
 73
5
 74
0
 42
0.0000001
 43
0.0000001
 44
0.0000000001
 40
0.0
 40
0.0
 40
0.0
 40
0.0
 40
0.46858793
 40
1.0
 40
1.0
 40
1.0
 40
1.0
 10
28.9110941288
 20
79.1944479076
 30
0.0
 10
28.9170360205
 20
79.2206599553
 30
0.0
 10
28.9418969877
 20
79.2740631765
 30
0.0
 10
28.9823439054
 20
79.3158933939
 30
0.0
 10
29.0058617595
 20
79.335283414
 30
0.0
  0
SPLINE
  5
2BC
100
AcDbEntity
  8
0
100
AcDbSpline
 62
7
  6
BYLAYER
 70
0
 71
3
 72
13
 73
9
 74
0
 42
0.0000001
 43
0.0000001
 44
0.0000000001
 40
0.0
 40
0.0
 40
0.0
 40
0.0
 40
0.1072481653
 40
0.22620249
 40
0.4880230569
 40
0.7565208529
 40
0.8833367201
 40
1.0
 40
1.0
 40
1.0
 40
1.0
 10
29.0058617595
 20
79.335283414
 30
0.0
 10
29.0301768832
 20
79.3553307675
 30
0.0
 10
29.0865795166
 20
79.3915272926
 30
0.0
 10
29.2195429357
 20
79.4466110096
 30
0.0
 10
29.4100497952
 20
79.478939454
 30
0.0
 10
29.6047840873
 20
79.4651824062
 30
0.0
 10
29.7500621707
 20
79.4245183165
 30
0.0
 10
29.8156159667
 20
79.3948263002
 30
0.0
 10
29.8453038078
 20
79.3776864049
 30
0.0
  0
SPLINE
  5
2BD
100
AcDbEntity
  8
0
100
AcDbSpline
 62
7
  6
BYLAYER
 70
0
 71
3
 72
9
 73
5
 74
0
 42
0.0000001
 43
0.0000001
 44
0.0000000001
 40
0.0
 40
0.0
 40
0.0
 40
0.0
 40
0.537144324
 40
1.0
 40
1.0
 40
1.0
 40
1.0
 10
32.6635005345
 20
79.1531510748
 30
0.0
 10
32.7209123647
 20
79.1200050891
 30
0.0
 10
32.8221435761
 20
79.0470748349
 30
0.0
 10
32.8982728813
 20
78.9461522035
 30
0.0
 10
32.922321446
 20
78.8943363519
 30
0.0
  0
SPLINE
  5
2BE
100
AcDbEntity
  8
0
100
AcDbSpline
 62
7
  6
BYLAYER
 70
0
 71
3
 72
9
 73
5
 74
0
 42
0.0000001
 43
0.0000001
 44
0.0000000001
 40
0.0
 40
0.0
 40
0.0
 40
0.0
 40
0.5226156136
 40
1.0
 40
1.0
 40
1.0
 40
1.0
 10
32.2152117209
 20
79.3025771064
 30
0.0
 10
32.2969008656
 20
79.2899401429
 30
0.0
 10
32.4516671061
 20
79.2538886715
 30
0.0
 10
32.5981094462
 20
79.1909037832
 30
0.0
 10
32.6635005345
 20
79.1531510748
 30
0.0
  0
SPLINE
  5
2BF
100
AcDbEntity
  8
0
100
AcDbSpline
 62
7
  6
BYLAYER
 70
0
 71
3
 72
25
 73
21
 74
0
 42
0.0000001
 43
0.0000001
 44
0.0000000001
 40
0.0
 40
0.0
 40
0.0
 40
0.0
 40
0.0623733686
 40
0.1287284506
 40
0.1983148148
 40
0.2702930192
 40
0.3436697313
 40
0.4174011586
 40
0.4904268
 40
0.561714553
 40
0.6303120847
 40
0.6953992082
 40
0.7563466968
 40
0.8127842027
 40
0.8646840657
 40
0.9124580861
 40
0.9351030301
 40
0.9571079492
 40
0.9786682938
 40
1.0
 40
1.0
 40
1.0
 40
1.0
 10
26.8298938775
 20
62.6394478896
 30
0.0
 10
27.0903312745
 20
62.4890876899
 30
0.0
 10
27.6485841996
 20
62.2138957319
 30
0.0
 10
28.5490175848
 20
61.8875616354
 30
0.0
 10
29.5221636074
 20
61.640576861
 30
0.0
 10
30.5470137251
 20
61.4780330876
 30
0.0
 10
31.6019695885
 20
61.4034756581
 30
0.0
 10
32.6644768889
 20
61.4184451645
 30
0.0
 10
33.7118904256
 20
61.5225937668
 30
0.0
 10
34.7218854532
 20
61.7137373458
 30
0.0
 10
35.6729843866
 20
61.9878620873
 30
0.0
 10
36.545091597
 20
62.3392224465
 30
0.0
 10
37.3198919732
 20
62.760610564
 30
0.0
 10
37.9811854763
 20
63.2438408767
 30
0.0
 10
38.5147761834
 20
63.7795879468
 30
0.0
 10
38.8487700499
 20
64.2711300213
 30
0.0
 10
39.0349557862
 20
64.6769323728
 30
0.0
 10
39.1336146208
 20
64.9813612376
 30
0.0
 10
39.1930719091
 20
65.2893350615
 30
0.0
 10
39.2063872687
 20
65.4963698161
 30
0.0
 10
39.2063881673
 20
65.5992180059
 30
0.0
  0
SPLINE
  5
2C0
100
AcDbEntity
  8
0
100
AcDbSpline
 62
7
  6
BYLAYER
 70
0
 71
3
 72
15
 73
11
 74
0
 42
0.0000001
 43
0.0000001
 44
0.0000000001
 40
0.0
 40
0.0
 40
0.0
 40
0.0
 40
0.1485266742
 40
0.2895016777
 40
0.4227428877
 40
0.5486475033
 40
0.6679989919
 40
0.7819427788
 40
0.8919896274
 40
1.0
 40
1.0
 40
1.0
 40
1.0
 10
26.9359594531
 20
62.7006845127
 30
0.0
 10
26.7758912967
 20
62.7930978152
 30
0.0
 10
26.4711676135
 20
62.9863119197
 30
0.0
 10
26.054437666
 20
63.3087370544
 30
0.0
 10
25.6940174898
 20
63.6537648077
 30
0.0
 10
25.3934721177
 20
64.0180004678
 30
0.0
 10
25.1559702163
 20
64.3983556277
 30
0.0
 10
24.9839064939
 20
64.7912774174
 30
0.0
 10
24.8797914037
 20
65.192913683
 30
0.0
 10
24.8564010772
 20
65.4648076038
 30
0.0
 10
24.8564041442
 20
65.5992180004
 30
0.0
  0
SPLINE
  5
2C1
100
AcDbEntity
  8
0
100
AcDbSpline
 62
7
  6
BYLAYER
 70
0
 71
3
 72
19
 73
15
 74
0
 42
0.0000001
 43
0.0000001
 44
0.0000000001
 40
0.0
 40
0.0
 40
0.0
 40
0.0
 40
0.049573049
 40
0.0954883398
 40
0.1400687231
 40
0.1859501346
 40
0.2354344097
 40
0.2899994706
 40
0.4155484948
 40
0.5599048106
 40
0.7133590559
 40
0.8637458404
 40
0.9343264172
 40
1.0
 40
1.0
 40
1.0
 40
1.0
 10
28.6866822642
 20
79.3532033047
 30
0.0
 10
28.6666882706
 20
79.3778363508
 30
0.0
 10
28.6329940401
 20
79.4296700342
 30
0.0
 10
28.6055075795
 20
79.516272155
 30
0.0
 10
28.6052477679
 20
79.6049596287
 30
0.0
 10
28.6323162253
 20
79.6916517245
 30
0.0
 10
28.6847643167
 20
79.7731587688
 30
0.0
 10
28.7903568561
 20
79.876712311
 30
0.0
 10
28.9759096294
 20
79.9777656195
 30
0.0
 10
29.2401268467
 20
80.0458237346
 30
0.0
 10
29.5284503609
 20
80.0599333766
 30
0.0
 10
29.7674510755
 20
80.0246479839
 30
0.0
 10
29.9420202351
 20
79.9671138201
 30
0.0
 10
30.0210354822
 20
79.9294256319
 30
0.0
 10
30.0574349589
 20
79.9084108596
 30
0.0
  0
SPLINE
  5
2C2
100
AcDbEntity
  8
0
100
AcDbSpline
 62
7
  6
BYLAYER
 70
0
 71
3
 72
9
 73
5
 74
0
 42
0.0000001
 43
0.0000001
 44
0.0000000001
 40
0.0
 40
0.0
 40
0.0
 40
0.0
 40
0.257711007
 40
1.0
 40
1.0
 40
1.0
 40
1.0
 10
35.2733825962
 20
79.4383522246
 30
0.0
 10
35.3388242308
 20
79.4099835734
 30
0.0
 10
35.5908534879
 20
79.2956084295
 30
0.0
 10
35.8351183575
 20
79.1637632716
 30
0.0
 10
36.0094859517
 20
79.0551261859
 30
0.0
  0
SPLINE
  5
2C3
100
AcDbEntity
  8
0
100
AcDbSpline
 62
7
  6
BYLAYER
 70
0
 71
3
 72
14
 73
10
 74
0
 42
0.0000001
 43
0.0000001
 44
0.0000000001
 40
0.0
 40
0.0
 40
0.0
 40
0.0
 40
0.2862441271
 40
0.4186665153
 40
0.544383583
 40
0.6641326764
 40
0.7790012924
 40
0.890403368
 40
1.0
 40
1.0
 40
1.0
 40
1.0
 10
36.0622564662
 20
79.0217763925
 30
0.0
 10
36.2768507737
 20
78.884206951
 30
0.0
 10
36.576273797
 20
78.6572214818
 30
0.0
 10
36.9126294365
 20
78.3070312005
 30
0.0
 10
37.117189694
 20
78.0387793732
 30
0.0
 10
37.2785570609
 20
77.7603475416
 30
0.0
 10
37.3950784692
 20
77.473922281
 30
0.0
 10
37.4656378817
 20
77.1821152376
 30
0.0
 10
37.4813671141
 20
76.9849611171
 30
0.0
 10
37.4813673188
 20
76.887363922
 30
0.0
  0
SPLINE
  5
2C4
100
AcDbEntity
  8
0
100
AcDbSpline
 62
7
  6
BYLAYER
 70
0
 71
3
 72
11
 73
7
 74
0
 42
0.0000001
 43
0.0000001
 44
0.0000000001
 40
0.0
 40
0.0
 40
0.0
 40
0.0
 40
0.435323122
 40
0.5663912416
 40
0.7050690859
 40
1.0
 40
1.0
 40
1.0
 40
1.0
 10
30.9904697934
 20
78.8943317083
 30
0.0
 10
31.0418317139
 20
79.005001527
 30
0.0
 10
31.1728979693
 20
79.1173972812
 30
0.0
 10
31.3486685934
 20
79.2054135127
 30
0.0
 10
31.4968710427
 20
79.2622626627
 30
0.0
 10
31.6158853365
 20
79.2899386093
 30
0.0
 10
31.6975736307
 20
79.3025758622
 30
0.0
  0
SPLINE
  5
2C5
100
AcDbEntity
  8
0
100
AcDbSpline
 62
7
  6
BYLAYER
 70
0
 71
3
 72
10
 73
6
 74
0
 42
0.0000001
 43
0.0000001
 44
0.0000000001
 40
0.0
 40
0.0
 40
0.0
 40
0.0
 40
0.2826025385
 40
0.5431572782
 40
1.0
 40
1.0
 40
1.0
 40
1.0
 10
32.3453142163
 20
77.9343373755
 30
0.0
 10
32.3642248736
 20
77.9234195494
 30
0.0
 10
32.3993137696
 20
77.9000107421
 30
0.0
 10
32.4565553966
 20
77.8480323317
 30
0.0
 10
32.4874367313
 20
77.7992856749
 30
0.0
 10
32.4978615716
 20
77.7655610198
 30
0.0
  0
SPLINE
  5
2C6
100
AcDbEntity
  8
0
100
AcDbSpline
 62
7
  6
BYLAYER
 70
0
 71
3
 72
9
 73
5
 74
0
 42
0.0000001
 43
0.0000001
 44
0.0000000001
 40
0.0
 40
0.0
 40
0.0
 40
0.0
 40
0.2488496811
 40
1.0
 40
1.0
 40
1.0
 40
1.0
 10
26.8064144688
 20
46.9048309967
 30
0.0
 10
26.8064111501
 20
46.8720997987
 30
0.0
 10
26.8101424245
 20
46.7405898234
 30
0.0
 10
26.8291193915
 20
46.6095627159
 30
0.0
 10
26.851281129
 20
46.5132815635
 30
0.0
  0
SPLINE
  5
2C7
100
AcDbEntity
  8
0
100
AcDbSpline
 62
7
  6
BYLAYER
 70
0
 71
3
 72
23
 73
19
 74
0
 42
0.0000001
 43
0.0000001
 44
0.0000000001
 40
0.0
 40
0.0
 40
0.0
 40
0.0
 40
0.0434439883
 40
0.0896755487
 40
0.1395892242
 40
0.1936484962
 40
0.2519379554
 40
0.3142280643
 40
0.3800530647
 40
0.4487675448
 40
0.5195908665
 40
0.5916562245
 40
0.6640464006
 40
0.7358358116
 40
0.8061151585
 40
0.8740342674
 40
0.9388875905
 40
1.0
 40
1.0
 40
1.0
 40
1.0
 10
26.851281129
 20
46.5132815635
 30
0.0
 10
26.88337362
 20
46.3738564841
 30
0.0
 10
26.984403223
 20
46.0932280235
 30
0.0
 10
27.2292933142
 20
45.7008907528
 30
0.0
 10
27.5644404878
 20
45.3338682181
 30
0.0
 10
27.9827450902
 20
44.9984649834
 30
0.0
 10
28.4762192595
 20
44.7002749217
 30
0.0
 10
29.0355497236
 20
44.4444678053
 30
0.0
 10
29.6502590232
 20
44.2356522855
 30
0.0
 10
30.3087888961
 20
44.0777732608
 30
0.0
 10
30.9986523631
 20
43.9737359865
 30
0.0
 10
31.7067412744
 20
43.925494127
 30
0.0
 10
32.4195923086
 20
43.9340328667
 30
0.0
 10
33.1236257118
 20
43.9991636183
 30
0.0
 10
33.8054301146
 20
44.1195821596
 30
0.0
 10
34.4521903762
 20
44.293114942
 30
0.0
 10
35.05137537
 20
44.5165102871
 30
0.0
 10
35.4237178408
 20
44.701763059
 30
0.0
 10
35.5980117818
 20
44.802391112
 30
0.0
  0
SPLINE
  5
2C8
100
AcDbEntity
  8
0
100
AcDbSpline
 62
7
  6
BYLAYER
 70
0
 71
3
 72
10
 73
6
 74
0
 42
0.0000001
 43
0.0000001
 44
0.0000000001
 40
0.0
 40
0.0
 40
0.0
 40
0.0
 40
0.2825917149
 40
0.5431443333
 40
1.0
 40
1.0
 40
1.0
 40
1.0
 10
29.8453038078
 20
79.3776864049
 30
0.0
 10
29.8642084672
 20
79.3667720416
 30
0.0
 10
29.8992871095
 20
79.343371142
 30
0.0
 10
29.9565165894
 20
79.2914114875
 30
0.0
 10
29.9873984353
 20
79.2426856949
 30
0.0
 10
29.9978317207
 20
79.2089729096
 30
0.0
  0
SPLINE
  5
2C9
100
AcDbEntity
  8
0
100
AcDbSpline
 62
7
  6
BYLAYER
 70
0
 71
3
 72
23
 73
19
 74
0
 42
0.0000001
 43
0.0000001
 44
0.0000000001
 40
0.0
 40
0.0
 40
0.0
 40
0.0
 40
0.0428119737
 40
0.0873935944
 40
0.1351766639
 40
0.187084359
 40
0.2435312139
 40
0.3044885122
 40
0.369584781
 40
0.4381931249
 40
0.509490772
 40
0.5825257618
 40
0.6562679159
 40
0.7296587304
 40
0.8016472509
 40
0.8712454827
 40
0.9376269018
 40
1.0
 40
1.0
 40
1.0
 40
1.0
 10
36.3563661534
 20
46.9048309977
 30
0.0
 10
36.3563651241
 20
46.7795802336
 30
0.0
 10
36.3228953887
 20
46.5228113463
 30
0.0
 10
36.1756334841
 20
46.1520543266
 30
0.0
 10
35.936654741
 20
45.8006035295
 30
0.0
 10
35.6128127047
 20
45.4753415452
 30
0.0
 10
35.2114828444
 20
45.1821009034
 30
0.0
 10
34.7412549862
 20
44.9263674277
 30
0.0
 10
34.2119922689
 20
44.7131067973
 30
0.0
 10
33.6347754569
 20
44.5467653346
 30
0.0
 10
33.0218269675
 20
44.4307693525
 30
0.0
 10
32.3861754746
 20
44.3675200416
 30
0.0
 10
31.7413457494
 20
44.3584500241
 30
0.0
 10
31.1011027058
 20
44.4037342843
 30
0.0
 10
30.4791110044
 20
44.5023141624
 30
0.0
 10
29.8884686501
 20
44.65222754
 30
0.0
 10
29.3420031016
 20
44.8503330761
 30
0.0
 10
29.0031719966
 20
45.0173188614
 30
0.0
 10
28.8451398136
 20
45.1085567208
 30
0.0
  0
SPLINE
  5
2CA
100
AcDbEntity
  8
0
100
AcDbSpline
 62
7
  6
BYLAYER
 70
0
 71
3
 72
10
 73
6
 74
0
 42
0.0000001
 43
0.0000001
 44
0.0000000001
 40
0.0
 40
0.0
 40
0.0
 40
0.0
 40
0.2826025385
 40
0.5431572782
 40
1.0
 40
1.0
 40
1.0
 40
1.0
 10
32.3452933993
 20
80.8210474528
 30
0.0
 10
32.3642040567
 20
80.8101296267
 30
0.0
 10
32.3992929526
 20
80.7867208194
 30
0.0
 10
32.4565345796
 20
80.734742409
 30
0.0
 10
32.4874159143
 20
80.6859957522
 30
0.0
 10
32.4978407546
 20
80.6522710971
 30
0.0
  0
SPLINE
  5
2CB
100
AcDbEntity
  8
0
100
AcDbSpline
 62
7
  6
BYLAYER
 70
0
 71
3
 72
10
 73
6
 74
0
 42
0.0000001
 43
0.0000001
 44
0.0000000001
 40
0.0
 40
0.0
 40
0.0
 40
0.0
 40
0.2826025385
 40
0.5431572782
 40
1.0
 40
1.0
 40
1.0
 40
1.0
 10
34.8453038077
 20
79.3776984234
 30
0.0
 10
34.8642144651
 20
79.3667805973
 30
0.0
 10
34.8993033611
 20
79.34337179
 30
0.0
 10
34.9565449881
 20
79.2913933796
 30
0.0
 10
34.9874263228
 20
79.2426467228
 30
0.0
 10
34.9978511631
 20
79.2089220677
 30
0.0
  0
SPLINE
  5
2CC
100
AcDbEntity
  8
0
100
AcDbSpline
 62
7
  6
BYLAYER
 70
0
 71
3
 72
11
 73
7
 74
0
 42
0.0000001
 43
0.0000001
 44
0.0000000001
 40
0.0
 40
0.0
 40
0.0
 40
0.0
 40
0.2196388602
 40
0.4567702541
 40
0.7164279654
 40
1.0
 40
1.0
 40
1.0
 40
1.0
 10
27.6066486615
 20
51.6625948616
 30
0.0
 10
27.6426500245
 20
51.5263386774
 30
0.0
 10
27.7565032111
 20
51.2523398249
 30
0.0
 10
28.0281693736
 20
50.8774655455
 30
0.0
 10
28.3964979767
 20
50.5344847347
 30
0.0
 10
28.68756126
 20
50.34007162
 30
0.0
 10
28.8451398136
 20
50.2490956579
 30
0.0
  0
SPLINE
  5
2CD
100
AcDbEntity
  8
0
100
AcDbSpline
 62
7
  6
BYLAYER
 70
0
 71
3
 72
9
 73
5
 74
0
 42
0.0000001
 43
0.0000001
 44
0.0000000001
 40
0.0
 40
0.0
 40
0.0
 40
0.0
 40
0.4685894651
 40
1.0
 40
1.0
 40
1.0
 40
1.0
 10
33.9110966043
 20
79.1944708452
 30
0.0
 10
33.9170396509
 20
79.2206809583
 30
0.0
 10
33.9419009784
 20
79.2740795363
 30
0.0
 10
33.9823454778
 20
79.3159067089
 30
0.0
 10
34.0058617595
 20
79.3352954325
 30
0.0
  0
SPLINE
  5
2CE
100
AcDbEntity
  8
0
100
AcDbSpline
 62
7
  6
BYLAYER
 70
0
 71
3
 72
13
 73
9
 74
0
 42
0.0000001
 43
0.0000001
 44
0.0000000001
 40
0.0
 40
0.0
 40
0.0
 40
0.0
 40
0.1072481653
 40
0.22620249
 40
0.4880230569
 40
0.7565208529
 40
0.8833367201
 40
1.0
 40
1.0
 40
1.0
 40
1.0
 10
34.0058617595
 20
79.3352954325
 30
0.0
 10
34.0301768832
 20
79.355342786
 30
0.0
 10
34.0865795166
 20
79.3915393112
 30
0.0
 10
34.2195429357
 20
79.4466230281
 30
0.0
 10
34.4100497951
 20
79.4789514725
 30
0.0
 10
34.6047840873
 20
79.4651944247
 30
0.0
 10
34.7500621706
 20
79.424530335
 30
0.0
 10
34.8156159666
 20
79.3948383187
 30
0.0
 10
34.8453038077
 20
79.3776984234
 30
0.0
  0
SPLINE
  5
2CF
100
AcDbEntity
  8
0
100
AcDbSpline
 62
7
  6
BYLAYER
 70
0
 71
3
 72
25
 73
21
 74
0
 42
0.0000001
 43
0.0000001
 44
0.0000000001
 40
0.0
 40
0.0
 40
0.0
 40
0.0
 40
0.0623733686
 40
0.1287284506
 40
0.1983148148
 40
0.2702930192
 40
0.3436697313
 40
0.4174011586
 40
0.4904268
 40
0.561714553
 40
0.6303120847
 40
0.6953992082
 40
0.7563466968
 40
0.8127842027
 40
0.8646840657
 40
0.9124580861
 40
0.9351030301
 40
0.9571079492
 40
0.9786682938
 40
1.0
 40
1.0
 40
1.0
 40
1.0
 10
26.8298938775
 20
59.3734382211
 30
0.0
 10
27.0903312745
 20
59.2230780214
 30
0.0
 10
27.6485841996
 20
58.9478860634
 30
0.0
 10
28.5490175848
 20
58.6215519669
 30
0.0
 10
29.5221636074
 20
58.3745671925
 30
0.0
 10
30.5470137251
 20
58.2120234191
 30
0.0
 10
31.6019695885
 20
58.1374659896
 30
0.0
 10
32.6644768889
 20
58.152435496
 30
0.0
 10
33.7118904256
 20
58.2565840983
 30
0.0
 10
34.7218854532
 20
58.4477276773
 30
0.0
 10
35.6729843866
 20
58.7218524187
 30
0.0
 10
36.545091597
 20
59.073212778
 30
0.0
 10
37.3198919732
 20
59.4946008955
 30
0.0
 10
37.9811854763
 20
59.9778312082
 30
0.0
 10
38.5147761834
 20
60.5135782782
 30
0.0
 10
38.8487700499
 20
61.0051203528
 30
0.0
 10
39.0349557862
 20
61.4109227043
 30
0.0
 10
39.1336146208
 20
61.7153515691
 30
0.0
 10
39.1930719091
 20
62.023325393
 30
0.0
 10
39.2063872687
 20
62.2303601476
 30
0.0
 10
39.2063881673
 20
62.3332083374
 30
0.0
  0
SPLINE
  5
2D0
100
AcDbEntity
  8
0
100
AcDbSpline
 62
7
  6
BYLAYER
 70
0
 71
3
 72
15
 73
11
 74
0
 42
0.0000001
 43
0.0000001
 44
0.0000000001
 40
0.0
 40
0.0
 40
0.0
 40
0.0
 40
0.1485266742
 40
0.2895016777
 40
0.4227428877
 40
0.5486475033
 40
0.6679989919
 40
0.7819427788
 40
0.8919896274
 40
1.0
 40
1.0
 40
1.0
 40
1.0
 10
26.9359594531
 20
59.4346748442
 30
0.0
 10
26.7758912967
 20
59.5270881467
 30
0.0
 10
26.4711676135
 20
59.7203022512
 30
0.0
 10
26.054437666
 20
60.0427273859
 30
0.0
 10
25.6940174898
 20
60.3877551392
 30
0.0
 10
25.3934721177
 20
60.7519907993
 30
0.0
 10
25.1559702163
 20
61.1323459592
 30
0.0
 10
24.9839064939
 20
61.5252677489
 30
0.0
 10
24.8797914037
 20
61.9269040144
 30
0.0
 10
24.8564010772
 20
62.1987979352
 30
0.0
 10
24.8564041442
 20
62.3332083319
 30
0.0
  0
SPLINE
  5
2D1
100
AcDbEntity
  8
0
100
AcDbSpline
 62
7
  6
BYLAYER
 70
0
 71
3
 72
13
 73
9
 74
0
 42
0.0000001
 43
0.0000001
 44
0.0000000001
 40
0.0
 40
0.0
 40
0.0
 40
0.0
 40
0.2893504979
 40
0.5508053085
 40
0.6714183705
 40
0.785827323
 40
0.8949431212
 40
1.0
 40
1.0
 40
1.0
 40
1.0
 10
28.1305943066
 20
80.0998651847
 30
0.0
 10
27.8439085984
 20
79.9665966137
 30
0.0
 10
27.3147868815
 20
79.674129383
 30
0.0
 10
26.7408692902
 20
79.2087088946
 30
0.0
 10
26.3821744902
 20
78.8002228343
 30
0.0
 10
26.170175926
 20
78.4883648505
 30
0.0
 10
26.0099983936
 20
78.1657803141
 30
0.0
 10
25.9380245023
 20
77.9419511747
 30
0.0
 10
25.9117709206
 20
77.8302075537
 30
0.0
  0
SPLINE
  5
2D2
100
AcDbEntity
  8
0
100
AcDbSpline
 62
7
  6
BYLAYER
 70
0
 71
3
 72
19
 73
15
 74
0
 42
0.0000001
 43
0.0000001
 44
0.0000000001
 40
0.0
 40
0.0
 40
0.0
 40
0.0
 40
0.0495727098
 40
0.0954877417
 40
0.1400678878
 40
0.1859490785
 40
0.2354330752
 40
0.2899979851
 40
0.4155496867
 40
0.5599059832
 40
0.7133605383
 40
0.8637478135
 40
0.9343271599
 40
1.0
 40
1.0
 40
1.0
 40
1.0
 10
33.6866822301
 20
79.3532153154
 30
0.0
 10
33.666688378
 20
79.3778481981
 30
0.0
 10
33.6329941709
 20
79.4296814648
 30
0.0
 10
33.6055079731
 20
79.5162830262
 30
0.0
 10
33.6052470628
 20
79.6049700445
 30
0.0
 10
33.6323155161
 20
79.6916616875
 30
0.0
 10
33.6847625122
 20
79.7731688354
 30
0.0
 10
33.7903554785
 20
79.8767242019
 30
0.0
 10
33.9759106529
 20
79.9777767359
 30
0.0
 10
34.2401290759
 20
80.0458371629
 30
0.0
 10
34.5284534356
 20
80.059944878
 30
0.0
 10
34.7674536441
 20
80.0246591814
 30
0.0
 10
34.9420220722
 20
79.9671256468
 30
0.0
 10
35.0210358926
 20
79.9294374134
 30
0.0
 10
35.0574349589
 20
79.9084228781
 30
0.0
  0
SPLINE
  5
2D3
100
AcDbEntity
  8
0
100
AcDbSpline
 62
7
  6
BYLAYER
 70
0
 71
3
 72
9
 73
5
 74
0
 42
0.0000001
 43
0.0000001
 44
0.0000000001
 40
0.0
 40
0.0
 40
0.0
 40
0.0
 40
0.4685894651
 40
1.0
 40
1.0
 40
1.0
 40
1.0
 10
31.4111070128
 20
77.7511097973
 30
0.0
 10
31.4170500594
 20
77.7773199104
 30
0.0
 10
31.4419113869
 20
77.8307184884
 30
0.0
 10
31.4823558863
 20
77.872545661
 30
0.0
 10
31.505872168
 20
77.8919343846
 30
0.0
  0
SPLINE
  5
2D4
100
AcDbEntity
  8
0
100
AcDbSpline
 62
7
  6
BYLAYER
 70
0
 71
3
 72
13
 73
9
 74
0
 42
0.0000001
 43
0.0000001
 44
0.0000000001
 40
0.0
 40
0.0
 40
0.0
 40
0.0
 40
0.1072481653
 40
0.22620249
 40
0.4880230569
 40
0.7565208529
 40
0.8833367201
 40
1.0
 40
1.0
 40
1.0
 40
1.0
 10
31.505872168
 20
77.8919343846
 30
0.0
 10
31.5301872917
 20
77.9119817381
 30
0.0
 10
31.5865899251
 20
77.9481782632
 30
0.0
 10
31.7195533442
 20
78.0032619802
 30
0.0
 10
31.9100602036
 20
78.0355904246
 30
0.0
 10
32.1047944958
 20
78.0218333768
 30
0.0
 10
32.2500725791
 20
77.9811692871
 30
0.0
 10
32.3156263751
 20
77.9514772708
 30
0.0
 10
32.3453142163
 20
77.9343373755
 30
0.0
  0
SPLINE
  5
2D5
100
AcDbEntity
  8
0
100
AcDbSpline
 62
7
  6
BYLAYER
 70
0
 71
3
 72
15
 73
11
 74
0
 42
0.0000001
 43
0.0000001
 44
0.0000000001
 40
0.0
 40
0.0
 40
0.0
 40
0.0
 40
0.1141545398
 40
0.2373264064
 40
0.3669767563
 40
0.5000016033
 40
0.6330262276
 40
0.7626759256
 40
0.8858467668
 40
1.0
 40
1.0
 40
1.0
 40
1.0
 10
27.1834685038
 20
56.6381384857
 30
0.0
 10
27.5102186396
 20
56.4494934746
 30
0.0
 10
28.2247163497
 20
56.1167831039
 30
0.0
 10
29.3882365573
 20
55.7631491376
 30
0.0
 10
30.6479317425
 20
55.545476981
 30
0.0
 10
31.9564825613
 20
55.4720435825
 30
0.0
 10
33.2650301616
 20
55.5454960816
 30
0.0
 10
34.5247158462
 20
55.7631866264
 30
0.0
 10
35.6882206432
 20
56.1168376149
 30
0.0
 10
36.4027049062
 20
56.4495589352
 30
0.0
 10
36.7294471093
 20
56.6382090488
 30
0.0
  0
SPLINE
  5
2D6
100
AcDbEntity
  8
0
100
AcDbSpline
 62
7
  6
BYLAYER
 70
0
 71
3
 72
16
 73
12
 74
0
 42
0.0000001
 43
0.0000001
 44
0.0000000001
 40
0.0
 40
0.0
 40
0.0
 40
0.0
 40
0.114143478
 40
0.2373037933
 40
0.3669424119
 40
0.4999556683
 40
0.6329691474
 40
0.7626084177
 40
0.8857697584
 40
0.9441632279
 40
1.0
 40
1.0
 40
1.0
 40
1.0
 10
37.0830307895
 20
56.8423565184
 30
0.0
 10
36.7320837906
 20
56.6397313583
 30
0.0
 10
35.9646708532
 20
56.2823623743
 30
0.0
 10
34.7149758551
 20
55.9025129153
 30
0.0
 10
33.3619686095
 20
55.6686971924
 30
0.0
 10
31.9565044459
 20
55.5897989165
 30
0.0
 10
30.5509444698
 20
55.6686888413
 30
0.0
 10
29.1981926186
 20
55.9024264088
 30
0.0
 10
28.1375912494
 20
56.2247224193
 30
0.0
 10
27.3617623072
 20
56.5556195684
 30
0.0
 10
27.0015725349
 20
56.7431642512
 30
0.0
 10
26.8298938775
 20
56.842280728
 30
0.0
  0
SPLINE
  5
2D7
100
AcDbEntity
  8
0
100
AcDbSpline
 62
7
  6
BYLAYER
 70
0
 71
3
 72
14
 73
10
 74
0
 42
0.0000001
 43
0.0000001
 44
0.0000000001
 40
0.0
 40
0.0
 40
0.0
 40
0.0
 40
0.1095971468
 40
0.2210005344
 40
0.3358692833
 40
0.4556136772
 40
0.5813271694
 40
0.7137635369
 40
1.0
 40
1.0
 40
1.0
 40
1.0
 10
26.4314260758
 20
76.887363922
 30
0.0
 10
26.4314258711
 20
76.9849602468
 30
0.0
 10
26.44715399
 20
77.1821135511
 30
0.0
 10
26.5177172743
 20
77.4739174377
 30
0.0
 10
26.6342364745
 20
77.7603353126
 30
0.0
 10
26.7955855169
 20
78.0387637172
 30
0.0
 10
27.0001372756
 20
78.307023776
 30
0.0
 10
27.3365126094
 20
78.6571911966
 30
0.0
 10
27.6359342339
 20
78.8841713543
 30
0.0
 10
27.8505061447
 20
79.0217566539
 30
0.0
  0
SPLINE
  5
2D8
100
AcDbEntity
  8
0
100
AcDbSpline
 62
7
  6
BYLAYER
 70
0
 71
3
 72
19
 73
15
 74
0
 42
0.0000001
 43
0.0000001
 44
0.0000000001
 40
0.0
 40
0.0
 40
0.0
 40
0.0
 40
0.049573049
 40
0.0954883398
 40
0.1400687231
 40
0.1859501346
 40
0.2354344097
 40
0.2899994706
 40
0.4155484948
 40
0.5599048106
 40
0.7133590559
 40
0.8637458404
 40
0.9343264172
 40
1.0
 40
1.0
 40
1.0
 40
1.0
 10
31.1866926727
 20
77.9098542753
 30
0.0
 10
31.1666986791
 20
77.9344873214
 30
0.0
 10
31.1330044486
 20
77.9863210048
 30
0.0
 10
31.1055179879
 20
78.0729231256
 30
0.0
 10
31.1052581763
 20
78.1616105993
 30
0.0
 10
31.1323266338
 20
78.2483026951
 30
0.0
 10
31.1847747252
 20
78.3298097394
 30
0.0
 10
31.2903672645
 20
78.4333632816
 30
0.0
 10
31.4759200379
 20
78.5344165901
 30
0.0
 10
31.7401372552
 20
78.6024747052
 30
0.0
 10
32.0284607693
 20
78.6165843472
 30
0.0
 10
32.2674614839
 20
78.5812989545
 30
0.0
 10
32.4420306436
 20
78.5237647907
 30
0.0
 10
32.5210458907
 20
78.4860766025
 30
0.0
 10
32.5574453674
 20
78.4650618302
 30
0.0
  0
SPLINE
  5
2D9
100
AcDbEntity
  8
0
100
AcDbSpline
 62
7
  6
BYLAYER
 70
0
 71
3
 72
14
 73
10
 74
0
 42
0.0000001
 43
0.0000001
 44
0.0000000001
 40
0.0
 40
0.0
 40
0.0
 40
0.0
 40
0.1080576153
 40
0.2181531301
 40
0.332147698
 40
0.4515521857
 40
0.7103672215
 40
0.8514071768
 40
1.0
 40
1.0
 40
1.0
 40
1.0
 10
24.7064052273
 20
62.3332083359
 30
0.0
 10
24.7064040282
 20
62.1959599177
 30
0.0
 10
24.7302859362
 20
61.9183226713
 30
0.0
 10
24.8365971628
 20
61.5082120162
 30
0.0
 10
25.0123070604
 20
61.1069601522
 30
0.0
 10
25.3444070891
 20
60.5751501182
 30
0.0
 10
25.80386906
 20
60.0916971476
 30
0.0
 10
26.3551919396
 20
59.6651793274
 30
0.0
 10
26.6664446429
 20
59.4678035458
 30
0.0
 10
26.8298938775
 20
59.3734382211
 30
0.0
  0
SPLINE
  5
2DA
100
AcDbEntity
  8
0
100
AcDbSpline
 62
7
  6
BYLAYER
 70
0
 71
3
 72
15
 73
11
 74
0
 42
0.0000001
 43
0.0000001
 44
0.0000000001
 40
0.0
 40
0.0
 40
0.0
 40
0.0
 40
0.1141511052
 40
0.237329395
 40
0.3669770985
 40
0.5000031823
 40
0.6330272701
 40
0.762676749
 40
0.8858471388
 40
1.0
 40
1.0
 40
1.0
 40
1.0
 10
27.8883927969
 20
53.373472213
 30
0.0
 10
28.166875373
 20
53.21269386
 30
0.0
 10
28.7758573812
 20
52.9291299454
 30
0.0
 10
29.7675265994
 20
52.6277026465
 30
0.0
 10
30.8411908025
 20
52.4422035927
 30
0.0
 10
31.956469073
 20
52.3796046807
 30
0.0
 10
33.0717527654
 20
52.4422195633
 30
0.0
 10
34.1453862849
 20
52.6277569854
 30
0.0
 10
35.1370442795
 20
52.9291779388
 30
0.0
 10
35.7460009068
 20
53.21275723
 30
0.0
 10
36.0244842056
 20
53.3735442241
 30
0.0
  0
SPLINE
  5
2DB
100
AcDbEntity
  8
0
100
AcDbSpline
 62
7
  6
BYLAYER
 70
0
 71
3
 72
25
 73
21
 74
0
 42
0.0000001
 43
0.0000001
 44
0.0000000001
 40
0.0
 40
0.0
 40
0.0
 40
0.0
 40
0.0213317854
 40
0.0428922524
 40
0.0648973969
 40
0.0875426195
 40
0.1353172594
 40
0.1872176394
 40
0.2436553812
 40
0.3046027059
 40
0.3696892034
 40
0.4382856458
 40
0.5095720755
 40
0.5825965404
 40
0.6563272138
 40
0.7297039392
 40
0.8016826332
 40
0.8712696647
 40
0.9376261051
 40
1.0
 40
1.0
 40
1.0
 40
1.0
 10
39.0563892504
 20
62.3332083414
 30
0.0
 10
39.0563869521
 20
62.2324876726
 30
0.0
 10
39.0433470353
 20
62.0297356905
 30
0.0
 10
38.9851223624
 20
61.7281310105
 30
0.0
 10
38.8884998701
 20
61.4299990666
 30
0.0
 10
38.7061641145
 20
61.0325879175
 30
0.0
 10
38.3790736114
 20
60.551211918
 30
0.0
 10
37.8565161573
 20
60.0265467884
 30
0.0
 10
37.2088997019
 20
59.5533162302
 30
0.0
 10
36.4501305715
 20
59.1406505479
 30
0.0
 10
35.596074301
 20
58.7965653414
 30
0.0
 10
34.6646667909
 20
58.5281175166
 30
0.0
 10
33.6755852566
 20
58.3409301797
 30
0.0
 10
32.6498577784
 20
58.238936546
 30
0.0
 10
31.6093425466
 20
58.2242750191
 30
0.0
 10
30.5762143105
 20
58.2972856091
 30
0.0
 10
29.5725617842
 20
58.4564625696
 30
0.0
 10
28.6195374729
 20
58.6983374623
 30
0.0
 10
27.7377225103
 20
59.0179240704
 30
0.0
 10
27.1910106386
 20
59.2874243048
 30
0.0
 10
26.9359594531
 20
59.4346748442
 30
0.0
  0
SPLINE
  5
2DC
100
AcDbEntity
  8
0
100
AcDbSpline
 62
7
  6
BYLAYER
 70
0
 71
3
 72
15
 73
11
 74
0
 42
0.0000001
 43
0.0000001
 44
0.0000000001
 40
0.0
 40
0.0
 40
0.0
 40
0.0
 40
0.1003111408
 40
0.2040496098
 40
0.3141021992
 40
0.4324909368
 40
0.5603155852
 40
0.6978614162
 40
0.8447332913
 40
1.0
 40
1.0
 40
1.0
 40
1.0
 10
25.856406978
 20
77.8467542625
 30
0.0
 10
25.8563896872
 20
78.0039386067
 30
0.0
 10
25.8941948673
 20
78.3248153277
 30
0.0
 10
26.0610499067
 20
78.7917155169
 30
0.0
 10
26.3334685001
 20
79.239000339
 30
0.0
 10
26.7049610174
 20
79.6590131922
 30
0.0
 10
27.1682177872
 20
80.0454860233
 30
0.0
 10
27.7150321457
 20
80.3923538792
 30
0.0
 10
28.3358458514
 20
80.6939879976
 30
0.0
 10
28.780996214
 20
80.8576327843
 30
0.0
 10
29.0128509741
 20
80.9313706139
 30
0.0
  0
SPLINE
  5
2DD
100
AcDbEntity
  8
0
100
AcDbSpline
 62
7
  6
BYLAYER
 70
0
 71
3
 72
15
 73
11
 74
0
 42
0.0000001
 43
0.0000001
 44
0.0000000001
 40
0.0
 40
0.0
 40
0.0
 40
0.0
 40
0.1141511052
 40
0.237329395
 40
0.3669770985
 40
0.5000031823
 40
0.6330272701
 40
0.762676749
 40
0.8858471388
 40
1.0
 40
1.0
 40
1.0
 40
1.0
 10
28.2419447155
 20
53.1693430813
 30
0.0
 10
28.4962242545
 20
53.0225380422
 30
0.0
 10
29.052279382
 20
52.7636187859
 30
0.0
 10
29.9577622141
 20
52.4883886595
 30
0.0
 10
30.9381138127
 20
52.3190114059
 30
0.0
 10
31.9564627828
 20
52.2618529916
 30
0.0
 10
32.9748167035
 20
52.3190259886
 30
0.0
 10
33.9551402853
 20
52.4884382757
 30
0.0
 10
34.8606128692
 20
52.7636626082
 30
0.0
 10
35.4166448217
 20
53.0225959046
 30
0.0
 10
35.6709250206
 20
53.169408834
 30
0.0
  0
SPLINE
  5
2DE
100
AcDbEntity
  8
0
100
AcDbSpline
 62
7
  6
BYLAYER
 70
0
 71
3
 72
13
 73
9
 74
0
 42
0.0000001
 43
0.0000001
 44
0.0000000001
 40
0.0
 40
0.0
 40
0.0
 40
0.0
 40
0.1053989289
 40
0.2149559709
 40
0.3297754969
 40
0.4506300524
 40
0.7118523129
 40
1.0
 40
1.0
 40
1.0
 40
1.0
 10
37.9812916019
 20
77.9077960489
 30
0.0
 10
37.9517897932
 20
78.0153370204
 30
0.0
 10
37.8746101226
 20
78.2303006803
 30
0.0
 10
37.7111332515
 20
78.5396791805
 30
0.0
 10
37.4995513442
 20
78.8385898878
 30
0.0
 10
37.1471132873
 20
79.2300513523
 30
0.0
 10
36.5904836901
 20
79.6769715129
 30
0.0
 10
36.0800138215
 20
79.9601058576
 30
0.0
 10
35.8040415209
 20
80.0896536197
 30
0.0
  0
SPLINE
  5
2DF
100
AcDbEntity
  8
0
100
AcDbSpline
 62
7
  6
BYLAYER
 70
0
 71
3
 72
15
 73
11
 74
0
 42
0.0000001
 43
0.0000001
 44
0.0000000001
 40
0.0
 40
0.0
 40
0.0
 40
0.0
 40
0.1528365273
 40
0.2974105198
 40
0.4330806842
 40
0.5599348738
 40
0.6785584512
 40
0.7901109211
 40
0.8964470968
 40
1.0
 40
1.0
 40
1.0
 40
1.0
 10
35.5418661899
 20
80.6959478432
 30
0.0
 10
35.7306418523
 20
80.6167640313
 30
0.0
 10
36.0916222118
 20
80.4467430125
 30
0.0
 10
36.5907566109
 20
80.1492509168
 30
0.0
 10
37.0265979546
 20
79.8194913684
 30
0.0
 10
37.3929942203
 20
79.4618056409
 30
0.0
 10
37.6849308336
 20
79.0806738148
 30
0.0
 10
37.8976007697
 20
78.6806275192
 30
0.0
 10
38.027223707
 20
78.2673809111
 30
0.0
 10
38.0563711592
 20
77.9854537673
 30
0.0
 10
38.0563864166
 20
77.8467542617
 30
0.0
  0
SPLINE
  5
2E0
100
AcDbEntity
  8
0
100
AcDbSpline
 62
7
  6
BYLAYER
 70
0
 71
3
 72
22
 73
18
 74
0
 42
0.0000001
 43
0.0000001
 44
0.0000000001
 40
0.0
 40
0.0
 40
0.0
 40
0.0
 40
0.060926148
 40
0.1255693034
 40
0.193250162
 40
0.2632792551
 40
0.4069147824
 40
0.478831714
 40
0.5495759342
 40
0.6182896063
 40
0.6842047023
 40
0.7466724266
 40
0.805216764
 40
0.8595923534
 40
0.9098383119
 40
0.9563662729
 40
1.0
 40
1.0
 40
1.0
 40
1.0
 10
28.8451398136
 20
50.2490956579
 30
0.0
 10
28.9927097379
 20
50.1638980497
 30
0.0
 10
29.3078427422
 20
50.0069211121
 30
0.0
 10
29.8147546095
 20
49.8171235481
 30
0.0
 10
30.3618678911
 20
49.6691657851
 30
0.0
 10
31.1371007905
 20
49.5302487154
 30
0.0
 10
31.9387542911
 20
49.4866054956
 30
0.0
 10
32.7384615585
 20
49.5374145781
 30
0.0
 10
33.324203589
 20
49.6225175292
 30
0.0
 10
33.8842988534
 20
49.7530473099
 30
0.0
 10
34.4084185229
 20
49.926472154
 30
0.0
 10
34.8868023186
 20
50.1397334609
 30
0.0
 10
35.3106349404
 20
50.3889982448
 30
0.0
 10
35.672149394
 20
50.6698742751
 30
0.0
 10
35.9644380062
 20
50.9779235301
 30
0.0
 10
36.181636492
 20
51.3077771469
 30
0.0
 10
36.2749797528
 20
51.5446073484
 30
0.0
 10
36.3061485849
 20
51.6625945222
 30
0.0
  0
SPLINE
  5
2E1
100
AcDbEntity
  8
0
100
AcDbSpline
 62
7
  6
BYLAYER
 70
0
 71
3
 72
29
 73
25
 74
0
 42
0.0000001
 43
0.0000001
 44
0.0000000001
 40
0.0
 40
0.0
 40
0.0
 40
0.0
 40
0.0606854491
 40
0.08875498
 40
0.1153609208
 40
0.1406269742
 40
0.1647496219
 40
0.1880003338
 40
0.2107119168
 40
0.233259646
 40
0.2560329262
 40
0.2794013787
 40
0.3036900441
 40
0.3291558189
 40
0.355987784
 40
0.4140771688
 40
0.4782459663
 40
0.5479072802
 40
0.6219240765
 40
0.6987923134
 40
0.7767953614
 40
0.8541349616
 40
0.9290642199
 40
1.0
 40
1.0
 40
1.0
 40
1.0
 10
27.3601266572
 20
75.5198492276
 30
0.0
 10
27.0882649662
 20
75.6767719999
 30
0.0
 10
26.7064548627
 20
75.9376202958
 30
0.0
 10
26.2692469826
 20
76.3450227989
 30
0.0
 10
25.9987903358
 20
76.6590744635
 30
0.0
 10
25.7798493967
 20
76.9868409762
 30
0.0
 10
25.6146634139
 20
77.3257097593
 30
0.0
 10
25.5048916437
 20
77.6726883241
 30
0.0
 10
25.4520093438
 20
78.02462704
 30
0.0
 10
25.4565111984
 20
78.3780572326
 30
0.0
 10
25.5185811395
 20
78.7294232173
 30
0.0
 10
25.6371545937
 20
79.0753580627
 30
0.0
 10
25.8110738571
 20
79.412611402
 30
0.0
 10
26.0382600815
 20
79.7384466156
 30
0.0
 10
26.4195345169
 20
80.1650378653
 30
0.0
 10
27.025145261
 20
80.6512780111
 30
0.0
 10
27.8979422771
 20
81.1321334452
 30
0.0
 10
28.9072340536
 20
81.5118585673
 30
0.0
 10
30.0192537799
 20
81.7780351393
 30
0.0
 10
31.1968231884
 20
81.9219978689
 30
0.0
 10
32.4001045866
 20
81.9388517008
 30
0.0
 10
33.5884491102
 20
81.8280539022
 30
0.0
 10
34.7213123848
 20
81.5933774737
 30
0.0
 10
35.438618943
 20
81.3513096128
 30
0.0
 10
35.7769789435
 20
81.2093811761
 30
0.0
  0
SPLINE
  5
2E2
100
AcDbEntity
  8
0
100
AcDbSpline
 62
7
  6
BYLAYER
 70
0
 71
3
 72
11
 73
7
 74
0
 42
0.0000001
 43
0.0000001
 44
0.0000000001
 40
0.0
 40
0.0
 40
0.0
 40
0.0
 40
0.2833342129
 40
0.5429305548
 40
0.7802076361
 40
1.0
 40
1.0
 40
1.0
 40
1.0
 10
35.5980117818
 20
44.802391112
 30
0.0
 10
35.7809109742
 20
44.9079873797
 30
0.0
 10
36.1189490233
 20
45.1334898971
 30
0.0
 10
36.5475424076
 20
45.5308886381
 30
0.0
 10
36.8650922145
 20
45.9650211965
 30
0.0
 10
36.999888321
 20
46.2823851012
 30
0.0
 10
37.0431755887
 20
46.4403932105
 30
0.0
  0
SPLINE
  5
2E3
100
AcDbEntity
  8
0
100
AcDbSpline
 62
7
  6
BYLAYER
 70
0
 71
3
 72
14
 73
10
 74
0
 42
0.0000001
 43
0.0000001
 44
0.0000000001
 40
0.0
 40
0.0
 40
0.0
 40
0.0
 40
0.2892466069
 40
0.422568906
 40
0.5485172988
 40
0.6678933544
 40
0.7818666734
 40
0.8919556715
 40
1.0
 40
1.0
 40
1.0
 40
1.0
 10
28.8451398136
 20
45.1085567208
 30
0.0
 10
28.6520219192
 20
45.2200508667
 30
0.0
 10
28.381545975
 20
45.4063142037
 30
0.0
 10
28.0754872768
 20
45.6991661889
 30
0.0
 10
27.8892281099
 20
45.9249458068
 30
0.0
 10
27.7420230174
 20
46.160626734
 30
0.0
 10
27.6354904977
 20
46.4041536458
 30
0.0
 10
27.5708455307
 20
46.6530224586
 30
0.0
 10
27.5564265566
 20
46.8215351926
 30
0.0
 10
27.5564272411
 20
46.9048309979
 30
0.0
  0
SPLINE
  5
2E4
100
AcDbEntity
  8
0
100
AcDbSpline
 62
7
  6
BYLAYER
 70
0
 71
3
 72
14
 73
10
 74
0
 42
0.0000001
 43
0.0000001
 44
0.0000000001
 40
0.0
 40
0.0
 40
0.0
 40
0.0
 40
0.1080576153
 40
0.2181531301
 40
0.332147698
 40
0.4515521857
 40
0.7103672215
 40
0.8514071768
 40
1.0
 40
1.0
 40
1.0
 40
1.0
 10
24.7064052273
 20
65.5992180044
 30
0.0
 10
24.7064040282
 20
65.4619695862
 30
0.0
 10
24.7302859362
 20
65.1843323398
 30
0.0
 10
24.8365971628
 20
64.7742216847
 30
0.0
 10
25.0123070604
 20
64.3729698207
 30
0.0
 10
25.3444070891
 20
63.8411597867
 30
0.0
 10
25.80386906
 20
63.3577068161
 30
0.0
 10
26.3551919396
 20
62.9311889959
 30
0.0
 10
26.6664446429
 20
62.7338132144
 30
0.0
 10
26.8298938775
 20
62.6394478896
 30
0.0
  0
SPLINE
  5
2E5
100
AcDbEntity
  8
0
100
AcDbSpline
 62
7
  6
BYLAYER
 70
0
 71
3
 72
15
 73
11
 74
0
 42
0.0000001
 43
0.0000001
 44
0.0000000001
 40
0.0
 40
0.0
 40
0.0
 40
0.0
 40
0.1035522984
 40
0.2098863241
 40
0.3214364021
 40
0.4400595807
 40
0.5669143486
 40
0.7025865352
 40
0.8471632409
 40
1.0
 40
1.0
 40
1.0
 40
1.0
 10
24.7064207119
 20
78.1733553164
 30
0.0
 10
24.7064388991
 20
78.0085087165
 30
0.0
 10
24.7410773343
 20
77.6734360896
 30
0.0
 10
24.8951304222
 20
77.1822891613
 30
0.0
 10
25.1478887459
 20
76.7068314205
 30
0.0
 10
25.4948549193
 20
76.2538465375
 30
0.0
 10
25.9303245227
 20
75.8287227847
 30
0.0
 10
26.4483364674
 20
75.4367875488
 30
0.0
 10
27.0415766033
 20
75.0832081757
 30
0.0
 10
27.4706134675
 20
74.8811305259
 30
0.0
 10
27.6949780381
 20
74.7870185957
 30
0.0
  0
SPLINE
  5
2E6
100
AcDbEntity
  8
0
100
AcDbSpline
 62
7
  6
BYLAYER
 70
0
 71
3
 72
25
 73
21
 74
0
 42
0.0000001
 43
0.0000001
 44
0.0000000001
 40
0.0
 40
0.0
 40
0.0
 40
0.0
 40
0.0213317854
 40
0.0428922524
 40
0.0648973969
 40
0.0875426195
 40
0.1353172594
 40
0.1872176394
 40
0.2436553812
 40
0.3046027059
 40
0.3696892034
 40
0.4382856458
 40
0.5095720755
 40
0.5825965404
 40
0.6563272138
 40
0.7297039392
 40
0.8016826332
 40
0.8712696647
 40
0.9376261051
 40
1.0
 40
1.0
 40
1.0
 40
1.0
 10
39.0563892504
 20
65.5992180099
 30
0.0
 10
39.0563869521
 20
65.4984973411
 30
0.0
 10
39.0433470353
 20
65.295745359
 30
0.0
 10
38.9851223624
 20
64.994140679
 30
0.0
 10
38.8884998701
 20
64.6960087351
 30
0.0
 10
38.7061641145
 20
64.298597586
 30
0.0
 10
38.3790736114
 20
63.8172215865
 30
0.0
 10
37.8565161573
 20
63.292556457
 30
0.0
 10
37.2088997019
 20
62.8193258987
 30
0.0
 10
36.4501305715
 20
62.4066602165
 30
0.0
 10
35.596074301
 20
62.0625750099
 30
0.0
 10
34.6646667909
 20
61.7941271852
 30
0.0
 10
33.6755852566
 20
61.6069398482
 30
0.0
 10
32.6498577784
 20
61.5049462146
 30
0.0
 10
31.6093425466
 20
61.4902846876
 30
0.0
 10
30.5762143105
 20
61.5632952776
 30
0.0
 10
29.5725617842
 20
61.7224722381
 30
0.0
 10
28.6195374729
 20
61.9643471309
 30
0.0
 10
27.7377225103
 20
62.2839337389
 30
0.0
 10
27.1910106386
 20
62.5534339733
 30
0.0
 10
26.9359594531
 20
62.7006845127
 30
0.0
  0
SPLINE
  5
2E7
100
AcDbEntity
  8
0
100
AcDbSpline
 62
7
  6
BYLAYER
 70
0
 71
3
 72
9
 73
5
 74
0
 42
0.0000001
 43
0.0000001
 44
0.0000000001
 40
0.0
 40
0.0
 40
0.0
 40
0.0
 40
0.4919626217
 40
1.0
 40
1.0
 40
1.0
 40
1.0
 10
30.9563950997
 20
79.5614093381
 30
0.0
 10
30.9563950997
 20
79.5866930255
 30
0.0
 10
30.9623502605
 20
79.6382442337
 30
0.0
 10
30.979478259
 20
79.6871506045
 30
0.0
 10
30.9904697934
 20
79.7108341254
 30
0.0
  0
SPLINE
  5
2E8
100
AcDbEntity
  8
0
100
AcDbSpline
 62
7
  6
BYLAYER
 70
0
 71
3
 72
11
 73
7
 74
0
 42
0.0000001
 43
0.0000001
 44
0.0000000001
 40
0.0
 40
0.0
 40
0.0
 40
0.0
 40
0.244570644
 40
0.4965741511
 40
0.7503163135
 40
1.0
 40
1.0
 40
1.0
 40
1.0
 10
33.9052351208
 20
66.3959967949
 30
0.0
 10
33.6341276367
 20
66.3246886173
 30
0.0
 10
33.0743467206
 20
66.2136856854
 30
0.0
 10
32.2158605769
 20
66.1404009724
 30
0.0
 10
31.3486051624
 20
66.1589044666
 30
0.0
 10
30.7749855752
 20
66.2333268383
 30
0.0
 10
30.4937742971
 20
66.286472662
 30
0.0
  0
SPLINE
  5
2E9
100
AcDbEntity
  8
0
100
AcDbSpline
 62
7
  6
BYLAYER
 70
0
 71
3
 72
15
 73
11
 74
0
 42
0.0000001
 43
0.0000001
 44
0.0000000001
 40
0.0
 40
0.0
 40
0.0
 40
0.0
 40
0.1080117087
 40
0.2180601111
 40
0.3320040072
 40
0.4513547864
 40
0.5772584362
 40
0.7104989171
 40
0.8514736423
 40
1.0
 40
1.0
 40
1.0
 40
1.0
 10
24.7063966975
 20
68.0487252566
 30
0.0
 10
24.7063953103
 20
67.9114733836
 30
0.0
 10
24.7302827113
 20
67.6338317473
 30
0.0
 10
24.8365975215
 20
67.2237059241
 30
0.0
 10
25.0122992859
 20
66.8224822512
 30
0.0
 10
25.2548214579
 20
66.4340950242
 30
0.0
 10
25.5617155033
 20
66.0621670515
 30
0.0
 10
25.9297495781
 20
65.7098522915
 30
0.0
 10
26.3552831041
 20
65.3806166461
 30
0.0
 10
26.6664442023
 20
65.1833207201
 30
0.0
 10
26.8298938775
 20
65.088955141
 30
0.0
  0
SPLINE
  5
2EA
100
AcDbEntity
  8
0
100
AcDbSpline
 62
7
  6
BYLAYER
 70
0
 71
3
 72
19
 73
15
 74
0
 42
0.0000001
 43
0.0000001
 44
0.0000000001
 40
0.0
 40
0.0
 40
0.0
 40
0.0
 40
0.0580549446
 40
0.1192274638
 40
0.1830471303
 40
0.2490541527
 40
0.3853360076
 40
0.5232636117
 40
0.6577582524
 40
0.7222708412
 40
0.784239324
 40
0.8432457534
 40
0.8989885471
 40
1.0
 40
1.0
 40
1.0
 40
1.0
 10
35.5980117818
 20
44.3941399035
 30
0.0
 10
35.4505414494
 20
44.3089983756
 30
0.0
 10
35.1383331711
 20
44.1500018991
 30
0.0
 10
34.6392134883
 20
43.950477884
 30
0.0
 10
34.10293144
 20
43.7862727696
 30
0.0
 10
33.3406533885
 20
43.6156102202
 30
0.0
 10
32.3453163238
 20
43.5045633339
 30
0.0
 10
31.1435149959
 20
43.5330988646
 30
0.0
 10
30.1641788567
 20
43.6914026484
 30
0.0
 10
29.4266121764
 20
43.8988202758
 30
0.0
 10
28.915927278
 20
44.0882188945
 30
0.0
 10
28.4469432728
 20
44.3111438774
 30
0.0
 10
27.9044880818
 20
44.637691407
 30
0.0
 10
27.5484407261
 20
44.9387985288
 30
0.0
 10
27.3540131004
 20
45.1623622239
 30
0.0
  0
SPLINE
  5
2EB
100
AcDbEntity
  8
0
100
AcDbSpline
 62
7
  6
BYLAYER
 70
0
 71
3
 72
16
 73
12
 74
0
 42
0.0000001
 43
0.0000001
 44
0.0000000001
 40
0.0
 40
0.0
 40
0.0
 40
0.0
 40
0.1199143073
 40
0.2501023642
 40
0.3865188368
 40
0.5243264483
 40
0.65854863
 40
0.7846124805
 40
0.8434821996
 40
0.8991099065
 40
1.0
 40
1.0
 40
1.0
 40
1.0
 10
34.4889854455
 20
43.0478668044
 30
0.0
 10
34.2732946708
 20
42.9277347388
 30
0.0
 10
33.7970574823
 20
42.7233813293
 30
0.0
 10
33.0224440855
 20
42.5297271693
 30
0.0
 10
32.1916859219
 20
42.4429189377
 30
0.0
 10
31.3485896728
 20
42.4677776758
 30
0.0
 10
30.5375649688
 20
42.602868829
 30
0.0
 10
29.9093873911
 20
42.8060597268
 30
0.0
 10
29.4619640325
 20
43.02035409
 30
0.0
 10
29.0824489368
 20
43.2501919465
 30
0.0
 10
28.8332672838
 20
43.4615311098
 30
0.0
 10
28.6969585587
 20
43.6182721391
 30
0.0
  0
ENDSEC
  0
SECTION
  2
OBJECTS
  0
DICTIONARY
  5
C
100
AcDbDictionary
280
0
281
1
  3
ACAD_GROUP
350
D
  3
ACAD_MLINESTYLE
350
17
  3
ACAD_LAYOUT
350
1A
  3
ACAD_PLOTSETTINGS
350
19
  3
ACAD_PLOTSTYLENAME
350
E
  0
DICTIONARY
  5
D
102
{ACAD_REACTORS
330
C
102
}
100
AcDbDictionary
280
0
281
1
  0
ACDBDICTIONARYWDFLT
  5
E
102
{ACAD_REACTORS
330
C
102
}
100
AcDbDictionary
281
1
  3
Normal
350
F
100
AcDbDictionaryWithDefault
340
F
  0
DICTIONARY
  5
17
102
{ACAD_REACTORS
330
C
102
}
100
AcDbDictionary
280
0
281
1
  3
Standard
350
18
  0
DICTIONARY
  5
19
102
{ACAD_REACTORS
330
C
102
}
100
AcDbDictionary
281
1
  0
DICTIONARY
  5
1A
102
{ACAD_REACTORS
330
C
102
}
100
AcDbDictionary
281
1
  3
Model
350
2EC
  3
Layout1
350
2ED
  0
ACDBPLACEHOLDER
  5
F
102
{ACAD_REACTORS
330
E
102
}
  0
MLINESTYLE
  5
18
102
{ACAD_REACTORS
330
17
102
}
100
AcDbMlineStyle
  2
STANDARD
 70
0
  3

 62
256
 51
90.0
 52
90.0
 71
2
 49
0.5
 62
256
  6
BYLAYER
 49
-0.5
 62
256
  6
BYLAYER
  0
LAYOUT
  5
2EC
102
{ACAD_REACTORS
330
1A
102
}
100
AcDbPlotSettings
  1

  2
none_device
  4

  6

 40
0.0
 41
0.0
 42
0.0
 43
0.0
 44
210.0
 45
297.0
 46
0.0
 47
0.0
 48
0.0
 49
0.0
140
0.0
141
0.0
142
1.0
143
1.0
 70
1024
 72
1
 73
0
 74
0
  7

 75
0
147
1.0
148
0.0
149
0.0
100
AcDbLayout
  1
Model
 70
0
 71
0
 10
0.0
 20
0.0
 11
210.0
 21
297.0
 12
0.0
 22
0.0
 32
0.0
 14
0.0
 24
0.0
 34
0.0
 15
0.0
 25
0.0
 35
0.0
146
0.0
 13
0.0
 23
0.0
 33
0.0
 16
1.0
 26
0.0
 36
0.0
 17
0.0
 27
1.0
 37
0.0
 76
0
330
210
345
0
346
0
  0
LAYOUT
  5
2ED
102
{ACAD_REACTORS
330
1A
102
}
100
AcDbPlotSettings
  1

  2
none_device
  4

  6

 40
0.0
 41
0.0
 42
0.0
 43
0.0
 44
210.0
 45
297.0
 46
0.0
 47
0.0
 48
0.0
 49
0.0
140
0.0
141
0.0
142
1.0
143
1.0
 70
0
 72
1
 73
0
 74
0
  7

 75
0
147
1.0
148
0.0
149
0.0
100
AcDbLayout
  1
Layout1
 70
0
 71
1
 10
0.0
 20
0.0
 11
210.0
 21
297.0
 12
0.0
 22
0.0
 32
0.0
 14
0.0
 24
0.0
 34
0.0
 15
0.0
 25
0.0
 35
0.0
146
0.0
 13
0.0
 23
0.0
 33
0.0
 16
1.0
 26
0.0
 36
0.0
 17
0.0
 27
1.0
 37
0.0
 76
0
330
211
345
0
346
0
  0
ENDSEC
  0
EOF
