999
DXF file: C:\Users\SESA654545\Desktop\sachin babu tesys\Gen2D (4)\Gen2D\CAD\SB115119_3D-CAD\drw0001_5.dxf
999
Pro/ENGINEER 2019471 by Parametric Technology Corporation
  0
SECTION
  2
HEADER
  9
$ACADVER
  1
AC1024
  9
$DWGCODEPAGE
  3
ANSI_1252
  9
$EXTMAX
 10
159.6460995961
 20
225.7851980002
 30
0.0
  9
$EXTMIN
 10
0.0
 20
0.0
 30
0.0
  9
$LIMMIN
 10
0.0
 20
0.0
  9
$LIMMAX
 10
159.6460995961
 20
225.7851980002
  9
$VIEWCTR
 10
79.823049798
 20
112.8925990001
  9
$VIEWSIZE
 40
225.7851980002
  9
$CLAYER
  8
0
  9
$LTSCALE
 40
14.7178499437
  9
$CELTYPE
  6
BYLAYER
  9
$DIMSCALE
 40
1.0
  9
$DIMASZ
 40
1.9005488047
  9
$DIMEXO
 40
1.0
  9
$DIMDLI
 40
10.1686963247
  9
$DIMEXE
 40
1.0
  9
$DIMCEN
 40
2.4083754453
  9
$DIMLFAC
 40
1.0
  9
$DIMBLK
  1
_FILLED
  9
$DIMALT
 70
0
  9
$DIMALTF
 40
0.0393700787
  9
$DIMTXT
 40
2.6607683266
  9
$DIMTOL
 70
1
  9
$DIMLIM
 70
0
  9
$DIMTFAC
 40
1.0
  9
$DIMTP
 40
0.01
  9
$DIMTM
 40
0.01
  9
$DIMGAP
 40
0.625
  9
$DIMDSEP
 70
46
  9
$AUNITS
 70
0
  9
$PDMODE
 70
3
  9
$PDSIZE
 40
0.3125
  9
$HANDSEED
  5
298
  9
$TILEMODE
 70
1
  9
$MEASUREMENT
 70
1
  9
$INSUNITS
 70
4
  0
ENDSEC
  0
SECTION
  2
CLASSES
  0
CLASS
  1
ACDBDICTIONARYWDFLT
  2
AcDbDictionaryWithDefault
  3
AutoCAD 2000
 90
0
 91
1
280
0
281
0
  0
CLASS
  1
ACDBPLACEHOLDER
  2
AcDbPlaceHolder
  3
AutoCAD 2000
 90
0
 91
1
280
0
281
0
  0
CLASS
  1
LAYOUT
  2
AcDbLayout
  3
AutoCAD 2000
 90
0
 91
0
280
0
281
0
  0
ENDSEC
  0
SECTION
  2
TABLES
  0
TABLE
  2
VPORT
  5
8
100
AcDbSymbolTable
 70
2
  0
VPORT
  5
1F4
100
AcDbSymbolTableRecord
100
AcDbViewportTableRecord
  2
*ACTIVE
 70
0
 10
0.0
 20
0.0
 11
1.0
 21
1.0
 12
79.823049798
 22
112.8925990001
 13
0.0
 23
0.0
 14
1.0
 24
1.0
 15
0.0
 25
0.0
 16
0.0
 26
0.0
 36
1.0
 17
0.0
 27
0.0
 37
0.0
 40
225.7851980002
 41
0.7070707071
 42
50.0
 43
0.0
 44
0.0
 50
0.0
 51
0.0
 71
0
 72
100
 73
1
 74
1
 75
0
 76
0
 77
0
 78
0
  0
ENDTAB
  0
TABLE
  2
LTYPE
  5
5
100
AcDbSymbolTable
 70
6
  0
LTYPE
  5
14
100
AcDbSymbolTableRecord
100
AcDbLinetypeTableRecord
  2
BYBLOCK
 70
0
  3

 72
65
 73
0
 40
0.0
  0
LTYPE
  5
15
100
AcDbSymbolTableRecord
100
AcDbLinetypeTableRecord
  2
BYLAYER
 70
0
  3

 72
65
 73
0
 40
0.0
  0
LTYPE
  5
16
100
AcDbSymbolTableRecord
100
AcDbLinetypeTableRecord
  2
CONTINUOUS
 70
64
  3
Solid line
 72
65
 73
0
 40
0.0
  0
LTYPE
  5
1F5
100
AcDbSymbolTableRecord
100
AcDbLinetypeTableRecord
  2
CENTER
 70
64
  3
____ _ ____ _ ____ _ ____ _ ____ _ ____ _ ____
 72
65
 73
4
 40
0.6
 49
0.375
 74
0
 49
-0.075
 74
0
 49
0.075
 74
0
 49
-0.075
 74
0
  0
LTYPE
  5
1F6
100
AcDbSymbolTableRecord
100
AcDbLinetypeTableRecord
  2
HIDDEN
 70
64
  3
- - - - - - - - - - - - - - - - - - - -
 72
65
 73
2
 40
0.2
 49
0.1
 74
0
 49
-0.1
 74
0
  0
LTYPE
  5
1F7
100
AcDbSymbolTableRecord
100
AcDbLinetypeTableRecord
  2
PHANTOM
 70
64
  3
_____ _ _ _____ _ _ _____ _ _ _____
 72
65
 73
6
 40
0.8
 49
0.45
 74
0
 49
-0.05
 74
0
 49
0.1
 74
0
 49
-0.05
 74
0
 49
0.1
 74
0
 49
-0.05
 74
0
  0
LTYPE
  5
1F8
100
AcDbSymbolTableRecord
100
AcDbLinetypeTableRecord
  2
DOT
 70
64
  3
. . . . . . . . . . . . . . . . . . . .
 72
65
 73
2
 40
0.2
 49
0.1
 74
0
 49
-0.1
 74
0
  0
LTYPE
  5
1F9
100
AcDbSymbolTableRecord
100
AcDbLinetypeTableRecord
  2
DASHED
 70
64
  3
- - - - - - - - - - - - - - - - - - - -
 72
65
 73
2
 40
0.2
 49
0.1
 74
0
 49
-0.1
 74
0
  0
ENDTAB
  0
TABLE
  2
LAYER
  5
2
100
AcDbSymbolTable
 70
36
  0
LAYER
  5
10
100
AcDbSymbolTableRecord
100
AcDbLayerTableRecord
  2
0
 70
0
 62
7
  6
CONTINUOUS
370
-3
390
F
  0
LAYER
  5
1FA
100
AcDbSymbolTableRecord
100
AcDbLayerTableRecord
  2
DEFAULT_1
 70
0
 62
7
  6
CENTER
370
-3
390
F
  0
LAYER
  5
1FB
100
AcDbSymbolTableRecord
100
AcDbLayerTableRecord
  2
DEFAULT_2
 70
0
 62
8
  6
HIDDEN
370
-3
390
F
  0
LAYER
  5
1FC
100
AcDbSymbolTableRecord
100
AcDbLayerTableRecord
  2
DEFAULT_3
 70
0
 62
7
  6
PHANTOM
370
-3
390
F
  0
LAYER
  5
1FD
100
AcDbSymbolTableRecord
100
AcDbLayerTableRecord
  2
00_COMPONENTS
 70
0
 62
7
  6
CONTINUOUS
370
-3
390
F
  0
LAYER
  5
1FE
100
AcDbSymbolTableRecord
100
AcDbLayerTableRecord
  2
01_1_DEFAULT_DATUMS
 70
0
 62
7
  6
CONTINUOUS
370
-3
390
F
  0
LAYER
  5
1FF
100
AcDbSymbolTableRecord
100
AcDbLayerTableRecord
  2
01_PLANES
 70
0
 62
7
  6
CONTINUOUS
370
-3
390
F
  0
LAYER
  5
200
100
AcDbSymbolTableRecord
100
AcDbLayerTableRecord
  2
02_COORD_SYS
 70
0
 62
7
  6
CONTINUOUS
370
-3
390
F
  0
LAYER
  5
201
100
AcDbSymbolTableRecord
100
AcDbLayerTableRecord
  2
03_AXES
 70
0
 62
7
  6
CONTINUOUS
370
-3
390
F
  0
LAYER
  5
202
100
AcDbSymbolTableRecord
100
AcDbLayerTableRecord
  2
04_POINTS
 70
0
 62
7
  6
CONTINUOUS
370
-3
390
F
  0
LAYER
  5
203
100
AcDbSymbolTableRecord
100
AcDbLayerTableRecord
  2
05_CURVES
 70
0
 62
7
  6
CONTINUOUS
370
-3
390
F
  0
LAYER
  5
204
100
AcDbSymbolTableRecord
100
AcDbLayerTableRecord
  2
06_SURFS
 70
0
 62
7
  6
CONTINUOUS
370
-3
390
F
  0
LAYER
  5
205
100
AcDbSymbolTableRecord
100
AcDbLayerTableRecord
  2
07_COSMETICS
 70
0
 62
7
  6
CONTINUOUS
370
-3
390
F
  0
LAYER
  5
206
100
AcDbSymbolTableRecord
100
AcDbLayerTableRecord
  2
10_NOTES
 70
0
 62
7
  6
CONTINUOUS
370
-3
390
F
  0
LAYER
  5
207
100
AcDbSymbolTableRecord
100
AcDbLayerTableRecord
  2
11_NOTES_PUB
 70
0
 62
7
  6
CONTINUOUS
370
-3
390
F
  0
LAYER
  5
208
100
AcDbSymbolTableRecord
100
AcDbLayerTableRecord
  2
13_REF_GTOL
 70
0
 62
7
  6
CONTINUOUS
370
-3
390
F
  0
LAYER
  5
209
100
AcDbSymbolTableRecord
100
AcDbLayerTableRecord
  2
16_MISC
 70
0
 62
7
  6
CONTINUOUS
370
-3
390
F
  0
LAYER
  5
20A
100
AcDbSymbolTableRecord
100
AcDbLayerTableRecord
  2
17_NO_PRINT
 70
0
 62
7
  6
CONTINUOUS
370
-3
390
F
  0
LAYER
  5
20B
100
AcDbSymbolTableRecord
100
AcDbLayerTableRecord
  2
18_DATUM_CAMS_JOINTS
 70
0
 62
7
  6
CONTINUOUS
370
-3
390
F
  0
LAYER
  5
20C
100
AcDbSymbolTableRecord
100
AcDbLayerTableRecord
  2
19_DATUM_FUNCTIONAL
 70
0
 62
7
  6
CONTINUOUS
370
-3
390
F
  0
LAYER
  5
20D
100
AcDbSymbolTableRecord
100
AcDbLayerTableRecord
  2
20_DATUM_KINEMATIC_SCHEME
 70
0
 62
7
  6
CONTINUOUS
370
-3
390
F
  0
LAYER
  5
20E
100
AcDbSymbolTableRecord
100
AcDbLayerTableRecord
  2
INTFCLR_59
 70
0
 62
7
  6
CONTINUOUS
370
-3
390
F
  0
ENDTAB
  0
TABLE
  2
STYLE
  5
3
100
AcDbSymbolTable
 70
1
  0
STYLE
  5
11
100
AcDbSymbolTableRecord
100
AcDbTextStyleTableRecord
  2
STANDARD
 70
0
 40
0.0
 41
0.8
 50
0.0
 71
0
 42
0.2
  3
txt
  4

  0
STYLE
  5
20F
100
AcDbSymbolTableRecord
100
AcDbTextStyleTableRecord
  2
TEXTSTYLE_1
 70
0
 40
0.0
 41
0.8
 50
0.0
 71
0
 42
0.2
  3
gdt
  4

  0
ENDTAB
  0
TABLE
  2
VIEW
  5
6
100
AcDbSymbolTable
 70
0
  0
ENDTAB
  0
TABLE
  2
UCS
  5
7
100
AcDbSymbolTable
 70
0
  0
ENDTAB
  0
TABLE
  2
APPID
  5
9
100
AcDbSymbolTable
 70
1
  0
APPID
  5
210
100
AcDbSymbolTableRecord
100
AcDbRegAppTableRecord
  2
ACAD
 70
0
  0
ENDTAB
  0
TABLE
  2
BLOCK_RECORD
  5
1
100
AcDbSymbolTable
 70
0
  0
BLOCK_RECORD
  5
211
100
AcDbSymbolTableRecord
100
AcDbBlockTableRecord
  2
*Model_Space
  0
BLOCK_RECORD
  5
212
100
AcDbSymbolTableRecord
100
AcDbBlockTableRecord
  2
*Paper_Space
  0
BLOCK_RECORD
  5
213
100
AcDbSymbolTableRecord
100
AcDbBlockTableRecord
  2
_FILLED
  0
ENDTAB
  0
TABLE
  2
DIMSTYLE
  5
A
100
AcDbSymbolTable
 70
1
100
AcDbDimStyleTable
 71
0
  0
DIMSTYLE
105
214
100
AcDbSymbolTableRecord
100
AcDbDimStyleTableRecord
  2
STANDARD
 70
0
  3

  4

 40
1.0
 41
1.9005488047
 42
1.0
 43
0.38
 44
1.0
 45
0.0
 46
0.0
 47
0.01
 48
0.01
140
2.6607683266
141
0.09
142
0.0
143
25.4
144
1.0
145
0.0
146
1.0
147
0.625
 71
1
 72
0
 73
0
 74
0
 75
0
 76
0
 77
1
 78
8
 79
2
170
0
171
1
172
0
173
0
174
0
175
0
176
0
177
0
178
0
270
2
179
2
271
2
272
2
273
2
274
2
275
0
280
0
281
0
282
0
283
1
284
8
285
0
286
0
287
3
288
0
340
11
278
46
341
213
342
213
343
213
344
213
  0
ENDTAB
  0
ENDSEC
  0
SECTION
  2
BLOCKS
  0
BLOCK
  5
20
100
AcDbEntity
  8
0
100
AcDbBlockBegin
  2
*Model_Space
 70
0
 10
0.0
 20
0.0
 30
0.0
  3
*Model_Space
  1

  0
ENDBLK
  5
21
100
AcDbEntity
  8
0
100
AcDbBlockEnd
  0
BLOCK
  5
1C
100
AcDbEntity
  8
0
100
AcDbBlockBegin
  2
*Paper_Space
 70
0
 10
0.0
 20
0.0
 30
0.0
  3
*Paper_Space
  1

  0
ENDBLK
  5
1D
100
AcDbEntity
  8
0
100
AcDbBlockEnd
  0
BLOCK
  5
215
100
AcDbEntity
  8
0
100
AcDbBlockBegin
  2
_FILLED
 70
64
 10
0.0
 20
0.0
  3
_FILLED
  1

  0
SOLID
  5
216
100
AcDbEntity
  8
0
  6
BYBLOCK
 62
0
100
AcDbTrace
 10
0.0
 20
0.0
 11
-1.0
 21
0.25
 12
-1.0
 22
-0.25
 13
-1.0
 23
-0.25
  0
ENDBLK
  5
217
100
AcDbEntity
  8
0
  6
BYBLOCK
 62
0
100
AcDbBlockEnd
  0
ENDSEC
  0
SECTION
  2
ENTITIES
  0
LINE
  5
218
100
AcDbEntity
  8
0
100
AcDbLine
 62
7
  6
CONTINUOUS
 10
22.6595597649
 20
33.8689578716
 11
21.4595597649
 21
33.8689578716
  0
LINE
  5
219
100
AcDbEntity
  8
0
100
AcDbLine
 62
7
  6
CONTINUOUS
 10
21.4595597649
 20
34.8115265872
 11
22.6595597649
 21
34.8115265872
  0
LINE
  5
21A
100
AcDbEntity
  8
0
100
AcDbLine
 62
7
  6
CONTINUOUS
 10
65.8595597649
 20
35.6689578716
 11
18.9595597649
 21
35.6689578716
  0
LINE
  5
21B
100
AcDbEntity
  8
0
100
AcDbLine
 62
7
  6
CONTINUOUS
 10
19.0595597649
 20
36.6676054669
 11
20.7595597649
 21
36.6676054669
  0
LINE
  5
21C
100
AcDbEntity
  8
0
100
AcDbLine
 62
7
  6
CONTINUOUS
 10
20.7595597649
 20
37.7859578716
 11
19.0595597649
 21
37.7859578716
  0
LINE
  5
21D
100
AcDbEntity
  8
0
100
AcDbLine
 62
7
  6
CONTINUOUS
 10
85.0095597649
 20
45.0689578716
 11
99.9628023544
 21
45.0689578716
  0
LINE
  5
21E
100
AcDbEntity
  8
0
100
AcDbLine
 62
7
  6
CONTINUOUS
 10
100.001083182
 20
45.0689578716
 11
100.363722805
 21
45.0689578716
  0
LINE
  5
21F
100
AcDbEntity
  8
0
100
AcDbLine
 62
7
  6
CONTINUOUS
 10
100.3827167031
 20
45.0689578716
 11
100.5010841375
 21
45.0689578716
  0
LINE
  5
220
100
AcDbEntity
  8
0
100
AcDbLine
 62
7
  6
CONTINUOUS
 10
105.9595597649
 20
45.8689578716
 11
84.5817434908
 21
45.8689578716
  0
LINE
  5
221
100
AcDbEntity
  8
0
100
AcDbLine
 62
7
  6
CONTINUOUS
 10
18.6095597649
 20
79.8689578716
 11
18.6095597649
 21
81.8701434527
  0
LINE
  5
222
100
AcDbEntity
  8
0
100
AcDbLine
 62
7
  6
CONTINUOUS
 10
18.9595597649
 20
35.6689578716
 11
18.9595597649
 21
97.9255821984
  0
LINE
  5
223
100
AcDbEntity
  8
0
100
AcDbLine
 62
7
  6
CONTINUOUS
 10
18.9595597649
 20
132.6689578716
 11
18.9595597649
 21
189.3689578716
  0
LINE
  5
224
100
AcDbEntity
  8
0
100
AcDbLine
 62
7
  6
CONTINUOUS
 10
19.0595597649
 20
192.4689423344
 11
19.0595597649
 21
189.578962815
  0
LINE
  5
225
100
AcDbEntity
  8
0
100
AcDbLine
 62
7
  6
CONTINUOUS
 10
19.0595597649
 20
52.1689578716
 11
19.0595597649
 21
35.6689734087
  0
LINE
  5
226
100
AcDbEntity
  8
0
100
AcDbLine
 62
7
  6
CONTINUOUS
 10
19.2595597649
 20
99.7689578716
 11
19.2595597649
 21
98.0421629524
  0
LINE
  5
227
100
AcDbEntity
  8
0
100
AcDbLine
 62
7
  6
CONTINUOUS
 10
19.4595597649
 20
125.1689578716
 11
19.4595597649
 21
109.7689578716
  0
LINE
  5
228
100
AcDbEntity
  8
0
100
AcDbLine
 62
7
  6
CONTINUOUS
 10
20.5595597649
 20
189.6689578716
 11
20.5595597649
 21
192.4689423344
  0
LINE
  5
229
100
AcDbEntity
  8
0
100
AcDbLine
 62
7
  6
CONTINUOUS
 10
20.7595597649
 20
53.3689578716
 11
20.7595597649
 21
35.6689578716
  0
LINE
  5
22A
100
AcDbEntity
  8
0
100
AcDbLine
 62
7
  6
CONTINUOUS
 10
21.4595597649
 20
35.6689578716
 11
21.4595597649
 21
33.8689660972
  0
LINE
  5
22B
100
AcDbEntity
  8
0
100
AcDbLine
 62
7
  6
CONTINUOUS
 10
21.4595597649
 20
99.3123335448
 11
21.4595597649
 21
102.2689578716
  0
LINE
  5
22C
100
AcDbEntity
  8
0
100
AcDbLine
 62
7
  6
CONTINUOUS
 10
21.9595597649
 20
134.9689578716
 11
20.8870521512
 21
132.6689578716
  0
LINE
  5
22D
100
AcDbEntity
  8
0
100
AcDbLine
 62
7
  6
CONTINUOUS
 10
65.8595597649
 20
47.7689578716
 11
84.4272555771
 21
47.7689578716
  0
LINE
  5
22E
100
AcDbEntity
  8
0
100
AcDbLine
 62
7
  6
CONTINUOUS
 10
20.7595597649
 20
52.1689578716
 11
18.9595597649
 21
52.1689578716
  0
LINE
  5
22F
100
AcDbEntity
  8
0
100
AcDbLine
 62
7
  6
CONTINUOUS
 10
22.659559765
 20
33.8689660972
 11
22.6595597649
 21
35.6689578716
  0
LINE
  5
230
100
AcDbEntity
  8
0
100
AcDbLine
 62
7
  6
CONTINUOUS
 10
22.8595597646
 20
132.9689578716
 11
22.8595597646
 21
129.5833172255
  0
LINE
  5
231
100
AcDbEntity
  8
0
100
AcDbLine
 62
7
  6
CONTINUOUS
 10
22.9595597649
 20
99.3689578716
 11
22.9595597649
 21
107.7482319294
  0
LINE
  5
232
100
AcDbEntity
  8
0
100
AcDbLine
 62
7
  6
CONTINUOUS
 10
23.6595597646
 20
127.5938290023
 11
23.6595597646
 21
134.9689578716
  0
LINE
  5
233
100
AcDbEntity
  8
0
100
AcDbLine
 62
7
  6
CONTINUOUS
 10
18.9595597649
 20
53.3689578716
 11
20.7595597649
 21
53.3689578716
  0
LINE
  5
234
100
AcDbEntity
  8
0
100
AcDbLine
 62
7
  6
CONTINUOUS
 10
125.8595597649
 20
53.8061126361
 11
127.5595597649
 21
53.8061126361
  0
LINE
  5
235
100
AcDbEntity
  8
0
100
AcDbLine
 62
7
  6
CONTINUOUS
 10
127.5595597649
 20
53.8140800565
 11
125.8595597649
 21
53.8140800565
  0
LINE
  5
236
100
AcDbEntity
  8
0
100
AcDbLine
 62
7
  6
CONTINUOUS
 10
125.8595597649
 20
54.4689578716
 11
105.9595597649
 21
54.4689578716
  0
LINE
  5
237
100
AcDbEntity
  8
0
100
AcDbLine
 62
7
  6
CONTINUOUS
 10
105.9595597649
 20
57.3189578716
 11
126.5722961676
 21
57.3189578716
  0
LINE
  5
238
100
AcDbEntity
  8
0
100
AcDbLine
 62
7
  6
CONTINUOUS
 10
127.5595597649
 20
61.8367614408
 11
126.7424808306
 21
61.8367614408
  0
LINE
  5
239
100
AcDbEntity
  8
0
100
AcDbLine
 62
7
  6
CONTINUOUS
 10
19.4595597649
 20
125.1689578715
 11
23.6595597646
 21
127.5938290023
  0
LINE
  5
23A
100
AcDbEntity
  8
0
100
AcDbLine
 62
7
  6
CONTINUOUS
 10
128.1323538116
 20
71.0913314476
 11
125.1344708133
 21
70.9866430665
  0
LINE
  5
23B
100
AcDbEntity
  8
0
100
AcDbLine
 62
7
  6
CONTINUOUS
 10
18.6095597649
 20
81.8701434527
 11
18.9595597649
 21
82.369995255
  0
LINE
  5
23C
100
AcDbEntity
  8
0
100
AcDbLine
 62
7
  6
CONTINUOUS
 10
19.2595597649
 20
99.7689578716
 11
21.3595597649
 21
102.2689578716
  0
LINE
  5
23D
100
AcDbEntity
  8
0
100
AcDbLine
 62
7
  6
CONTINUOUS
 10
18.9595597649
 20
79.8689578716
 11
18.6095597649
 21
79.8689578716
  0
LINE
  5
23E
100
AcDbEntity
  8
0
100
AcDbLine
 62
7
  6
CONTINUOUS
 10
22.9595597649
 20
107.7482319294
 11
19.4595597649
 21
109.7689578716
  0
LINE
  5
23F
100
AcDbEntity
  8
0
100
AcDbLine
 62
7
  6
CONTINUOUS
 10
128.1323538116
 20
89.9668719833
 11
106.1323538118
 21
89.9668719833
  0
LINE
  5
240
100
AcDbEntity
  8
0
100
AcDbLine
 62
7
  6
CONTINUOUS
 10
110.3323538118
 20
92.9668719833
 11
106.1323538118
 21
92.9668719833
  0
LINE
  5
241
100
AcDbEntity
  8
0
100
AcDbLine
 62
7
  6
CONTINUOUS
 10
65.8600136744
 20
186.5184374405
 11
65.8599772983
 21
186.5191991112
  0
LINE
  5
242
100
AcDbEntity
  8
0
100
AcDbLine
 62
7
  6
CONTINUOUS
 10
65.8599773266
 20
178.7210778046
 11
65.8600136744
 21
178.720253287
  0
LINE
  5
243
100
AcDbEntity
  8
0
100
AcDbLine
 62
7
  6
CONTINUOUS
 10
64.006007012
 20
176.9689578716
 11
64.006007012
 21
189.6689578716
  0
LINE
  5
244
100
AcDbEntity
  8
0
100
AcDbLine
 62
7
  6
CONTINUOUS
 10
65.8595597649
 20
35.6689578716
 11
65.8595597649
 21
47.7689578716
  0
LINE
  5
245
100
AcDbEntity
  8
0
100
AcDbLine
 62
7
  6
CONTINUOUS
 10
65.8600136744
 20
176.9689578716
 11
65.8600136744
 21
178.7202401337
  0
LINE
  5
246
100
AcDbEntity
  8
0
100
AcDbLine
 62
7
  6
CONTINUOUS
 10
65.8600136744
 20
186.5176756095
 11
65.8600136744
 21
189.6689578716
  0
LINE
  5
247
100
AcDbEntity
  8
0
100
AcDbLine
 62
7
  6
CONTINUOUS
 10
18.9595597649
 20
97.9255821984
 11
19.2595597649
 21
98.0987872792
  0
LINE
  5
248
100
AcDbEntity
  8
0
100
AcDbLine
 62
7
  6
CONTINUOUS
 10
18.9595597649
 20
97.8689578716
 11
21.5576359759
 21
99.3689578716
  0
LINE
  5
249
100
AcDbEntity
  8
0
100
AcDbLine
 62
7
  6
CONTINUOUS
 10
21.459559765
 20
99.3689578716
 11
22.9595597649
 21
99.3689578716
  0
LINE
  5
24A
100
AcDbEntity
  8
0
100
AcDbLine
 62
7
  6
CONTINUOUS
 10
21.3595597649
 20
102.2689578716
 11
21.4595597649
 21
102.2689578716
  0
LINE
  5
24B
100
AcDbEntity
  8
0
100
AcDbLine
 62
7
  6
CONTINUOUS
 10
110.3323538118
 20
113.8668719833
 11
124.3323538118
 21
113.8668719833
  0
LINE
  5
24C
100
AcDbEntity
  8
0
100
AcDbLine
 62
7
  6
CONTINUOUS
 10
85.0095597649
 20
45.0689578716
 11
85.0095597649
 21
45.8689578716
  0
LINE
  5
24D
100
AcDbEntity
  8
0
100
AcDbLine
 62
7
  6
CONTINUOUS
 10
110.3323538118
 20
115.2968719833
 11
108.9595597649
 21
115.2968719833
  0
LINE
  5
24E
100
AcDbEntity
  8
0
100
AcDbLine
 62
7
  6
CONTINUOUS
 10
124.3323538118
 20
115.4668719833
 11
110.3323538118
 21
115.4668719833
  0
LINE
  5
24F
100
AcDbEntity
  8
0
100
AcDbLine
 62
7
  6
CONTINUOUS
 10
91.2595597649
 20
45.0689578716
 11
91.2595597649
 21
45.8689578716
  0
LINE
  5
250
100
AcDbEntity
  8
0
100
AcDbLine
 62
7
  6
CONTINUOUS
 10
100.363722805
 20
45.0689578716
 11
100.3580443598
 21
45.8689578716
  0
LINE
  5
251
100
AcDbEntity
  8
0
100
AcDbLine
 62
7
  6
CONTINUOUS
 10
100.001083182
 20
45.0689578716
 11
99.9999302488
 21
45.8689578716
  0
LINE
  5
252
100
AcDbEntity
  8
0
100
AcDbLine
 62
7
  6
CONTINUOUS
 10
99.9628023544
 20
45.0689578716
 11
99.9621313281
 21
45.8689578716
  0
LINE
  5
253
100
AcDbEntity
  8
0
100
AcDbLine
 62
7
  6
CONTINUOUS
 10
100.5010841375
 20
45.0689578716
 11
100.5010841353
 21
45.8689578716
  0
LINE
  5
254
100
AcDbEntity
  8
0
100
AcDbLine
 62
7
  6
CONTINUOUS
 10
22.8595597646
 20
129.5833172255
 11
23.6595597646
 21
129.5833172255
  0
LINE
  5
255
100
AcDbEntity
  8
0
100
AcDbLine
 62
7
  6
CONTINUOUS
 10
20.8870521512
 20
132.6689578716
 11
18.9595597649
 21
132.6689578716
  0
LINE
  5
256
100
AcDbEntity
  8
0
100
AcDbLine
 62
7
  6
CONTINUOUS
 10
22.8595597646
 20
132.9689578716
 11
23.6595597646
 21
132.9689578716
  0
LINE
  5
257
100
AcDbEntity
  8
0
100
AcDbLine
 62
7
  6
CONTINUOUS
 10
105.9595597649
 20
57.3189578716
 11
105.9595597649
 21
45.8689578716
  0
LINE
  5
258
100
AcDbEntity
  8
0
100
AcDbLine
 62
7
  6
CONTINUOUS
 10
106.1323538118
 20
92.9668719833
 11
106.1323538122
 21
57.3189578716
  0
LINE
  5
259
100
AcDbEntity
  8
0
100
AcDbLine
 62
7
  6
CONTINUOUS
 10
108.9595597649
 20
154.3689578716
 11
108.9595597649
 21
115.2968719833
  0
LINE
  5
25A
100
AcDbEntity
  8
0
100
AcDbLine
 62
7
  6
CONTINUOUS
 10
23.6595597646
 20
134.9689578716
 11
21.9595597649
 21
134.9689578716
  0
LINE
  5
25B
100
AcDbEntity
  8
0
100
AcDbLine
 62
7
  6
CONTINUOUS
 10
110.3323538118
 20
92.9668719833
 11
110.3323538118
 21
115.4668719833
  0
LINE
  5
25C
100
AcDbEntity
  8
0
100
AcDbLine
 62
7
  6
CONTINUOUS
 10
108.9595597649
 20
154.3689578716
 11
130.1596692477
 21
154.3689578716
  0
LINE
  5
25D
100
AcDbEntity
  8
0
100
AcDbLine
 62
7
  6
CONTINUOUS
 10
125.1344708133
 20
70.9866430665
 11
125.6117568975
 21
57.3189578716
  0
LINE
  5
25E
100
AcDbEntity
  8
0
100
AcDbLine
 62
7
  6
CONTINUOUS
 10
127.3215273572
 20
61.8284491659
 11
126.9994419211
 21
71.0517692926
  0
LINE
  5
25F
100
AcDbEntity
  8
0
100
AcDbLine
 62
7
  6
CONTINUOUS
 10
124.3323538118
 20
113.8668719833
 11
124.3323538118
 21
115.4668719833
  0
LINE
  5
260
100
AcDbEntity
  8
0
100
AcDbLine
 62
7
  6
CONTINUOUS
 10
125.8595597649
 20
57.3189578716
 11
125.8595597649
 21
53.8064881161
  0
LINE
  5
261
100
AcDbEntity
  8
0
100
AcDbLine
 62
7
  6
CONTINUOUS
 10
126.23214722
 20
71.0249747713
 11
126.23214722
 21
89.9668719833
  0
LINE
  5
262
100
AcDbEntity
  8
0
100
AcDbLine
 62
7
  6
CONTINUOUS
 10
126.2595597649
 20
177.5104140737
 11
126.2595597649
 21
176.9689578716
  0
LINE
  5
263
100
AcDbEntity
  8
0
100
AcDbLine
 62
7
  6
CONTINUOUS
 10
127.5595597649
 20
53.8064881161
 11
127.5595597649
 21
61.8367971791
  0
LINE
  5
264
100
AcDbEntity
  8
0
100
AcDbLine
 62
7
  6
CONTINUOUS
 10
128.1323538116
 20
71.0913314476
 11
128.1323538116
 21
89.9668719833
  0
LINE
  5
265
100
AcDbEntity
  8
0
100
AcDbLine
 62
7
  6
CONTINUOUS
 10
128.3582817748
 20
154.3689578716
 11
128.3582817748
 21
176.9689578716
  0
LINE
  5
266
100
AcDbEntity
  8
0
100
AcDbLine
 62
7
  6
CONTINUOUS
 10
129.2595597649
 20
176.9689578716
 11
129.2595597649
 21
179.7439578716
  0
LINE
  5
267
100
AcDbEntity
  8
0
100
AcDbLine
 62
7
  6
CONTINUOUS
 10
130.1596692477
 20
154.3689578716
 11
130.1596692477
 21
157.1216964574
  0
LINE
  5
268
100
AcDbEntity
  8
0
100
AcDbLine
 62
7
  6
CONTINUOUS
 10
130.1596692477
 20
173.7457601573
 11
130.1596692477
 21
176.9689578716
  0
LINE
  5
269
100
AcDbEntity
  8
0
100
AcDbLine
 62
7
  6
CONTINUOUS
 10
130.2595597649
 20
173.7457601573
 11
130.2595597649
 21
179.7439578716
  0
LINE
  5
26A
100
AcDbEntity
  8
0
100
AcDbLine
 62
7
  6
CONTINUOUS
 10
129.8021094188
 20
157.1216964574
 11
130.9582817748
 21
157.1216964574
  0
LINE
  5
26B
100
AcDbEntity
  8
0
100
AcDbLine
 62
7
  6
CONTINUOUS
 10
143.1530609346
 20
161.2046512656
 11
130.9582817748
 21
161.2046512656
  0
LINE
  5
26C
100
AcDbEntity
  8
0
100
AcDbLine
 62
7
  6
CONTINUOUS
 10
130.9582817748
 20
157.121789149
 11
130.9582817748
 21
173.7452954425
  0
LINE
  5
26D
100
AcDbEntity
  8
0
100
AcDbLine
 62
7
  6
CONTINUOUS
 10
130.9582817748
 20
161.6935729996
 11
129.0773859744
 21
161.6935729996
  0
LINE
  5
26E
100
AcDbEntity
  8
0
100
AcDbLine
 62
7
  6
CONTINUOUS
 10
145.0582817748
 20
161.8843574394
 11
130.9582817748
 21
161.8843574395
  0
LINE
  5
26F
100
AcDbEntity
  8
0
100
AcDbLine
 62
7
  6
CONTINUOUS
 10
145.4582817748
 20
163.4978022417
 11
145.0582817748
 21
163.4978022417
  0
LINE
  5
270
100
AcDbEntity
  8
0
100
AcDbLine
 62
7
  6
CONTINUOUS
 10
145.4582817748
 20
164.5091420736
 11
145.0582817748
 21
164.5091420736
  0
LINE
  5
271
100
AcDbEntity
  8
0
100
AcDbLine
 62
7
  6
CONTINUOUS
 10
130.9582817748
 20
164.5927505899
 11
145.0582817748
 21
164.592750589
  0
LINE
  5
272
100
AcDbEntity
  8
0
100
AcDbLine
 62
7
  6
CONTINUOUS
 10
145.4582817748
 20
165.5636741793
 11
145.0582817748
 21
165.5636741793
  0
LINE
  5
273
100
AcDbEntity
  8
0
100
AcDbLine
 62
7
  6
CONTINUOUS
 10
145.0582817748
 20
166.3999858145
 11
145.4582817748
 21
166.3999858145
  0
LINE
  5
274
100
AcDbEntity
  8
0
100
AcDbLine
 62
7
  6
CONTINUOUS
 10
130.9582817748
 20
166.6208810298
 11
128.9719789727
 21
166.6208810298
  0
LINE
  5
275
100
AcDbEntity
  8
0
100
AcDbLine
 62
7
  6
CONTINUOUS
 10
145.0582817748
 20
166.6629747249
 11
130.9582817748
 21
166.6629747249
  0
LINE
  5
276
100
AcDbEntity
  8
0
100
AcDbLine
 62
7
  6
CONTINUOUS
 10
126.2595597649
 20
177.5104140737
 11
129.2595597649
 21
177.8189578716
  0
LINE
  5
277
100
AcDbEntity
  8
0
100
AcDbLine
 62
7
  6
CONTINUOUS
 10
130.9582817748
 20
169.3270291949
 11
145.0582817748
 21
169.3270291967
  0
LINE
  5
278
100
AcDbEntity
  8
0
100
AcDbLine
 62
7
  6
CONTINUOUS
 10
129.8021094188
 20
173.7457601573
 11
130.9582817748
 21
173.7457601573
  0
LINE
  5
279
100
AcDbEntity
  8
0
100
AcDbLine
 62
7
  6
CONTINUOUS
 10
145.0582817748
 20
161.8843636723
 11
145.0582817748
 21
169.327026916
  0
LINE
  5
27A
100
AcDbEntity
  8
0
100
AcDbLine
 62
7
  6
CONTINUOUS
 10
145.4582817748
 20
163.4978022417
 11
145.4582817748
 21
166.3999858145
  0
LINE
  5
27B
100
AcDbEntity
  8
0
100
AcDbLine
 62
7
  6
CONTINUOUS
 10
64.006007012
 20
176.9689578716
 11
130.1596692477
 21
176.9689578716
  0
LINE
  5
27C
100
AcDbEntity
  8
0
100
AcDbLine
 62
7
  6
CONTINUOUS
 10
130.2595597649
 20
179.7439578716
 11
129.2595597649
 21
179.7439578716
  0
LINE
  5
27D
100
AcDbEntity
  8
0
100
AcDbLine
 62
7
  6
CONTINUOUS
 10
19.2595597649
 20
189.6689578716
 11
65.8600136744
 21
189.6689578716
  0
LINE
  5
27E
100
AcDbEntity
  8
0
100
AcDbLine
 62
7
  6
CONTINUOUS
 10
20.5595597649
 20
190.3519578716
 11
19.0595597649
 21
190.3519578716
  0
LINE
  5
27F
100
AcDbEntity
  8
0
100
AcDbLine
 62
7
  6
CONTINUOUS
 10
20.5595597649
 20
191.4703102763
 11
19.0595597649
 21
191.4703102763
  0
LINE
  5
280
100
AcDbEntity
  8
0
100
AcDbLine
 62
7
  6
CONTINUOUS
 10
20.5595597649
 20
192.4689578716
 11
19.0595597649
 21
192.4689578716
  0
ARC
  5
281
100
AcDbEntity
  8
0
100
AcDbCircle
 62
7
  6
CONTINUOUS
 10
483.1876433873
 20
79.2356563544
 40
400.0
100
AcDbArc
 50
184.5119343834
 51
184.784987751
  0
ARC
  5
282
100
AcDbEntity
  8
0
100
AcDbCircle
 62
7
  6
CONTINUOUS
 10
195.3880341173
 20
165.5022370519
 40
66.4254881544
100
AcDbArc
 50
179.0350600285
 51
180.0073415293
  0
ARC
  5
283
100
AcDbEntity
  8
0
100
AcDbCircle
 62
7
  6
CONTINUOUS
 10
19.2595597649
 20
189.3689578716
 40
0.3
100
AcDbArc
 50
90.0
 51
180.0
  0
SPLINE
  5
284
100
AcDbEntity
  8
0
100
AcDbSpline
 62
7
  6
CONTINUOUS
 70
0
 71
3
 72
23
 73
19
 74
0
 42
0.0000001
 43
0.0000001
 44
0.0000000001
 40
0.0
 40
0.0
 40
0.0
 40
0.0
 40
0.0012796429
 40
0.0049955322
 40
0.011109189
 40
0.0195819221
 40
0.0303750254
 40
0.0434540319
 40
0.076377425
 40
0.1181762043
 40
0.1686215027
 40
0.2271644055
 40
0.2931401147
 40
0.3658696841
 40
0.4446433025
 40
0.6174028631
 40
0.8050396987
 40
1.0
 40
1.0
 40
1.0
 40
1.0
 10
65.8599764832
 20
186.5196690793
 30
0.0
 10
65.8589583945
 20
186.5183527624
 30
0.0
 10
65.8607867097
 20
186.5110431157
 30
0.0
 10
65.858278176
 20
186.4973801087
 30
0.0
 10
65.8586087054
 20
186.4731578301
 30
0.0
 10
65.857079486
 20
186.4403593466
 30
0.0
 10
65.8559744013
 20
186.3982444351
 30
0.0
 10
65.8536683214
 20
186.3244530288
 30
0.0
 10
65.8504340354
 20
186.2102988673
 30
0.0
 10
65.8459835815
 20
186.0475965406
 30
0.0
 10
65.84099717
 20
185.8515683544
 30
0.0
 10
65.8356102477
 20
185.6241042242
 30
0.0
 10
65.8300361797
 20
185.3676562534
 30
0.0
 10
65.8244730954
 20
185.0848941264
 30
0.0
 10
65.8171179461
 20
184.6632759731
 30
0.0
 10
65.8092926845
 20
184.0922157164
 30
0.0
 10
65.8032158781
 20
183.3700337753
 30
0.0
 10
65.8018007525
 20
182.87249067
 30
0.0
 10
65.8018007525
 20
182.6189578716
 30
0.0
  0
SPLINE
  5
285
100
AcDbEntity
  8
0
100
AcDbSpline
 62
7
  6
CONTINUOUS
 70
0
 71
3
 72
18
 73
14
 74
0
 42
0.0000001
 43
0.0000001
 44
0.0000000001
 40
0.0
 40
0.0
 40
0.0
 40
0.0
 40
0.0107670694
 40
0.0279684675
 40
0.0533437234
 40
0.0871669285
 40
0.129368568
 40
0.1796593776
 40
0.3028165239
 40
0.4523631394
 40
0.6227374967
 40
0.8077747519
 40
1.0
 40
1.0
 40
1.0
 40
1.0
 10
65.1855517152
 20
186.5188059803
 30
0.0
 10
65.1713093688
 20
186.5188295552
 30
0.0
 10
65.136764256
 20
186.4964915032
 30
0.0
 10
65.101431239
 20
186.4355482161
 30
0.0
 10
65.0627703053
 20
186.3417144975
 30
0.0
 10
65.0250698061
 20
186.2129150138
 30
0.0
 10
64.9871727209
 20
186.0501078133
 30
0.0
 10
64.9344912254
 20
185.7697001028
 30
0.0
 10
64.876018666
 20
185.3462541503
 30
0.0
 10
64.8189949474
 20
184.7628514744
 30
0.0
 10
64.775223324
 20
184.0962367643
 30
0.0
 10
64.7477236993
 20
183.3722838099
 30
0.0
 10
64.7414668127
 20
182.8732278333
 30
0.0
 10
64.7414668127
 20
182.6189578716
 30
0.0
  0
SPLINE
  5
286
100
AcDbEntity
  8
0
100
AcDbSpline
 62
7
  6
CONTINUOUS
 70
0
 71
3
 72
14
 73
10
 74
0
 42
0.0000001
 43
0.0000001
 44
0.0000000001
 40
0.0
 40
0.0
 40
0.0
 40
0.0
 40
0.0394255409
 40
0.0995085327
 40
0.1858237108
 40
0.2992718488
 40
0.43916928
 40
0.604161651
 40
1.0
 40
1.0
 40
1.0
 40
1.0
 10
126.2049861602
 20
60.5189920582
 30
0.0
 10
126.1887954011
 20
60.5189840378
 30
0.0
 10
126.1498478584
 20
60.5411133453
 30
0.0
 10
126.1070535536
 20
60.6045339647
 30
0.0
 10
126.0612518035
 20
60.7013501734
 30
0.0
 10
126.0160796565
 20
60.8334676633
 30
0.0
 10
125.9708810566
 20
60.9992982252
 30
0.0
 10
125.9088011329
 20
61.2803667049
 30
0.0
 10
125.8718051356
 20
61.5078912141
 30
0.0
 10
125.8492381921
 20
61.668874845
 30
0.0
  0
SPLINE
  5
287
100
AcDbEntity
  8
0
100
AcDbSpline
 62
7
  6
CONTINUOUS
 70
0
 71
3
 72
12
 73
8
 74
0
 42
0.0000001
 43
0.0000001
 44
0.0000000001
 40
0.0
 40
0.0
 40
0.0
 40
0.0
 40
0.1275717716
 40
0.2161110808
 40
0.3263601347
 40
0.6164497226
 40
1.0
 40
1.0
 40
1.0
 40
1.0
 10
126.0199291683
 20
65.8189627066
 30
0.0
 10
126.0031744751
 20
65.8189593839
 30
0.0
 10
125.9759217178
 20
65.8024337591
 30
0.0
 10
125.9499253021
 20
65.7688503053
 30
0.0
 10
125.9180126176
 20
65.7126816148
 30
0.0
 10
125.8825493346
 20
65.615659478
 30
0.0
 10
125.8603355883
 20
65.5299470872
 30
0.0
 10
125.8492381921
 20
65.480810934
 30
0.0
  0
SPLINE
  5
288
100
AcDbEntity
  8
0
100
AcDbSpline
 62
7
  6
CONTINUOUS
 70
0
 71
3
 72
18
 73
14
 74
0
 42
0.0000001
 43
0.0000001
 44
0.0000000001
 40
0.0
 40
0.0
 40
0.0
 40
0.0
 40
0.1921952977
 40
0.3772469048
 40
0.5476589295
 40
0.6971296476
 40
0.8203021994
 40
0.8706328611
 40
0.9128357496
 40
0.9466295451
 40
0.9719827041
 40
0.9892012589
 40
1.0
 40
1.0
 40
1.0
 40
1.0
 10
64.7414668127
 20
182.6189578716
 30
0.0
 10
64.7414668127
 20
182.3647284527
 30
0.0
 10
64.747765579
 20
181.8656951424
 30
0.0
 10
64.7752487443
 20
181.1417168125
 30
0.0
 10
64.8188903485
 20
180.4751264156
 30
0.0
 10
64.8760193761
 20
179.8917649284
 30
0.0
 10
64.9345252391
 20
179.4683545826
 30
0.0
 10
64.9871514581
 20
179.1878636758
 30
0.0
 10
65.0250340646
 20
179.0250329023
 30
0.0
 10
65.0627609695
 20
178.8963202704
 30
0.0
 10
65.1014372512
 20
178.8025181508
 30
0.0
 10
65.1368400052
 20
178.7416240738
 30
0.0
 10
65.1712679863
 20
178.7190567289
 30
0.0
 10
65.1855519304
 20
178.7189698543
 30
0.0
  0
SPLINE
  5
289
100
AcDbEntity
  8
0
100
AcDbSpline
 62
7
  6
CONTINUOUS
 70
0
 71
3
 72
26
 73
22
 74
0
 42
0.0000001
 43
0.0000001
 44
0.0000000001
 40
0.0
 40
0.0
 40
0.0
 40
0.0
 40
0.1949521388
 40
0.3825613537
 40
0.5554128092
 40
0.6342525171
 40
0.7069892677
 40
0.7728815437
 40
0.8313379511
 40
0.8818049981
 40
0.9237899297
 40
0.9414780418
 40
0.9568991703
 40
0.9700053719
 40
0.9807604969
 40
0.9891498653
 40
0.9951610807
 40
0.9972710146
 40
0.9987817794
 40
0.9996918645
 40
1.0
 40
1.0
 40
1.0
 40
1.0
 10
65.8018007525
 20
182.6189578716
 30
0.0
 10
65.8018007525
 20
182.3654834906
 30
0.0
 10
65.8032123514
 20
181.8680807032
 30
0.0
 10
65.8092948473
 20
181.1459620472
 30
0.0
 10
65.8171113677
 20
180.5748398528
 30
0.0
 10
65.8244585472
 20
180.1530863477
 30
0.0
 10
65.8300171561
 20
179.8703905573
 30
0.0
 10
65.8356003178
 20
179.614203186
 30
0.0
 10
65.8409970218
 20
179.3869737335
 30
0.0
 10
65.8460003802
 20
179.1908285968
 30
0.0
 10
65.8498754141
 20
179.0476772357
 30
0.0
 10
65.8526415418
 20
178.9500814476
 30
0.0
 10
65.8543859673
 20
178.8900143589
 30
0.0
 10
65.855925898
 20
178.8389737605
 30
0.0
 10
65.8571794025
 20
178.7970306727
 30
0.0
 10
65.8583151647
 20
178.7644198519
 30
0.0
 10
65.8588456936
 20
178.7427994627
 30
0.0
 10
65.8595593732
 20
178.730507895
 30
0.0
 10
65.8593691531
 20
178.724252861
 30
0.0
 10
65.8602826375
 20
178.7213631242
 30
0.0
 10
65.8595920248
 20
178.7190974356
 30
0.0
 10
65.8599762278
 20
178.7189838765
 30
0.0
  0
SPLINE
  5
28A
100
AcDbEntity
  8
0
100
AcDbSpline
 62
7
  6
CONTINUOUS
 70
0
 71
3
 72
12
 73
8
 74
0
 42
0.0000001
 43
0.0000001
 44
0.0000000001
 40
0.0
 40
0.0
 40
0.0
 40
0.0
 40
0.0838139992
 40
0.1895774654
 40
0.4490486733
 40
0.7353316896
 40
1.0
 40
1.0
 40
1.0
 40
1.0
 10
125.8492381921
 20
65.480810934
 30
0.0
 10
125.82569513
 20
65.3765688673
 30
0.0
 10
125.7866458702
 20
65.1376527954
 30
0.0
 10
125.7290823185
 20
64.567849146
 30
0.0
 10
125.7035847823
 20
63.7364957531
 30
0.0
 10
125.736422199
 20
62.7032631779
 30
0.0
 10
125.8023916449
 20
62.0030742669
 30
0.0
 10
125.8492402557
 20
61.668874845
 30
0.0
  0
SPLINE
  5
28B
100
AcDbEntity
  8
0
100
AcDbSpline
 62
7
  6
CONTINUOUS
 70
0
 71
3
 72
9
 73
5
 74
0
 42
0.0000001
 43
0.0000001
 44
0.0000000001
 40
0.0
 40
0.0
 40
0.0
 40
0.0
 40
0.2136387096
 40
1.0
 40
1.0
 40
1.0
 40
1.0
 10
144.3062428562
 20
161.9025395973
 30
0.0
 10
144.2232213887
 20
161.8542943698
 30
0.0
 10
143.8360142591
 20
161.6260617971
 30
0.0
 10
143.4527501036
 20
161.3912018578
 30
0.0
 10
143.1525562917
 20
161.2046512657
 30
0.0
  0
SPLINE
  5
28C
100
AcDbEntity
  8
0
100
AcDbSpline
 62
7
  6
CONTINUOUS
 70
0
 71
3
 72
17
 73
13
 74
0
 42
0.0000001
 43
0.0000001
 44
0.0000000001
 40
0.0
 40
0.0
 40
0.0
 40
0.0
 40
0.0114348099
 40
0.0291119595
 40
0.0548071239
 40
0.088836924
 40
0.1311527082
 40
0.1814767557
 40
0.3044943333
 40
0.4537109974
 40
0.6236745753
 40
1.0
 40
1.0
 40
1.0
 40
1.0
 10
133.2096744231
 20
161.8167664649
 30
0.0
 10
133.2097182412
 20
161.8023758238
 30
0.0
 10
133.2303330258
 20
161.7677122724
 30
0.0
 10
133.2886010753
 20
161.7305744925
 30
0.0
 10
133.3778400643
 20
161.6906381533
 30
0.0
 10
133.5001814702
 20
161.6512355956
 30
0.0
 10
133.6546585664
 20
161.6115914236
 30
0.0
 10
133.9204210692
 20
161.5562024763
 30
0.0
 10
134.3218476526
 20
161.4942593609
 30
0.0
 10
134.8751343793
 20
161.4334100996
 30
0.0
 10
135.7481682568
 20
161.3687475486
 30
0.0
 10
136.4359542327
 20
161.3501430575
 30
0.0
 10
136.9095597649
 20
161.3501655183
 30
0.0
  0
SPLINE
  5
28D
100
AcDbEntity
  8
0
100
AcDbSpline
 62
7
  6
CONTINUOUS
 70
0
 71
3
 72
15
 73
11
 74
0
 42
0.0000001
 43
0.0000001
 44
0.0000000001
 40
0.0
 40
0.0
 40
0.0
 40
0.0
 40
0.3762357157
 40
0.6949306699
 40
0.8173858355
 40
0.8673809105
 40
0.9093735757
 40
0.9432033374
 40
0.9690049933
 40
1.0
 40
1.0
 40
1.0
 40
1.0
 10
126.4439167964
 20
63.1689578716
 30
0.0
 10
126.4557476296
 20
62.8301671354
 30
0.0
 10
126.4641786438
 20
62.2039379598
 30
0.0
 10
126.4386248937
 20
61.4671695949
 30
0.0
 10
126.3918548861
 20
61.0269173016
 30
0.0
 10
126.3592792673
 20
60.8362284229
 30
0.0
 10
126.3344585354
 20
60.7259226493
 30
0.0
 10
126.3061061401
 20
60.6375603755
 30
0.0
 10
126.2747208427
 20
60.5654796878
 30
0.0
 10
126.232913388
 20
60.5190058925
 30
0.0
 10
126.2049861602
 20
60.5189920582
 30
0.0
  0
SPLINE
  5
28E
100
AcDbEntity
  8
0
100
AcDbSpline
 62
7
  6
CONTINUOUS
 70
0
 71
3
 72
19
 73
15
 74
0
 42
0.0000001
 43
0.0000001
 44
0.0000000001
 40
0.0
 40
0.0
 40
0.0
 40
0.0
 40
0.1927340963
 40
0.3782482116
 40
0.5490400224
 40
0.6988503721
 40
0.8220199308
 40
0.8721847227
 40
0.9141393779
 40
0.9476099104
 40
0.9725724921
 40
0.9819584628
 40
0.9894318302
 40
1.0
 40
1.0
 40
1.0
 40
1.0
 10
65.5173306372
 20
182.6189844057
 30
0.0
 10
65.5173306372
 20
182.8729366327
 30
0.0
 10
65.5139278596
 20
183.3713359724
 30
0.0
 10
65.4985261808
 20
184.0946283823
 30
0.0
 10
65.4728626316
 20
184.7610598957
 30
0.0
 10
65.4370929741
 20
185.3447313305
 30
0.0
 10
65.3974426308
 20
185.7688405345
 30
0.0
 10
65.3584958626
 20
186.0498681064
 30
0.0
 10
65.3292783957
 20
186.2128305089
 30
0.0
 10
65.2979839598
 20
186.3414312733
 30
0.0
 10
65.2691037349
 20
186.4262636473
 30
0.0
 10
65.2430293885
 20
186.4752118639
 30
0.0
 10
65.2220667121
 20
186.5041594061
 30
0.0
 10
65.1994766336
 20
186.518782931
 30
0.0
 10
65.1855517152
 20
186.5188059803
 30
0.0
  0
SPLINE
  5
28F
100
AcDbEntity
  8
0
100
AcDbSpline
 62
7
  6
CONTINUOUS
 70
0
 71
3
 72
18
 73
14
 74
0
 42
0.0000001
 43
0.0000001
 44
0.0000000001
 40
0.0
 40
0.0
 40
0.0
 40
0.0
 40
0.00885391
 40
0.0158054178
 40
0.0247537791
 40
0.0489256669
 40
0.0815774692
 40
0.1716021779
 40
0.2924876828
 40
0.4406513523
 40
0.6115351397
 40
0.8000243953
 40
1.0
 40
1.0
 40
1.0
 40
1.0
 10
129.8021091396
 20
173.7456922263
 30
0.0
 10
129.780780291
 20
173.7457018626
 30
0.0
 10
129.7471964287
 20
173.7167568707
 30
0.0
 10
129.7155127291
 20
173.6680639749
 30
0.0
 10
129.6718862748
 20
173.5809441649
 30
0.0
 10
129.6198133397
 20
173.4313671087
 30
0.0
 10
129.5274386959
 20
173.0895217917
 30
0.0
 10
129.4177772225
 20
172.5126251434
 30
0.0
 10
129.2945568825
 20
171.6563265212
 30
0.0
 10
129.1805717038
 20
170.6024767945
 30
0.0
 10
129.0830501435
 20
169.3836006991
 30
0.0
 10
129.0097553935
 20
168.0380034283
 30
0.0
 10
128.981135899
 20
167.1025371533
 30
0.0
 10
128.9719722845
 20
166.62088802
 30
0.0
  0
SPLINE
  5
290
100
AcDbEntity
  8
0
100
AcDbSpline
 62
7
  6
CONTINUOUS
 70
0
 71
3
 72
19
 73
15
 74
0
 42
0.0000001
 43
0.0000001
 44
0.0000000001
 40
0.0
 40
0.0
 40
0.0
 40
0.0
 40
0.0105425023
 40
0.0180155324
 40
0.0274192683
 40
0.0524474722
 40
0.08598189
 40
0.1279458648
 40
0.1780552554
 40
0.3011038715
 40
0.4508971455
 40
0.6217518391
 40
0.8072953961
 40
1.0
 40
1.0
 40
1.0
 40
1.0
 10
65.1855519304
 20
178.7189698543
 30
0.0
 10
65.1994437413
 20
178.7188853645
 30
0.0
 10
65.2221123907
 20
178.7334056118
 30
0.0
 10
65.2430326198
 20
178.7623763097
 30
0.0
 10
65.2690987092
 20
178.8114570555
 30
0.0
 10
65.2979459139
 20
178.8965113892
 30
0.0
 10
65.3292290572
 20
179.0253100873
 30
0.0
 10
65.3584567269
 20
179.1883052434
 30
0.0
 10
65.39745477
 20
179.4691228611
 30
0.0
 10
65.437133899
 20
179.8930041766
 30
0.0
 10
65.4728886135
 20
180.4766176727
 30
0.0
 10
65.4985018036
 20
181.1431960651
 30
0.0
 10
65.513904739
 20
181.8666203553
 30
0.0
 10
65.5173306372
 20
182.365053664
 30
0.0
 10
65.5173306372
 20
182.6189844057
 30
0.0
  0
SPLINE
  5
291
100
AcDbEntity
  8
0
100
AcDbSpline
 62
7
  6
CONTINUOUS
 70
0
 71
3
 72
18
 73
14
 74
0
 42
0.0000001
 43
0.0000001
 44
0.0000000001
 40
0.0
 40
0.0
 40
0.0
 40
0.0
 40
0.2116144306
 40
0.4043582288
 40
0.5742932796
 40
0.7184623536
 40
0.8343417558
 40
0.8810045835
 40
0.9199203937
 40
0.9509944048
 40
0.9742443114
 40
0.990057666
 40
1.0
 40
1.0
 40
1.0
 40
1.0
 10
129.0771910644
 20
161.6936853826
 30
0.0
 10
129.0977595535
 20
161.3647573199
 30
0.0
 10
129.1429917833
 20
160.7365813112
 30
0.0
 10
129.2257218392
 20
159.8459402031
 30
0.0
 10
129.3171440989
 20
159.061785096
 30
0.0
 10
129.413391872
 20
158.398997526
 30
0.0
 10
129.4991419225
 20
157.9288651549
 30
0.0
 10
129.5695329006
 20
157.6230558621
 30
0.0
 10
129.6175760554
 20
157.447758882
 30
0.0
 10
129.6635127413
 20
157.3099558799
 30
0.0
 10
129.7087229611
 20
157.2099608317
 30
0.0
 10
129.7491470493
 20
157.1455023072
 30
0.0
 10
129.7866232864
 20
157.1217713374
 30
0.0
 10
129.8021075747
 20
157.1217568629
 30
0.0
  0
SPLINE
  5
292
100
AcDbEntity
  8
0
100
AcDbSpline
 62
7
  6
CONTINUOUS
 70
0
 71
3
 72
17
 73
13
 74
0
 42
0.0000001
 43
0.0000001
 44
0.0000000001
 40
0.0
 40
0.0
 40
0.0
 40
0.0
 40
0.3763000059
 40
0.5462548373
 40
0.6954828976
 40
0.8185237545
 40
0.8688612097
 40
0.9111761532
 40
0.9451981049
 40
0.9708852043
 40
0.9885594047
 40
1.0
 40
1.0
 40
1.0
 40
1.0
 10
136.9095597649
 20
161.3501655183
 30
0.0
 10
137.3831299409
 20
161.3501434613
 30
0.0
 10
138.0708684126
 20
161.3687376731
 30
0.0
 10
138.9438668686
 20
161.4334064673
 30
0.0
 10
139.4971823496
 20
161.4942560692
 30
0.0
 10
139.8986668031
 20
161.5562005532
 30
0.0
 10
140.1644755523
 20
161.6115773423
 30
0.0
 10
140.3189589767
 20
161.6512208923
 30
0.0
 10
140.4412724262
 20
161.6906324749
 30
0.0
 10
140.530489711
 20
161.7305686882
 30
0.0
 10
140.5887252579
 20
161.7677326187
 30
0.0
 10
140.609370217
 20
161.8023684283
 30
0.0
 10
140.6094374893
 20
161.8167661576
 30
0.0
  0
SPLINE
  5
293
100
AcDbEntity
  8
0
100
AcDbSpline
 62
7
  6
CONTINUOUS
 70
0
 71
3
 72
9
 73
5
 74
0
 42
0.0000001
 43
0.0000001
 44
0.0000000001
 40
0.0
 40
0.0
 40
0.0
 40
0.0
 40
0.2379406608
 40
1.0
 40
1.0
 40
1.0
 40
1.0
 10
129.0773859744
 20
161.6935729996
 30
0.0
 10
129.0585650297
 20
161.9945546046
 30
0.0
 10
128.9890138168
 20
163.2600912232
 30
0.0
 10
128.962546508
 20
164.527880508
 30
0.0
 10
128.9625465082
 20
165.4937256978
 30
0.0
  0
SPLINE
  5
294
100
AcDbEntity
  8
0
100
AcDbSpline
 62
7
  6
CONTINUOUS
 70
0
 71
3
 72
19
 73
15
 74
0
 42
0.0000001
 43
0.0000001
 44
0.0000000001
 40
0.0
 40
0.0
 40
0.0
 40
0.0
 40
0.1649113607
 40
0.3276793375
 40
0.485709558
 40
0.6355046489
 40
0.7718120967
 40
0.8324731461
 40
0.8863284619
 40
0.9316546459
 40
0.9665466222
 40
0.9795280284
 40
0.9893426966
 40
1.0
 40
1.0
 40
1.0
 40
1.0
 10
126.5722961676
 20
57.3189578716
 30
0.0
 10
126.5634966778
 20
57.5686479253
 30
0.0
 10
126.549338167
 20
58.0649067148
 30
0.0
 10
126.5384813552
 20
58.8007131649
 30
0.0
 10
126.5385900181
 20
59.5137039692
 30
0.0
 10
126.5504177278
 20
60.1865169431
 30
0.0
 10
126.5710600877
 20
60.7115128611
 30
0.0
 10
126.5958687289
 20
61.0907875994
 30
0.0
 10
126.6170504039
 20
61.3319096818
 30
0.0
 10
126.6418716548
 20
61.5339928142
 30
0.0
 10
126.6656023151
 20
61.6722880664
 30
0.0
 10
126.6890308128
 20
61.7582260211
 30
0.0
 10
126.7055736084
 20
61.802693992
 30
0.0
 10
126.7263341196
 20
61.8367614408
 30
0.0
 10
126.7424802153
 20
61.8367614408
 30
0.0
  0
SPLINE
  5
295
100
AcDbEntity
  8
0
100
AcDbSpline
 62
7
  6
CONTINUOUS
 70
0
 71
3
 72
15
 73
11
 74
0
 42
0.0000001
 43
0.0000001
 44
0.0000000001
 40
0.0
 40
0.0
 40
0.0
 40
0.0
 40
0.3744484082
 40
0.6920725228
 40
0.8146905189
 40
0.8649595578
 40
0.9073823983
 40
0.9417320811
 40
0.968110861
 40
1.0
 40
1.0
 40
1.0
 40
1.0
 10
126.4439167964
 20
63.1689578716
 30
0.0
 10
126.4320524188
 20
63.5087091938
 30
0.0
 10
126.3966309663
 20
64.1361772929
 30
0.0
 10
126.319478325
 20
64.8725144253
 30
0.0
 10
126.2421853476
 20
65.3112694449
 30
0.0
 10
126.1963983349
 20
65.5015509859
 30
0.0
 10
126.1638424372
 20
65.6118719201
 30
0.0
 10
126.1294789657
 20
65.7003271786
 30
0.0
 10
126.092479225
 20
65.7723818553
 30
0.0
 10
126.0488810365
 20
65.8189684483
 30
0.0
 10
126.0199291683
 20
65.8189627066
 30
0.0
  0
ENDSEC
  0
SECTION
  2
OBJECTS
  0
DICTIONARY
  5
C
100
AcDbDictionary
280
0
281
1
  3
ACAD_GROUP
350
D
  3
ACAD_MLINESTYLE
350
17
  3
ACAD_LAYOUT
350
1A
  3
ACAD_PLOTSETTINGS
350
19
  3
ACAD_PLOTSTYLENAME
350
E
  0
DICTIONARY
  5
D
102
{ACAD_REACTORS
330
C
102
}
100
AcDbDictionary
280
0
281
1
  0
ACDBDICTIONARYWDFLT
  5
E
102
{ACAD_REACTORS
330
C
102
}
100
AcDbDictionary
281
1
  3
Normal
350
F
100
AcDbDictionaryWithDefault
340
F
  0
DICTIONARY
  5
17
102
{ACAD_REACTORS
330
C
102
}
100
AcDbDictionary
280
0
281
1
  3
Standard
350
18
  0
DICTIONARY
  5
19
102
{ACAD_REACTORS
330
C
102
}
100
AcDbDictionary
281
1
  0
DICTIONARY
  5
1A
102
{ACAD_REACTORS
330
C
102
}
100
AcDbDictionary
281
1
  3
Model
350
296
  3
Layout1
350
297
  0
ACDBPLACEHOLDER
  5
F
102
{ACAD_REACTORS
330
E
102
}
  0
MLINESTYLE
  5
18
102
{ACAD_REACTORS
330
17
102
}
100
AcDbMlineStyle
  2
STANDARD
 70
0
  3

 62
256
 51
90.0
 52
90.0
 71
2
 49
0.5
 62
256
  6
BYLAYER
 49
-0.5
 62
256
  6
BYLAYER
  0
LAYOUT
  5
296
102
{ACAD_REACTORS
330
1A
102
}
100
AcDbPlotSettings
  1

  2
none_device
  4

  6

 40
0.0
 41
0.0
 42
0.0
 43
0.0
 44
210.0
 45
297.0
 46
0.0
 47
0.0
 48
0.0
 49
0.0
140
0.0
141
0.0
142
1.0
143
1.0
 70
1024
 72
1
 73
0
 74
0
  7

 75
0
147
1.0
148
0.0
149
0.0
100
AcDbLayout
  1
Model
 70
0
 71
0
 10
0.0
 20
0.0
 11
210.0
 21
297.0
 12
0.0
 22
0.0
 32
0.0
 14
0.0
 24
0.0
 34
0.0
 15
0.0
 25
0.0
 35
0.0
146
0.0
 13
0.0
 23
0.0
 33
0.0
 16
1.0
 26
0.0
 36
0.0
 17
0.0
 27
1.0
 37
0.0
 76
0
330
211
345
0
346
0
  0
LAYOUT
  5
297
102
{ACAD_REACTORS
330
1A
102
}
100
AcDbPlotSettings
  1

  2
none_device
  4

  6

 40
0.0
 41
0.0
 42
0.0
 43
0.0
 44
210.0
 45
297.0
 46
0.0
 47
0.0
 48
0.0
 49
0.0
140
0.0
141
0.0
142
1.0
143
1.0
 70
0
 72
1
 73
0
 74
0
  7

 75
0
147
1.0
148
0.0
149
0.0
100
AcDbLayout
  1
Layout1
 70
0
 71
1
 10
0.0
 20
0.0
 11
210.0
 21
297.0
 12
0.0
 22
0.0
 32
0.0
 14
0.0
 24
0.0
 34
0.0
 15
0.0
 25
0.0
 35
0.0
146
0.0
 13
0.0
 23
0.0
 33
0.0
 16
1.0
 26
0.0
 36
0.0
 17
0.0
 27
1.0
 37
0.0
 76
0
330
212
345
0
346
0
  0
ENDSEC
  0
EOF
