999
DXF file: C:\Users\sesa63760\Dev\_Creo\CAD\MCADUE0002366_3D-CAD\drw0001_3.dxf
999
Pro/ENGINEER 2019471 by Parametric Technology Corporation
  0
SECTION
  2
HEADER
  9
$ACADVER
  1
AC1024
  9
$DWGCODEPAGE
  3
ANSI_1252
  9
$EXTMAX
 10
89.6489138454
 20
126.7891781528
 30
0.0
  9
$EXTMIN
 10
0.0
 20
0.0
 30
0.0
  9
$LIMMIN
 10
0.0
 20
0.0
  9
$LIMMAX
 10
89.6489138454
 20
126.7891781528
  9
$VIEWCTR
 10
44.8244569227
 20
63.3945890764
  9
$VIEWSIZE
 40
126.7891781528
  9
$CLAYER
  8
0
  9
$LTSCALE
 40
8.2647760574
  9
$CELTYPE
  6
BYLAYER
  9
$DIMSCALE
 40
1.0
  9
$DIMASZ
 40
1.0672489744
  9
$DIMEXO
 40
1.0
  9
$DIMDLI
 40
5.7102089124
  9
$DIMEXE
 40
1.0
  9
$DIMCEN
 40
1.3524179003
  9
$DIMLFAC
 40
1.0
  9
$DIMBLK
  1
_FILLED
  9
$DIMALT
 70
0
  9
$DIMALTF
 40
0.0393700787
  9
$DIMTXT
 40
1.4941485641
  9
$DIMTOL
 70
1
  9
$DIMLIM
 70
0
  9
$DIMTFAC
 40
1.0
  9
$DIMTP
 40
0.01
  9
$DIMTM
 40
0.01
  9
$DIMGAP
 40
0.625
  9
$DIMDSEP
 70
46
  9
$AUNITS
 70
0
  9
$PDMODE
 70
3
  9
$PDSIZE
 40
0.3125
  9
$HANDSEED
  5
2D2
  9
$TILEMODE
 70
1
  9
$MEASUREMENT
 70
1
  9
$INSUNITS
 70
4
  0
ENDSEC
  0
SECTION
  2
CLASSES
  0
CLASS
  1
ACDBDICTIONARYWDFLT
  2
AcDbDictionaryWithDefault
  3
AutoCAD 2000
 90
0
 91
1
280
0
281
0
  0
CLASS
  1
ACDBPLACEHOLDER
  2
AcDbPlaceHolder
  3
AutoCAD 2000
 90
0
 91
1
280
0
281
0
  0
CLASS
  1
LAYOUT
  2
AcDbLayout
  3
AutoCAD 2000
 90
0
 91
0
280
0
281
0
  0
ENDSEC
  0
SECTION
  2
TABLES
  0
TABLE
  2
VPORT
  5
8
100
AcDbSymbolTable
 70
2
  0
VPORT
  5
1F4
100
AcDbSymbolTableRecord
100
AcDbViewportTableRecord
  2
*ACTIVE
 70
0
 10
0.0
 20
0.0
 11
1.0
 21
1.0
 12
44.8244569227
 22
63.3945890764
 13
0.0
 23
0.0
 14
1.0
 24
1.0
 15
0.0
 25
0.0
 16
0.0
 26
0.0
 36
1.0
 17
0.0
 27
0.0
 37
0.0
 40
126.7891781528
 41
0.7070707071
 42
50.0
 43
0.0
 44
0.0
 50
0.0
 51
0.0
 71
0
 72
100
 73
1
 74
1
 75
0
 76
0
 77
0
 78
0
  0
ENDTAB
  0
TABLE
  2
LTYPE
  5
5
100
AcDbSymbolTable
 70
6
  0
LTYPE
  5
14
100
AcDbSymbolTableRecord
100
AcDbLinetypeTableRecord
  2
BYBLOCK
 70
0
  3

 72
65
 73
0
 40
0.0
  0
LTYPE
  5
15
100
AcDbSymbolTableRecord
100
AcDbLinetypeTableRecord
  2
BYLAYER
 70
0
  3

 72
65
 73
0
 40
0.0
  0
LTYPE
  5
16
100
AcDbSymbolTableRecord
100
AcDbLinetypeTableRecord
  2
CONTINUOUS
 70
64
  3
Solid line
 72
65
 73
0
 40
0.0
  0
LTYPE
  5
1F5
100
AcDbSymbolTableRecord
100
AcDbLinetypeTableRecord
  2
CENTER
 70
64
  3
____ _ ____ _ ____ _ ____ _ ____ _ ____ _ ____
 72
65
 73
4
 40
0.6
 49
0.375
 74
0
 49
-0.075
 74
0
 49
0.075
 74
0
 49
-0.075
 74
0
  0
LTYPE
  5
1F6
100
AcDbSymbolTableRecord
100
AcDbLinetypeTableRecord
  2
HIDDEN
 70
64
  3
- - - - - - - - - - - - - - - - - - - -
 72
65
 73
2
 40
0.2
 49
0.1
 74
0
 49
-0.1
 74
0
  0
LTYPE
  5
1F7
100
AcDbSymbolTableRecord
100
AcDbLinetypeTableRecord
  2
PHANTOM
 70
64
  3
_____ _ _ _____ _ _ _____ _ _ _____
 72
65
 73
6
 40
0.8
 49
0.45
 74
0
 49
-0.05
 74
0
 49
0.1
 74
0
 49
-0.05
 74
0
 49
0.1
 74
0
 49
-0.05
 74
0
  0
LTYPE
  5
1F8
100
AcDbSymbolTableRecord
100
AcDbLinetypeTableRecord
  2
DOT
 70
64
  3
. . . . . . . . . . . . . . . . . . . .
 72
65
 73
2
 40
0.2
 49
0.1
 74
0
 49
-0.1
 74
0
  0
LTYPE
  5
1F9
100
AcDbSymbolTableRecord
100
AcDbLinetypeTableRecord
  2
DASHED
 70
64
  3
- - - - - - - - - - - - - - - - - - - -
 72
65
 73
2
 40
0.2
 49
0.1
 74
0
 49
-0.1
 74
0
  0
ENDTAB
  0
TABLE
  2
LAYER
  5
2
100
AcDbSymbolTable
 70
36
  0
LAYER
  5
10
100
AcDbSymbolTableRecord
100
AcDbLayerTableRecord
  2
0
 70
0
 62
7
  6
CONTINUOUS
370
-3
390
F
  0
LAYER
  5
1FA
100
AcDbSymbolTableRecord
100
AcDbLayerTableRecord
  2
DEFAULT_1
 70
0
 62
7
  6
CENTER
370
-3
390
F
  0
LAYER
  5
1FB
100
AcDbSymbolTableRecord
100
AcDbLayerTableRecord
  2
DEFAULT_2
 70
0
 62
8
  6
HIDDEN
370
-3
390
F
  0
LAYER
  5
1FC
100
AcDbSymbolTableRecord
100
AcDbLayerTableRecord
  2
DEFAULT_3
 70
0
 62
7
  6
PHANTOM
370
-3
390
F
  0
LAYER
  5
1FD
100
AcDbSymbolTableRecord
100
AcDbLayerTableRecord
  2
00_COMPONENTS
 70
0
 62
7
  6
CONTINUOUS
370
-3
390
F
  0
LAYER
  5
1FE
100
AcDbSymbolTableRecord
100
AcDbLayerTableRecord
  2
01_1_DEFAULT_DATUMS
 70
0
 62
7
  6
CONTINUOUS
370
-3
390
F
  0
LAYER
  5
1FF
100
AcDbSymbolTableRecord
100
AcDbLayerTableRecord
  2
01_PLANES
 70
0
 62
7
  6
CONTINUOUS
370
-3
390
F
  0
LAYER
  5
200
100
AcDbSymbolTableRecord
100
AcDbLayerTableRecord
  2
02_COORD_SYS
 70
0
 62
7
  6
CONTINUOUS
370
-3
390
F
  0
LAYER
  5
201
100
AcDbSymbolTableRecord
100
AcDbLayerTableRecord
  2
03_AXES
 70
0
 62
7
  6
CONTINUOUS
370
-3
390
F
  0
LAYER
  5
202
100
AcDbSymbolTableRecord
100
AcDbLayerTableRecord
  2
04_POINTS
 70
0
 62
7
  6
CONTINUOUS
370
-3
390
F
  0
LAYER
  5
203
100
AcDbSymbolTableRecord
100
AcDbLayerTableRecord
  2
05_CURVES
 70
0
 62
7
  6
CONTINUOUS
370
-3
390
F
  0
LAYER
  5
204
100
AcDbSymbolTableRecord
100
AcDbLayerTableRecord
  2
06_SURFS
 70
0
 62
7
  6
CONTINUOUS
370
-3
390
F
  0
LAYER
  5
205
100
AcDbSymbolTableRecord
100
AcDbLayerTableRecord
  2
07_COSMETICS
 70
0
 62
7
  6
CONTINUOUS
370
-3
390
F
  0
LAYER
  5
206
100
AcDbSymbolTableRecord
100
AcDbLayerTableRecord
  2
10_NOTES
 70
0
 62
7
  6
CONTINUOUS
370
-3
390
F
  0
LAYER
  5
207
100
AcDbSymbolTableRecord
100
AcDbLayerTableRecord
  2
11_NOTES_PUB
 70
0
 62
7
  6
CONTINUOUS
370
-3
390
F
  0
LAYER
  5
208
100
AcDbSymbolTableRecord
100
AcDbLayerTableRecord
  2
13_REF_GTOL
 70
0
 62
7
  6
CONTINUOUS
370
-3
390
F
  0
LAYER
  5
209
100
AcDbSymbolTableRecord
100
AcDbLayerTableRecord
  2
16_MISC
 70
0
 62
7
  6
CONTINUOUS
370
-3
390
F
  0
LAYER
  5
20A
100
AcDbSymbolTableRecord
100
AcDbLayerTableRecord
  2
17_NO_PRINT
 70
0
 62
7
  6
CONTINUOUS
370
-3
390
F
  0
LAYER
  5
20B
100
AcDbSymbolTableRecord
100
AcDbLayerTableRecord
  2
18_DATUM_CAMS_JOINTS
 70
0
 62
7
  6
CONTINUOUS
370
-3
390
F
  0
LAYER
  5
20C
100
AcDbSymbolTableRecord
100
AcDbLayerTableRecord
  2
19_DATUM_FUNCTIONAL
 70
0
 62
7
  6
CONTINUOUS
370
-3
390
F
  0
LAYER
  5
20D
100
AcDbSymbolTableRecord
100
AcDbLayerTableRecord
  2
20_DATUM_KINEMATIC_SCHEME
 70
0
 62
7
  6
CONTINUOUS
370
-3
390
F
  0
ENDTAB
  0
TABLE
  2
STYLE
  5
3
100
AcDbSymbolTable
 70
1
  0
STYLE
  5
11
100
AcDbSymbolTableRecord
100
AcDbTextStyleTableRecord
  2
STANDARD
 70
0
 40
0.0
 41
0.8
 50
0.0
 71
0
 42
0.2
  3
txt
  4

  0
STYLE
  5
20E
100
AcDbSymbolTableRecord
100
AcDbTextStyleTableRecord
  2
TEXTSTYLE_1
 70
0
 40
0.0
 41
0.8
 50
0.0
 71
0
 42
0.2
  3
gdt
  4

  0
ENDTAB
  0
TABLE
  2
VIEW
  5
6
100
AcDbSymbolTable
 70
0
  0
ENDTAB
  0
TABLE
  2
UCS
  5
7
100
AcDbSymbolTable
 70
0
  0
ENDTAB
  0
TABLE
  2
APPID
  5
9
100
AcDbSymbolTable
 70
1
  0
APPID
  5
20F
100
AcDbSymbolTableRecord
100
AcDbRegAppTableRecord
  2
ACAD
 70
0
  0
ENDTAB
  0
TABLE
  2
BLOCK_RECORD
  5
1
100
AcDbSymbolTable
 70
0
  0
BLOCK_RECORD
  5
210
100
AcDbSymbolTableRecord
100
AcDbBlockTableRecord
  2
*Model_Space
  0
BLOCK_RECORD
  5
211
100
AcDbSymbolTableRecord
100
AcDbBlockTableRecord
  2
*Paper_Space
  0
BLOCK_RECORD
  5
212
100
AcDbSymbolTableRecord
100
AcDbBlockTableRecord
  2
_FILLED
  0
ENDTAB
  0
TABLE
  2
DIMSTYLE
  5
A
100
AcDbSymbolTable
 70
1
100
AcDbDimStyleTable
 71
0
  0
DIMSTYLE
105
213
100
AcDbSymbolTableRecord
100
AcDbDimStyleTableRecord
  2
STANDARD
 70
0
  3

  4

 40
1.0
 41
1.0672489744
 42
1.0
 43
0.38
 44
1.0
 45
0.0
 46
0.0
 47
0.01
 48
0.01
140
1.4941485641
141
0.09
142
0.0
143
25.4
144
1.0
145
0.0
146
1.0
147
0.625
 71
1
 72
0
 73
0
 74
0
 75
0
 76
0
 77
1
 78
8
 79
2
170
0
171
1
172
0
173
0
174
0
175
0
176
0
177
0
178
0
270
2
179
2
271
2
272
2
273
2
274
2
275
0
280
0
281
0
282
0
283
1
284
8
285
0
286
0
287
3
288
0
340
11
278
46
341
212
342
212
343
212
344
212
  0
ENDTAB
  0
ENDSEC
  0
SECTION
  2
BLOCKS
  0
BLOCK
  5
20
100
AcDbEntity
  8
0
100
AcDbBlockBegin
  2
*Model_Space
 70
0
 10
0.0
 20
0.0
 30
0.0
  3
*Model_Space
  1

  0
ENDBLK
  5
21
100
AcDbEntity
  8
0
100
AcDbBlockEnd
  0
BLOCK
  5
1C
100
AcDbEntity
  8
0
100
AcDbBlockBegin
  2
*Paper_Space
 70
0
 10
0.0
 20
0.0
 30
0.0
  3
*Paper_Space
  1

  0
ENDBLK
  5
1D
100
AcDbEntity
  8
0
100
AcDbBlockEnd
  0
BLOCK
  5
214
100
AcDbEntity
  8
0
100
AcDbBlockBegin
  2
_FILLED
 70
64
 10
0.0
 20
0.0
  3
_FILLED
  1

  0
SOLID
  5
215
100
AcDbEntity
  8
0
  6
BYBLOCK
 62
0
100
AcDbTrace
 10
0.0
 20
0.0
 11
-1.0
 21
0.25
 12
-1.0
 22
-0.25
 13
-1.0
 23
-0.25
  0
ENDBLK
  5
216
100
AcDbEntity
  8
0
  6
BYBLOCK
 62
0
100
AcDbBlockEnd
  0
ENDSEC
  0
SECTION
  2
ENTITIES
  0
LINE
  5
217
100
AcDbEntity
  8
0
100
AcDbLine
 62
7
  6
CONTINUOUS
 10
10.5659666231
 20
71.705441946
 11
10.5659666231
 21
73.205441946
  0
LINE
  5
218
100
AcDbEntity
  8
0
100
AcDbLine
 62
7
  6
CONTINUOUS
 10
10.9198430815
 20
73.205441946
 11
10.9198430815
 21
79.205441946
  0
LINE
  5
219
100
AcDbEntity
  8
0
100
AcDbLine
 62
7
  6
CONTINUOUS
 10
14.9175868326
 20
63.8330846869
 11
14.9177850327
 21
63.8283548433
  0
LINE
  5
21A
100
AcDbEntity
  8
0
100
AcDbLine
 62
7
  6
CONTINUOUS
 10
14.9179879686
 20
62.3276517779
 11
14.9177842533
 21
62.332680402
  0
LINE
  5
21B
100
AcDbEntity
  8
0
100
AcDbLine
 62
7
  6
CONTINUOUS
 10
14.9174277317
 20
48.8330720003
 11
14.917631051
 21
48.8280375994
  0
LINE
  5
21C
100
AcDbEntity
  8
0
100
AcDbLine
 62
7
  6
CONTINUOUS
 10
14.9196308481
 20
50.3352196061
 11
14.9197835216
 21
50.3299964856
  0
LINE
  5
21D
100
AcDbEntity
  8
0
100
AcDbLine
 62
7
  6
CONTINUOUS
 10
14.9183690011
 20
51.8276595911
 11
14.918232788
 21
51.8326577711
  0
LINE
  5
21E
100
AcDbEntity
  8
0
100
AcDbLine
 62
7
  6
CONTINUOUS
 10
14.91742171
 20
57.827696533
 11
14.9173004397
 21
57.8326353461
  0
LINE
  5
21F
100
AcDbEntity
  8
0
100
AcDbLine
 62
7
  6
CONTINUOUS
 10
14.9172818388
 20
54.8276924688
 11
14.917209121
 21
54.8325825449
  0
LINE
  5
220
100
AcDbEntity
  8
0
100
AcDbLine
 62
7
  6
CONTINUOUS
 10
14.9175425837
 20
59.3277834342
 11
14.9175180409
 21
59.3326680776
  0
LINE
  5
221
100
AcDbEntity
  8
0
100
AcDbLine
 62
7
  6
CONTINUOUS
 10
14.9177803225
 20
65.3330832605
 11
14.9177810064
 21
65.3282036137
  0
LINE
  5
222
100
AcDbEntity
  8
0
100
AcDbLine
 62
7
  6
CONTINUOUS
 10
14.6932291301
 20
73.205441946
 11
14.6932291301
 21
79.205441946
  0
LINE
  5
223
100
AcDbEntity
  8
0
100
AcDbLine
 62
7
  6
CONTINUOUS
 10
14.9176992698
 20
66.8332141702
 11
14.9175183559
 21
66.8282155488
  0
LINE
  5
224
100
AcDbEntity
  8
0
100
AcDbLine
 62
7
  6
CONTINUOUS
 10
14.9199654379
 20
47.3290132464
 11
15.7512587742
 21
46.705441946
  0
LINE
  5
225
100
AcDbEntity
  8
0
100
AcDbLine
 62
7
  6
CONTINUOUS
 10
14.9180844477
 20
68.333097646
 11
14.9182336345
 21
68.3283128965
  0
LINE
  5
226
100
AcDbEntity
  8
0
100
AcDbLine
 62
7
  6
CONTINUOUS
 10
14.9182740251
 20
56.3277477123
 11
14.9183385803
 21
56.3326010902
  0
LINE
  5
227
100
AcDbEntity
  8
0
100
AcDbLine
 62
7
  6
CONTINUOUS
 10
14.9172130572
 20
53.3277585294
 11
14.9173035701
 21
53.3325438302
  0
LINE
  5
228
100
AcDbEntity
  8
0
100
AcDbLine
 62
7
  6
CONTINUOUS
 10
14.918172207
 20
47.3276683346
 11
14.9183491782
 21
47.3324237259
  0
LINE
  5
229
100
AcDbEntity
  8
0
100
AcDbLine
 62
7
  6
CONTINUOUS
 10
14.9178455024
 20
60.8278024285
 11
14.9180390327
 21
60.8325456885
  0
LINE
  5
22A
100
AcDbEntity
  8
0
100
AcDbLine
 62
7
  6
CONTINUOUS
 10
14.9178377942
 20
48.827882533
 11
15.9186187843
 21
48.0772518082
  0
LINE
  5
22B
100
AcDbEntity
  8
0
100
AcDbLine
 62
7
  6
CONTINUOUS
 10
14.9204058971
 20
50.3295296027
 11
15.9203667783
 21
49.5793950792
  0
LINE
  5
22C
100
AcDbEntity
  8
0
100
AcDbLine
 62
7
  6
CONTINUOUS
 10
14.9183142916
 20
51.8276185602
 11
15.917932963
 21
51.0778569943
  0
LINE
  5
22D
100
AcDbEntity
  8
0
100
AcDbLine
 62
7
  6
CONTINUOUS
 10
14.9180929592
 20
53.3284184119
 11
15.918624831
 21
52.5779546916
  0
LINE
  5
22E
100
AcDbEntity
  8
0
100
AcDbLine
 62
7
  6
CONTINUOUS
 10
19.0899787207
 20
50.4552650287
 11
19.9554724199
 21
49.7057116348
  0
LINE
  5
22F
100
AcDbEntity
  8
0
100
AcDbLine
 62
7
  6
CONTINUOUS
 10
20.571081653
 20
73.205441946
 11
20.571081653
 21
79.205441946
  0
LINE
  5
230
100
AcDbEntity
  8
0
100
AcDbLine
 62
7
  6
CONTINUOUS
 10
14.9176618593
 20
54.8279774662
 11
15.9177219557
 21
54.0778900561
  0
LINE
  5
231
100
AcDbEntity
  8
0
100
AcDbLine
 62
7
  6
CONTINUOUS
 10
14.9181106368
 20
56.3276251752
 11
15.9176325581
 21
55.5779436404
  0
LINE
  5
232
100
AcDbEntity
  8
0
100
AcDbLine
 62
7
  6
CONTINUOUS
 10
14.9182505959
 20
57.8283181628
 11
15.9187258664
 21
57.0778943823
  0
LINE
  5
233
100
AcDbEntity
  8
0
100
AcDbLine
 62
7
  6
CONTINUOUS
 10
15.4144733024
 20
68.705441946
 11
14.9180631982
 21
68.3331135825
  0
LINE
  5
234
100
AcDbEntity
  8
0
100
AcDbLine
 62
7
  6
CONTINUOUS
 10
15.9186238867
 20
67.5830158802
 11
14.918336972
 21
66.8327359157
  0
LINE
  5
235
100
AcDbEntity
  8
0
100
AcDbLine
 62
7
  6
CONTINUOUS
 10
14.9177941546
 20
59.3279721032
 11
15.9177253086
 21
58.5779813258
  0
LINE
  5
236
100
AcDbEntity
  8
0
100
AcDbLine
 62
7
  6
CONTINUOUS
 10
14.9180522751
 20
60.8279575006
 11
15.9179357858
 21
60.0779972261
  0
LINE
  5
237
100
AcDbEntity
  8
0
100
AcDbLine
 62
7
  6
CONTINUOUS
 10
15.9179357377
 20
66.0828866741
 11
14.9180208538
 21
65.3329028694
  0
LINE
  5
238
100
AcDbEntity
  8
0
100
AcDbLine
 62
7
  6
CONTINUOUS
 10
15.9181889056
 20
64.5828889918
 11
14.918054311
 21
63.8327340978
  0
LINE
  5
239
100
AcDbEntity
  8
0
100
AcDbLine
 62
7
  6
CONTINUOUS
 10
14.9183839301
 20
62.3279487379
 11
15.918435339
 21
61.5778501067
  0
LINE
  5
23A
100
AcDbEntity
  8
0
100
AcDbLine
 62
7
  6
CONTINUOUS
 10
14.9180543227
 20
63.8281528616
 11
15.9181923865
 21
63.0779952789
  0
LINE
  5
23B
100
AcDbEntity
  8
0
100
AcDbLine
 62
7
  6
CONTINUOUS
 10
30.4499345809
 20
73.205441946
 11
30.4499345809
 21
79.205441946
  0
LINE
  5
23C
100
AcDbEntity
  8
0
100
AcDbLine
 62
7
  6
CONTINUOUS
 10
19.9554745407
 20
64.7051745
 11
19.0889117893
 21
63.9546952627
  0
LINE
  5
23D
100
AcDbEntity
  8
0
100
AcDbLine
 62
7
  6
CONTINUOUS
 10
15.9181902085
 20
63.0830388657
 11
14.9183762603
 21
62.3331244384
  0
LINE
  5
23E
100
AcDbEntity
  8
0
100
AcDbLine
 62
7
  6
CONTINUOUS
 10
15.9184369055
 20
61.5829042252
 11
14.9180669534
 21
60.8325666307
  0
LINE
  5
23F
100
AcDbEntity
  8
0
100
AcDbLine
 62
7
  6
CONTINUOUS
 10
15.7512516743
 20
46.705441946
 11
77.0508509917
 21
46.705441946
  0
LINE
  5
240
100
AcDbEntity
  8
0
100
AcDbLine
 62
7
  6
CONTINUOUS
 10
14.9180277029
 20
65.3280185784
 11
15.9181867315
 21
64.5778454091
  0
LINE
  5
241
100
AcDbEntity
  8
0
100
AcDbLine
 62
7
  6
CONTINUOUS
 10
14.9183142917
 20
66.8276185602
 11
15.917932963
 21
66.0778569943
  0
LINE
  5
242
100
AcDbEntity
  8
0
100
AcDbLine
 62
7
  6
CONTINUOUS
 10
19.0894542717
 20
65.4557192078
 11
19.9554724199
 21
64.7057116348
  0
LINE
  5
243
100
AcDbEntity
  8
0
100
AcDbLine
 62
7
  6
CONTINUOUS
 10
15.917933011
 20
60.0830269055
 11
14.9178026287
 21
59.3328815316
  0
LINE
  5
244
100
AcDbEntity
  8
0
100
AcDbLine
 62
7
  6
CONTINUOUS
 10
15.9177219558
 20
58.5829938358
 11
14.9182138713
 21
57.8333204573
  0
LINE
  5
245
100
AcDbEntity
  8
0
100
AcDbLine
 62
7
  6
CONTINUOUS
 10
15.918726182
 20
57.0829591207
 11
14.9181553424
 21
56.3324636497
  0
LINE
  5
246
100
AcDbEntity
  8
0
100
AcDbLine
 62
7
  6
CONTINUOUS
 10
14.9180929592
 20
68.3284184119
 11
15.918624831
 21
67.5779546916
  0
LINE
  5
247
100
AcDbEntity
  8
0
100
AcDbLine
 62
7
  6
CONTINUOUS
 10
15.9176325581
 20
55.5829402515
 11
14.9176528178
 21
54.8329153347
  0
LINE
  5
248
100
AcDbEntity
  8
0
100
AcDbLine
 62
7
  6
CONTINUOUS
 10
15.9177253085
 20
54.0829025661
 11
14.9180631982
 21
53.3331135825
  0
LINE
  5
249
100
AcDbEntity
  8
0
100
AcDbLine
 62
7
  6
CONTINUOUS
 10
15.9186238867
 20
52.5830158802
 11
14.918336972
 21
51.8327359157
  0
LINE
  5
24A
100
AcDbEntity
  8
0
100
AcDbLine
 62
7
  6
CONTINUOUS
 10
15.9179357377
 20
51.0828866741
 11
14.9203702316
 21
50.3346650117
  0
LINE
  5
24B
100
AcDbEntity
  8
0
100
AcDbLine
 62
7
  6
CONTINUOUS
 10
39.9604997438
 20
73.205441946
 11
39.9604997438
 21
79.205441946
  0
LINE
  5
24C
100
AcDbEntity
  8
0
100
AcDbLine
 62
7
  6
CONTINUOUS
 10
19.9554750975
 20
49.7051749969
 11
19.0889117892
 21
48.9546952627
  0
LINE
  5
24D
100
AcDbEntity
  8
0
100
AcDbLine
 62
7
  6
CONTINUOUS
 10
15.9203160075
 20
49.5846180333
 11
14.9178733215
 21
48.8327378284
  0
LINE
  5
24E
100
AcDbEntity
  8
0
100
AcDbLine
 62
7
  6
CONTINUOUS
 10
15.9186909092
 20
48.082757564
 11
14.9199630897
 21
47.3336342825
  0
LWPOLYLINE
  5
24F
100
AcDbEntity
  8
0
100
AcDbPolyline
 62
7
  6
CONTINUOUS
 90
5
 70
0
 10
29.2114667736
 20
68.569227988
 10
22.5000835149
 20
68.5008846724
 10
17.705133448
 20
68.4325162044
 10
15.2205858195
 20
68.3641525809
 10
14.9180844477
 20
68.333097646
  0
LINE
  5
250
100
AcDbEntity
  8
0
100
AcDbLine
 62
7
  6
CONTINUOUS
 10
46.0302116927
 20
68.705441946
 11
39.4163658603
 21
68.6540562138
  0
LINE
  5
251
100
AcDbEntity
  8
0
100
AcDbLine
 62
7
  6
CONTINUOUS
 10
39.4163658603
 20
68.6540562138
 11
29.2114667736
 21
68.569227988
  0
LINE
  5
252
100
AcDbEntity
  8
0
100
AcDbLine
 62
7
  6
CONTINUOUS
 10
13.4159666231
 20
68.705441946
 11
78.7159666231
 21
68.705441946
  0
LINE
  5
253
100
AcDbEntity
  8
0
100
AcDbLine
 62
7
  6
CONTINUOUS
 10
77.0508507876
 20
46.705441946
 11
76.2140704723
 21
47.3330613178
  0
LINE
  5
254
100
AcDbEntity
  8
0
100
AcDbLine
 62
7
  6
CONTINUOUS
 10
52.1714335024
 20
73.205441946
 11
52.1714335024
 21
79.205441946
  0
LINE
  5
255
100
AcDbEntity
  8
0
100
AcDbLine
 62
7
  6
CONTINUOUS
 10
81.565663097
 20
71.705441946
 11
10.5662701492
 21
71.705441946
  0
LINE
  5
256
100
AcDbEntity
  8
0
100
AcDbLine
 62
7
  6
CONTINUOUS
 10
77.2128498213
 20
49.5839726583
 11
76.2142112905
 21
50.3329938358
  0
LINE
  5
257
100
AcDbEntity
  8
0
100
AcDbLine
 62
7
  6
CONTINUOUS
 10
77.2129998032
 20
48.0821829246
 11
76.2118625012
 21
48.8331297333
  0
LINE
  5
258
100
AcDbEntity
  8
0
100
AcDbLine
 62
7
  6
CONTINUOUS
 10
10.5660356091
 20
73.205441946
 11
10.9198430815
 21
73.205441946
  0
LINE
  5
259
100
AcDbEntity
  8
0
100
AcDbLine
 62
7
  6
CONTINUOUS
 10
14.6932291301
 20
73.205441946
 11
20.571081653
 21
73.205441946
  0
LINE
  5
25A
100
AcDbEntity
  8
0
100
AcDbLine
 62
7
  6
CONTINUOUS
 10
30.4499345809
 20
73.205441946
 11
39.9604997438
 21
73.205441946
  0
LINE
  5
25B
100
AcDbEntity
  8
0
100
AcDbLine
 62
7
  6
CONTINUOUS
 10
52.1714335024
 20
73.205441946
 11
61.6819986653
 21
73.205441946
  0
LINE
  5
25C
100
AcDbEntity
  8
0
100
AcDbLine
 62
7
  6
CONTINUOUS
 10
71.5608515932
 20
73.205441946
 11
77.4387041161
 21
73.205441946
  0
LINE
  5
25D
100
AcDbEntity
  8
0
100
AcDbLine
 62
7
  6
CONTINUOUS
 10
81.2120901647
 20
73.205441946
 11
81.5658976371
 21
73.205441946
  0
LINE
  5
25E
100
AcDbEntity
  8
0
100
AcDbLine
 62
7
  6
CONTINUOUS
 10
77.213840287
 20
51.08246548
 11
76.2133084152
 21
51.8329292003
  0
LINE
  5
25F
100
AcDbEntity
  8
0
100
AcDbLine
 62
7
  6
CONTINUOUS
 10
77.2136189545
 20
52.5832653318
 11
76.2140002832
 21
53.3330268976
  0
LINE
  5
260
100
AcDbEntity
  8
0
100
AcDbLine
 62
7
  6
CONTINUOUS
 10
72.1764601626
 20
54.7051749968
 11
73.0424802425
 21
53.955165749
  0
LINE
  5
261
100
AcDbEntity
  8
0
100
AcDbLine
 62
7
  6
CONTINUOUS
 10
77.2139055433
 20
54.0828653135
 11
76.2137465147
 21
54.8330384829
  0
LINE
  5
262
100
AcDbEntity
  8
0
100
AcDbLine
 62
7
  6
CONTINUOUS
 10
77.2138789235
 20
55.5827310303
 11
76.2137408597
 21
56.332888613
  0
LINE
  5
263
100
AcDbEntity
  8
0
100
AcDbLine
 62
7
  6
CONTINUOUS
 10
77.2135493161
 20
57.082935154
 11
76.2134979072
 21
57.8330337852
  0
LINE
  5
264
100
AcDbEntity
  8
0
100
AcDbLine
 62
7
  6
CONTINUOUS
 10
61.6819986653
 20
73.205441946
 11
61.6819986653
 21
79.205441946
  0
LINE
  5
265
100
AcDbEntity
  8
0
100
AcDbLine
 62
7
  6
CONTINUOUS
 10
76.2139975085
 20
68.3279972178
 11
76.7172248154
 21
68.705441946
  0
LINE
  5
266
100
AcDbEntity
  8
0
100
AcDbLine
 62
7
  6
CONTINUOUS
 10
76.2133093595
 20
66.8278680117
 11
77.2135962742
 21
67.5781479762
  0
LINE
  5
267
100
AcDbEntity
  8
0
100
AcDbLine
 62
7
  6
CONTINUOUS
 10
10.9198430815
 20
79.205441946
 11
81.2120901647
 21
79.205441946
  0
LINE
  5
268
100
AcDbEntity
  8
0
100
AcDbLine
 62
7
  6
CONTINUOUS
 10
77.2138809711
 20
58.5829263913
 11
76.2139974604
 21
59.3328866659
  0
LINE
  5
269
100
AcDbEntity
  8
0
100
AcDbLine
 62
7
  6
CONTINUOUS
 10
77.2141390916
 20
60.0829117887
 11
76.2142079376
 21
60.8329025661
  0
LINE
  5
26A
100
AcDbEntity
  8
0
100
AcDbLine
 62
7
  6
CONTINUOUS
 10
76.2142079377
 20
65.3279813258
 11
77.213870048
 21
66.0777703094
  0
LINE
  5
26B
100
AcDbEntity
  8
0
100
AcDbLine
 62
7
  6
CONTINUOUS
 10
76.2143006881
 20
63.8279436404
 11
77.2142804284
 21
64.5779685572
  0
LINE
  5
26C
100
AcDbEntity
  8
0
100
AcDbLine
 62
7
  6
CONTINUOUS
 10
12.4475340904
 20
80.705441946
 11
79.6843991557
 21
80.705441946
  0
LINE
  5
26D
100
AcDbEntity
  8
0
100
AcDbLine
 62
7
  6
CONTINUOUS
 10
77.2136826503
 20
61.5825657292
 11
76.2132073797
 21
62.3329895097
  0
LINE
  5
26E
100
AcDbEntity
  8
0
100
AcDbLine
 62
7
  6
CONTINUOUS
 10
77.2138226094
 20
63.0832587168
 11
76.2143006881
 21
63.8329402515
  0
LINE
  5
26F
100
AcDbEntity
  8
0
100
AcDbLine
 62
7
  6
CONTINUOUS
 10
76.2132070642
 20
62.3279247712
 11
77.2137779037
 21
63.0784202422
  0
LINE
  5
270
100
AcDbEntity
  8
0
100
AcDbLine
 62
7
  6
CONTINUOUS
 10
76.2142112904
 20
60.8278900561
 11
77.2137193749
 21
61.5775634346
  0
LINE
  5
271
100
AcDbEntity
  8
0
100
AcDbLine
 62
7
  6
CONTINUOUS
 10
77.2142713869
 20
64.5829064257
 11
76.2142112905
 21
65.3329938358
  0
LINE
  5
272
100
AcDbEntity
  8
0
100
AcDbLine
 62
7
  6
CONTINUOUS
 10
77.213840287
 20
66.08246548
 11
76.2133084152
 21
66.8329292003
  0
LINE
  5
273
100
AcDbEntity
  8
0
100
AcDbLine
 62
7
  6
CONTINUOUS
 10
73.0424767468
 20
55.4557192078
 11
72.1764571456
 21
54.7057103298
  0
LINE
  5
274
100
AcDbEntity
  8
0
100
AcDbLine
 62
7
  6
CONTINUOUS
 10
76.2140002352
 20
59.3278569864
 11
77.2141306175
 21
60.0780023603
  0
LINE
  5
275
100
AcDbEntity
  8
0
100
AcDbLine
 62
7
  6
CONTINUOUS
 10
76.2134963407
 20
57.8279796667
 11
77.2138662928
 21
58.5783172612
  0
LINE
  5
276
100
AcDbEntity
  8
0
100
AcDbLine
 62
7
  6
CONTINUOUS
 10
77.2136189545
 20
67.5832653318
 11
76.2140002832
 21
68.3330268976
  0
LINE
  5
277
100
AcDbEntity
  8
0
100
AcDbLine
 62
7
  6
CONTINUOUS
 10
71.5608515932
 20
73.205441946
 11
71.5608515932
 21
79.205441946
  0
LINE
  5
278
100
AcDbEntity
  8
0
100
AcDbLine
 62
7
  6
CONTINUOUS
 10
76.2137430377
 20
56.3278450263
 11
77.2135569858
 21
57.0777594535
  0
LINE
  5
279
100
AcDbEntity
  8
0
100
AcDbLine
 62
7
  6
CONTINUOUS
 10
76.2137443406
 20
54.8279949001
 11
77.2138789352
 21
55.5781497941
  0
LINE
  5
27A
100
AcDbEntity
  8
0
100
AcDbLine
 62
7
  6
CONTINUOUS
 10
76.2139975085
 20
53.3279972178
 11
77.2139123924
 21
54.0779810225
  0
LINE
  5
27B
100
AcDbEntity
  8
0
100
AcDbLine
 62
7
  6
CONTINUOUS
 10
76.2133093595
 20
51.8278680117
 11
77.2135962742
 21
52.5781479762
  0
LINE
  5
27C
100
AcDbEntity
  8
0
100
AcDbLine
 62
7
  6
CONTINUOUS
 10
76.2142079377
 20
50.3279813258
 11
77.213870048
 21
51.0777703094
  0
LINE
  5
27D
100
AcDbEntity
  8
0
100
AcDbLine
 62
7
  6
CONTINUOUS
 10
77.2132696306
 20
48.0776574996
 11
77.2128905708
 21
48.082264859
  0
LINE
  5
27E
100
AcDbEntity
  8
0
100
AcDbLine
 62
7
  6
CONTINUOUS
 10
77.2145772218
 20
58.5777840983
 11
77.2144125753
 21
58.5825276635
  0
LINE
  5
27F
100
AcDbEntity
  8
0
100
AcDbLine
 62
7
  6
CONTINUOUS
 10
77.2138487985
 20
51.0777862459
 11
77.2136996117
 21
51.0825709954
  0
LINE
  5
280
100
AcDbEntity
  8
0
100
AcDbLine
 62
7
  6
CONTINUOUS
 10
77.213564245
 20
67.5832243008
 11
77.2137004582
 21
67.5782261208
  0
LINE
  5
281
100
AcDbEntity
  8
0
100
AcDbLine
 62
7
  6
CONTINUOUS
 10
77.2143981906
 20
54.0832347764
 11
77.2144109655
 21
54.0783549755
  0
LINE
  5
282
100
AcDbEntity
  8
0
100
AcDbLine
 62
7
  6
CONTINUOUS
 10
77.4387041161
 20
73.205441946
 11
77.4387041161
 21
79.205441946
  0
LINE
  5
283
100
AcDbEntity
  8
0
100
AcDbLine
 62
7
  6
CONTINUOUS
 10
77.2147012307
 20
63.077727791
 11
77.2147250578
 21
63.0825818454
  0
LINE
  5
284
100
AcDbEntity
  8
0
100
AcDbLine
 62
7
  6
CONTINUOUS
 10
77.2145884401
 20
60.0776590157
 11
77.2146297304
 21
60.0825437894
  0
LINE
  5
285
100
AcDbEntity
  8
0
100
AcDbLine
 62
7
  6
CONTINUOUS
 10
77.2135461729
 20
61.5776933324
 11
77.2135949464
 21
61.5826315129
  0
LINE
  5
286
100
AcDbEntity
  8
0
100
AcDbLine
 62
7
  6
CONTINUOUS
 10
77.214577023
 20
64.5777461239
 11
77.2146317407
 21
64.5826361456
  0
LINE
  5
287
100
AcDbEntity
  8
0
100
AcDbLine
 62
7
  6
CONTINUOUS
 10
77.214720189
 20
66.0831253625
 11
77.214629676
 21
66.0783400617
  0
LINE
  5
288
100
AcDbEntity
  8
0
100
AcDbLine
 62
7
  6
CONTINUOUS
 10
77.2142339764
 20
52.5776697217
 11
77.2144148903
 21
52.5826683431
  0
LINE
  5
289
100
AcDbEntity
  8
0
100
AcDbLine
 62
7
  6
CONTINUOUS
 10
77.2137070221
 20
57.0776469298
 11
77.2138956327
 21
57.0826753961
  0
LINE
  5
28A
100
AcDbEntity
  8
0
100
AcDbLine
 62
7
  6
CONTINUOUS
 10
77.2143483771
 20
55.5830831006
 11
77.214150192
 21
55.578353251
  0
LINE
  5
28B
100
AcDbEntity
  8
0
100
AcDbLine
 62
7
  6
CONTINUOUS
 10
76.2118918579
 20
48.8276501847
 11
77.2128322944
 21
49.578455284
  0
LINE
  5
28C
100
AcDbEntity
  8
0
100
AcDbLine
 62
7
  6
CONTINUOUS
 10
76.2140656105
 20
47.3285285894
 11
77.21304775
 21
48.0778239091
  0
LINE
  5
28D
100
AcDbEntity
  8
0
100
AcDbLine
 62
7
  6
CONTINUOUS
 10
77.2141629872
 20
49.5774573143
 11
77.2146315118
 21
49.5826363173
  0
LINE
  5
28E
100
AcDbEntity
  8
0
100
AcDbLine
 62
7
  6
CONTINUOUS
 10
81.2120901647
 20
73.205441946
 11
81.2120901647
 21
79.205441946
  0
LINE
  5
28F
100
AcDbEntity
  8
0
100
AcDbLine
 62
7
  6
CONTINUOUS
 10
81.5659666231
 20
71.705441946
 11
81.5659666231
 21
73.205441946
  0
ARC
  5
290
100
AcDbEntity
  8
0
100
AcDbCircle
 62
7
  6
CONTINUOUS
 10
13.4159666231
 20
70.205441946
 40
1.5
100
AcDbArc
 50
90.0
 51
270.0
  0
ARC
  5
291
100
AcDbEntity
  8
0
100
AcDbCircle
 62
7
  6
CONTINUOUS
 10
78.7159666231
 20
70.205441946
 40
1.5
100
AcDbArc
 50
270.0
 51
90.0
  0
SPLINE
  5
292
100
AcDbEntity
  8
0
100
AcDbSpline
 62
7
  6
CONTINUOUS
 70
0
 71
3
 72
15
 73
11
 74
0
 42
0.0000001
 43
0.0000001
 44
0.0000000001
 40
0.0
 40
0.0
 40
0.0
 40
0.0
 40
0.1249092928
 40
0.2499172216
 40
0.3748478117
 40
0.4998267622
 40
0.624837658
 40
0.7498488818
 40
0.8749610623
 40
1.0
 40
1.0
 40
1.0
 40
1.0
 10
12.4475340904
 20
80.705441946
 30
0.0
 10
12.3486827698
 20
80.705441946
 30
0.0
 10
12.1503914919
 20
80.6864300546
 30
0.0
 10
11.8641677606
 20
80.6020986411
 30
0.0
 10
11.599230909
 20
80.4644160426
 30
0.0
 10
11.3657676914
 20
80.2782659064
 30
0.0
 10
11.1730784935
 20
80.0500305036
 30
0.0
 10
11.0289963308
 20
79.7881806135
 30
0.0
 10
10.9399905392
 20
79.5029317041
 30
0.0
 10
10.9198430815
 20
79.3043958657
 30
0.0
 10
10.9198430815
 20
79.205441946
 30
0.0
  0
SPLINE
  5
293
100
AcDbEntity
  8
0
100
AcDbSpline
 62
7
  6
CONTINUOUS
 70
0
 71
3
 72
15
 73
11
 74
0
 42
0.0000001
 43
0.0000001
 44
0.0000000001
 40
0.0
 40
0.0
 40
0.0
 40
0.0
 40
0.1250388089
 40
0.2501508532
 40
0.3751621267
 40
0.5001731126
 40
0.625152163
 40
0.7500828349
 40
0.8750907524
 40
1.0
 40
1.0
 40
1.0
 40
1.0
 10
81.2120901647
 20
79.205441946
 30
0.0
 10
81.2120901647
 20
79.304395764
 30
0.0
 10
81.1919428628
 20
79.5029314089
 30
0.0
 10
81.1029370515
 20
79.7881801357
 30
0.0
 10
80.9588550314
 20
80.0500300972
 30
0.0
 10
80.7661657765
 20
80.2782657122
 30
0.0
 10
80.5327024078
 20
80.4644160152
 30
0.0
 10
80.2677654195
 20
80.6020986428
 30
0.0
 10
79.9815416806
 20
80.6864301084
 30
0.0
 10
79.7832504409
 20
80.705441946
 30
0.0
 10
79.6843991557
 20
80.705441946
 30
0.0
  0
SPLINE
  5
294
100
AcDbEntity
  8
0
100
AcDbSpline
 62
7
  6
CONTINUOUS
 70
0
 71
3
 72
34
 73
30
 74
0
 42
0.0000001
 43
0.0000001
 44
0.0000000001
 40
0.0
 40
0.0
 40
0.0
 40
0.0
 40
0.1938409581
 40
0.2884465256
 40
0.3803061815
 40
0.4685680657
 40
0.5523752262
 40
0.6309068935
 40
0.7034581373
 40
0.7693340448
 40
0.8278794135
 40
0.8542288931
 40
0.8785473591
 40
0.9007828997
 40
0.9208839987
 40
0.9387998972
 40
0.954480457
 40
0.9678776086
 40
0.9789655983
 40
0.9836400263
 40
0.9877328945
 40
0.9912428599
 40
0.9941680909
 40
0.9965064201
 40
0.9982561762
 40
0.9989102533
 40
0.9994175156
 40
0.9997792508
 40
1.0
 40
1.0
 40
1.0
 40
1.0
 10
46.0659695231
 20
64.2051654183
 30
0.0
 10
48.0788431831
 20
64.2205221571
 30
0.0
 10
51.0741138043
 20
64.2435695782
 30
0.0
 10
55.0232628121
 20
64.2746779706
 30
0.0
 10
57.8760593852
 20
64.2978478806
 30
0.0
 10
60.616716747
 20
64.3209989285
 30
0.0
 10
63.2189652677
 20
64.3441304836
 30
0.0
 10
65.6580606183
 20
64.3672570139
 30
0.0
 10
67.9109411988
 20
64.3903437638
 30
0.0
 10
69.9562635978
 20
64.4133867178
 30
0.0
 10
71.5218111114
 20
64.4331769625
 30
0.0
 10
72.6558184964
 20
64.4492078942
 30
0.0
 10
73.4127927882
 20
64.4607974405
 30
0.0
 10
74.1048730224
 20
64.4723746713
 30
0.0
 10
74.7304562243
 20
64.4839367406
 30
0.0
 10
75.2879570345
 20
64.495478437
 30
0.0
 10
75.7758253179
 20
64.506984176
 30
0.0
 10
76.1927673855
 20
64.5184566915
 30
0.0
 10
76.4954120415
 20
64.5284374889
 30
0.0
 10
76.7014367986
 20
64.5366127947
 30
0.0
 10
76.8288003752
 20
64.5423757315
 30
0.0
 10
76.9379776416
 20
64.5481202045
 30
0.0
 10
77.0289128646
 20
64.5538212786
 30
0.0
 10
77.1015168204
 20
64.5594890356
 30
0.0
 10
77.1505369953
 20
64.5644445467
 30
0.0
 10
77.1804589163
 20
64.5686600756
 30
0.0
 10
77.1960658679
 20
64.5714486338
 30
0.0
 10
77.2069814649
 20
64.5742144384
 30
0.0
 10
77.2127694685
 20
64.5763747498
 30
0.0
 10
77.214606396
 20
64.5777461023
 30
0.0
  0
SPLINE
  5
295
100
AcDbEntity
  8
0
100
AcDbSpline
 62
7
  6
CONTINUOUS
 70
0
 71
3
 72
23
 73
19
 74
0
 42
0.0000001
 43
0.0000001
 44
0.0000000001
 40
0.0
 40
0.0
 40
0.0
 40
0.0
 40
0.225975884
 40
0.4245145111
 40
0.5947852574
 40
0.6690609126
 40
0.7359586393
 40
0.7953832888
 40
0.8472924368
 40
0.8916647853
 40
0.9284799625
 40
0.9577193888
 40
0.9694936461
 40
0.9793694125
 40
0.9873471711
 40
0.993430524
 40
0.9976318201
 40
1.0
 40
1.0
 40
1.0
 40
1.0
 10
19.0894545933
 20
63.955163502
 30
0.0
 10
18.7749945845
 20
63.9503406737
 30
0.0
 10
18.1842621367
 20
63.9408160276
 30
0.0
 10
17.3566208234
 20
63.9256612015
 30
0.0
 10
16.7401044408
 20
63.9125654828
 30
0.0
 10
16.3067894651
 20
63.9019101521
 30
0.0
 10
16.0277149832
 20
63.8942971553
 30
0.0
 10
15.7797809648
 20
63.8866955118
 30
0.0
 10
15.5632125944
 20
63.8791098019
 30
0.0
 10
15.3781299329
 20
63.8715571444
 30
0.0
 10
15.2246298574
 20
63.8640391577
 30
0.0
 10
15.1165029393
 20
63.8574715615
 30
0.0
 10
15.0458930111
 20
63.8520213962
 30
0.0
 10
15.004815536
 20
63.848265105
 30
0.0
 10
14.971746234
 20
63.8445085398
 30
0.0
 10
14.946494065
 20
63.8409010436
 30
0.0
 10
14.9294328981
 20
63.8372269211
 30
0.0
 10
14.9204196868
 20
63.8345082287
 30
0.0
 10
14.9177830512
 20
63.8325306387
 30
0.0
  0
SPLINE
  5
296
100
AcDbEntity
  8
0
100
AcDbSpline
 62
7
  6
CONTINUOUS
 70
0
 71
3
 72
15
 73
11
 74
0
 42
0.0000001
 43
0.0000001
 44
0.0000000001
 40
0.0
 40
0.0
 40
0.0
 40
0.0
 40
0.1507179539
 40
0.2988530612
 40
0.4418748214
 40
0.5773309063
 40
0.7028997852
 40
0.8164623065
 40
0.9160536246
 40
1.0
 40
1.0
 40
1.0
 40
1.0
 10
46.0659672327
 20
64.205093347
 30
0.0
 10
44.7106751612
 20
64.1947534699
 30
0.0
 10
42.0233169516
 20
64.1742073373
 30
0.0
 10
38.0498685674
 20
64.1443745483
 30
0.0
 10
34.2136806585
 20
64.1127527619
 30
0.0
 10
30.5804280875
 20
64.0810536061
 30
0.0
 10
27.2120850043
 20
64.0507433789
 30
0.0
 10
24.1662887857
 20
64.0186096001
 30
0.0
 10
21.4947821121
 20
63.9887203361
 30
0.0
 10
19.8444553047
 20
63.9672567232
 30
0.0
 10
19.0896554917
 20
63.9557212915
 30
0.0
  0
SPLINE
  5
297
100
AcDbEntity
  8
0
100
AcDbSpline
 62
7
  6
CONTINUOUS
 70
0
 71
3
 72
23
 73
19
 74
0
 42
0.0000001
 43
0.0000001
 44
0.0000000001
 40
0.0
 40
0.0
 40
0.0
 40
0.0
 40
0.2259068748
 40
0.4244887464
 40
0.5947672317
 40
0.6690359201
 40
0.7359349315
 40
0.7953729013
 40
0.8472849479
 40
0.89165201
 40
0.9284604137
 40
0.9576982683
 40
0.9694755454
 40
0.9793562787
 40
0.9873396353
 40
0.9934278994
 40
0.9976321092
 40
1.0
 40
1.0
 40
1.0
 40
1.0
 10
19.0894530037
 20
65.4557181429
 30
0.0
 10
18.7750800497
 20
65.4509086214
 30
0.0
 10
18.1843668092
 20
65.4413906176
 30
0.0
 10
17.3567277228
 20
65.4262195376
 30
0.0
 10
16.7401330031
 20
65.4131155197
 30
0.0
 10
16.3068030417
 20
65.4024600546
 30
0.0
 10
16.0277100808
 20
65.394848413
 30
0.0
 10
15.7797446399
 20
65.3872503015
 30
0.0
 10
15.5631549618
 20
65.3796649789
 30
0.0
 10
15.3780798992
 20
65.3721116009
 30
0.0
 10
15.2245945834
 20
65.3645923099
 30
0.0
 10
15.1164721187
 20
65.3580234125
 30
0.0
 10
15.0458512898
 20
65.3525734526
 30
0.0
 10
15.0047535551
 20
65.3488172521
 30
0.0
 10
14.971661977
 20
65.345060566
 30
0.0
 10
14.9463893048
 20
65.3414540577
 30
0.0
 10
14.9293185967
 20
65.33777943
 30
0.0
 10
14.9202985758
 20
65.3350630232
 30
0.0
 10
14.9176640047
 20
65.3330831998
 30
0.0
  0
SPLINE
  5
298
100
AcDbEntity
  8
0
100
AcDbSpline
 62
7
  6
CONTINUOUS
 70
0
 71
3
 72
61
 73
57
 74
0
 42
0.0000001
 43
0.0000001
 44
0.0000000001
 40
0.0
 40
0.0
 40
0.0
 40
0.0
 40
0.0001125962
 40
0.0002955144
 40
0.0005511014
 40
0.0008800483
 40
0.001758718
 40
0.0029317902
 40
0.0043985736
 40
0.0061581045
 40
0.0082093029
 40
0.0105510316
 40
0.0161013745
 40
0.0227996025
 40
0.0306359886
 40
0.0395950793
 40
0.049649893
 40
0.0607720329
 40
0.0729330877
 40
0.0861046373
 40
0.1153654665
 40
0.1482979813
 40
0.184565716
 40
0.2238185664
 40
0.2657028768
 40
0.3098189614
 40
0.3557349291
 40
0.403018206
 40
0.4999025421
 40
0.5967849201
 40
0.6440757361
 40
0.6900038336
 40
0.7341245027
 40
0.7760116971
 40
0.8152853282
 40
0.8515722643
 40
0.8845052452
 40
0.9137831725
 40
0.9269704206
 40
0.9391467577
 40
0.9502798666
 40
0.9603375898
 40
0.9692948773
 40
0.9771367116
 40
0.9838488664
 40
0.9894171822
 40
0.9917680169
 40
0.9938276558
 40
0.9955944028
 40
0.9970666197
 40
0.9982427859
 40
0.9991218493
 40
0.9994503011
 40
0.9997052485
 40
0.9998876218
 40
1.0
 40
1.0
 40
1.0
 40
1.0
 10
76.2146588026
 20
63.8276750728
 30
0.0
 10
76.212848093
 20
63.8263169727
 30
0.0
 10
76.2071847385
 20
63.8241504167
 30
0.0
 10
76.1965095272
 20
63.8213857215
 30
0.0
 10
76.1813006916
 20
63.8185940387
 30
0.0
 10
76.1522016356
 20
63.8143821355
 30
0.0
 10
76.1045772752
 20
63.8094261592
 30
0.0
 10
76.0340786958
 20
63.8037596941
 30
0.0
 10
75.9458199445
 20
63.7980595102
 30
0.0
 10
75.8398857931
 20
63.7923169849
 30
0.0
 10
75.7163409865
 20
63.7865562338
 30
0.0
 10
75.5166260188
 20
63.7783861988
 30
0.0
 10
75.2234958201
 20
63.7684120154
 30
0.0
 10
74.8199064502
 20
63.7569388259
 30
0.0
 10
74.3477710305
 20
63.7454308409
 30
0.0
 10
73.8081444649
 20
63.7338967425
 30
0.0
 10
73.2024542222
 20
63.7223399973
 30
0.0
 10
72.5323873593
 20
63.7107671901
 30
0.0
 10
71.799659047
 20
63.6991819387
 30
0.0
 10
70.7023290622
 20
63.6831554011
 30
0.0
 10
69.187459076
 20
63.66336902
 30
0.0
 10
67.2083107421
 20
63.6403380589
 30
0.0
 10
65.0282893148
 20
63.617258152
 30
0.0
 10
62.6683084933
 20
63.5941416934
 30
0.0
 10
60.1505518365
 20
63.5710135532
 30
0.0
 10
57.4988468151
 20
63.54787345
 30
0.0
 10
54.738607014
 20
63.5247175514
 30
0.0
 10
50.9176402768
 20
63.493582318
 30
0.0
 10
46.0721627798
 20
63.4552239978
 30
0.0
 10
41.2265337745
 20
63.4168594964
 30
0.0
 10
37.4052109824
 20
63.3857263259
 30
0.0
 10
34.6444835886
 20
63.3625740335
 30
0.0
 10
31.9923845927
 20
63.3394328859
 30
0.0
 10
29.4740601107
 20
63.3162974527
 30
0.0
 10
27.1132174963
 20
63.2931864826
 30
0.0
 10
24.9323828259
 20
63.2701154282
 30
0.0
 10
22.9524955472
 20
63.2470691492
 30
0.0
 10
21.4369568527
 20
63.2272837405
 30
0.0
 10
20.3386601918
 20
63.2112630414
 30
0.0
 10
19.605088464
 20
63.1996795732
 30
0.0
 10
18.9344352724
 20
63.1881094334
 30
0.0
 10
18.3285022412
 20
63.1765524223
 30
0.0
 10
17.78874408
 20
63.1650092032
 30
0.0
 10
17.3162554129
 20
63.1534983874
 30
0.0
 10
16.9119149482
 20
63.1420266484
 30
0.0
 10
16.6179598918
 20
63.1320559155
 30
0.0
 10
16.4175302157
 20
63.1238884517
 30
0.0
 10
16.2934870629
 20
63.1181283458
 30
0.0
 10
16.1871282841
 20
63.1123868826
 30
0.0
 10
16.0985522861
 20
63.1066883017
 30
0.0
 10
16.0278735138
 20
63.1010250574
 30
0.0
 10
15.9801886794
 20
63.0960681902
 30
0.0
 10
15.9511048737
 20
63.0918529226
 30
0.0
 10
15.9359309919
 20
63.0890601281
 30
0.0
 10
15.9252838566
 20
63.0862950186
 30
0.0
 10
15.9196393447
 20
63.0841257733
 30
0.0
 10
15.9178321439
 20
63.0827702974
 30
0.0
  0
SPLINE
  5
299
100
AcDbEntity
  8
0
100
AcDbSpline
 62
7
  6
CONTINUOUS
 70
0
 71
3
 72
23
 73
19
 74
0
 42
0.0000001
 43
0.0000001
 44
0.0000000001
 40
0.0
 40
0.0
 40
0.0
 40
0.0
 40
0.2260869079
 40
0.4247385568
 40
0.5947641666
 40
0.6688279189
 40
0.7355372402
 40
0.7948517434
 40
0.8467314561
 40
0.8911374846
 40
0.9280320246
 40
0.9573791658
 40
0.9692125652
 40
0.9791482695
 40
0.9871851996
 40
0.9933256528
 40
0.9975809936
 40
1.0
 40
1.0
 40
1.0
 40
1.0
 10
19.9563615115
 20
49.7048784586
 30
0.0
 10
19.6517358847
 20
49.6999860841
 30
0.0
 10
19.0794561942
 20
49.690422836
 30
0.0
 10
18.2781182313
 20
49.675383984
 30
0.0
 10
17.6816408443
 20
49.6623245368
 30
0.0
 10
17.2629574652
 20
49.6516562424
 30
0.0
 10
16.9934355628
 20
49.6440312446
 30
0.0
 10
16.7538206402
 20
49.6364195019
 30
0.0
 10
16.5442772768
 20
49.6288311341
 30
0.0
 10
16.3649659327
 20
49.6212803677
 30
0.0
 10
16.2160513605
 20
49.6137672691
 30
0.0
 10
16.1110361794
 20
49.6072058936
 30
0.0
 10
16.0423734385
 20
49.6017623739
 30
0.0
 10
16.0023698769
 20
49.5980068197
 30
0.0
 10
15.9701229791
 20
49.5942534725
 30
0.0
 10
15.9454606407
 20
49.5906391345
 30
0.0
 10
15.9287352835
 20
49.5869731658
 30
0.0
 10
15.9198961824
 20
49.5842371311
 30
0.0
 10
15.9172891577
 20
49.582280251
 30
0.0
  0
SPLINE
  5
29A
100
AcDbEntity
  8
0
100
AcDbSpline
 62
7
  6
CONTINUOUS
 70
0
 71
3
 72
34
 73
30
 74
0
 42
0.0000001
 43
0.0000001
 44
0.0000000001
 40
0.0
 40
0.0
 40
0.0
 40
0.0
 40
0.193791019
 40
0.2883725939
 40
0.3802247916
 40
0.4684734552
 40
0.5522510377
 40
0.6307776623
 40
0.7033356793
 40
0.7692089027
 40
0.8277401295
 40
0.8540941661
 40
0.8784277932
 40
0.900681507
 40
0.9207958212
 40
0.9387114446
 40
0.9543819908
 40
0.9677828434
 40
0.9788916003
 40
0.98357952
 40
0.9876861535
 40
0.9912088385
 40
0.9941450211
 40
0.9964923655
 40
0.998249051
 40
0.9989057616
 40
0.9994150753
 40
0.9997782565
 40
1.0
 40
1.0
 40
1.0
 40
1.0
 10
46.0659706679
 20
59.7051639419
 30
0.0
 10
48.0783231225
 20
59.7205859035
 30
0.0
 10
51.0728236606
 20
59.7435282608
 30
0.0
 10
55.0211230901
 20
59.7746676823
 30
0.0
 10
57.87345288
 20
59.7978249731
 30
0.0
 10
60.613585553
 20
59.8209667303
 30
0.0
 10
63.215334506
 20
59.8441010729
 30
0.0
 10
65.6541381991
 20
59.8672187411
 30
0.0
 10
67.9070066009
 20
59.8902979621
 30
0.0
 10
69.9522225449
 20
59.9133342369
 30
0.0
 10
71.5176409931
 20
59.9331254333
 30
0.0
 10
72.6517051714
 20
59.9491514931
 30
0.0
 10
73.4090722511
 20
59.9607374577
 30
0.0
 10
74.1016352822
 20
59.9723109241
 30
0.0
 10
74.7275410816
 20
59.983867486
 30
0.0
 10
75.2850718032
 20
59.995405108
 30
0.0
 10
75.7728709915
 20
60.006917587
 30
0.0
 10
76.1899627236
 20
60.0183914503
 30
0.0
 10
76.4930016367
 20
60.0283656222
 30
0.0
 10
76.6995254725
 20
60.0365357141
 30
0.0
 10
76.8273045395
 20
60.0422968693
 30
0.0
 10
76.9368710765
 20
60.0480397777
 30
0.0
 10
77.0281463079
 20
60.0537397532
 30
0.0
 10
77.1010305346
 20
60.0594063107
 30
0.0
 10
77.1502443623
 20
60.0643607521
 30
0.0
 10
77.1802885226
 20
60.0685751054
 30
0.0
 10
77.1959595601
 20
60.0713631704
 30
0.0
 10
77.2069247827
 20
60.0741280783
 30
0.0
 10
77.2127373696
 20
60.0762893865
 30
0.0
 10
77.2145884401
 20
60.0776590157
 30
0.0
  0
SPLINE
  5
29B
100
AcDbEntity
  8
0
100
AcDbSpline
 62
7
  6
CONTINUOUS
 70
0
 71
3
 72
34
 73
30
 74
0
 42
0.0000001
 43
0.0000001
 44
0.0000000001
 40
0.0
 40
0.0
 40
0.0
 40
0.0
 40
0.0002200113
 40
0.0005795387
 40
0.0010835053
 40
0.0017336077
 40
0.0034750142
 40
0.0058071821
 40
0.0087316965
 40
0.0122493412
 40
0.0163576218
 40
0.0210520473
 40
0.0321809549
 40
0.0455991622
 40
0.0612728543
 40
0.0791724258
 40
0.0992679356
 40
0.1215146723
 40
0.1458519313
 40
0.1722180118
 40
0.2307723298
 40
0.2966257695
 40
0.3691739345
 40
0.447728942
 40
0.5315094945
 40
0.6197457926
 40
0.7116100832
 40
0.806198588
 40
1.0
 40
1.0
 40
1.0
 40
1.0
 10
77.2136747058
 20
67.5782261485
 30
0.0
 10
77.2118434944
 20
67.5768600612
 30
0.0
 10
77.2060924489
 20
67.574696469
 30
0.0
 10
77.19524178
 20
67.5719308968
 30
0.0
 10
77.1797364932
 20
67.5691410113
 30
0.0
 10
77.149978923
 20
67.5649238641
 30
0.0
 10
77.1011535005
 20
67.5599662244
 30
0.0
 10
77.028710123
 20
67.5542985365
 30
0.0
 10
76.9377691962
 20
67.5485979359
 30
0.0
 10
76.8283622776
 20
67.5428569873
 30
0.0
 10
76.7005543931
 20
67.5370979301
 30
0.0
 10
76.4937422884
 20
67.5289284168
 30
0.0
 10
76.1902545875
 20
67.5189594413
 30
0.0
 10
75.7727524159
 20
67.5074882542
 30
0.0
 10
75.2849209359
 20
67.4959762233
 30
0.0
 10
74.7277356233
 20
67.4844314902
 30
0.0
 10
74.1022822207
 20
67.4728706846
 30
0.0
 10
73.409968964
 20
67.4612975393
 30
0.0
 10
72.6525331421
 20
67.4497112288
 30
0.0
 10
71.5180986612
 20
67.4336874119
 30
0.0
 10
69.9525652983
 20
67.413906398
 30
0.0
 10
67.9074757937
 20
67.390855774
 30
0.0
 10
65.6546846824
 20
67.3677702973
 30
0.0
 10
63.2157271312
 20
67.3446634137
 30
0.0
 10
60.6138551255
 20
67.3215344163
 30
0.0
 10
57.8737727123
 20
67.2983749185
 30
0.0
 10
55.0214553409
 20
67.2751851413
 30
0.0
 10
51.0729610611
 20
67.2442971538
 30
0.0
 10
48.0783713087
 20
67.2206539856
 30
0.0
 10
46.0659646209
 20
67.2057190253
 30
0.0
  0
SPLINE
  5
29C
100
AcDbEntity
  8
0
100
AcDbSpline
 62
7
  6
CONTINUOUS
 70
0
 71
3
 72
61
 73
57
 74
0
 42
0.0000001
 43
0.0000001
 44
0.0000000001
 40
0.0
 40
0.0
 40
0.0
 40
0.0
 40
0.0001122523
 40
0.0002941698
 40
0.0005482802
 40
0.0008754665
 40
0.0017505291
 40
0.002921154
 40
0.0043881729
 40
0.0061516407
 40
0.0082098797
 40
0.010560828
 40
0.0161324451
 40
0.0228495536
 40
0.0306950559
 40
0.0396517873
 40
0.0497025468
 40
0.0608296077
 40
0.0730062058
 40
0.0861977795
 40
0.1154865533
 40
0.1484172974
 40
0.184702471
 40
0.223986458
 40
0.2658821029
 40
0.3100017847
 40
0.3559356086
 40
0.4032357456
 40
0.5001277503
 40
0.5970231234
 40
0.6443138231
 40
0.690229656
 40
0.7343453966
 40
0.7762379816
 40
0.8154928137
 40
0.8517524733
 40
0.8846832241
 40
0.9139522523
 40
0.9271203547
 40
0.9392744739
 40
0.9503888785
 40
0.9604378461
 40
0.9693956681
 40
0.9772366583
 40
0.983936232
 40
0.9894809979
 40
0.9918182515
 40
0.9938643534
 40
0.9956185434
 40
0.9970801195
 40
0.9982484961
 40
0.9991233613
 40
0.9994508597
 40
0.9997053647
 40
0.9998876154
 40
1.0
 40
1.0
 40
1.0
 40
1.0
 10
76.2125093779
 20
66.8284679726
 30
0.0
 10
76.2107043216
 20
66.827114046
 30
0.0
 10
76.2050738746
 20
66.8249440692
 30
0.0
 10
76.1944561764
 20
66.8221786758
 30
0.0
 10
76.1793358606
 20
66.8193851196
 30
0.0
 10
76.1503772205
 20
66.815170543
 30
0.0
 10
76.1029136151
 20
66.8102114419
 30
0.0
 10
76.0325359022
 20
66.8045437056
 30
0.0
 10
75.9442468274
 20
66.798843406
 30
0.0
 10
75.8380921525
 20
66.7931030898
 30
0.0
 10
75.7141470892
 20
66.78734355
 30
0.0
 10
75.5136870199
 20
66.7791748271
 30
0.0
 10
75.219578409
 20
66.769205071
 30
0.0
 10
74.81501852
 20
66.7577342988
 30
0.0
 10
74.3423914632
 20
66.7462236997
 30
0.0
 10
73.8027379277
 20
66.7346802497
 30
0.0
 10
73.197108299
 20
66.7231166952
 30
0.0
 10
72.5267452546
 20
66.7115431442
 30
0.0
 10
71.7932398067
 20
66.6999604073
 30
0.0
 10
70.6946881634
 20
66.6839393149
 30
0.0
 10
69.1789656369
 20
66.6641585397
 30
0.0
 10
67.1990404537
 20
66.641102697
 30
0.0
 10
65.0181877887
 20
66.6180260102
 30
0.0
 10
62.6571213146
 20
66.5949178869
 30
0.0
 10
60.138565348
 20
66.5717821481
 30
0.0
 10
57.4863347252
 20
66.5486331243
 30
0.0
 10
54.7254636077
 20
66.5254800523
 30
0.0
 10
50.9038370917
 20
66.4943466267
 30
0.0
 10
46.0578491977
 20
66.4559754618
 30
0.0
 10
41.2120509478
 20
66.4176122963
 30
0.0
 10
37.3909080919
 20
66.3864774786
 30
0.0
 10
34.6306676196
 20
66.3633172773
 30
0.0
 10
31.9789393593
 20
66.3401714868
 30
0.0
 10
29.4611101061
 20
66.3170458522
 30
0.0
 10
27.1012041869
 20
66.2939288447
 30
0.0
 10
24.9214504778
 20
66.270841391
 30
0.0
 10
22.9424347886
 20
66.2478035653
 30
0.0
 10
21.4275808363
 20
66.2280268639
 30
0.0
 10
20.3303500528
 20
66.2119947569
 30
0.0
 10
19.5980228888
 20
66.2004073485
 30
0.0
 10
18.9284022728
 20
66.1888318887
 30
0.0
 10
18.3230411221
 20
66.1772724429
 30
0.0
 10
17.7834922956
 20
66.1657342024
 30
0.0
 10
17.3112863834
 20
66.1542321148
 30
0.0
 10
16.9077097122
 20
66.1427628914
 30
0.0
 10
16.6147694736
 20
66.1327849803
 30
0.0
 10
16.4153694676
 20
66.1246113661
 30
0.0
 10
16.2921309991
 20
66.1188499428
 30
0.0
 10
16.1865171496
 20
66.1131067326
 30
0.0
 10
16.0985699721
 20
66.107405758
 30
0.0
 10
16.0283513461
 20
66.1017384712
 30
0.0
 10
15.9809307368
 20
66.096781091
 30
0.0
 10
15.9519616332
 20
66.0925685319
 30
0.0
 10
15.9368196807
 20
66.0897756541
 30
0.0
 10
15.9261847542
 20
66.0870105236
 30
0.0
 10
15.9205428111
 20
66.0848421643
 30
0.0
 10
15.9187356326
 20
66.0834866345
 30
0.0
  0
SPLINE
  5
29D
100
AcDbEntity
  8
0
100
AcDbSpline
 62
7
  6
CONTINUOUS
 70
0
 71
3
 72
23
 73
19
 74
0
 42
0.0000001
 43
0.0000001
 44
0.0000000001
 40
0.0
 40
0.0
 40
0.0
 40
0.0
 40
0.2258321974
 40
0.424264862
 40
0.594469136
 40
0.6687269354
 40
0.7356173745
 40
0.7950453833
 40
0.8469684068
 40
0.8913652747
 40
0.9282158007
 40
0.9575016945
 40
0.9693035158
 40
0.9792098661
 40
0.9872214097
 40
0.9933420689
 40
0.9975848347
 40
1.0
 40
1.0
 40
1.0
 40
1.0
 10
19.9554745935
 20
64.7051722569
 30
0.0
 10
19.651298328
 20
64.7003524193
 30
0.0
 10
19.0798576548
 20
64.690833503
 30
0.0
 10
18.2792016029
 20
64.6756884127
 30
0.0
 10
17.6827280885
 20
64.6626014543
 30
0.0
 10
17.2634455303
 20
64.6519535997
 30
0.0
 10
16.9933596512
 20
64.6443455112
 30
0.0
 10
16.7533732988
 20
64.6367487206
 30
0.0
 10
16.5437045367
 20
64.6291677865
 30
0.0
 10
16.3644696483
 20
64.6216196126
 30
0.0
 10
16.2157619886
 20
64.6141060984
 30
0.0
 10
16.1109687857
 20
64.6075423041
 30
0.0
 10
16.0424955358
 20
64.6020972119
 30
0.0
 10
16.0026231336
 20
64.5983416838
 30
0.0
 10
15.9704882614
 20
64.5945893358
 30
0.0
 10
15.9459145643
 20
64.5909745479
 30
0.0
 10
15.9292425866
 20
64.5873110902
 30
0.0
 10
15.9204335322
 20
64.584572549
 30
0.0
 10
15.9178308434
 20
64.5826204254
 30
0.0
  0
SPLINE
  5
29E
100
AcDbEntity
  8
0
100
AcDbSpline
 62
7
  6
CONTINUOUS
 70
0
 71
3
 72
34
 73
30
 74
0
 42
0.0000001
 43
0.0000001
 44
0.0000000001
 40
0.0
 40
0.0
 40
0.0
 40
0.0
 40
0.1938287524
 40
0.2884261611
 40
0.380288359
 40
0.4685494226
 40
0.5523447913
 40
0.6308743266
 40
0.703430067
 40
0.769311173
 40
0.8278441617
 40
0.8541910307
 40
0.8785155764
 40
0.9007609045
 40
0.9208701376
 40
0.938786425
 40
0.9544557833
 40
0.9678473491
 40
0.9789416332
 40
0.9836213061
 40
0.9877195177
 40
0.9912339798
 40
0.9941625131
 40
0.9965031575
 40
0.9982544692
 40
0.9989091098
 40
0.9994168295
 40
0.9997789412
 40
1.0
 40
1.0
 40
1.0
 40
1.0
 10
46.0659702472
 20
62.7051643227
 30
0.0
 10
48.0787224859
 20
62.7205894983
 30
0.0
 10
51.0737911197
 20
62.7435352295
 30
0.0
 10
55.0227662507
 20
62.7746800367
 30
0.0
 10
57.8755043272
 20
62.7978426764
 30
0.0
 10
60.6160651184
 20
62.8209896379
 30
0.0
 10
63.2181680596
 20
62.8441245816
 30
0.0
 10
65.6571726368
 20
62.8672478423
 30
0.0
 10
67.910138315
 20
62.890334505
 30
0.0
 10
69.9554388428
 20
62.9133721688
 30
0.0
 10
71.5208891928
 20
62.9331645452
 30
0.0
 10
72.6548073231
 20
62.9491960879
 30
0.0
 10
73.411921508
 20
62.9607847381
 30
0.0
 10
74.1042530497
 20
62.9723609201
 30
0.0
 10
74.7300282849
 20
62.9839210034
 30
0.0
 10
75.2875029942
 20
62.9954583973
 30
0.0
 10
75.7752022412
 20
63.0069696217
 30
0.0
 10
76.1920364002
 20
63.0184459223
 30
0.0
 10
76.4947438865
 20
63.0284231129
 30
0.0
 10
76.7009447872
 20
63.0365960955
 30
0.0
 10
76.828465572
 20
63.0423583334
 30
0.0
 10
76.9377798514
 20
63.0481023406
 30
0.0
 10
77.0288205667
 20
63.0538034113
 30
0.0
 10
77.1014994829
 20
63.0594711639
 30
0.0
 10
77.1505659989
 20
63.064426776
 30
0.0
 10
77.180515124
 20
63.0686422795
 30
0.0
 10
77.1961366723
 20
63.071430852
 30
0.0
 10
77.207064902
 20
63.0741967065
 30
0.0
 10
77.2128599401
 20
63.0763568999
 30
0.0
 10
77.2147012307
 20
63.077727791
 30
0.0
  0
SPLINE
  5
29F
100
AcDbEntity
  8
0
100
AcDbSpline
 62
7
  6
CONTINUOUS
 70
0
 71
3
 72
34
 73
30
 74
0
 42
0.0000001
 43
0.0000001
 44
0.0000000001
 40
0.0
 40
0.0
 40
0.0
 40
0.0
 40
0.000220346
 40
0.0005817667
 40
0.0010888278
 40
0.001742823
 40
0.0034927839
 40
0.0058318206
 40
0.0087582732
 40
0.012269992
 40
0.0163650445
 40
0.0210417348
 40
0.0321329915
 40
0.0455291927
 40
0.0612036739
 40
0.0791134674
 40
0.0992141495
 40
0.1214552785
 40
0.1457797581
 40
0.1721299973
 40
0.2306646521
 40
0.2965414385
 40
0.3690984822
 40
0.4476289867
 40
0.5314327933
 40
0.6196949996
 40
0.711557735
 40
0.8061609859
 40
1.0
 40
1.0
 40
1.0
 40
1.0
 10
14.9172101579
 20
54.8325825676
 30
0.0
 10
14.9190410818
 20
54.8339549711
 30
0.0
 10
14.9248224149
 20
54.8361151676
 30
0.0
 10
14.9357275229
 20
54.8388807706
 30
0.0
 10
14.9513286695
 20
54.8416690658
 30
0.0
 10
14.9812496347
 20
54.8458849833
 30
0.0
 10
15.0302788446
 20
54.8508404723
 30
0.0
 10
15.1029052382
 20
54.8565082806
 30
0.0
 10
15.193879171
 20
54.8622093496
 30
0.0
 10
15.3031105183
 20
54.8679536902
 30
0.0
 10
15.4305390689
 20
54.873716265
 30
0.0
 10
15.636644843
 20
54.8818905667
 30
0.0
 10
15.9393383149
 20
54.8918698189
 30
0.0
 10
16.3562429392
 20
54.9033425205
 30
0.0
 10
16.8439766648
 20
54.9148507831
 30
0.0
 10
17.4013487703
 20
54.926394299
 30
0.0
 10
18.0269247594
 20
54.9379561759
 30
0.0
 10
18.7191239293
 20
54.9495317588
 30
0.0
 10
19.476229619
 20
54.9611200058
 30
0.0
 10
20.6102005751
 20
54.9771500611
 30
0.0
 10
22.1756599721
 20
54.9969450604
 30
0.0
 10
24.2209485814
 20
55.0199864017
 30
0.0
 10
26.4738953812
 20
55.0430711498
 30
0.0
 10
28.9130137196
 20
55.0661965329
 30
0.0
 10
31.5152289159
 20
55.089334881
 30
0.0
 10
34.2558976762
 20
55.1124795572
 30
0.0
 10
37.1087169443
 20
55.1356311931
 30
0.0
 10
41.0578683565
 20
55.1668623681
 30
0.0
 10
44.0531089445
 20
55.1896036372
 30
0.0
 10
46.0659703843
 20
55.2049599031
 30
0.0
  0
SPLINE
  5
2A0
100
AcDbEntity
  8
0
100
AcDbSpline
 62
7
  6
CONTINUOUS
 70
0
 71
3
 72
34
 73
30
 74
0
 42
0.0000001
 43
0.0000001
 44
0.0000000001
 40
0.0
 40
0.0
 40
0.0
 40
0.0
 40
0.1938057918
 40
0.2884144172
 40
0.3802749515
 40
0.4685085873
 40
0.552306127
 40
0.6308666006
 40
0.7034036004
 40
0.7692563959
 40
0.8278286034
 40
0.8541983026
 40
0.87852527
 40
0.9007527847
 40
0.9208399746
 40
0.9387466029
 40
0.9544324728
 40
0.9678574567
 40
0.9789815553
 40
0.9836683546
 40
0.9877661275
 40
0.9912742585
 40
0.9941928473
 40
0.9965222146
 40
0.9982632003
 40
0.9989137498
 40
0.9994184736
 40
0.9997789638
 40
1.0
 40
1.0
 40
1.0
 40
1.0
 10
46.0659669597
 20
61.2051648199
 30
0.0
 10
48.0784068038
 20
61.2205889339
 30
0.0
 10
51.0732433898
 20
61.2435375759
 30
0.0
 10
55.0219342406
 20
61.2746724489
 30
0.0
 10
57.8743818987
 20
61.2978301641
 30
0.0
 10
60.6145623643
 20
61.3209834413
 30
0.0
 10
63.2166286749
 20
61.3441178434
 30
0.0
 10
65.6556929844
 20
61.3672243868
 30
0.0
 10
67.9084085157
 20
61.3903138551
 30
0.0
 10
69.9535523405
 20
61.4133680854
 30
0.0
 10
71.5192956873
 20
61.4331464458
 30
0.0
 10
72.6538418042
 20
61.4491690963
 30
0.0
 10
73.4110054486
 20
61.4607556687
 30
0.0
 10
74.1029227186
 20
61.4723345014
 30
0.0
 10
74.7281606241
 20
61.4838980167
 30
0.0
 10
75.2854569332
 20
61.495441182
 30
0.0
 10
75.773556557
 20
61.5069505956
 30
0.0
 10
76.1912039504
 20
61.5184191843
 30
0.0
 10
76.4946315906
 20
61.5283881763
 30
0.0
 10
76.7012042804
 20
61.5365606938
 30
0.0
 10
76.8287241172
 20
61.5423223189
 30
0.0
 10
76.9378606342
 20
61.5480660596
 30
0.0
 10
77.0286112778
 20
61.5537671378
 30
0.0
 10
77.1009592011
 20
61.5594350807
 30
0.0
 10
77.1497550697
 20
61.5643927145
 30
0.0
 10
77.1795212602
 20
61.5686087655
 30
0.0
 10
77.1950484645
 20
61.5713992894
 30
0.0
 10
77.2059297077
 20
61.5741655361
 30
0.0
 10
77.211700426
 20
61.576328984
 30
0.0
 10
77.2135461729
 20
61.5776933324
 30
0.0
  0
SPLINE
  5
2A1
100
AcDbEntity
  8
0
100
AcDbSpline
 62
7
  6
CONTINUOUS
 70
0
 71
3
 72
35
 73
31
 74
0
 42
0.0000001
 43
0.0000001
 44
0.0000000001
 40
0.0
 40
0.0
 40
0.0
 40
0.0
 40
0.1939534726
 40
0.2886017939
 40
0.3805071862
 40
0.4688191612
 40
0.5526684884
 40
0.6312181297
 40
0.7037623199
 40
0.7696478138
 40
0.8282306181
 40
0.8545769272
 40
0.8788709736
 40
0.9010705653
 40
0.9211341722
 40
0.9390194056
 40
0.9546832551
 40
0.9680830666
 40
0.9739215909
 40
0.9791796993
 40
0.9838528089
 40
0.987936375
 40
0.9914260274
 40
0.9943202497
 40
0.9966206246
 40
0.9983294216
 40
0.9989631591
 40
0.9994508947
 40
0.999794582
 40
1.0
 40
1.0
 40
1.0
 40
1.0
 10
46.0659751489
 20
47.7048697197
 30
0.0
 10
48.0799426239
 20
47.7196053441
 30
0.0
 10
51.0767008877
 20
47.7435627293
 30
0.0
 10
55.0277840543
 20
47.7743743605
 30
0.0
 10
57.8819070115
 20
47.7976002174
 30
0.0
 10
60.6238892931
 20
47.8207742624
 30
0.0
 10
63.2271801014
 20
47.8439056754
 30
0.0
 10
65.6667306001
 20
47.8670478533
 30
0.0
 10
67.9197352789
 20
47.8901537302
 30
0.0
 10
69.9653920514
 20
47.9132124219
 30
0.0
 10
71.5313334085
 20
47.9329975681
 30
0.0
 10
72.6653982425
 20
47.9490405922
 30
0.0
 10
73.4216827212
 20
47.9606398454
 30
0.0
 10
74.1127192398
 20
47.972226388
 30
0.0
 10
74.7371963972
 20
47.9837970377
 30
0.0
 10
75.2937937889
 20
47.9953441635
 30
0.0
 10
75.7811777914
 20
48.0068632784
 30
0.0
 10
76.1434682899
 20
48.0168246872
 30
0.0
 10
76.3977117046
 20
48.0249284803
 30
0.0
 10
76.5613635446
 20
48.0307164692
 30
0.0
 10
76.7067793416
 20
48.036494329
 30
0.0
 10
76.8338165481
 20
48.0422560599
 30
0.0
 10
76.9423588401
 20
48.0480009163
 30
0.0
 10
77.0323625409
 20
48.0537031763
 30
0.0
 10
77.103816552
 20
48.0593722445
 30
0.0
 10
77.1518036988
 20
48.0643298753
 30
0.0
 10
77.1808697673
 20
48.068556662
 30
0.0
 10
77.1958759431
 20
48.0713421774
 30
0.0
 10
77.2062062221
 20
48.07409977
 30
0.0
 10
77.2116530736
 20
48.0762692898
 30
0.0
 10
77.2132725677
 20
48.0776575352
 30
0.0
  0
SPLINE
  5
2A2
100
AcDbEntity
  8
0
100
AcDbSpline
 62
7
  6
CONTINUOUS
 70
0
 71
3
 72
34
 73
30
 74
0
 42
0.0000001
 43
0.0000001
 44
0.0000000001
 40
0.0
 40
0.0
 40
0.0
 40
0.0
 40
0.000218995
 40
0.0005788899
 40
0.0010843126
 40
0.0017365708
 40
0.0034827734
 40
0.0058176749
 40
0.0087396089
 40
0.0122464084
 40
0.0163362373
 40
0.0210077517
 40
0.0320902908
 40
0.0454824975
 40
0.0611586809
 40
0.0790707818
 40
0.0991686497
 40
0.1214015139
 40
0.1457178423
 40
0.1720657102
 40
0.2306094377
 40
0.2964857373
 40
0.3690393021
 40
0.4475749964
 40
0.5313877032
 40
0.6196565399
 40
0.7115241764
 40
0.8061383659
 40
1.0
 40
1.0
 40
1.0
 40
1.0
 10
77.2146585078
 20
66.0783400405
 30
0.0
 10
77.212846606
 20
66.0769657186
 30
0.0
 10
77.2070944585
 20
66.0748050633
 30
0.0
 10
77.1962392777
 20
66.0720399844
 30
0.0
 10
77.180688911
 20
66.0692520234
 30
0.0
 10
77.1508433662
 20
66.0650352901
 30
0.0
 10
77.1019143506
 20
66.0600797946
 30
0.0
 10
77.0294175479
 20
66.0544118129
 30
0.0
 10
76.9385849377
 20
66.0487105155
 30
0.0
 10
76.8295062947
 20
66.0429656057
 30
0.0
 10
76.7022372324
 20
66.0372021963
 30
0.0
 10
76.496330577
 20
66.0290257646
 30
0.0
 10
76.193823555
 20
66.0190439188
 30
0.0
 10
75.7770340428
 20
66.0075703812
 30
0.0
 10
75.2893009658
 20
65.9960636011
 30
0.0
 10
74.7319173967
 20
65.9845208102
 30
0.0
 10
74.1064336209
 20
65.9729576216
 30
0.0
 10
73.4144354203
 20
65.9613792558
 30
0.0
 10
72.6575261957
 20
65.9497885593
 30
0.0
 10
71.5235722936
 20
65.933755825
 30
0.0
 10
69.9580510296
 20
65.9139634668
 30
0.0
 10
67.9127129688
 20
65.8909183586
 30
0.0
 10
65.6597573996
 20
65.8678292114
 30
0.0
 10
63.2205331211
 20
65.8446998977
 30
0.0
 10
60.6181071883
 20
65.8215682025
 30
0.0
 10
57.8772311025
 20
65.7984108671
 30
0.0
 10
55.0241835704
 20
65.7752397848
 30
0.0
 10
51.0746386166
 20
65.7441339966
 30
0.0
 10
48.0790566011
 20
65.7211468708
 30
0.0
 10
46.0659678204
 20
65.7052647576
 30
0.0
  0
SPLINE
  5
2A3
100
AcDbEntity
  8
0
100
AcDbSpline
 62
7
  6
CONTINUOUS
 70
0
 71
3
 72
34
 73
30
 74
0
 42
0.0000001
 43
0.0000001
 44
0.0000000001
 40
0.0
 40
0.0
 40
0.0
 40
0.0
 40
0.1938579264
 40
0.2884677906
 40
0.3803481357
 40
0.4686136868
 40
0.5524145219
 40
0.6309588068
 40
0.7035243447
 40
0.7693957002
 40
0.8279219919
 40
0.8542759505
 40
0.8786090669
 40
0.9008553974
 40
0.920949456
 40
0.9388420706
 40
0.9545007068
 40
0.9678937917
 40
0.9789924474
 40
0.983673099
 40
0.9877702851
 40
0.9912808257
 40
0.9942022783
 40
0.9965335956
 40
0.9982743846
 40
0.9989236533
 40
0.9994261194
 40
0.9997832734
 40
1.0
 40
1.0
 40
1.0
 40
1.0
 10
46.0659707215
 20
58.2051635559
 30
0.0
 10
48.079012259
 20
58.2207929922
 30
0.0
 10
51.0744974003
 20
58.2434557503
 30
0.0
 10
55.0240687414
 20
58.2747076823
 30
0.0
 10
57.8771542083
 20
58.2978543437
 30
0.0
 10
60.6179903438
 20
58.3210040017
 30
0.0
 10
63.2203341041
 20
58.3441492112
 30
0.0
 10
65.6596357275
 20
58.3672712599
 30
0.0
 10
67.9127415399
 20
58.3903576724
 30
0.0
 10
69.957960628
 20
58.4134039661
 30
0.0
 10
71.5233042967
 20
58.4332032297
 30
0.0
 10
72.6573087222
 20
58.4492331893
 30
0.0
 10
73.4145914241
 20
58.4608210364
 30
0.0
 10
74.106860661
 20
58.4723955974
 30
0.0
 10
74.7322390348
 20
58.4839582997
 30
0.0
 10
75.2891953197
 20
58.4955061643
 30
0.0
 10
75.7765500581
 20
58.5070205253
 30
0.0
 10
76.1933315454
 20
58.5184953384
 30
0.0
 10
76.4961086504
 20
58.5284707351
 30
0.0
 10
76.7023532401
 20
58.5366439127
 30
0.0
 10
76.8298320673
 20
58.5424055977
 30
0.0
 10
76.9390205754
 20
58.5481491115
 30
0.0
 10
77.0298494766
 20
58.5538503743
 30
0.0
 10
77.1022468841
 20
58.5595186311
 30
0.0
 10
77.1510511288
 20
58.5644749513
 30
0.0
 10
77.1807764324
 20
58.568693923
 30
0.0
 10
77.1962364223
 20
58.571481556
 30
0.0
 10
77.2070041121
 20
58.574245618
 30
0.0
 10
77.2127042866
 20
58.5764077425
 30
0.0
 10
77.2144849774
 20
58.5777840607
 30
0.0
  0
SPLINE
  5
2A4
100
AcDbEntity
  8
0
100
AcDbSpline
 62
7
  6
CONTINUOUS
 70
0
 71
3
 72
41
 73
37
 74
0
 42
0.0000001
 43
0.0000001
 44
0.0000000001
 40
0.0
 40
0.0
 40
0.0
 40
0.0
 40
0.0000958265
 40
0.000243562
 40
0.0007012547
 40
0.0013782566
 40
0.0022752439
 40
0.0033921049
 40
0.0047284596
 40
0.0062838115
 40
0.0080576056
 40
0.0122581407
 40
0.0173251817
 40
0.0232536826
 40
0.0300382152
 40
0.0376673868
 40
0.046124478
 40
0.0553925672
 40
0.0654547231
 40
0.0878934754
 40
0.1133051761
 40
0.1415371399
 40
0.1723851342
 40
0.2056352333
 40
0.241073501
 40
0.2784790551
 40
0.3175955194
 40
0.3998903906
 40
0.4857961991
 40
0.5730310065
 40
0.6592755201
 40
0.7422619202
 40
0.8197656248
 40
0.8897619856
 40
0.9503667552
 40
1.0
 40
1.0
 40
1.0
 40
1.0
 10
76.2134079363
 20
65.3285812897
 30
0.0
 10
76.2119702427
 20
65.3275029435
 30
0.0
 10
76.2077045245
 20
65.3256705831
 30
0.0
 10
76.1950948238
 20
65.3220390766
 30
0.0
 10
76.1712980025
 20
65.3180123349
 30
0.0
 10
76.1335145664
 20
65.3133187143
 30
0.0
 10
76.0832494614
 20
65.308614275
 30
0.0
 10
76.0206046896
 20
65.3038328212
 30
0.0
 10
75.945576341
 20
65.2990365186
 30
0.0
 10
75.8582105313
 20
65.2942191397
 30
0.0
 10
75.7171602759
 20
65.2873928509
 30
0.0
 10
75.5102518004
 20
65.279054978
 30
0.0
 10
75.2254195354
 20
65.2694646877
 30
0.0
 10
74.8921037143
 20
65.2598424452
 30
0.0
 10
74.5107203048
 20
65.2501981868
 30
0.0
 10
74.0819018307
 20
65.2405394965
 30
0.0
 10
73.6064956405
 20
65.2308669928
 30
0.0
 10
73.0854520677
 20
65.2211843106
 30
0.0
 10
72.3022164642
 20
65.2077718447
 30
0.0
 10
71.2162288028
 20
65.1912067642
 30
0.0
 10
69.7894825891
 20
65.171931141
 30
0.0
 10
68.2050138931
 20
65.1526381383
 30
0.0
 10
66.4735316975
 20
65.1333135899
 30
0.0
 10
64.6068924663
 20
65.113967421
 30
0.0
 10
62.6172644966
 20
65.0946059709
 30
0.0
 10
60.5176118075
 20
65.0752419053
 30
0.0
 10
57.5392208001
 20
65.0489663731
 30
0.0
 10
53.6512588852
 20
65.0164886614
 30
0.0
 10
48.86088719
 20
64.978108464
 30
0.0
 10
43.9964403138
 20
64.939715167
 30
0.0
 10
39.1867467364
 20
64.9013230336
 30
0.0
 10
34.5595590296
 20
64.8629894196
 30
0.0
 10
30.2371054256
 20
64.8247092982
 30
0.0
 10
26.3344203118
 20
64.7866025672
 30
0.0
 10
22.9544543511
 20
64.7486866848
 30
0.0
 10
20.8871962961
 20
64.7207747065
 30
0.0
 10
19.9564738467
 20
64.7060430267
 30
0.0
  0
SPLINE
  5
2A5
100
AcDbEntity
  8
0
100
AcDbSpline
 62
7
  6
CONTINUOUS
 70
0
 71
3
 72
34
 73
30
 74
0
 42
0.0000001
 43
0.0000001
 44
0.0000000001
 40
0.0
 40
0.0
 40
0.0
 40
0.0
 40
0.1937912931
 40
0.2883786761
 40
0.3802213854
 40
0.4684557812
 40
0.552247459
 40
0.6307924489
 40
0.7033253272
 40
0.7691884
 40
0.8277670517
 40
0.8541254655
 40
0.8784433981
 40
0.9006758045
 40
0.9207777891
 40
0.9387014992
 40
0.9543972197
 40
0.967817207
 40
0.9789311066
 40
0.9836167
 40
0.9877179451
 40
0.9912324104
 40
0.994158831
 40
0.9964969281
 40
0.9982469522
 40
0.9989019451
 40
0.9994109503
 40
0.9997754502
 40
1.0
 40
1.0
 40
1.0
 40
1.0
 10
46.0659669446
 20
56.7051650556
 30
0.0
 10
48.0782687128
 20
56.7202949546
 30
0.0
 10
51.072746251
 20
56.7436573366
 30
0.0
 10
55.0209021552
 20
56.7746377875
 30
0.0
 10
57.8729663477
 20
56.7978208132
 30
0.0
 10
60.6129227018
 20
56.8209714498
 30
0.0
 10
63.2147885921
 20
56.8440952866
 30
0.0
 10
65.6536008191
 20
56.8672062424
 30
0.0
 10
67.9062309795
 20
56.8902935914
 30
0.0
 10
69.9515161389
 20
56.9133414577
 30
0.0
 10
71.5173240299
 20
56.933111442
 30
0.0
 10
72.6517317596
 20
56.9491387039
 30
0.0
 10
73.4087389904
 20
56.9607277066
 30
0.0
 10
74.1007704374
 20
56.9723045841
 30
0.0
 10
74.7263934605
 20
56.9838646665
 30
0.0
 10
75.2841261011
 20
56.9954029868
 30
0.0
 10
75.7724562155
 20
57.0069060969
 30
0.0
 10
76.1900502214
 20
57.0183755845
 30
0.0
 10
76.4933087819
 20
57.028351037
 30
0.0
 10
76.6998000784
 20
57.0365236541
 30
0.0
 10
76.8274099781
 20
57.0422842353
 30
0.0
 10
76.9367305632
 20
57.0480269418
 30
0.0
 10
77.0277197166
 20
57.0537277682
 30
0.0
 10
77.1003350592
 20
57.0593952691
 30
0.0
 10
77.1493620847
 20
57.0643524482
 30
0.0
 10
77.179316033
 20
57.0685659111
 30
0.0
 10
77.1949755231
 20
57.0713572353
 30
0.0
 10
77.2059865483
 20
57.0741248056
 30
0.0
 10
77.2118346014
 20
57.0762869906
 30
0.0
 10
77.2137287148
 20
57.0776469313
 30
0.0
  0
SPLINE
  5
2A6
100
AcDbEntity
  8
0
100
AcDbSpline
 62
7
  6
CONTINUOUS
 70
0
 71
3
 72
61
 73
57
 74
0
 42
0.0000001
 43
0.0000001
 44
0.0000000001
 40
0.0
 40
0.0
 40
0.0
 40
0.0
 40
0.0001122094
 40
0.0002939529
 40
0.0005477092
 40
0.0008743131
 40
0.0017473362
 40
0.0029144377
 40
0.0043760686
 40
0.0061324048
 40
0.0081835055
 40
0.0105290612
 40
0.0160952321
 40
0.0228116097
 40
0.0306582083
 40
0.0396149738
 40
0.0496618152
 40
0.0607786201
 40
0.0729449516
 40
0.086132412
 40
0.115423031
 40
0.1483530477
 40
0.1846243176
 40
0.2239064246
 40
0.2658061863
 40
0.3099231833
 40
0.3558528609
 40
0.4031558346
 40
0.5000540935
 40
0.5969541552
 40
0.6442533941
 40
0.6901744652
 40
0.7342905127
 40
0.7761891045
 40
0.8154582925
 40
0.8517189459
 40
0.8846490893
 40
0.9139325034
 40
0.9271084773
 40
0.939264314
 40
0.9503768708
 40
0.9604231898
 40
0.9693803268
 40
0.9772253594
 40
0.9839354027
 40
0.989488406
 40
0.991826996
 40
0.9938730272
 40
0.9956261195
 40
0.9970859507
 40
0.9982523156
 40
0.9991252836
 40
0.9994519959
 40
0.9997058872
 40
0.9998877447
 40
1.0
 40
1.0
 40
1.0
 40
1.0
 10
76.213565166
 20
62.3276562039
 30
0.0
 10
76.2117607396
 20
62.3263027672
 30
0.0
 10
76.2061351379
 20
62.3241327065
 30
0.0
 10
76.1955287888
 20
62.3213672085
 30
0.0
 10
76.1804309058
 20
62.318573389
 30
0.0
 10
76.1515317091
 20
62.3143594823
 30
0.0
 10
76.1041910103
 20
62.3094005234
 30
0.0
 10
76.0340321019
 20
62.3037326041
 30
0.0
 10
75.9460637619
 20
62.2980311622
 30
0.0
 10
75.8403019494
 20
62.2922875369
 30
0.0
 10
75.7167490903
 20
62.2865260273
 30
0.0
 10
75.5166450602
 20
62.2783543179
 30
0.0
 10
75.2227606598
 20
62.2683858232
 30
0.0
 10
74.8182913135
 20
62.2569175589
 30
0.0
 10
74.3456426759
 20
62.2454085379
 30
0.0
 10
73.8060297584
 20
62.2338658344
 30
0.0
 10
73.2006671101
 20
62.2223028108
 30
0.0
 10
72.530776372
 20
62.210724494
 30
0.0
 10
71.797745305
 20
62.1991384709
 30
0.0
 10
70.6994142811
 20
62.1831168041
 30
0.0
 10
69.1837086282
 20
62.1633394991
 30
0.0
 10
67.2039838994
 20
62.1402862803
 30
0.0
 10
65.0234009844
 20
62.1171978952
 30
0.0
 10
62.662501577
 20
62.0940924274
 30
0.0
 10
60.1438826556
 20
62.0709591015
 30
0.0
 10
57.4916308678
 20
62.0478069547
 30
0.0
 10
54.7307612164
 20
62.0246502496
 30
0.0
 10
50.9089261381
 20
61.9935176488
 30
0.0
 10
46.0625228396
 20
61.9551450999
 30
0.0
 10
41.2161945938
 20
61.9167758545
 30
0.0
 10
37.3945713636
 20
61.8856433148
 30
0.0
 10
34.6339689246
 20
61.8624825254
 30
0.0
 10
31.9819327352
 20
61.8393325573
 30
0.0
 10
29.4636160845
 20
61.8162035826
 30
0.0
 10
27.1032133643
 20
61.7930936971
 30
0.0
 10
24.9231010769
 20
61.7700014112
 30
0.0
 10
22.9437319985
 20
61.7469545403
 30
0.0
 10
21.4283994899
 20
61.7271817047
 30
0.0
 10
20.330655312
 20
61.7111535122
 30
0.0
 10
19.59815162
 20
61.6995642857
 30
0.0
 10
18.9285677707
 20
61.687987139
 30
0.0
 10
18.3232935463
 20
61.6764253484
 30
0.0
 10
17.7837151048
 20
61.6648846421
 30
0.0
 10
17.3112177923
 20
61.6533779798
 30
0.0
 10
16.9071719561
 20
61.6419147344
 30
0.0
 10
16.6138200261
 20
61.6319412194
 30
0.0
 10
16.4142232521
 20
61.6237642824
 30
0.0
 10
16.2909778856
 20
61.6180025322
 30
0.0
 10
16.1854196658
 20
61.6122589438
 30
0.0
 10
16.0975677738
 20
61.6065575449
 30
0.0
 10
16.0274611286
 20
61.600889766
 30
0.0
 10
15.9801342012
 20
61.5959313844
 30
0.0
 10
15.951231139
 20
61.5917181532
 30
0.0
 10
15.9361258256
 20
61.5889245598
 30
0.0
 10
15.925513559
 20
61.58615915
 30
0.0
 10
15.9198840271
 20
61.5839896298
 30
0.0
 10
15.9180788461
 20
61.5826356586
 30
0.0
  0
SPLINE
  5
2A7
100
AcDbEntity
  8
0
100
AcDbSpline
 62
7
  6
CONTINUOUS
 70
0
 71
3
 72
14
 73
10
 74
0
 42
0.0000001
 43
0.0000001
 44
0.0000000001
 40
0.0
 40
0.0
 40
0.0
 40
0.0
 40
0.1507185706
 40
0.2988489121
 40
0.5773426312
 40
0.7029202479
 40
0.8165049084
 40
0.9160678314
 40
1.0
 40
1.0
 40
1.0
 40
1.0
 10
46.0659678204
 20
50.7052647576
 30
0.0
 10
44.7106887113
 20
50.6945723845
 30
0.0
 10
42.0233959662
 20
50.6744205535
 30
0.0
 10
36.8318612343
 20
50.6337183132
 30
0.0
 10
31.866408346
 20
50.5932326278
 30
0.0
 10
27.2116354818
 20
50.5505382484
 30
0.0
 10
24.1658371865
 20
50.5198548111
 30
0.0
 10
21.494557381
 20
50.4889162056
 30
0.0
 10
19.8446361776
 20
50.4671740193
 30
0.0
 10
19.0899787207
 20
50.4552650287
 30
0.0
  0
SPLINE
  5
2A8
100
AcDbEntity
  8
0
100
AcDbSpline
 62
7
  6
CONTINUOUS
 70
0
 71
3
 72
35
 73
31
 74
0
 42
0.0000001
 43
0.0000001
 44
0.0000000001
 40
0.0
 40
0.0
 40
0.0
 40
0.0
 40
0.0973787039
 40
0.1938587777
 40
0.2884738767
 40
0.380362293
 40
0.4686194332
 40
0.5524169479
 40
0.6309843171
 40
0.7035395919
 40
0.769394539
 40
0.8279443698
 40
0.8543058274
 40
0.8786368317
 40
0.9008756342
 40
0.9209615095
 40
0.938849875
 40
0.9545107869
 40
0.967914602
 40
0.9790274294
 40
0.9837131705
 40
0.9878123329
 40
0.9913204279
 40
0.994235028
 40
0.9965569451
 40
0.9982877813
 40
0.9989324948
 40
0.9994310266
 40
0.9997851335
 40
1.0
 40
1.0
 40
1.0
 40
1.0
 10
46.0659687652
 20
50.7051641676
 30
0.0
 10
47.0771378316
 20
50.7131417102
 30
0.0
 10
49.090149073
 20
50.7284621631
 30
0.0
 10
52.0856333508
 20
50.7514140364
 30
0.0
 10
55.0241008749
 20
50.7747206874
 30
0.0
 10
57.8771783752
 20
50.7978571148
 30
0.0
 10
60.6179199794
 20
50.8210025165
 30
0.0
 10
63.2203278579
 20
50.8441557552
 30
0.0
 10
65.6596779138
 20
50.8672659566
 30
0.0
 10
67.9126999368
 20
50.8903568401
 30
0.0
 10
69.9578441384
 20
50.9134154831
 30
0.0
 10
71.5233075806
 20
50.9332024905
 30
0.0
 10
72.6575890205
 20
50.9492315629
 30
0.0
 10
73.4148338283
 20
50.960821316
 30
0.0
 10
74.1069036351
 20
50.9723978887
 30
0.0
 10
74.7320617617
 20
50.9839621193
 30
0.0
 10
75.2889010498
 20
50.9955101464
 30
0.0
 10
75.7763366602
 20
51.007025309
 30
0.0
 10
76.1933918664
 20
51.0184994399
 30
0.0
 10
76.4964744291
 20
51.0284715377
 30
0.0
 10
76.702935474
 20
51.0366444438
 30
0.0
 10
76.830459764
 20
51.0424048892
 30
0.0
 10
76.9395699416
 20
51.0481472012
 30
0.0
 10
77.030202506
 20
51.0538485011
 30
0.0
 10
77.1023253979
 20
51.0595168587
 30
0.0
 10
77.1508792588
 20
51.0644744898
 30
0.0
 10
77.1804102104
 20
51.0686951809
 30
0.0
 10
77.1957482695
 20
51.0714834049
 30
0.0
 10
77.2064209515
 20
51.0742466623
 30
0.0
 10
77.2120663984
 20
51.0764116346
 30
0.0
 10
77.2138238686
 20
51.0777862729
 30
0.0
  0
SPLINE
  5
2A9
100
AcDbEntity
  8
0
100
AcDbSpline
 62
7
  6
CONTINUOUS
 70
0
 71
3
 72
23
 73
19
 74
0
 42
0.0000001
 43
0.0000001
 44
0.0000000001
 40
0.0
 40
0.0
 40
0.0
 40
0.0
 40
0.0024151869
 40
0.0066579681
 40
0.0127786396
 40
0.0207901936
 40
0.0306965529
 40
0.042498382
 40
0.0717842882
 40
0.1086348231
 40
0.1530316967
 40
0.2049547228
 40
0.2643827314
 40
0.3312731672
 40
0.4055309604
 40
0.5757352134
 40
0.7741678457
 40
1.0
 40
1.0
 40
1.0
 40
1.0
 10
76.2129443521
 20
54.8285948644
 30
0.0
 10
76.2103417681
 20
54.8266427583
 30
0.0
 10
76.2015330266
 20
54.8239041972
 30
0.0
 10
76.1848616442
 20
54.8202407482
 30
0.0
 10
76.160288848
 20
54.8166259528
 30
0.0
 10
76.1281551695
 20
54.8128736066
 30
0.0
 10
76.0882842579
 20
54.8091180772
 30
0.0
 10
76.0198135848
 20
54.8036729854
 30
0.0
 10
75.9150243367
 20
54.7971091903
 30
0.0
 10
75.7663223013
 20
54.7895956757
 30
0.0
 10
75.5870942072
 20
54.7820475012
 30
0.0
 10
75.3774334056
 20
54.7744665666
 30
0.0
 10
75.1374561756
 20
54.7668697756
 30
0.0
 10
74.8673805728
 20
54.7592616866
 30
0.0
 10
74.4481139861
 20
54.7486138316
 30
0.0
 10
73.8516632106
 20
54.7355268725
 30
0.0
 10
73.0510377001
 20
54.7203817813
 30
0.0
 10
72.4796188318
 20
54.7108628643
 30
0.0
 10
72.1754541767
 20
54.7060430265
 30
0.0
  0
SPLINE
  5
2AA
100
AcDbEntity
  8
0
100
AcDbSpline
 62
7
  6
CONTINUOUS
 70
0
 71
3
 72
23
 73
19
 74
0
 42
0.0000001
 43
0.0000001
 44
0.0000000001
 40
0.0
 40
0.0
 40
0.0
 40
0.0
 40
0.0023690038
 40
0.0065742229
 40
0.0126633306
 40
0.0206473303
 40
0.0305284746
 40
0.0423058991
 40
0.0715433942
 40
0.1083513551
 40
0.1527188684
 40
0.2046332242
 40
0.2640760433
 40
0.3309803879
 40
0.405251292
 40
0.5755106015
 40
0.7740546059
 40
1.0
 40
1.0
 40
1.0
 40
1.0
 10
77.2142642583
 20
55.5783510007
 30
0.0
 10
77.2116277002
 20
55.5763712467
 30
0.0
 10
77.2026052689
 20
55.5736541457
 30
0.0
 10
77.1855300439
 20
55.5699792852
 30
0.0
 10
77.1602540685
 20
55.5663727111
 30
0.0
 10
77.1271596995
 20
55.5626166649
 30
0.0
 10
77.086060222
 20
55.5588617278
 30
0.0
 10
77.0154389005
 20
55.5534148872
 30
0.0
 10
76.9073170605
 20
55.5468519403
 30
0.0
 10
76.7538320585
 20
55.5393383479
 30
0.0
 10
76.568753857
 20
55.5317858502
 30
0.0
 10
76.3521539961
 20
55.5241928826
 30
0.0
 10
76.1041719814
 20
55.5165731955
 30
0.0
 10
75.8250625846
 20
55.5089371196
 30
0.0
 10
75.391749481
 20
55.4982638878
 30
0.0
 10
74.7752297193
 20
55.4852325782
 30
0.0
 10
73.947612926
 20
55.4702843063
 30
0.0
 10
73.3569007568
 20
55.4606814539
 30
0.0
 10
73.0424767468
 20
55.4557192078
 30
0.0
  0
SPLINE
  5
2AB
100
AcDbEntity
  8
0
100
AcDbSpline
 62
7
  6
CONTINUOUS
 70
0
 71
3
 72
17
 73
13
 74
0
 42
0.0000001
 43
0.0000001
 44
0.0000000001
 40
0.0
 40
0.0
 40
0.0
 40
0.0
 40
0.1744993076
 40
0.3429964734
 40
0.4995799496
 40
0.6395979495
 40
0.7594745244
 40
0.857566808
 40
0.8988342996
 40
0.9355691466
 40
0.9687998836
 40
1.0
 40
1.0
 40
1.0
 40
1.0
 10
52.1714335024
 20
79.205441946
 30
0.0
 10
52.1714335024
 20
79.3039583585
 30
0.0
 10
52.1643877979
 20
79.4976791895
 30
0.0
 10
52.1331391646
 20
79.7782669238
 30
0.0
 10
52.082696259
 20
80.0362856618
 30
0.0
 10
52.0155048542
 20
80.2621288545
 30
0.0
 10
51.9344598952
 20
80.4478314161
 30
0.0
 10
51.8535602565
 20
80.5714103942
 30
0.0
 10
51.7828332013
 20
80.6418068858
 30
0.0
 10
51.731060086
 20
80.6780397576
 30
0.0
 10
51.6779178238
 20
80.7002954572
 30
0.0
 10
51.6413870951
 20
80.705441946
 30
0.0
 10
51.6237725637
 20
80.705441946
 30
0.0
  0
SPLINE
  5
2AC
100
AcDbEntity
  8
0
100
AcDbSpline
 62
7
  6
CONTINUOUS
 70
0
 71
3
 72
17
 73
13
 74
0
 42
0.0000001
 43
0.0000001
 44
0.0000000001
 40
0.0
 40
0.0
 40
0.0
 40
0.0
 40
0.031200125
 40
0.0644308813
 40
0.1011657388
 40
0.142433225
 40
0.2405254494
 40
0.3604019148
 40
0.5004197842
 40
0.6570031706
 40
0.8255005172
 40
1.0
 40
1.0
 40
1.0
 40
1.0
 10
40.5081606825
 20
80.705441946
 30
0.0
 10
40.4905461463
 20
80.705441946
 30
0.0
 10
40.4540154026
 20
80.7002954389
 30
0.0
 10
40.4008731305
 20
80.6780397141
 30
0.0
 10
40.349099992
 20
80.6418068524
 30
0.0
 10
40.2783729665
 20
80.5714103718
 30
0.0
 10
40.1974733911
 20
80.4478314744
 30
0.0
 10
40.1164284898
 20
80.2621290738
 30
0.0
 10
40.0492370904
 20
80.0362860768
 30
0.0
 10
39.9987941198
 20
79.778267373
 30
0.0
 10
39.9675455006
 20
79.4976794864
 30
0.0
 10
39.9604997438
 20
79.3039584571
 30
0.0
 10
39.9604997438
 20
79.205441946
 30
0.0
  0
SPLINE
  5
2AD
100
AcDbEntity
  8
0
100
AcDbSpline
 62
7
  6
CONTINUOUS
 70
0
 71
3
 72
61
 73
57
 74
0
 42
0.0000001
 43
0.0000001
 44
0.0000000001
 40
0.0
 40
0.0
 40
0.0
 40
0.0
 40
0.0001123795
 40
0.0002947539
 40
0.0005497023
 40
0.000878155
 40
0.0017572199
 40
0.0029333876
 40
0.0044056059
 40
0.0061723543
 40
0.0082319946
 40
0.0105828306
 40
0.0161511488
 40
0.0228633061
 40
0.0307051427
 40
0.0396624325
 40
0.0497201578
 40
0.0608532688
 40
0.0730296079
 40
0.0862168579
 40
0.1154947888
 40
0.1484277729
 40
0.1847147118
 40
0.2239883452
 40
0.2658755416
 40
0.3099962121
 40
0.3559243106
 40
0.4032151271
 40
0.5000975048
 40
0.5969818388
 40
0.644265114
 40
0.6901810796
 40
0.7342971617
 40
0.7761814693
 40
0.8154343166
 40
0.8517020478
 40
0.884634559
 40
0.9138953843
 40
0.9270669319
 40
0.9392279848
 40
0.9503501226
 40
0.9604049343
 40
0.9693640229
 40
0.9772004069
 40
0.9838986329
 40
0.9894489738
 40
0.9917907016
 40
0.9938418991
 40
0.995601429
 40
0.9970682116
 40
0.9982412829
 40
0.9991199519
 40
0.9994488985
 40
0.9997044854
 40
0.9998874036
 40
1.0
 40
1.0
 40
1.0
 40
1.0
 10
76.2129430438
 20
56.3284449866
 30
0.0
 10
76.2111359098
 20
56.3270895214
 30
0.0
 10
76.2054915944
 20
56.3249202682
 30
0.0
 10
76.1948448248
 20
56.3221551601
 30
0.0
 10
76.1796714866
 20
56.3193623622
 30
0.0
 10
76.1505887511
 20
56.3151470964
 30
0.0
 10
76.1029056866
 20
56.3101902277
 30
0.0
 10
76.0322295544
 20
56.3045269834
 30
0.0
 10
75.9436568852
 20
56.298828402
 30
0.0
 10
75.8373021194
 20
56.2930869388
 30
0.0
 10
75.7132636594
 20
56.2873268327
 30
0.0
 10
75.5128415891
 20
56.2791593692
 30
0.0
 10
75.218897708
 20
56.2691886363
 30
0.0
 10
74.8145726361
 20
56.2577168972
 30
0.0
 10
74.3421019817
 20
56.2462060813
 30
0.0
 10
73.8023644197
 20
56.2346628621
 30
0.0
 10
73.1964545326
 20
56.2231058511
 30
0.0
 10
72.5258269747
 20
56.2115357113
 30
0.0
 10
71.7922833016
 20
56.1999522431
 30
0.0
 10
70.6940286733
 20
56.1839315442
 30
0.0
 10
69.17854801
 20
56.1641461356
 30
0.0
 10
67.1987365759
 20
56.1410998566
 30
0.0
 10
65.0179854898
 20
56.1180288022
 30
0.0
 10
62.657233397
 20
56.0949178322
 30
0.0
 10
60.1390055094
 20
56.071782399
 30
0.0
 10
57.4870082712
 20
56.0486412515
 30
0.0
 10
54.7263868339
 20
56.0254889591
 30
0.0
 10
50.9052107622
 20
55.9943557888
 30
0.0
 10
46.0597678743
 20
55.9559912877
 30
0.0
 10
41.2144765338
 20
55.9176329675
 30
0.0
 10
37.3936566467
 20
55.886497734
 30
0.0
 10
34.6335229696
 20
55.8633418354
 30
0.0
 10
31.9819199277
 20
55.8402017323
 30
0.0
 10
29.4642601282
 20
55.8170735922
 30
0.0
 10
27.1043701248
 20
55.7939571337
 30
0.0
 10
24.9244326224
 20
55.7708772269
 30
0.0
 10
22.9453605157
 20
55.7478462659
 30
0.0
 10
21.4305488997
 20
55.7280598848
 30
0.0
 10
20.3332612178
 20
55.7120333472
 30
0.0
 10
19.6005611692
 20
55.7004480958
 30
0.0
 10
18.9305201659
 20
55.6888752886
 30
0.0
 10
18.3248533129
 20
55.6773185435
 30
0.0
 10
17.7852476019
 20
55.6657844452
 30
0.0
 10
17.3131304463
 20
55.6542764603
 30
0.0
 10
16.9095567084
 20
55.6428032709
 30
0.0
 10
16.6164378786
 20
55.6328290875
 30
0.0
 10
16.4167306709
 20
55.6246590524
 30
0.0
 10
16.2931906754
 20
55.6188983013
 30
0.0
 10
16.1872606586
 20
55.6131557761
 30
0.0
 10
16.0990053625
 20
55.6074555921
 30
0.0
 10
16.0285095558
 20
55.6017891274
 30
0.0
 10
15.9808870788
 20
55.5968331503
 30
0.0
 10
15.9517891878
 20
55.5926212479
 30
0.0
 10
15.9365809653
 20
55.5898295627
 30
0.0
 10
15.9259061918
 20
55.5870648702
 30
0.0
 10
15.920243077
 20
55.5848983057
 30
0.0
 10
15.9184324629
 20
55.5835402133
 30
0.0
  0
SPLINE
  5
2AE
100
AcDbEntity
  8
0
100
AcDbSpline
 62
7
  6
CONTINUOUS
 70
0
 71
3
 72
14
 73
10
 74
0
 42
0.0000001
 43
0.0000001
 44
0.0000000001
 40
0.0
 40
0.0
 40
0.0
 40
0.0
 40
0.269170458
 40
0.4004955527
 40
0.5279633255
 40
0.6511254489
 40
0.7701797754
 40
0.8860697361
 40
1.0
 40
1.0
 40
1.0
 40
1.0
 10
71.5608515932
 20
79.205441946
 30
0.0
 10
71.5608515932
 20
79.401257754
 30
0.0
 10
71.51106602
 20
79.6960833239
 30
0.0
 10
71.3495977296
 20
80.0462167302
 30
0.0
 10
71.1884137782
 20
80.2746921854
 30
0.0
 10
70.9926710018
 20
80.46166068
 30
0.0
 10
70.7699643893
 20
80.6005854707
 30
0.0
 10
70.528877718
 20
80.6860439771
 30
0.0
 10
70.3610954052
 20
80.705441946
 30
0.0
 10
70.2782135509
 20
80.705441946
 30
0.0
  0
SPLINE
  5
2AF
100
AcDbEntity
  8
0
100
AcDbSpline
 62
7
  6
CONTINUOUS
 70
0
 71
3
 72
16
 73
12
 74
0
 42
0.0000001
 43
0.0000001
 44
0.0000000001
 40
0.0
 40
0.0
 40
0.0
 40
0.0
 40
0.0246050764
 40
0.0518945422
 40
0.0838239098
 40
0.1215420398
 40
0.2160480314
 40
0.3362250181
 40
0.4796086708
 40
0.6418644322
 40
1.0
 40
1.0
 40
1.0
 40
1.0
 10
61.2854946362
 20
80.705441946
 30
0.0
 10
61.2987703418
 20
80.705441946
 30
0.0
 10
61.326948765
 20
80.7000198509
 30
0.0
 10
61.3666618599
 20
80.6771813832
 30
0.0
 10
61.4046692812
 20
80.6407187331
 30
0.0
 10
61.4570985054
 20
80.5689522319
 30
0.0
 10
61.5152179302
 20
80.4447011545
 30
0.0
 10
61.5727053589
 20
80.2600161411
 30
0.0
 10
61.6200288918
 20
80.0348740204
 30
0.0
 10
61.6686485824
 20
79.6798803479
 30
0.0
 10
61.6819986653
 20
79.3986745246
 30
0.0
 10
61.6819986653
 20
79.205441946
 30
0.0
  0
SPLINE
  5
2B0
100
AcDbEntity
  8
0
100
AcDbSpline
 62
7
  6
CONTINUOUS
 70
0
 71
3
 72
61
 73
57
 74
0
 42
0.0000001
 43
0.0000001
 44
0.0000000001
 40
0.0
 40
0.0
 40
0.0
 40
0.0
 40
0.0001122566
 40
0.0002941149
 40
0.0005480071
 40
0.0008747201
 40
0.0017476894
 40
0.0029140556
 40
0.004373888
 40
0.0061269814
 40
0.0081730137
 40
0.0105116047
 40
0.0160646101
 40
0.0227746554
 40
0.03061969
 40
0.0395768288
 40
0.0496231496
 40
0.0607357081
 40
0.0728915465
 40
0.0860675221
 40
0.1153509391
 40
0.1482810853
 40
0.1845417411
 40
0.2238109312
 40
0.2657095248
 40
0.3098255737
 40
0.3557466459
 40
0.4030458854
 40
0.4999459472
 40
0.5968442047
 40
0.6441471771
 40
0.690076853
 40
0.7341938481
 40
0.7760936074
 40
0.8153757118
 40
0.8516469787
 40
0.8845769922
 40
0.9138676079
 40
0.9270550665
 40
0.9392213961
 40
0.9503381992
 40
0.9603850387
 40
0.9693418023
 40
0.977188399
 40
0.9839047748
 40
0.9894709438
 40
0.9918164986
 40
0.9938675984
 40
0.9956239338
 40
0.9970855638
 40
0.9982526645
 40
0.9991256871
 40
0.9994522907
 40
0.9997060468
 40
0.9998877903
 40
1.0
 40
1.0
 40
1.0
 40
1.0
 10
76.2126963581
 20
57.8285796307
 30
0.0
 10
76.210891247
 20
57.8272256698
 30
0.0
 10
76.205261916
 20
57.8250561416
 30
0.0
 10
76.194650022
 20
57.8222907333
 30
0.0
 10
76.1795452575
 20
57.8194971367
 30
0.0
 10
76.1506432696
 20
57.815283907
 30
0.0
 10
76.1033181118
 20
57.810325524
 30
0.0
 10
76.0332141007
 20
57.8046577451
 30
0.0
 10
75.945365525
 20
57.7989563457
 30
0.0
 10
75.8398113023
 20
57.7932127572
 30
0.0
 10
75.7165706123
 20
57.7874510069
 30
0.0
 10
75.5169814301
 20
57.7792740701
 30
0.0
 10
75.2236406738
 20
57.7693005551
 30
0.0
 10
74.8196102443
 20
57.7578373095
 30
0.0
 10
74.3471309698
 20
57.7463306471
 30
0.0
 10
73.8075731449
 20
57.7347899407
 30
0.0
 10
73.2023220626
 20
57.72322815
 30
0.0
 10
72.5327638273
 20
57.7116510033
 30
0.0
 10
71.8002881683
 20
57.7000617768
 30
0.0
 10
70.702586024
 20
57.6840335842
 30
0.0
 10
69.1873115637
 20
57.6642607487
 30
0.0
 10
67.2080183363
 20
57.6412138776
 30
0.0
 10
65.0279896256
 20
57.6181215916
 30
0.0
 10
62.6676774238
 20
57.595011706
 30
0.0
 10
60.1494573756
 20
57.5718827313
 30
0.0
 10
57.4975229447
 20
57.5487327631
 30
0.0
 10
54.737026455
 20
57.5255719736
 30
0.0
 10
50.9155499442
 20
57.4944394339
 30
0.0
 10
46.0694078169
 20
57.4560701885
 30
0.0
 10
41.2231906787
 20
57.4176976394
 30
0.0
 10
37.4015024527
 20
57.3865650383
 30
0.0
 10
34.6407389229
 20
57.3634083332
 30
0.0
 10
31.9885891073
 20
57.3402561863
 30
0.0
 10
29.4700670471
 20
57.3171228604
 30
0.0
 10
27.1092584639
 20
57.2940173925
 30
0.0
 10
24.9287594668
 20
57.2709290074
 30
0.0
 10
22.9491109589
 20
57.2478757885
 30
0.0
 10
21.433463685
 20
57.2280984834
 30
0.0
 10
20.3351749853
 20
57.2120768165
 30
0.0
 10
19.6021721823
 20
57.2004907933
 30
0.0
 10
18.932307286
 20
57.1889124765
 30
0.0
 10
18.3269680034
 20
57.1773494529
 30
0.0
 10
17.7873759286
 20
57.1658067494
 30
0.0
 10
17.3147455639
 20
57.1542977284
 30
0.0
 10
16.910291874
 20
57.1428294641
 30
0.0
 10
16.6164188647
 20
57.1328609695
 30
0.0
 10
16.4163226051
 20
57.1246892598
 30
0.0
 10
16.2927745544
 20
57.1189277503
 30
0.0
 10
16.1870168669
 20
57.113184125
 30
0.0
 10
16.0990519679
 20
57.107482683
 30
0.0
 10
16.0288958162
 20
57.1018147641
 30
0.0
 10
15.9815569873
 20
57.0968558043
 30
0.0
 10
15.9526589458
 20
57.0926418984
 30
0.0
 10
15.9375616703
 20
57.0898480764
 30
0.0
 10
15.9269557546
 20
57.0870825809
 30
0.0
 10
15.9213303904
 20
57.0849125119
 30
0.0
 10
15.9195260585
 20
57.083559083
 30
0.0
  0
SPLINE
  5
2B1
100
AcDbEntity
  8
0
100
AcDbSpline
 62
7
  6
CONTINUOUS
 70
0
 71
3
 72
35
 73
31
 74
0
 42
0.0000001
 43
0.0000001
 44
0.0000000001
 40
0.0
 40
0.0
 40
0.0
 40
0.0
 40
0.0972920658
 40
0.1936956947
 40
0.2882339662
 40
0.3800325339
 40
0.4682414811
 40
0.5520058712
 40
0.6305063311
 40
0.7030392716
 40
0.7689114289
 40
0.8274684026
 40
0.8538296864
 40
0.8781639428
 40
0.9004193468
 40
0.9205444965
 40
0.938488731
 40
0.9542020247
 40
0.9676362435
 40
0.9787651262
 40
0.9834614251
 40
0.9875771156
 40
0.9911108616
 40
0.9940608697
 40
0.99642497
 40
0.9982014577
 40
0.9988692246
 40
0.9993903389
 40
0.9997659484
 40
1.0
 40
1.0
 40
1.0
 40
1.0
 10
46.0659695231
 20
49.2051654183
 30
0.0
 10
47.0762465366
 20
49.2131739229
 30
0.0
 10
49.0875801896
 20
49.2284640605
 30
0.0
 10
52.0805969584
 20
49.2513538331
 30
0.0
 10
55.0165626921
 20
49.274663351
 30
0.0
 10
57.8674312654
 20
49.297783319
 30
0.0
 10
60.6064169955
 20
49.3209014417
 30
0.0
 10
63.2073061548
 20
49.3440267324
 30
0.0
 10
65.64540453
 20
49.3671333581
 30
0.0
 10
67.8976963111
 20
49.3902018833
 30
0.0
 10
69.9428778107
 20
49.4132283567
 30
0.0
 10
71.5086047459
 20
49.4330025979
 30
0.0
 10
72.6430013607
 20
49.4490198643
 30
0.0
 10
73.4004566025
 20
49.4606006721
 30
0.0
 10
74.09314603
 20
49.472169274
 30
0.0
 10
74.7194698126
 20
49.4837228369
 30
0.0
 10
75.2778460145
 20
49.4952562207
 30
0.0
 10
75.7667260619
 20
49.5067540516
 30
0.0
 10
76.1848116103
 20
49.5182187729
 30
0.0
 10
76.4884888718
 20
49.5281916038
 30
0.0
 10
76.6954001454
 20
49.5363583913
 30
0.0
 10
76.8234735313
 20
49.5421177217
 30
0.0
 10
76.9333916775
 20
49.5478588574
 30
0.0
 10
77.025098212
 20
49.5535581736
 30
0.0
 10
77.098507576
 20
49.559224146
 30
0.0
 10
77.1482140211
 20
49.5641796592
 30
0.0
 10
77.1787097903
 20
49.568386051
 30
0.0
 10
77.1947441932
 20
49.5711791342
 30
0.0
 10
77.2061127708
 20
49.5739494339
 30
0.0
 10
77.2121748979
 20
49.5761082131
 30
0.0
 10
77.2141965612
 20
49.5774572891
 30
0.0
  0
SPLINE
  5
2B2
100
AcDbEntity
  8
0
100
AcDbSpline
 62
7
  6
CONTINUOUS
 70
0
 71
3
 72
14
 73
10
 74
0
 42
0.0000001
 43
0.0000001
 44
0.0000000001
 40
0.0
 40
0.0
 40
0.0
 40
0.0
 40
0.1098758232
 40
0.222123814
 40
0.3386461638
 40
0.4608484974
 40
0.5890981228
 40
0.7228129906
 40
1.0
 40
1.0
 40
1.0
 40
1.0
 10
76.2494861816
 20
80.705441946
 30
0.0
 10
76.3269343761
 20
80.705441946
 30
0.0
 10
76.4841424493
 20
80.6859617658
 30
0.0
 10
76.7090975102
 20
80.6000104834
 30
0.0
 10
76.915858516
 20
80.4605321529
 30
0.0
 10
77.0967095236
 20
80.2732127807
 30
0.0
 10
77.245049174
 20
80.0447530068
 30
0.0
 10
77.3937582193
 20
79.6935575683
 30
0.0
 10
77.4387041161
 20
79.4008228113
 30
0.0
 10
77.4387041161
 20
79.205441946
 30
0.0
  0
SPLINE
  5
2B3
100
AcDbEntity
  8
0
100
AcDbSpline
 62
7
  6
CONTINUOUS
 70
0
 71
3
 72
61
 73
57
 74
0
 42
0.0000001
 43
0.0000001
 44
0.0000000001
 40
0.0
 40
0.0
 40
0.0
 40
0.0
 40
0.0001126035
 40
0.00029572
 40
0.0005517799
 40
0.0008814538
 40
0.0017622472
 40
0.0029381792
 40
0.0044083706
 40
0.0061716698
 40
0.0082268095
 40
0.0105724649
 40
0.016129869
 40
0.0228328535
 40
0.0306702338
 40
0.0396297018
 40
0.0496880439
 40
0.0608156305
 40
0.0729827361
 40
0.0861596256
 40
0.1154237849
 40
0.1483574257
 40
0.1846320603
 40
0.2238897827
 40
0.2657719543
 40
0.309888827
 40
0.3558068491
 40
0.4030891687
 40
0.4999675102
 40
0.5968450041
 40
0.6441299925
 40
0.6900521708
 40
0.7341706179
 40
0.7760534902
 40
0.8153183713
 40
0.8515996005
 40
0.8845328634
 40
0.9138030181
 40
0.9269852875
 40
0.9391576289
 40
0.9502890083
 40
0.9603484011
 40
0.9693065517
 40
0.9771459017
 40
0.9838536952
 40
0.9894172564
 40
0.9917660301
 40
0.993824066
 40
0.9955898531
 40
0.997061938
 40
0.9982389833
 40
0.9991199261
 40
0.9994492616
 40
0.9997048132
 40
0.9998875241
 40
1.0
 40
1.0
 40
1.0
 40
1.0
 10
76.2145694047
 20
60.8276214891
 30
0.0
 10
76.2127585737
 20
60.8262632936
 30
0.0
 10
76.207091124
 20
60.8240953621
 30
0.0
 10
76.1964015447
 20
60.8213316498
 30
0.0
 10
76.1811639669
 20
60.8185404755
 30
0.0
 10
76.151997312
 20
60.8143288706
 30
0.0
 10
76.1042573397
 20
60.8093736409
 30
0.0
 10
76.0335893141
 20
60.803707788
 30
0.0
 10
75.945128136
 20
60.7980081146
 30
0.0
 10
75.8389698731
 20
60.7922660128
 30
0.0
 10
75.7151905552
 20
60.7865056554
 30
0.0
 10
75.5151746329
 20
60.7783373501
 30
0.0
 10
75.2217269388
 20
60.7683648999
 30
0.0
 10
74.8178788305
 20
60.7568927532
 30
0.0
 10
74.3456190117
 20
60.7453820738
 30
0.0
 10
73.8058925299
 20
60.7338463317
 30
0.0
 10
73.2000126065
 20
60.7222916523
 30
0.0
 10
72.529641854
 20
60.7107201004
 30
0.0
 10
71.7965730738
 20
60.6991360669
 30
0.0
 10
70.698944191
 20
60.6831129183
 30
0.0
 10
69.1838732876
 20
60.6633251764
 30
0.0
 10
67.2044914427
 20
60.6402927209
 30
0.0
 10
65.0242049159
 20
60.6172173342
 30
0.0
 10
62.6640241784
 20
60.5941035404
 30
0.0
 10
60.1461901036
 20
60.5709730823
 30
0.0
 10
57.4944639112
 20
60.5478352478
 30
0.0
 10
54.7341789003
 20
60.5246817587
 30
0.0
 10
50.9133005114
 20
60.4935481212
 30
0.0
 10
46.0680481483
 20
60.4551904389
 30
0.0
 10
41.2227421526
 20
60.4168303876
 30
0.0
 10
37.401743593
 20
60.385697593
 30
0.0
 10
34.6412897195
 20
60.3625452798
 30
0.0
 10
31.9894342417
 20
60.3394072243
 30
0.0
 10
29.4714105438
 20
60.3162740441
 30
0.0
 10
27.110939219
 20
60.293162208
 30
0.0
 10
24.9303837637
 20
60.2700901811
 30
0.0
 10
22.9507564809
 20
60.2470518369
 30
0.0
 10
21.4354644814
 20
60.2272648485
 30
0.0
 10
20.337501615
 20
60.2112436127
 30
0.0
 10
19.6041431451
 20
60.1996602265
 30
0.0
 10
18.9335697341
 20
60.1880894148
 30
0.0
 10
18.3276188971
 20
60.1765355161
 30
0.0
 10
17.7878582698
 20
60.1649952052
 30
0.0
 10
17.3154886453
 20
60.1534843943
 30
0.0
 10
16.9113803881
 20
60.14201265
 30
0.0
 10
16.6176493774
 20
60.1320413712
 30
0.0
 10
16.4173885427
 20
60.1238739257
 30
0.0
 10
16.2934381138
 20
60.1181137955
 30
0.0
 10
16.1871333314
 20
60.1123719923
 30
0.0
 10
16.0985614182
 20
60.1066729792
 30
0.0
 10
16.0278296866
 20
60.101007909
 30
0.0
 10
15.9800708843
 20
60.0960537909
 30
0.0
 10
15.9509184205
 20
60.0918408613
 30
0.0
 10
15.9357068329
 20
60.0890485988
 30
0.0
 10
15.9250385456
 20
60.0862836611
 30
0.0
 10
15.9193837264
 20
60.0841149883
 30
0.0
 10
15.9175749436
 20
60.0827583375
 30
0.0
  0
SPLINE
  5
2B4
100
AcDbEntity
  8
0
100
AcDbSpline
 62
7
  6
CONTINUOUS
 70
0
 71
3
 72
14
 73
10
 74
0
 42
0.0000001
 43
0.0000001
 44
0.0000000001
 40
0.0
 40
0.0
 40
0.0
 40
0.0
 40
0.1098724196
 40
0.2221189614
 40
0.3386434889
 40
0.4608473696
 40
0.5890972368
 40
0.7228123286
 40
1.0
 40
1.0
 40
1.0
 40
1.0
 10
15.8824470646
 20
80.705441946
 30
0.0
 10
15.805001409
 20
80.705441946
 30
0.0
 10
15.6477969408
 20
80.6859614528
 30
0.0
 10
15.4228454513
 20
80.6000081468
 30
0.0
 10
15.2160816046
 20
80.4605325678
 30
0.0
 10
15.0352261
 20
80.2732139005
 30
0.0
 10
14.8868862459
 20
80.0447529454
 30
0.0
 10
14.7381777776
 20
79.6935573814
 30
0.0
 10
14.6932291301
 20
79.4008229252
 30
0.0
 10
14.6932291301
 20
79.205441946
 30
0.0
  0
SPLINE
  5
2B5
100
AcDbEntity
  8
0
100
AcDbSpline
 62
7
  6
CONTINUOUS
 70
0
 71
3
 72
61
 73
57
 74
0
 42
0.0000001
 43
0.0000001
 44
0.0000000001
 40
0.0
 40
0.0
 40
0.0
 40
0.0
 40
0.0001124773
 40
0.0002951892
 40
0.0005507417
 40
0.0008800781
 40
0.0017610225
 40
0.0029380693
 40
0.0044101555
 40
0.0061759439
 40
0.0082339811
 40
0.0105827561
 40
0.0161463197
 40
0.0228541155
 40
0.0306934679
 40
0.0396516207
 40
0.0497110155
 40
0.0608423969
 40
0.0730147403
 40
0.0861970115
 40
0.1154671695
 40
0.1484004354
 40
0.1846816671
 40
0.2239465505
 40
0.2658294245
 40
0.3099478728
 40
0.3558700519
 40
0.4031550407
 40
0.5000325341
 40
0.5969108733
 40
0.6441931911
 40
0.6901112111
 40
0.7342280814
 40
0.7761102502
 40
0.8153679697
 40
0.8516426011
 40
0.8845762384
 40
0.913840394
 40
0.9270172817
 40
0.9391843854
 40
0.9503119702
 40
0.9603703103
 40
0.9693297764
 40
0.9771671548
 40
0.9838701375
 40
0.9894275398
 40
0.9917731944
 40
0.9938283332
 40
0.9955916316
 40
0.9970618222
 40
0.9982377535
 40
0.9991185462
 40
0.9994482199
 40
0.9997042797
 40
0.9998873961
 40
1.0
 40
1.0
 40
1.0
 40
1.0
 10
76.2132002349
 20
59.328456947
 30
0.0
 10
76.2113915191
 20
59.3271003069
 30
0.0
 10
76.2057368972
 20
59.3249316261
 30
0.0
 10
76.195068977
 20
59.3221666898
 30
0.0
 10
76.1798579351
 20
59.319374424
 30
0.0
 10
76.1507065452
 20
59.3151614961
 30
0.0
 10
76.1029495172
 20
59.3102073765
 30
0.0
 10
76.0322204297
 20
59.3045423063
 30
0.0
 10
75.9436518472
 20
59.2988432928
 30
0.0
 10
75.8373510776
 20
59.2931014895
 30
0.0
 10
75.7134053402
 20
59.2873413593
 30
0.0
 10
75.5131521075
 20
59.279173914
 30
0.0
 10
75.2194322671
 20
59.2692026352
 30
0.0
 10
74.815339398
 20
59.2577308909
 30
0.0
 10
74.3429877862
 20
59.2462200799
 30
0.0
 10
73.8032477629
 20
59.234679769
 30
0.0
 10
73.1973200758
 20
59.2231258704
 30
0.0
 10
72.5267723011
 20
59.2115550587
 30
0.0
 10
71.7934418834
 20
59.1999716725
 30
0.0
 10
70.6955210443
 20
59.183950437
 30
0.0
 10
69.180287076
 20
59.1641634487
 30
0.0
 10
67.2007356398
 20
59.1411251046
 30
0.0
 10
65.0202637702
 20
59.1180530777
 30
0.0
 10
62.6598829645
 20
59.0949412417
 30
0.0
 10
60.141955861
 20
59.0718080617
 30
0.0
 10
57.4902021428
 20
59.0486700062
 30
0.0
 10
54.7298542257
 20
59.0255176932
 30
0.0
 10
50.9090023858
 20
58.9943848988
 30
0.0
 10
46.0638825065
 20
58.9560248478
 30
0.0
 10
41.2188163001
 20
58.9176671656
 30
0.0
 10
37.3980847617
 20
58.8865335281
 30
0.0
 10
34.6379058765
 20
58.8633800391
 30
0.0
 10
31.9862816622
 20
58.8402422047
 30
0.0
 10
29.4685444433
 20
58.8171117468
 30
0.0
 10
27.1084545248
 20
58.7939979531
 30
0.0
 10
24.9282519244
 20
58.7709225665
 30
0.0
 10
22.9489463044
 20
58.7478901112
 30
0.0
 10
21.4339337682
 20
58.7281023693
 30
0.0
 10
20.3363471898
 20
58.7120792207
 30
0.0
 10
19.6033066783
 20
58.7004951873
 30
0.0
 10
18.9329617887
 20
58.6889236354
 30
0.0
 10
18.3271052533
 20
58.6773689562
 30
0.0
 10
17.7873996204
 20
58.6658332142
 30
0.0
 10
17.3151580601
 20
58.6543225348
 30
0.0
 10
16.9113255829
 20
58.6428503883
 30
0.0
 10
16.6178892606
 20
58.6328779381
 30
0.0
 10
16.4178811024
 20
58.6247096327
 30
0.0
 10
16.2941065988
 20
58.6189492753
 30
0.0
 10
16.1879524734
 20
58.6132071737
 30
0.0
 10
16.0994947523
 20
58.6075075002
 30
0.0
 10
16.0288295001
 20
58.6018416477
 30
0.0
 10
15.9810914107
 20
58.5968864171
 30
0.0
 10
15.9519259193
 20
58.5926748131
 30
0.0
 10
15.9366889528
 20
58.5898836363
 30
0.0
 10
15.9259998087
 20
58.5871199267
 30
0.0
 10
15.9203325969
 20
58.5849519867
 30
0.0
 10
15.9185218601
 20
58.5835937991
 30
0.0
  0
SPLINE
  5
2B6
100
AcDbEntity
  8
0
100
AcDbSpline
 62
7
  6
CONTINUOUS
 70
0
 71
3
 72
41
 73
37
 74
0
 42
0.0000001
 43
0.0000001
 44
0.0000000001
 40
0.0
 40
0.0
 40
0.0
 40
0.0
 40
0.0000958265
 40
0.000243562
 40
0.0007012547
 40
0.0013782566
 40
0.0022752439
 40
0.0033921049
 40
0.0047284596
 40
0.0062838115
 40
0.0080576056
 40
0.0122581407
 40
0.0173251817
 40
0.0232536826
 40
0.0300382152
 40
0.0376673869
 40
0.0461244781
 40
0.0553925673
 40
0.0654547231
 40
0.0878934755
 40
0.1133051762
 40
0.14153714
 40
0.1723851343
 40
0.2056352334
 40
0.2410735011
 40
0.2784790552
 40
0.3175955195
 40
0.3998903907
 40
0.4857961992
 40
0.5730310066
 40
0.6592755203
 40
0.7422619204
 40
0.8197656249
 40
0.8897619857
 40
0.9503667553
 40
1.0
 40
1.0
 40
1.0
 40
1.0
 10
76.2134079363
 20
50.3285812898
 30
0.0
 10
76.2119702427
 20
50.3275029435
 30
0.0
 10
76.2077045244
 20
50.3256705831
 30
0.0
 10
76.1950948238
 20
50.3220390766
 30
0.0
 10
76.1712980025
 20
50.3180123349
 30
0.0
 10
76.1335145664
 20
50.3133187143
 30
0.0
 10
76.0832494613
 20
50.308614275
 30
0.0
 10
76.0206046895
 20
50.3038328212
 30
0.0
 10
75.9455763408
 20
50.2990365186
 30
0.0
 10
75.8582105311
 20
50.2942191397
 30
0.0
 10
75.7171602755
 20
50.2873928509
 30
0.0
 10
75.5102517998
 20
50.279054978
 30
0.0
 10
75.2254195346
 20
50.2694646876
 30
0.0
 10
74.8921037133
 20
50.2598424452
 30
0.0
 10
74.5107203036
 20
50.2501981868
 30
0.0
 10
74.0819018292
 20
50.2405394965
 30
0.0
 10
73.6064956386
 20
50.2308669928
 30
0.0
 10
73.0854520654
 20
50.2211843105
 30
0.0
 10
72.3022164613
 20
50.2077718447
 30
0.0
 10
71.2162287991
 20
50.1912067642
 30
0.0
 10
69.7894825845
 20
50.1719311409
 30
0.0
 10
68.2050138873
 20
50.1526381383
 30
0.0
 10
66.4735316905
 20
50.1333135898
 30
0.0
 10
64.6068924581
 20
50.1139674209
 30
0.0
 10
62.6172644872
 20
50.0946059709
 30
0.0
 10
60.5176117968
 20
50.0752419052
 30
0.0
 10
57.5392207876
 20
50.048966373
 30
0.0
 10
53.6512588707
 20
50.0164886613
 30
0.0
 10
48.8608871732
 20
49.9781084639
 30
0.0
 10
43.9964402952
 20
49.9397151668
 30
0.0
 10
39.1867467164
 20
49.9013230334
 30
0.0
 10
34.559559009
 20
49.8629894195
 30
0.0
 10
30.2371054051
 20
49.8247092981
 30
0.0
 10
26.3344202923
 20
49.786602567
 30
0.0
 10
22.9544543335
 20
49.7486866845
 30
0.0
 10
20.88719628
 20
49.7207747062
 30
0.0
 10
19.9564738316
 20
49.7060430265
 30
0.0
  0
SPLINE
  5
2B7
100
AcDbEntity
  8
0
100
AcDbSpline
 62
7
  6
CONTINUOUS
 70
0
 71
3
 72
34
 73
30
 74
0
 42
0.0000001
 43
0.0000001
 44
0.0000000001
 40
0.0
 40
0.0
 40
0.0
 40
0.0
 40
0.000222
 40
0.0005850011
 40
0.0010935428
 40
0.0017489613
 40
0.0035018209
 40
0.005844223
 40
0.0087749946
 40
0.0122924265
 40
0.0163943746
 40
0.0210784568
 40
0.0321831943
 40
0.0455865368
 40
0.0612607053
 40
0.0791687779
 40
0.0992727043
 40
0.1215224283
 40
0.1458557801
 40
0.1722101457
 40
0.2307404456
 40
0.2966149607
 40
0.3691730999
 40
0.4477009798
 40
0.5314923986
 40
0.619743441
 40
0.7115992551
 40
0.8061881693
 40
1.0
 40
1.0
 40
1.0
 40
1.0
 10
14.9173650684
 20
57.8326353774
 30
0.0
 10
14.9192200225
 20
57.8340042312
 30
0.0
 10
14.925032835
 20
57.8361645244
 30
0.0
 10
14.9359907833
 20
57.8389307953
 30
0.0
 10
14.9516376727
 20
57.8417198495
 30
0.0
 10
14.9816201295
 20
57.8459348966
 30
0.0
 10
15.0307287106
 20
57.8508907506
 30
0.0
 10
15.1034652159
 20
57.8565583601
 30
0.0
 10
15.1945779868
 20
57.8622591219
 30
0.0
 10
15.3039848761
 20
57.8680023217
 30
0.0
 10
15.4316207035
 20
57.8737635845
 30
0.0
 10
15.6380140822
 20
57.8819351155
 30
0.0
 10
15.940997123
 20
57.8919105031
 30
0.0
 10
16.3581105369
 20
57.9033823188
 30
0.0
 10
16.8458947034
 20
57.914891862
 30
0.0
 10
17.4032764332
 20
57.9264356407
 30
0.0
 10
18.0289542427
 20
57.9379956657
 30
0.0
 10
18.7213649102
 20
57.9495682493
 30
0.0
 10
19.4786909008
 20
57.9611538293
 30
0.0
 10
20.6127456787
 20
57.9771804403
 30
0.0
 10
22.1781708423
 20
57.9969749732
 30
0.0
 10
24.2233912383
 20
58.0200132391
 30
0.0
 10
26.476286701
 20
58.0430939529
 30
0.0
 10
28.9152476686
 20
58.0662140123
 30
0.0
 10
31.5171772815
 20
58.089351138
 30
0.0
 10
34.2575151114
 20
58.1124941562
 30
0.0
 10
37.1099826737
 20
58.1356371148
 30
0.0
 10
41.0586100576
 20
58.1668811835
 30
0.0
 10
44.0534042892
 20
58.1895378084
 30
0.0
 10
46.0659707215
 20
58.2051635559
 30
0.0
  0
SPLINE
  5
2B8
100
AcDbEntity
  8
0
100
AcDbSpline
 62
7
  6
CONTINUOUS
 70
0
 71
3
 72
61
 73
57
 74
0
 42
0.0000001
 43
0.0000001
 44
0.0000000001
 40
0.0
 40
0.0
 40
0.0
 40
0.0
 40
0.0001122523
 40
0.0002941698
 40
0.0005482802
 40
0.0008754665
 40
0.0017505291
 40
0.002921154
 40
0.0043881729
 40
0.0061516407
 40
0.0082098797
 40
0.010560828
 40
0.0161324451
 40
0.0228495536
 40
0.0306950559
 40
0.0396517873
 40
0.0497025468
 40
0.0608296077
 40
0.0730062058
 40
0.0861977795
 40
0.1154865533
 40
0.1484172974
 40
0.184702471
 40
0.223986458
 40
0.2658821029
 40
0.3100017847
 40
0.3559356086
 40
0.4032357456
 40
0.5001277503
 40
0.5970231234
 40
0.6443138231
 40
0.690229656
 40
0.7343453966
 40
0.7762379816
 40
0.8154928137
 40
0.8517524733
 40
0.8846832241
 40
0.9139522523
 40
0.9271203547
 40
0.9392744739
 40
0.9503888785
 40
0.9604378461
 40
0.9693956681
 40
0.9772366583
 40
0.983936232
 40
0.9894809979
 40
0.9918182515
 40
0.9938643534
 40
0.9956185434
 40
0.9970801195
 40
0.9982484961
 40
0.9991233613
 40
0.9994508597
 40
0.9997053647
 40
0.9998876154
 40
1.0
 40
1.0
 40
1.0
 40
1.0
 10
76.212509378
 20
51.8284679726
 30
0.0
 10
76.2107043216
 20
51.827114046
 30
0.0
 10
76.2050738746
 20
51.8249440692
 30
0.0
 10
76.1944561764
 20
51.8221786758
 30
0.0
 10
76.1793358606
 20
51.8193851196
 30
0.0
 10
76.1503772205
 20
51.815170543
 30
0.0
 10
76.1029136151
 20
51.8102114419
 30
0.0
 10
76.0325359022
 20
51.8045437056
 30
0.0
 10
75.9442468274
 20
51.798843406
 30
0.0
 10
75.8380921525
 20
51.7931030898
 30
0.0
 10
75.7141470892
 20
51.78734355
 30
0.0
 10
75.5136870199
 20
51.7791748271
 30
0.0
 10
75.219578409
 20
51.769205071
 30
0.0
 10
74.81501852
 20
51.7577342988
 30
0.0
 10
74.3423914632
 20
51.7462236997
 30
0.0
 10
73.8027379277
 20
51.7346802497
 30
0.0
 10
73.197108299
 20
51.7231166952
 30
0.0
 10
72.5267452546
 20
51.7115431442
 30
0.0
 10
71.7932398067
 20
51.6999604073
 30
0.0
 10
70.6946881634
 20
51.6839393149
 30
0.0
 10
69.1789656369
 20
51.6641585397
 30
0.0
 10
67.1990404537
 20
51.641102697
 30
0.0
 10
65.0181877887
 20
51.6180260102
 30
0.0
 10
62.6571213146
 20
51.5949178869
 30
0.0
 10
60.138565348
 20
51.5717821481
 30
0.0
 10
57.4863347252
 20
51.5486331243
 30
0.0
 10
54.7254636077
 20
51.5254800523
 30
0.0
 10
50.9038370917
 20
51.4943466267
 30
0.0
 10
46.0578491977
 20
51.4559754618
 30
0.0
 10
41.2120509478
 20
51.4176122963
 30
0.0
 10
37.3909080919
 20
51.3864774786
 30
0.0
 10
34.6306676196
 20
51.3633172773
 30
0.0
 10
31.9789393593
 20
51.3401714868
 30
0.0
 10
29.4611101061
 20
51.3170458522
 30
0.0
 10
27.1012041869
 20
51.2939288447
 30
0.0
 10
24.9214504778
 20
51.270841391
 30
0.0
 10
22.9424347886
 20
51.2478035653
 30
0.0
 10
21.4275808363
 20
51.2280268639
 30
0.0
 10
20.3303500528
 20
51.2119947569
 30
0.0
 10
19.5980228888
 20
51.2004073485
 30
0.0
 10
18.9284022728
 20
51.1888318887
 30
0.0
 10
18.3230411221
 20
51.1772724429
 30
0.0
 10
17.7834922956
 20
51.1657342024
 30
0.0
 10
17.3112863834
 20
51.1542321148
 30
0.0
 10
16.9077097122
 20
51.1427628914
 30
0.0
 10
16.6147694736
 20
51.1327849803
 30
0.0
 10
16.4153694676
 20
51.1246113661
 30
0.0
 10
16.2921309991
 20
51.1188499428
 30
0.0
 10
16.1865171496
 20
51.1131067326
 30
0.0
 10
16.0985699721
 20
51.107405758
 30
0.0
 10
16.0283513461
 20
51.1017384712
 30
0.0
 10
15.9809307368
 20
51.096781091
 30
0.0
 10
15.9519616332
 20
51.0925685319
 30
0.0
 10
15.9368196808
 20
51.0897756541
 30
0.0
 10
15.9261847542
 20
51.0870105236
 30
0.0
 10
15.9205428111
 20
51.0848421643
 30
0.0
 10
15.9187356326
 20
51.0834866345
 30
0.0
  0
SPLINE
  5
2B9
100
AcDbEntity
  8
0
100
AcDbSpline
 62
7
  6
CONTINUOUS
 70
0
 71
3
 72
41
 73
37
 74
0
 42
0.0000001
 43
0.0000001
 44
0.0000000001
 40
0.0
 40
0.0
 40
0.0
 40
0.0
 40
0.0496332714
 40
0.1102380659
 40
0.1802344489
 40
0.2577381724
 40
0.3407245879
 40
0.4269691127
 40
0.514203927
 40
0.6001097377
 40
0.6824046066
 40
0.721521068
 40
0.758926618
 40
0.7943648806
 40
0.8276149736
 40
0.8584629607
 40
0.8866949162
 40
0.9121066078
 40
0.9345453502
 40
0.9446075008
 40
0.9538755845
 40
0.9623326701
 40
0.9699618359
 40
0.9767463625
 40
0.9826748572
 40
0.987741892
 40
0.9919424206
 40
0.9937162115
 40
0.9952715601
 40
0.9966079116
 40
0.9977247693
 40
0.9986217532
 40
0.9992987518
 40
0.9997564412
 40
0.9999041751
 40
1.0
 40
1.0
 40
1.0
 40
1.0
 10
72.175454639
 20
54.7060407898
 30
0.0
 10
71.2447317667
 20
54.6913091114
 30
0.0
 10
69.1774729162
 20
54.663397134
 30
0.0
 10
65.7975058531
 20
54.6254812511
 30
0.0
 10
61.8948198225
 20
54.5873745196
 30
0.0
 10
57.5723655156
 20
54.5490943981
 30
0.0
 10
52.9451773356
 20
54.5107607841
 30
0.0
 10
48.1354835285
 20
54.4723686506
 30
0.0
 10
43.271036672
 20
54.4339753536
 30
0.0
 10
38.4806652447
 20
54.3955951562
 30
0.0
 10
34.592703706
 20
54.3631174442
 30
0.0
 10
31.6143131181
 20
54.3368419116
 30
0.0
 10
29.5146608287
 20
54.317477846
 30
0.0
 10
27.5250333109
 20
54.298116396
 30
0.0
 10
25.6583945797
 20
54.2787702272
 30
0.0
 10
23.9269129306
 20
54.2594456789
 30
0.0
 10
22.3424448253
 20
54.2401526763
 30
0.0
 10
20.915699241
 20
54.2208770532
 30
0.0
 10
19.8297121252
 20
54.2043119725
 30
0.0
 10
19.0464769729
 20
54.1908995064
 30
0.0
 10
18.5254337497
 20
54.1812168242
 30
0.0
 10
18.0500279163
 20
54.1715443206
 30
0.0
 10
17.6212098063
 20
54.1618856304
 30
0.0
 10
17.2398267666
 20
54.1522413722
 30
0.0
 10
16.9065113193
 20
54.1426191299
 30
0.0
 10
16.6216794306
 20
54.1330288399
 30
0.0
 10
16.4147712701
 20
54.124690967
 30
0.0
 10
16.2737212678
 20
54.1178646776
 30
0.0
 10
16.1863556488
 20
54.1130472988
 30
0.0
 10
16.1113274914
 20
54.1082509967
 30
0.0
 10
16.0486829116
 20
54.1034695432
 30
0.0
 10
15.9984179978
 20
54.0987651054
 30
0.0
 10
15.9606347561
 20
54.0940714855
 30
0.0
 10
15.9368380904
 20
54.0900447473
 30
0.0
 10
15.9242285215
 20
54.0864132385
 30
0.0
 10
15.9199628645
 20
54.0845808765
 30
0.0
 10
15.9185252095
 20
54.0835025269
 30
0.0
  0
SPLINE
  5
2BA
100
AcDbEntity
  8
0
100
AcDbSpline
 62
7
  6
CONTINUOUS
 70
0
 71
3
 72
15
 73
11
 74
0
 42
0.0000001
 43
0.0000001
 44
0.0000000001
 40
0.0
 40
0.0
 40
0.0
 40
0.0
 40
0.0838975602
 40
0.183517858
 40
0.2970592322
 40
0.42265208
 40
0.5581248479
 40
0.7011388984
 40
0.8492851498
 40
1.0
 40
1.0
 40
1.0
 40
1.0
 10
73.0417487418
 20
53.955263988
 30
0.0
 10
72.2874082794
 20
53.9433597988
 30
0.0
 10
70.6372955271
 20
53.9215826998
 30
0.0
 10
67.9662202254
 20
53.8906972591
 30
0.0
 10
64.9201821619
 20
53.8599765097
 30
0.0
 10
61.5517346612
 20
53.8290920943
 30
0.0
 10
57.9182491701
 20
53.7981564036
 30
0.0
 10
54.0819486736
 20
53.7673053255
 30
0.0
 10
50.1085863704
 20
53.7358973821
 30
0.0
 10
47.4211996851
 20
53.7164114757
 30
0.0
 10
46.065964481
 20
53.7057197243
 30
0.0
  0
SPLINE
  5
2BB
100
AcDbEntity
  8
0
100
AcDbSpline
 62
7
  6
CONTINUOUS
 70
0
 71
3
 72
61
 73
57
 74
0
 42
0.0000001
 43
0.0000001
 44
0.0000000001
 40
0.0
 40
0.0
 40
0.0
 40
0.0
 40
0.0001123863
 40
0.0002946389
 40
0.0005491458
 40
0.000876646
 40
0.0017515151
 40
0.0029198955
 40
0.0043814753
 40
0.0061356692
 40
0.0081817748
 40
0.0105190322
 40
0.0160638055
 40
0.0227633867
 40
0.0306043841
 40
0.0395622133
 40
0.0496111879
 40
0.0607255993
 40
0.0728797251
 40
0.0860478339
 40
0.1153168745
 40
0.1482476366
 40
0.1845073065
 40
0.2237621477
 40
0.2656547406
 40
0.3097704877
 40
0.3556863257
 40
0.4029770291
 40
0.4998724052
 40
0.5967644069
 40
0.6440645402
 40
0.689998359
 40
0.7341180342
 40
0.7760136713
 40
0.8152976492
 40
0.8515828126
 40
0.8845135453
 40
0.9138023069
 40
0.9269938742
 40
0.9391704656
 40
0.9502975196
 40
0.9603482721
 40
0.9693049963
 40
0.9771504914
 40
0.9838675925
 40
0.9894392022
 40
0.9917901467
 40
0.9938483819
 40
0.995611846
 40
0.997078861
 40
0.998249482
 40
0.9991245409
 40
0.9994517252
 40
0.9997058338
 40
0.9998877495
 40
1.0
 40
1.0
 40
1.0
 40
1.0
 10
76.2131975133
 20
53.3285971822
 30
0.0
 10
76.2113902874
 20
53.3272416574
 30
0.0
 10
76.205748274
 20
53.3250732987
 30
0.0
 10
76.1951132305
 20
53.3223081661
 30
0.0
 10
76.1799711655
 20
53.3195152869
 30
0.0
 10
76.151001907
 20
53.3153027292
 30
0.0
 10
76.1035811072
 20
53.310345348
 30
0.0
 10
76.0333622515
 20
53.3046780605
 30
0.0
 10
75.9454148455
 20
53.2989770852
 30
0.0
 10
75.8398007677
 20
53.2932338747
 30
0.0
 10
75.7165620718
 20
53.2874724512
 30
0.0
 10
75.5171617637
 20
53.2792988376
 30
0.0
 10
75.2242211493
 20
53.2693209266
 30
0.0
 10
74.8206440313
 20
53.2578517029
 30
0.0
 10
74.3484376792
 20
53.246349615
 30
0.0
 10
73.8088884223
 20
53.2348113743
 30
0.0
 10
73.2035268513
 20
53.2232519285
 30
0.0
 10
72.5339058249
 20
53.2116764685
 30
0.0
 10
71.8015782607
 20
53.2000890601
 30
0.0
 10
70.7043469653
 20
53.1840569534
 30
0.0
 10
69.1894924075
 20
53.1642802522
 30
0.0
 10
67.2104760376
 20
53.1412424264
 30
0.0
 10
65.0307217123
 20
53.1181549726
 30
0.0
 10
62.6708152459
 20
53.095037965
 30
0.0
 10
60.1529855201
 20
53.0719123304
 30
0.0
 10
57.5012568678
 20
53.0487665398
 30
0.0
 10
54.7410160865
 20
53.0256063384
 30
0.0
 10
50.9198729924
 20
52.9944715212
 30
0.0
 10
46.0740746673
 20
52.9561083563
 30
0.0
 10
41.2280868473
 20
52.9177371908
 30
0.0
 10
37.4064605688
 20
52.8866037648
 30
0.0
 10
34.6455897606
 20
52.8634506928
 30
0.0
 10
31.99335953
 20
52.840301669
 30
0.0
 10
29.4748040345
 20
52.8171659302
 30
0.0
 10
27.1137381069
 20
52.7940578071
 30
0.0
 10
24.932886059
 20
52.7709811204
 30
0.0
 10
22.9529615563
 20
52.7479252778
 30
0.0
 10
21.4372396326
 20
52.7281445024
 30
0.0
 10
20.3386884987
 20
52.7121234097
 30
0.0
 10
19.605183453
 20
52.7005406729
 30
0.0
 10
18.9348208222
 20
52.6889671219
 30
0.0
 10
18.3291916163
 20
52.6774035675
 30
0.0
 10
17.7895385106
 20
52.6658601177
 30
0.0
 10
17.3169118904
 20
52.6543495189
 30
0.0
 10
16.9123524447
 20
52.642878747
 30
0.0
 10
16.6182442074
 20
52.6329089909
 30
0.0
 10
16.4177844404
 20
52.6247402674
 30
0.0
 10
16.2938396063
 20
52.6189807278
 30
0.0
 10
16.187685162
 20
52.6132404119
 30
0.0
 10
16.0993963184
 20
52.607540113
 30
0.0
 10
16.0290188372
 20
52.6018723773
 30
0.0
 10
15.9815554234
 20
52.5969132772
 30
0.0
 10
15.9525969387
 20
52.5926986991
 30
0.0
 10
15.9374767354
 20
52.5899051445
 30
0.0
 10
15.926859154
 20
52.5871397531
 30
0.0
 10
15.9212287772
 20
52.5849697756
 30
0.0
 10
15.9194237679
 20
52.583615844
 30
0.0
  0
SPLINE
  5
2BC
100
AcDbEntity
  8
0
100
AcDbSpline
 62
7
  6
CONTINUOUS
 70
0
 71
3
 72
23
 73
19
 74
0
 42
0.0000001
 43
0.0000001
 44
0.0000000001
 40
0.0
 40
0.0
 40
0.0
 40
0.0
 40
0.0023708265
 40
0.0065801876
 40
0.0126752584
 40
0.0206666076
 40
0.0305560723
 40
0.0423423806
 40
0.071597139
 40
0.1084163685
 40
0.1527826253
 40
0.2046767025
 40
0.2640751452
 40
0.3309212697
 40
0.4051397001
 40
0.5753895321
 40
0.7740576905
 40
1.0
 40
1.0
 40
1.0
 40
1.0
 10
77.2144709894
 20
54.0783580517
 30
0.0
 10
77.2118303968
 20
54.0763782091
 30
0.0
 10
77.2027965238
 20
54.0736632403
 30
0.0
 10
77.1857003472
 20
54.0699885917
 30
0.0
 10
77.1603939883
 20
54.0663821664
 30
0.0
 10
77.1272619599
 20
54.0626245902
 30
0.0
 10
77.0861190927
 20
54.0588667711
 30
0.0
 10
77.0154341647
 20
54.0534132973
 30
0.0
 10
76.9072365017
 20
54.0468373517
 30
0.0
 10
76.7536794017
 20
54.0393112254
 30
0.0
 10
76.5685737713
 20
54.0317572296
 30
0.0
 10
76.3520161914
 20
54.0241822251
 30
0.0
 10
76.1041478622
 20
54.016611526
 30
0.0
 10
75.825189996
 20
54.0090306323
 30
0.0
 10
75.3919456695
 20
53.9983949664
 30
0.0
 10
74.7752041898
 20
53.9852012261
 30
0.0
 10
73.9472553863
 20
53.9697127288
 30
0.0
 10
73.3562416603
 20
53.9600754749
 30
0.0
 10
73.0417487418
 20
53.955263988
 30
0.0
  0
SPLINE
  5
2BD
100
AcDbEntity
  8
0
100
AcDbSpline
 62
7
  6
CONTINUOUS
 70
0
 71
3
 72
34
 73
30
 74
0
 42
0.0000001
 43
0.0000001
 44
0.0000000001
 40
0.0
 40
0.0
 40
0.0
 40
0.0
 40
0.1938040118
 40
0.2883945208
 40
0.3802372234
 40
0.4684829218
 40
0.5522803034
 40
0.6308095971
 40
0.7033504782
 40
0.769222586
 40
0.8277833604
 40
0.8541363763
 40
0.8784543183
 40
0.9006900473
 40
0.9207965557
 40
0.9387230982
 40
0.9544163495
 40
0.9678255769
 40
0.9789248371
 40
0.9836044801
 40
0.9877022064
 40
0.9912166186
 40
0.9941460397
 40
0.996488713
 40
0.9982433855
 40
0.9989002593
 40
0.9994106004
 40
0.9997757096
 40
1.0
 40
1.0
 40
1.0
 40
1.0
 10
46.0659686253
 20
52.2051659656
 30
0.0
 10
48.0784384224
 20
52.2201013947
 30
0.0
 10
51.0731297557
 20
52.2437408354
 30
0.0
 10
55.0215185256
 20
52.2746284639
 30
0.0
 10
57.8737812676
 20
52.2978262744
 30
0.0
 10
60.6139610921
 20
52.3209810242
 30
0.0
 10
63.2158852381
 20
52.3441002195
 30
0.0
 10
65.6547185172
 20
52.3672215783
 30
0.0
 10
67.9074012477
 20
52.3903064553
 30
0.0
 10
69.9527128325
 20
52.4133478603
 30
0.0
 10
71.5183995557
 20
52.4331280412
 30
0.0
 10
72.6525850965
 20
52.4491562418
 30
0.0
 10
73.4095838586
 20
52.4607447765
 30
0.0
 10
74.1017087664
 20
52.4723212471
 30
0.0
 10
74.7274534306
 20
52.4838812502
 30
0.0
 10
75.2852463952
 20
52.495419606
 30
0.0
 10
75.7734769171
 20
52.5069218936
 30
0.0
 10
76.1907885683
 20
52.5183924277
 30
0.0
 10
76.4937265044
 20
52.5283714417
 30
0.0
 10
76.6999707527
 20
52.5365451268
 30
0.0
 10
76.8274837982
 20
52.5423070912
 30
0.0
 10
76.9368002442
 20
52.5480506076
 30
0.0
 10
77.0278692795
 20
52.5537513285
 30
0.0
 10
77.1006130309
 20
52.5594186978
 30
0.0
 10
77.1497572363
 20
52.5643746299
 30
0.0
 10
77.1797936822
 20
52.5685877995
 30
0.0
 10
77.1954949821
 20
52.5713779802
 30
0.0
 10
77.206522299
 20
52.5741452398
 30
0.0
 10
77.2123780114
 20
52.5763056562
 30
0.0
 10
77.2142658968
 20
52.5776697036
 30
0.0
  0
SPLINE
  5
2BE
100
AcDbEntity
  8
0
100
AcDbSpline
 62
7
  6
CONTINUOUS
 70
0
 71
3
 72
34
 73
30
 74
0
 42
0.0000001
 43
0.0000001
 44
0.0000000001
 40
0.0
 40
0.0
 40
0.0
 40
0.0
 40
0.000219726
 40
0.0005797249
 40
0.0010850559
 40
0.0017375199
 40
0.0034870279
 40
0.0058310298
 40
0.0087673838
 40
0.0122930182
 40
0.0164046387
 40
0.021098841
 40
0.0322210789
 40
0.04563168
 40
0.0613022965
 40
0.0792044558
 40
0.0993081505
 40
0.1215634255
 40
0.1459059593
 40
0.1722710965
 40
0.2308104981
 40
0.296662931
 40
0.3692264869
 40
0.4477665849
 40
0.5315367526
 40
0.619776726
 40
0.7116344063
 40
0.8062201326
 40
1.0
 40
1.0
 40
1.0
 40
1.0
 10
14.9177842533
 20
62.332680402
 30
0.0
 10
14.9196095873
 20
62.3340494587
 30
0.0
 10
14.9253656611
 20
62.3362122075
 30
0.0
 10
14.9362315776
 20
62.3389773099
 30
0.0
 10
14.9517824571
 20
62.3417660822
 30
0.0
 10
14.9816638985
 20
62.3459843839
 30
0.0
 10
15.0307234085
 20
62.350939672
 30
0.0
 10
15.1034989814
 20
62.3566028102
 30
0.0
 10
15.1947708961
 20
62.3623008952
 30
0.0
 10
15.3044203109
 20
62.3680425469
 30
0.0
 10
15.4323455149
 20
62.3738028611
 30
0.0
 10
15.6391238418
 20
62.3819716818
 30
0.0
 10
15.9424653895
 20
62.391943322
 30
0.0
 10
16.3597935996
 20
62.4034156552
 30
0.0
 10
16.8475483913
 20
62.4149271816
 30
0.0
 10
17.4048220864
 20
62.4264712331
 30
0.0
 10
18.0304855572
 20
62.4380291586
 30
0.0
 10
18.7230377713
 20
62.449600189
 30
0.0
 10
19.4806187213
 20
62.4611845827
 30
0.0
 10
20.614960428
 20
62.4772070015
 30
0.0
 10
22.1803421965
 20
62.4969942666
 30
0.0
 10
24.2254570966
 20
62.5200424216
 30
0.0
 10
26.4782769015
 20
62.5431153155
 30
0.0
 10
28.917168382
 20
62.5662281671
 30
0.0
 10
31.5188551035
 20
62.5893655228
 30
0.0
 10
34.2588407249
 20
62.6125086595
 30
0.0
 10
37.111142108
 20
62.6356627888
 30
0.0
 10
41.0593728731
 20
62.666799508
 30
0.0
 10
44.053760561
 20
62.6897438949
 30
0.0
 10
46.0659702425
 20
62.7051649128
 30
0.0
  0
SPLINE
  5
2BF
100
AcDbEntity
  8
0
100
AcDbSpline
 62
7
  6
CONTINUOUS
 70
0
 71
3
 72
16
 73
12
 74
0
 42
0.0000001
 43
0.0000001
 44
0.0000000001
 40
0.0
 40
0.0
 40
0.0
 40
0.0
 40
0.0246028154
 40
0.0518882171
 40
0.0838152676
 40
0.1215335939
 40
0.2160422711
 40
0.3362210838
 40
0.4796055189
 40
0.6418622107
 40
1.0
 40
1.0
 40
1.0
 40
1.0
 10
30.84643861
 20
80.705441946
 30
0.0
 10
30.8331642023
 20
80.705441946
 30
0.0
 10
30.8049890942
 20
80.7000205039
 30
0.0
 10
30.7652825416
 20
80.6771801429
 30
0.0
 10
30.7272812345
 20
80.6407168852
 30
0.0
 10
30.674851698
 20
80.5689512786
 30
0.0
 10
30.6167240441
 20
80.4447023067
 30
0.0
 10
30.5592303468
 20
80.2600169782
 30
0.0
 10
30.511908293
 20
80.0348739043
 30
0.0
 10
30.4632894459
 20
79.679880247
 30
0.0
 10
30.4499345809
 20
79.3986745883
 30
0.0
 10
30.4499345809
 20
79.205441946
 30
0.0
  0
SPLINE
  5
2C0
100
AcDbEntity
  8
0
100
AcDbSpline
 62
7
  6
CONTINUOUS
 70
0
 71
3
 72
14
 73
10
 74
0
 42
0.0000001
 43
0.0000001
 44
0.0000000001
 40
0.0
 40
0.0
 40
0.0
 40
0.0
 40
0.1139303056
 40
0.2298202763
 40
0.3488745251
 40
0.4720365461
 40
0.5995042207
 40
0.730829257
 40
1.0
 40
1.0
 40
1.0
 40
1.0
 10
21.8537196953
 20
80.705441946
 30
0.0
 10
21.7708378107
 20
80.705441946
 30
0.0
 10
21.6030554674
 20
80.6860439237
 30
0.0
 10
21.3619688006
 20
80.6005854687
 30
0.0
 10
21.1392623103
 20
80.4616607125
 30
0.0
 10
20.943519666
 20
80.2746923846
 30
0.0
 10
20.782335747
 20
80.0462171415
 30
0.0
 10
20.6208672833
 20
79.6960837115
 30
0.0
 10
20.571081653
 20
79.4012579612
 30
0.0
 10
20.571081653
 20
79.205441946
 30
0.0
  0
SPLINE
  5
2C1
100
AcDbEntity
  8
0
100
AcDbSpline
 62
7
  6
CONTINUOUS
 70
0
 71
3
 72
34
 73
30
 74
0
 42
0.0000001
 43
0.0000001
 44
0.0000000001
 40
0.0
 40
0.0
 40
0.0
 40
0.0
 40
0.0002195346
 40
0.0005786193
 40
0.0010820209
 40
0.0017312542
 40
0.0034692634
 40
0.0057945705
 40
0.0087072565
 40
0.0122068807
 40
0.0162927808
 40
0.0209641844
 40
0.0320597823
 40
0.0454710894
 40
0.0611539864
 40
0.0790626504
 40
0.0991511882
 40
0.1213736653
 40
0.145684122
 40
0.1720362387
 40
0.2306076134
 40
0.2964776477
 40
0.3690133415
 40
0.4475702142
 40
0.531389445
 40
0.6196464212
 40
0.7115155557
 40
0.8061423747
 40
1.0
 40
1.0
 40
1.0
 40
1.0
 10
14.9180390327
 20
60.8325456885
 30
0.0
 10
14.9198627388
 20
60.8339135734
 30
0.0
 10
14.9256052728
 20
60.8360770862
 30
0.0
 10
14.9364390263
 20
60.8388429911
 30
0.0
 10
14.9519250589
 20
60.8416331273
 30
0.0
 10
14.9816319303
 20
60.8458502548
 30
0.0
 10
15.0303416787
 20
60.850808018
 30
0.0
 10
15.1025553682
 20
60.8564768545
 30
0.0
 10
15.193114916
 20
60.8621789282
 30
0.0
 10
15.3019793055
 20
60.8679238817
 30
0.0
 10
15.4291286844
 20
60.8736870181
 30
0.0
 10
15.6351239049
 20
60.881866992
 30
0.0
 10
15.9379567077
 20
60.8918435169
 30
0.0
 10
16.3551400098
 20
60.9033096632
 30
0.0
 10
16.8430935045
 20
60.9148193693
 30
0.0
 10
17.400400538
 20
60.9263632409
 30
0.0
 10
18.0256284982
 20
60.9379282571
 30
0.0
 10
18.7173439797
 20
60.9495086722
 30
0.0
 10
19.4741099336
 20
60.9611011958
 30
0.0
 10
20.6083063638
 20
60.9771343937
 30
0.0
 10
22.1740556817
 20
60.9969130837
 30
0.0
 10
24.2193800713
 20
61.0199664365
 30
0.0
 10
26.4722497268
 20
61.0430652796
 30
0.0
 10
28.9115165634
 20
61.0661817742
 30
0.0
 10
31.5140433197
 20
61.0893173585
 30
0.0
 10
34.2548125155
 20
61.1124739998
 30
0.0
 10
37.1078138374
 20
61.1356413353
 30
0.0
 10
41.0573669902
 20
61.1667833729
 30
0.0
 10
44.0529655201
 20
61.1897357446
 30
0.0
 10
46.0659669645
 20
61.2051641625
 30
0.0
  0
SPLINE
  5
2C2
100
AcDbEntity
  8
0
100
AcDbSpline
 62
7
  6
CONTINUOUS
 70
0
 71
3
 72
34
 73
30
 74
0
 42
0.0000001
 43
0.0000001
 44
0.0000000001
 40
0.0
 40
0.0
 40
0.0
 40
0.0
 40
0.0002189262
 40
0.000577062
 40
0.0010793629
 40
0.0017275242
 40
0.0034641847
 40
0.0057903773
 40
0.0087075865
 40
0.0122166746
 40
0.0163161037
 40
0.0210020863
 40
0.0321178988
 40
0.0455322137
 40
0.0612104448
 40
0.0791140468
 40
0.0992039374
 40
0.1214358519
 40
0.1457585965
 40
0.1721200638
 40
0.2306905575
 40
0.2965443566
 40
0.3690854613
 40
0.4476509479
 40
0.5314478427
 40
0.6196932991
 40
0.7115635004
 40
0.8061691583
 40
1.0
 40
1.0
 40
1.0
 40
1.0
 10
14.9183305609
 20
56.3326010572
 30
0.0
 10
14.9201469314
 20
56.3339681529
 30
0.0
 10
14.9258720458
 20
56.3361324569
 30
0.0
 10
14.9366773771
 20
56.3388977642
 30
0.0
 10
14.9521304267
 20
56.3416876891
 30
0.0
 10
14.98179999
 20
56.3459054472
 30
0.0
 10
15.0304933828
 20
56.3508633285
 30
0.0
 10
15.1027487222
 20
56.3565314297
 30
0.0
 10
15.1934622646
 20
56.3622327154
 30
0.0
 10
15.3026118872
 20
56.3679753023
 30
0.0
 10
15.4301507589
 20
56.3737355725
 30
0.0
 10
15.6366464891
 20
56.381908795
 30
0.0
 10
15.9398692553
 20
56.3918820557
 30
0.0
 10
16.3572412752
 20
56.4033534908
 30
0.0
 10
16.8451204139
 20
56.414863185
 30
0.0
 10
17.4023352659
 20
56.4264067771
 30
0.0
 10
18.0276169208
 20
56.4379699258
 30
0.0
 10
18.7195656716
 20
56.4495476165
 30
0.0
 10
19.4766473299
 20
56.4611379573
 30
0.0
 10
20.6110488104
 20
56.477166518
 30
0.0
 10
22.1767029053
 20
56.4969420629
 30
0.0
 10
24.2218866133
 20
56.5199989364
 30
0.0
 10
26.4747123625
 20
56.543091191
 30
0.0
 10
28.9138701954
 20
56.5662005162
 30
0.0
 10
31.5161105654
 20
56.5893335307
 30
0.0
 10
34.2565136715
 20
56.6124917624
 30
0.0
 10
37.109159954
 20
56.635675764
 30
0.0
 10
41.0581906418
 20
56.6666638932
 30
0.0
 10
44.053260173
 20
56.6900321116
 30
0.0
 10
46.0659669446
 20
56.7051650556
 30
0.0
  0
SPLINE
  5
2C3
100
AcDbEntity
  8
0
100
AcDbSpline
 62
7
  6
CONTINUOUS
 70
0
 71
3
 72
34
 73
30
 74
0
 42
0.0000001
 43
0.0000001
 44
0.0000000001
 40
0.0
 40
0.0
 40
0.0
 40
0.0
 40
0.0002199435
 40
0.0005806631
 40
0.0010872716
 40
0.0017415985
 40
0.0034951721
 40
0.0058413517
 40
0.0087779529
 40
0.0123022704
 40
0.0164113784
 40
0.0211022425
 40
0.0322168066
 40
0.0456208721
 40
0.061289054
 40
0.0791958166
 40
0.0993061457
 40
0.1215615644
 40
0.1458999863
 40
0.1722593075
 40
0.2307921714
 40
0.2966550944
 40
0.3692178307
 40
0.4477514038
 40
0.5315241025
 40
0.6197708285
 40
0.711627532
 40
0.8062119035
 40
1.0
 40
1.0
 40
1.0
 40
1.0
 10
14.9175180409
 20
59.3326680776
 30
0.0
 10
14.9193451929
 20
59.3340385069
 30
0.0
 10
14.9251126784
 20
59.3362007709
 30
0.0
 10
14.9360018328
 20
59.3389659881
 30
0.0
 10
14.9515939261
 20
59.3417544414
 30
0.0
 10
14.9815512927
 20
59.3459708347
 30
0.0
 10
15.0306960328
 20
59.3509237007
 30
0.0
 10
15.1035395907
 20
59.3565891782
 30
0.0
 10
15.1948237484
 20
59.3622881879
 30
0.0
 10
15.3044367935
 20
59.3680306829
 30
0.0
 10
15.4322885519
 20
59.3737915205
 30
0.0
 10
15.6389280503
 20
59.3819610262
 30
0.0
 10
15.942089807
 20
59.391934074
 30
0.0
 10
16.3592486253
 20
59.403407407
 30
0.0
 10
16.8469621679
 20
59.4149199226
 30
0.0
 10
17.4043320554
 20
59.4264620948
 30
0.0
 10
18.0301190671
 20
59.4380178636
 30
0.0
 10
18.7227048023
 20
59.4495905712
 30
0.0
 10
19.4801905332
 20
59.4611758843
 30
0.0
 10
20.6143708075
 20
59.4772002084
 30
0.0
 10
22.1797464293
 20
59.4969907618
 30
0.0
 10
24.2249112357
 20
59.5200329491
 30
0.0
 10
26.4777827348
 20
59.5431087934
 30
0.0
 10
28.9166448364
 20
59.5662245096
 30
0.0
 10
31.5183822194
 20
59.589361612
 30
0.0
 10
34.2584772945
 20
59.6125036279
 30
0.0
 10
37.110848702
 20
59.6356597742
 30
0.0
 10
41.0591740969
 20
59.6667986263
 30
0.0
 10
44.0536585106
 20
59.6897423224
 30
0.0
 10
46.0659706677
 20
59.7051639752
 30
0.0
  0
SPLINE
  5
2C4
100
AcDbEntity
  8
0
100
AcDbSpline
 62
7
  6
CONTINUOUS
 70
0
 71
3
 72
23
 73
19
 74
0
 42
0.0000001
 43
0.0000001
 44
0.0000000001
 40
0.0
 40
0.0
 40
0.0
 40
0.0
 40
0.2260992797
 40
0.424559194
 40
0.5945566859
 40
0.6686892977
 40
0.7354941286
 40
0.794908982
 40
0.8468767692
 40
0.8913489231
 40
0.9282786469
 40
0.9576211706
 40
0.9694350232
 40
0.9793406299
 40
0.9873384315
 40
0.993432211
 40
0.9976351565
 40
1.0
 40
1.0
 40
1.0
 40
1.0
 10
19.0894214859
 20
48.9556684464
 30
0.0
 10
18.7747614075
 20
48.9507591315
 30
0.0
 10
18.1839104501
 20
48.9412889359
 30
0.0
 10
17.3564983855
 20
48.926767301
 30
0.0
 10
16.7405956597
 20
48.9145285145
 30
0.0
 10
16.3079337008
 20
48.9045019548
 30
0.0
 10
16.0291658318
 20
48.8972312044
 30
0.0
 10
15.781264465
 20
48.8897956659
 30
0.0
 10
15.5644703086
 20
48.8821531441
 30
0.0
 10
15.3789988847
 20
48.8743695926
 30
0.0
 10
15.2250599878
 20
48.8664847003
 30
0.0
 10
15.1165879008
 20
48.8595119976
 30
0.0
 10
15.045760512
 20
48.8536862978
 30
0.0
 10
15.0045777149
 20
48.8496646711
 30
0.0
 10
14.971453468
 20
48.8456508665
 30
0.0
 10
14.9461812138
 20
48.8418030446
 30
0.0
 10
14.9291644809
 20
48.8379244483
 30
0.0
 10
14.9201767797
 20
48.8350517076
 30
0.0
 10
14.9176054685
 20
48.8329968295
 30
0.0
  0
SPLINE
  5
2C5
100
AcDbEntity
  8
0
100
AcDbSpline
 62
7
  6
CONTINUOUS
 70
0
 71
3
 72
34
 73
30
 74
0
 42
0.0000001
 43
0.0000001
 44
0.0000000001
 40
0.0
 40
0.0
 40
0.0
 40
0.0
 40
0.0002131952
 40
0.0005659189
 40
0.0010636068
 40
0.0017081938
 40
0.003441582
 40
0.0057708575
 40
0.0086988903
 40
0.0122265214
 40
0.0163495179
 40
0.021062551
 40
0.0322371033
 40
0.0457066926
 40
0.0614275305
 40
0.0793557016
 40
0.0994472227
 40
0.1216580705
 40
0.1459441971
 40
0.1722615384
 40
0.2308040527
 40
0.2967343768
 40
0.3693271451
 40
0.4478504558
 40
0.531572379
 40
0.6197601362
 40
0.7116144694
 40
0.8062221683
 40
1.0
 40
1.0
 40
1.0
 40
1.0
 10
14.9172213302
 20
47.3356906544
 30
0.0
 10
14.9189543533
 20
47.3370683676
 30
0.0
 10
14.9245712913
 20
47.3392324845
 30
0.0
 10
14.935200096
 20
47.3419932931
 30
0.0
 10
14.9505158335
 20
47.3447789764
 30
0.0
 10
14.9800633798
 20
47.3489996622
 30
0.0
 10
15.0287217751
 20
47.353954713
 30
0.0
 10
15.1010897634
 20
47.3596198166
 30
0.0
 10
15.1921449104
 20
47.3653164631
 30
0.0
 10
15.30184903
 20
47.3710535415
 30
0.0
 10
15.4301115782
 20
47.3768104704
 30
0.0
 10
15.6377514024
 20
47.3849776128
 30
0.0
 10
15.9424509093
 20
47.3949423233
 30
0.0
 10
16.3614649751
 20
47.4064083533
 30
0.0
 10
16.8506335022
 20
47.4179150725
 30
0.0
 10
17.408582956
 20
47.429455338
 30
0.0
 10
18.0339402581
 20
47.4410159274
 30
0.0
 10
18.7253315352
 20
47.4525916619
 30
0.0
 10
19.4813828576
 20
47.464178795
 30
0.0
 10
20.614695525
 20
47.4802150762
 30
0.0
 10
22.1804513464
 20
47.4999922632
 30
0.0
 10
24.2267490631
 20
47.5230133922
 30
0.0
 10
26.4805485398
 20
47.546088124
 30
0.0
 10
28.9191132566
 20
47.5691995827
 30
0.0
 10
31.5196305876
 20
47.5923373809
 30
0.0
 10
34.2585889296
 20
47.6154849797
 30
0.0
 10
37.1105944133
 20
47.6386311858
 30
0.0
 10
41.0590707412
 20
47.6697553041
 30
0.0
 10
44.0537209905
 20
47.6926971393
 30
0.0
 10
46.0659468143
 20
47.7081200979
 30
0.0
  0
SPLINE
  5
2C6
100
AcDbEntity
  8
0
100
AcDbSpline
 62
7
  6
CONTINUOUS
 70
0
 71
3
 72
34
 73
30
 74
0
 42
0.0000001
 43
0.0000001
 44
0.0000000001
 40
0.0
 40
0.0
 40
0.0
 40
0.0
 40
0.0002200113
 40
0.0005795387
 40
0.0010835053
 40
0.0017336077
 40
0.0034750142
 40
0.0058071821
 40
0.0087316964
 40
0.0122493412
 40
0.0163576217
 40
0.0210520472
 40
0.0321809547
 40
0.045599162
 40
0.0612728541
 40
0.0791724255
 40
0.0992679352
 40
0.1215146718
 40
0.1458519307
 40
0.1722180111
 40
0.2307723289
 40
0.2966257683
 40
0.369173933
 40
0.4477289403
 40
0.5315094925
 40
0.6197457903
 40
0.7116100807
 40
0.8061985847
 40
1.0
 40
1.0
 40
1.0
 40
1.0
 10
14.9182585404
 20
51.8326577434
 30
0.0
 10
14.9200897518
 20
51.8340238308
 30
0.0
 10
14.9258407973
 20
51.8361874229
 30
0.0
 10
14.9366914661
 20
51.8389529951
 30
0.0
 10
14.9521967528
 20
51.8417428806
 30
0.0
 10
14.981954323
 20
51.8459600278
 30
0.0
 10
15.0307797453
 20
51.8509176675
 30
0.0
 10
15.1032231225
 20
51.8565853554
 30
0.0
 10
15.1941640489
 20
51.8622859559
 30
0.0
 10
15.3035709672
 20
51.8680269046
 30
0.0
 10
15.4313788512
 20
51.8737859617
 30
0.0
 10
15.6381909551
 20
51.881955475
 30
0.0
 10
15.9416786548
 20
51.8919244505
 30
0.0
 10
16.3591808248
 20
51.9033956376
 30
0.0
 10
16.8470123029
 20
51.9149076685
 30
0.0
 10
17.4041976134
 20
51.9264524015
 30
0.0
 10
18.0296510137
 20
51.938013207
 30
0.0
 10
18.7219642677
 20
51.9495863523
 30
0.0
 10
19.4794000868
 20
51.9611726628
 30
0.0
 10
20.6138345635
 20
51.9771964798
 30
0.0
 10
22.1793679208
 20
51.9969774941
 30
0.0
 10
24.2244574182
 20
52.0200281161
 30
0.0
 10
26.4772485218
 20
52.0431135951
 30
0.0
 10
28.9162060645
 20
52.0662204844
 30
0.0
 10
31.5180780629
 20
52.089349454
 30
0.0
 10
34.2581604678
 20
52.1125089865
 30
0.0
 10
37.110477826
 20
52.1356988547
 30
0.0
 10
41.0589721354
 20
52.1665861845
 30
0.0
 10
44.0535619024
 20
52.1902310047
 30
0.0
 10
46.0659686253
 20
52.2051659656
 30
0.0
  0
SPLINE
  5
2C7
100
AcDbEntity
  8
0
100
AcDbSpline
 62
7
  6
CONTINUOUS
 70
0
 71
3
 72
15
 73
11
 74
0
 42
0.0000001
 43
0.0000001
 44
0.0000000001
 40
0.0
 40
0.0
 40
0.0
 40
0.0
 40
0.1507112921
 40
0.2988332531
 40
0.4418494313
 40
0.5773242025
 40
0.7028889728
 40
0.8164034183
 40
0.9160058773
 40
1.0
 40
1.0
 40
1.0
 40
1.0
 10
46.0659653963
 20
49.2051722329
 30
0.0
 10
44.7107240635
 20
49.1944291829
 30
0.0
 10
42.023513868
 20
49.1746048084
 30
0.0
 10
38.0502442648
 20
49.1466359939
 30
0.0
 10
34.2140174984
 20
49.1154351948
 30
0.0
 10
30.580675579
 20
49.0809758698
 30
0.0
 10
27.2126090049
 20
49.0501368727
 30
0.0
 10
24.1671151946
 20
49.0219508373
 30
0.0
 10
21.4954950447
 20
48.991037543
 30
0.0
 10
19.8446537992
 20
48.967448575
 30
0.0
 10
19.0894214859
 20
48.9556684464
 30
0.0
  0
SPLINE
  5
2C8
100
AcDbEntity
  8
0
100
AcDbSpline
 62
7
  6
CONTINUOUS
 70
0
 71
3
 72
23
 73
19
 74
0
 42
0.0000001
 43
0.0000001
 44
0.0000000001
 40
0.0
 40
0.0
 40
0.0
 40
0.0
 40
0.2261581778
 40
0.4249262944
 40
0.595160813
 40
0.6693452919
 40
0.7361544549
 40
0.7955236778
 40
0.8473999339
 40
0.8917516017
 40
0.9285503742
 40
0.9577701777
 40
0.9695315768
 40
0.9793932423
 40
0.9873573868
 40
0.9934296696
 40
0.9976253963
 40
1.0
 40
1.0
 40
1.0
 40
1.0
 10
19.090833098
 20
50.4578550778
 30
0.0
 10
18.776142605
 20
50.4528170127
 30
0.0
 10
18.1848846661
 20
50.4426526359
 30
0.0
 10
17.3567938807
 20
50.4263989384
 30
0.0
 10
16.7401823323
 20
50.4129674191
 30
0.0
 10
16.307191739
 20
50.4024677262
 30
0.0
 10
16.0284552931
 20
50.3951210351
 30
0.0
 10
15.7807713529
 20
50.3879231482
 30
0.0
 10
15.5643516012
 20
50.3808420609
 30
0.0
 10
15.3793574854
 20
50.3738147579
 30
0.0
 10
15.2259241366
 20
50.3667658669
 30
0.0
 10
15.1178532542
 20
50.3605040972
 30
0.0
 10
15.0473033045
 20
50.3551790892
 30
0.0
 10
15.0062812305
 20
50.3514558409
 30
0.0
 10
14.9732710822
 20
50.3476867098
 30
0.0
 10
14.9480670084
 20
50.3440165384
 30
0.0
 10
14.9310482547
 20
50.340255078
 30
0.0
 10
14.9220529873
 20
50.3374149363
 30
0.0
 10
14.9194557398
 20
50.3353717408
 30
0.0
  0
SPLINE
  5
2C9
100
AcDbEntity
  8
0
100
AcDbSpline
 62
7
  6
CONTINUOUS
 70
0
 71
3
 72
12
 73
8
 74
0
 42
0.0000001
 43
0.0000001
 44
0.0000000001
 40
0.0
 40
0.0
 40
0.0
 40
0.0
 40
0.1834952754
 40
0.4226579258
 40
0.7011521054
 40
0.8492826802
 40
1.0
 40
1.0
 40
1.0
 40
1.0
 10
73.0419548704
 20
55.4552628176
 30
0.0
 10
71.3920854117
 20
55.4300475333
 30
0.0
 10
67.5916278388
 20
55.3851458408
 30
0.0
 10
61.2868731398
 20
55.3256558837
 30
0.0
 10
55.3000464083
 20
55.2768278323
 30
0.0
 10
50.108518234
 20
55.236063095
 30
0.0
 10
47.4212340677
 20
55.2160580248
 30
0.0
 10
46.0659637231
 20
55.2057185691
 30
0.0
  0
SPLINE
  5
2CA
100
AcDbEntity
  8
0
100
AcDbSpline
 62
7
  6
CONTINUOUS
 70
0
 71
3
 72
35
 73
31
 74
0
 42
0.0000001
 43
0.0000001
 44
0.0000000001
 40
0.0
 40
0.0
 40
0.0
 40
0.0
 40
0.0002189955
 40
0.0005788914
 40
0.0010843158
 40
0.001736576
 40
0.0034827845
 40
0.005817694
 40
0.0087396379
 40
0.0122464496
 40
0.0163362927
 40
0.0210078234
 40
0.0320904014
 40
0.045482655
 40
0.0611588933
 40
0.0790710564
 40
0.0991689939
 40
0.1214019346
 40
0.1457183459
 40
0.1720663028
 40
0.2306102254
 40
0.2964867418
 40
0.3690405299
 40
0.4475764635
 40
0.5313894468
 40
0.6196584432
 40
0.7115263509
 40
0.806141183
 40
0.9026252512
 40
1.0
 40
1.0
 40
1.0
 40
1.0
 10
14.9172747384
 20
53.3325438513
 30
0.0
 10
14.9190866443
 20
53.3339181764
 30
0.0
 10
14.9248388081
 20
53.336078835
 30
0.0
 10
14.9356940198
 20
53.3388439185
 30
0.0
 10
14.9512444344
 20
53.341631884
 30
0.0
 10
14.981090075
 20
53.3458486247
 30
0.0
 10
15.030019251
 20
53.3508041286
 30
0.0
 10
15.1025162942
 20
53.3564721203
 30
0.0
 10
15.1933492087
 20
53.3621734282
 30
0.0
 10
15.3024282198
 20
53.367918349
 30
0.0
 10
15.4296977135
 20
53.3736817697
 30
0.0
 10
15.6356050704
 20
53.3818582174
 30
0.0
 10
15.9381131255
 20
53.3918400812
 30
0.0
 10
16.3549040605
 20
53.4033136327
 30
0.0
 10
16.8426387974
 20
53.4148204226
 30
0.0
 10
17.4000242538
 20
53.4263632327
 30
0.0
 10
18.025510135
 20
53.4379264672
 30
0.0
 10
18.7175106494
 20
53.4495048913
 30
0.0
 10
19.4744223841
 20
53.4610956071
 30
0.0
 10
20.608379996
 20
53.4771282312
 30
0.0
 10
22.1739063216
 20
53.4969202975
 30
0.0
 10
24.2192507739
 20
53.5199670728
 30
0.0
 10
26.472213214
 20
53.5430543902
 30
0.0
 10
28.91144499
 20
53.5661786278
 30
0.0
 10
31.5138774819
 20
53.5893348849
 30
0.0
 10
34.2547609697
 20
53.6124579254
 30
0.0
 10
37.1078198187
 20
53.6355721221
 30
0.0
 10
40.0461877228
 20
53.6590541043
 30
0.0
 10
43.0417492095
 20
53.6817355719
 30
0.0
 10
45.0548155386
 20
53.6967160978
 30
0.0
 10
46.0659696933
 20
53.7046933174
 30
0.0
  0
SPLINE
  5
2CB
100
AcDbEntity
  8
0
100
AcDbSpline
 62
7
  6
CONTINUOUS
 70
0
 71
3
 72
41
 73
37
 74
0
 42
0.0000001
 43
0.0000001
 44
0.0000000001
 40
0.0
 40
0.0
 40
0.0
 40
0.0
 40
0.0000911338
 40
0.0002344201
 40
0.0006847187
 40
0.0013562544
 40
0.002249331
 40
0.0033634162
 40
0.0046976974
 40
0.0062512423
 40
0.0080230623
 40
0.0122180034
 40
0.0172760523
 40
0.0231907423
 40
0.0299553254
 40
0.0375606743
 40
0.0459961831
 40
0.0552512037
 40
0.0653120599
 40
0.0877634593
 40
0.1131706801
 40
0.1413705228
 40
0.1721979563
 40
0.2054519712
 40
0.2409081493
 40
0.2783126262
 40
0.3174163443
 40
0.3997259503
 40
0.4856513382
 40
0.5729037796
 40
0.6591724066
 40
0.7421850686
 40
0.8197189774
 40
0.8897201946
 40
0.9503757011
 40
1.0
 40
1.0
 40
1.0
 40
1.0
 10
76.2153099797
 20
47.3275805548
 30
0.0
 10
76.2139952368
 20
47.3264883442
 30
0.0
 10
76.2099016957
 20
47.3246490479
 30
0.0
 10
76.197629289
 20
47.3210088756
 30
0.0
 10
76.1741426006
 20
47.3169956727
 30
0.0
 10
76.1366824246
 20
47.3123032303
 30
0.0
 10
76.0866398764
 20
47.3076031849
 30
0.0
 10
76.0241584185
 20
47.3028215208
 30
0.0
 10
75.9492512742
 20
47.2980254501
 30
0.0
 10
75.8619916931
 20
47.2932076246
 30
0.0
 10
75.7211110794
 20
47.2863810472
 30
0.0
 10
75.5145042043
 20
47.2780431214
 30
0.0
 10
75.2301920662
 20
47.2684519743
 30
0.0
 10
74.8976635095
 20
47.2588283731
 30
0.0
 10
74.5173434504
 20
47.2491790913
 30
0.0
 10
74.089731958
 20
47.2395130678
 30
0.0
 10
73.6154014861
 20
47.2298340926
 30
0.0
 10
73.0950089993
 20
47.2201470372
 30
0.0
 10
72.3117705944
 20
47.2067320432
 30
0.0
 10
71.2256052677
 20
47.1901769252
 30
0.0
 10
69.7992444235
 20
47.1708998481
 30
0.0
 10
68.2157770964
 20
47.1515865135
 30
0.0
 10
66.4851320474
 20
47.132252271
 30
0.0
 10
64.6183854339
 20
47.1129019124
 30
0.0
 10
62.6282790308
 20
47.0935469429
 30
0.0
 10
60.5284556184
 20
47.074176253
 30
0.0
 10
57.5499141469
 20
47.0478827223
 30
0.0
 10
53.6613734497
 20
47.0153993089
 30
0.0
 10
48.8698126866
 20
46.9770160937
 30
0.0
 10
44.0039976571
 20
46.9386050679
 30
0.0
 10
39.1928128155
 20
46.9002147878
 30
0.0
 10
34.5639069455
 20
46.8618298672
 30
0.0
 10
30.2401076704
 20
46.8236823105
 30
0.0
 10
26.3356437799
 20
46.785165025
 30
0.0
 10
22.9546376978
 20
46.7482177304
 30
0.0
 10
20.8865270506
 20
46.7186801253
 30
0.0
 10
19.9559222395
 20
46.704491057
 30
0.0
  0
SPLINE
  5
2CC
100
AcDbEntity
  8
0
100
AcDbSpline
 62
7
  6
CONTINUOUS
 70
0
 71
3
 72
15
 73
11
 74
0
 42
0.0000001
 43
0.0000001
 44
0.0000000001
 40
0.0
 40
0.0
 40
0.0
 40
0.0
 40
0.1507158412
 40
0.2988434944
 40
0.4418746602
 40
0.5773321269
 40
0.7029074152
 40
0.8164899432
 40
0.9160509329
 40
1.0
 40
1.0
 40
1.0
 40
1.0
 10
46.0659678204
 20
65.7052647576
 30
0.0
 10
44.7106872131
 20
65.6945723727
 30
0.0
 10
42.0233915833
 20
65.674419731
 30
0.0
 10
38.0499247214
 20
65.6432707438
 30
0.0
 10
34.2136723072
 20
65.6123616537
 30
0.0
 10
30.5802303486
 20
65.5814453585
 30
0.0
 10
27.2116181861
 20
65.5505109998
 30
0.0
 10
24.1658173262
 20
65.5199393737
 30
0.0
 10
21.4943754602
 20
65.4886585882
 30
0.0
 10
19.8442781737
 20
65.467630714
 30
0.0
 10
19.0894542717
 20
65.4557192078
 30
0.0
  0
SPLINE
  5
2CD
100
AcDbEntity
  8
0
100
AcDbSpline
 62
7
  6
CONTINUOUS
 70
0
 71
3
 72
34
 73
30
 74
0
 42
0.0000001
 43
0.0000001
 44
0.0000000001
 40
0.0
 40
0.0
 40
0.0
 40
0.0
 40
0.1938040085
 40
0.2883945182
 40
0.3802372211
 40
0.4684829197
 40
0.5522803017
 40
0.6308095956
 40
0.703350477
 40
0.769222585
 40
0.8277833597
 40
0.8541363756
 40
0.8784543178
 40
0.9006900469
 40
0.9207965553
 40
0.9387230979
 40
0.9544163494
 40
0.9678255767
 40
0.9789248371
 40
0.9836044801
 40
0.9877022064
 40
0.9912166186
 40
0.9941460397
 40
0.996488713
 40
0.9982433855
 40
0.9989002593
 40
0.9994106004
 40
0.9997757096
 40
1.0
 40
1.0
 40
1.0
 40
1.0
 10
46.0659646209
 20
67.2057190253
 30
0.0
 10
44.0534948582
 20
67.1907835968
 30
0.0
 10
41.0588035638
 20
67.1671425042
 30
0.0
 10
37.1104148115
 20
67.1362555335
 30
0.0
 10
34.2581520563
 20
67.1130576313
 30
0.0
 10
31.5179722227
 20
67.0899028474
 30
0.0
 10
28.9160480673
 20
67.0667836797
 30
0.0
 10
26.4772147784
 20
67.0436623148
 30
0.0
 10
24.2245320389
 20
67.0205774357
 30
0.0
 10
22.1792204456
 20
66.9975360325
 30
0.0
 10
20.6135337157
 20
66.9777558511
 30
0.0
 10
19.47934817
 20
66.9617276504
 30
0.0
 10
18.7223494046
 20
66.9501391156
 30
0.0
 10
18.0302244937
 20
66.938562645
 30
0.0
 10
17.4044798267
 20
66.927002642
 30
0.0
 10
16.8466868596
 20
66.9154642861
 30
0.0
 10
16.3584563355
 20
66.9039619984
 30
0.0
 10
15.9411446824
 20
66.8924914644
 30
0.0
 10
15.638206745
 20
66.8825124503
 30
0.0
 10
15.4319624957
 20
66.8743387652
 30
0.0
 10
15.3044494497
 20
66.8685768008
 30
0.0
 10
15.1951330031
 20
66.8628332843
 30
0.0
 10
15.1040639675
 20
66.8571325635
 30
0.0
 10
15.0313202158
 20
66.8514651941
 30
0.0
 10
14.9821760102
 20
66.846509262
 30
0.0
 10
14.9521395641
 20
66.8422960924
 30
0.0
 10
14.9364382642
 20
66.8395059118
 30
0.0
 10
14.9254109472
 20
66.8367386521
 30
0.0
 10
14.9195552348
 20
66.8345782357
 30
0.0
 10
14.9176673494
 20
66.8332141883
 30
0.0
  0
SPLINE
  5
2CE
100
AcDbEntity
  8
0
100
AcDbSpline
 62
7
  6
CONTINUOUS
 70
0
 71
3
 72
61
 73
57
 74
0
 42
0.0000001
 43
0.0000001
 44
0.0000000001
 40
0.0
 40
0.0
 40
0.0
 40
0.0
 40
0.000116176
 40
0.0003021383
 40
0.0005602726
 40
0.0008914636
 40
0.0017746133
 40
0.0029535796
 40
0.0044283329
 40
0.0061980219
 40
0.0082616757
 40
0.0106182662
 40
0.0162058195
 40
0.0229455363
 40
0.0308140578
 40
0.0397875173
 40
0.0498447266
 40
0.0609677155
 40
0.073138408
 40
0.0863306032
 40
0.1156375675
 40
0.1485876177
 40
0.1848511509
 40
0.2241070605
 40
0.2660017129
 40
0.3101132022
 40
0.3560167815
 40
0.4032846327
 40
0.5001310307
 40
0.5969735149
 40
0.6442389794
 40
0.6901298813
 40
0.7342257875
 40
0.7761071713
 40
0.8153616951
 40
0.8516029891
 40
0.8845210209
 40
0.9138091656
 40
0.9269925497
 40
0.9391578206
 40
0.9502755079
 40
0.9603187114
 40
0.9692702746
 40
0.9771153722
 40
0.983837966
 40
0.9894176914
 40
0.9917723548
 40
0.9938333791
 40
0.9955987828
 40
0.9970682653
 40
0.9982419106
 40
0.9991200748
 40
0.9994486916
 40
0.9997040698
 40
0.999887025
 40
1.0
 40
1.0
 40
1.0
 40
1.0
 10
76.2127312563
 20
48.8270892731
 30
0.0
 10
76.2108192585
 20
48.8257484326
 30
0.0
 10
76.2050323262
 20
48.823580538
 30
0.0
 10
76.1941575955
 20
48.8208122989
 30
0.0
 10
76.1787954989
 20
48.8180166202
 30
0.0
 10
76.1495062509
 20
48.8138072805
 30
0.0
 10
76.1016313872
 20
48.808848442
 30
0.0
 10
76.0307646466
 20
48.8031843603
 30
0.0
 10
75.9420259835
 20
48.7974860764
 30
0.0
 10
75.8354803544
 20
48.7917456117
 30
0.0
 10
75.7111865519
 20
48.7859867588
 30
0.0
 10
75.5101816709
 20
48.7778184011
 30
0.0
 10
75.2151816407
 20
48.7678533767
 30
0.0
 10
74.8093798954
 20
48.7563955713
 30
0.0
 10
74.3354947178
 20
48.7448958697
 30
0.0
 10
73.7949075296
 20
48.7333608325
 30
0.0
 10
73.1888884521
 20
48.7218034559
 30
0.0
 10
72.518590545
 20
48.7102309063
 30
0.0
 10
71.785266842
 20
48.6986499931
 30
0.0
 10
70.6864461979
 20
48.6826338435
 30
0.0
 10
69.1699441237
 20
48.6628679822
 30
0.0
 10
67.1896827689
 20
48.6398446256
 30
0.0
 10
65.0094226999
 20
48.6167664639
 30
0.0
 10
62.6493552624
 20
48.5936601458
 30
0.0
 10
60.1315264517
 20
48.5705470019
 30
0.0
 10
57.4800654387
 20
48.5474170898
 30
0.0
 10
54.7205921381
 20
48.5242738231
 30
0.0
 10
50.9011063963
 20
48.4931510807
 30
0.0
 10
46.057705507
 20
48.4548085407
 30
0.0
 10
41.2143525824
 20
48.4164677038
 30
0.0
 10
37.395248315
 20
48.3853473608
 30
0.0
 10
34.6363911294
 20
48.3621988478
 30
0.0
 10
31.9857649388
 20
48.3390690755
 30
0.0
 10
29.4685439923
 20
48.3159534908
 30
0.0
 10
27.1092181073
 20
48.2928569636
 30
0.0
 10
24.9300766423
 20
48.2697746542
 30
0.0
 10
22.9512844783
 20
48.2467395946
 30
0.0
 10
21.435981409
 20
48.2269833121
 30
0.0
 10
20.3378252533
 20
48.2109654141
 30
0.0
 10
19.6048942631
 20
48.1993847419
 30
0.0
 10
18.9350934344
 20
48.1878166394
 30
0.0
 10
18.3299027466
 20
48.176259306
 30
0.0
 10
17.7905084144
 20
48.1647213248
 30
0.0
 10
17.3178789273
 20
48.1532160822
 30
0.0
 10
16.9130501059
 20
48.1417539712
 30
0.0
 10
16.6185905393
 20
48.1317933858
 30
0.0
 10
16.4178346082
 20
48.1236304357
 30
0.0
 10
16.2937185532
 20
48.1178743199
 30
0.0
 10
16.187418316
 20
48.1121338967
 30
0.0
 10
16.0989789947
 20
48.1064351898
 30
0.0
 10
16.0284272536
 20
48.1007699134
 30
0.0
 10
15.9808106334
 20
48.0958135405
 30
0.0
 10
15.9517333038
 20
48.0916020556
 30
0.0
 10
15.9365366959
 20
48.0888099294
 30
0.0
 10
15.9258550561
 20
48.0860454818
 30
0.0
 10
15.9201873571
 20
48.0838779691
 30
0.0
 10
15.9183635959
 20
48.082524788
 30
0.0
  0
SPLINE
  5
2CF
100
AcDbEntity
  8
0
100
AcDbSpline
 62
7
  6
CONTINUOUS
 70
0
 71
3
 72
61
 73
57
 74
0
 42
0.0000001
 43
0.0000001
 44
0.0000000001
 40
0.0
 40
0.0
 40
0.0
 40
0.0
 40
0.0001123863
 40
0.0002946389
 40
0.0005491458
 40
0.000876646
 40
0.0017515151
 40
0.0029198955
 40
0.0043814753
 40
0.0061356692
 40
0.0081817748
 40
0.0105190322
 40
0.0160638055
 40
0.0227633867
 40
0.0306043841
 40
0.0395622133
 40
0.0496111879
 40
0.0607255993
 40
0.0728797251
 40
0.0860478339
 40
0.1153168745
 40
0.1482476366
 40
0.1845073065
 40
0.2237621477
 40
0.2656547406
 40
0.3097704877
 40
0.3556863257
 40
0.4029770291
 40
0.4998724052
 40
0.5967644069
 40
0.6440645402
 40
0.689998359
 40
0.7341180342
 40
0.7760136713
 40
0.8152976492
 40
0.8515828126
 40
0.8845135453
 40
0.9138023069
 40
0.9269938742
 40
0.9391704656
 40
0.9502975196
 40
0.9603482721
 40
0.9693049963
 40
0.9771504914
 40
0.9838675925
 40
0.9894392022
 40
0.9917901467
 40
0.9938483819
 40
0.995611846
 40
0.997078861
 40
0.998249482
 40
0.9991245409
 40
0.9994517252
 40
0.9997058338
 40
0.9998877495
 40
1.0
 40
1.0
 40
1.0
 40
1.0
 10
76.2131975133
 20
68.3285971822
 30
0.0
 10
76.2113902874
 20
68.3272416574
 30
0.0
 10
76.205748274
 20
68.3250732987
 30
0.0
 10
76.1951132305
 20
68.3223081661
 30
0.0
 10
76.1799711655
 20
68.3195152869
 30
0.0
 10
76.151001907
 20
68.3153027292
 30
0.0
 10
76.1035811072
 20
68.310345348
 30
0.0
 10
76.0333622515
 20
68.3046780605
 30
0.0
 10
75.9454148455
 20
68.2989770852
 30
0.0
 10
75.8398007677
 20
68.2932338747
 30
0.0
 10
75.7165620718
 20
68.2874724512
 30
0.0
 10
75.5171617637
 20
68.2792988376
 30
0.0
 10
75.2242211493
 20
68.2693209266
 30
0.0
 10
74.8206440313
 20
68.2578517029
 30
0.0
 10
74.3484376792
 20
68.246349615
 30
0.0
 10
73.8088884223
 20
68.2348113743
 30
0.0
 10
73.2035268513
 20
68.2232519285
 30
0.0
 10
72.5339058249
 20
68.2116764685
 30
0.0
 10
71.8015782607
 20
68.2000890601
 30
0.0
 10
70.7043469653
 20
68.1840569534
 30
0.0
 10
69.1894924075
 20
68.1642802522
 30
0.0
 10
67.2104760376
 20
68.1412424264
 30
0.0
 10
65.0307217123
 20
68.1181549726
 30
0.0
 10
62.6708152459
 20
68.095037965
 30
0.0
 10
60.1529855201
 20
68.0719123304
 30
0.0
 10
57.5012568679
 20
68.0487665398
 30
0.0
 10
54.7410160865
 20
68.0256063384
 30
0.0
 10
50.9198729924
 20
67.9944715212
 30
0.0
 10
46.0740746673
 20
67.9561083563
 30
0.0
 10
41.2280868473
 20
67.9177371908
 30
0.0
 10
37.4064605688
 20
67.8866037648
 30
0.0
 10
34.6455897606
 20
67.8634506928
 30
0.0
 10
31.99335953
 20
67.840301669
 30
0.0
 10
29.4748040345
 20
67.8171659302
 30
0.0
 10
27.1137381069
 20
67.7940578071
 30
0.0
 10
24.932886059
 20
67.7709811204
 30
0.0
 10
22.9529615563
 20
67.7479252778
 30
0.0
 10
21.4372396326
 20
67.7281445024
 30
0.0
 10
20.3386884987
 20
67.7121234097
 30
0.0
 10
19.605183453
 20
67.7005406729
 30
0.0
 10
18.9348208222
 20
67.6889671219
 30
0.0
 10
18.3291916163
 20
67.6774035675
 30
0.0
 10
17.7895385106
 20
67.6658601177
 30
0.0
 10
17.3169118904
 20
67.6543495189
 30
0.0
 10
16.9123524447
 20
67.642878747
 30
0.0
 10
16.6182442074
 20
67.6329089909
 30
0.0
 10
16.4177844404
 20
67.6247402674
 30
0.0
 10
16.2938396063
 20
67.6189807278
 30
0.0
 10
16.187685162
 20
67.6132404119
 30
0.0
 10
16.0993963184
 20
67.607540113
 30
0.0
 10
16.0290188372
 20
67.6018723773
 30
0.0
 10
15.9815554234
 20
67.5969132772
 30
0.0
 10
15.9525969387
 20
67.5926986991
 30
0.0
 10
15.9374767354
 20
67.5899051445
 30
0.0
 10
15.926859154
 20
67.5871397531
 30
0.0
 10
15.9212287772
 20
67.5849697756
 30
0.0
 10
15.9194237679
 20
67.583615844
 30
0.0
  0
ENDSEC
  0
SECTION
  2
OBJECTS
  0
DICTIONARY
  5
C
100
AcDbDictionary
280
0
281
1
  3
ACAD_GROUP
350
D
  3
ACAD_MLINESTYLE
350
17
  3
ACAD_LAYOUT
350
1A
  3
ACAD_PLOTSETTINGS
350
19
  3
ACAD_PLOTSTYLENAME
350
E
  0
DICTIONARY
  5
D
102
{ACAD_REACTORS
330
C
102
}
100
AcDbDictionary
280
0
281
1
  0
ACDBDICTIONARYWDFLT
  5
E
102
{ACAD_REACTORS
330
C
102
}
100
AcDbDictionary
281
1
  3
Normal
350
F
100
AcDbDictionaryWithDefault
340
F
  0
DICTIONARY
  5
17
102
{ACAD_REACTORS
330
C
102
}
100
AcDbDictionary
280
0
281
1
  3
Standard
350
18
  0
DICTIONARY
  5
19
102
{ACAD_REACTORS
330
C
102
}
100
AcDbDictionary
281
1
  0
DICTIONARY
  5
1A
102
{ACAD_REACTORS
330
C
102
}
100
AcDbDictionary
281
1
  3
Model
350
2D0
  3
Layout1
350
2D1
  0
ACDBPLACEHOLDER
  5
F
102
{ACAD_REACTORS
330
E
102
}
  0
MLINESTYLE
  5
18
102
{ACAD_REACTORS
330
17
102
}
100
AcDbMlineStyle
  2
STANDARD
 70
0
  3

 62
256
 51
90.0
 52
90.0
 71
2
 49
0.5
 62
256
  6
BYLAYER
 49
-0.5
 62
256
  6
BYLAYER
  0
LAYOUT
  5
2D0
102
{ACAD_REACTORS
330
1A
102
}
100
AcDbPlotSettings
  1

  2
none_device
  4

  6

 40
0.0
 41
0.0
 42
0.0
 43
0.0
 44
210.0
 45
297.0
 46
0.0
 47
0.0
 48
0.0
 49
0.0
140
0.0
141
0.0
142
1.0
143
1.0
 70
1024
 72
1
 73
0
 74
0
  7

 75
0
147
1.0
148
0.0
149
0.0
100
AcDbLayout
  1
Model
 70
0
 71
0
 10
0.0
 20
0.0
 11
210.0
 21
297.0
 12
0.0
 22
0.0
 32
0.0
 14
0.0
 24
0.0
 34
0.0
 15
0.0
 25
0.0
 35
0.0
146
0.0
 13
0.0
 23
0.0
 33
0.0
 16
1.0
 26
0.0
 36
0.0
 17
0.0
 27
1.0
 37
0.0
 76
0
330
210
345
0
346
0
  0
LAYOUT
  5
2D1
102
{ACAD_REACTORS
330
1A
102
}
100
AcDbPlotSettings
  1

  2
none_device
  4

  6

 40
0.0
 41
0.0
 42
0.0
 43
0.0
 44
210.0
 45
297.0
 46
0.0
 47
0.0
 48
0.0
 49
0.0
140
0.0
141
0.0
142
1.0
143
1.0
 70
0
 72
1
 73
0
 74
0
  7

 75
0
147
1.0
148
0.0
149
0.0
100
AcDbLayout
  1
Layout1
 70
0
 71
1
 10
0.0
 20
0.0
 11
210.0
 21
297.0
 12
0.0
 22
0.0
 32
0.0
 14
0.0
 24
0.0
 34
0.0
 15
0.0
 25
0.0
 35
0.0
146
0.0
 13
0.0
 23
0.0
 33
0.0
 16
1.0
 26
0.0
 36
0.0
 17
0.0
 27
1.0
 37
0.0
 76
0
330
211
345
0
346
0
  0
ENDSEC
  0
EOF
