999
DXF file: C:\Users\sesa63760\Dev\_Creo\CAD\MCADID0000953_3D-CAD\drw0001_1.dxf
999
Pro/ENGINEER 2019471 by Parametric Technology Corporation
  0
SECTION
  2
HEADER
  9
$ACADVER
  1
AC1024
  9
$DWGCODEPAGE
  3
ANSI_1252
  9
$EXTMAX
 10
397.3338786463
 20
561.9436283711
 30
0.0
  9
$EXTMIN
 10
0.0
 20
0.0
 30
0.0
  9
$LIMMIN
 10
0.0
 20
0.0
  9
$LIMMAX
 10
397.3338786463
 20
561.9436283711
  9
$VIEWCTR
 10
198.6669393231
 20
280.9718141856
  9
$VIEWSIZE
 40
561.9436283711
  9
$CLAYER
  8
0
  9
$LTSCALE
 40
36.630399479
  9
$CELTYPE
  6
BYLAYER
  9
$DIMSCALE
 40
1.0
  9
$DIMASZ
 40
4.730165222
  9
$DIMEXO
 40
1.0
  9
$DIMDLI
 40
25.3082760037
  9
$DIMEXE
 40
1.0
  9
$DIMCEN
 40
5.9940653693
  9
$DIMLFAC
 40
1.0
  9
$DIMBLK
  1
_FILLED
  9
$DIMALT
 70
0
  9
$DIMALTF
 40
0.0393700787
  9
$DIMTXT
 40
6.6222313108
  9
$DIMTOL
 70
1
  9
$DIMLIM
 70
0
  9
$DIMTFAC
 40
1.0
  9
$DIMTP
 40
0.01
  9
$DIMTM
 40
0.01
  9
$DIMGAP
 40
0.625
  9
$DIMDSEP
 70
46
  9
$AUNITS
 70
0
  9
$PDMODE
 70
3
  9
$PDSIZE
 40
0.3125
  9
$HANDSEED
  5
3E5
  9
$TILEMODE
 70
1
  9
$MEASUREMENT
 70
1
  9
$INSUNITS
 70
4
  0
ENDSEC
  0
SECTION
  2
CLASSES
  0
CLASS
  1
ACDBDICTIONARYWDFLT
  2
AcDbDictionaryWithDefault
  3
AutoCAD 2000
 90
0
 91
1
280
0
281
0
  0
CLASS
  1
ACDBPLACEHOLDER
  2
AcDbPlaceHolder
  3
AutoCAD 2000
 90
0
 91
1
280
0
281
0
  0
CLASS
  1
LAYOUT
  2
AcDbLayout
  3
AutoCAD 2000
 90
0
 91
0
280
0
281
0
  0
ENDSEC
  0
SECTION
  2
TABLES
  0
TABLE
  2
VPORT
  5
8
100
AcDbSymbolTable
 70
2
  0
VPORT
  5
1F4
100
AcDbSymbolTableRecord
100
AcDbViewportTableRecord
  2
*ACTIVE
 70
0
 10
0.0
 20
0.0
 11
1.0
 21
1.0
 12
198.6669393231
 22
280.9718141856
 13
0.0
 23
0.0
 14
1.0
 24
1.0
 15
0.0
 25
0.0
 16
0.0
 26
0.0
 36
1.0
 17
0.0
 27
0.0
 37
0.0
 40
561.9436283711
 41
0.7070707071
 42
50.0
 43
0.0
 44
0.0
 50
0.0
 51
0.0
 71
0
 72
100
 73
1
 74
1
 75
0
 76
0
 77
0
 78
0
  0
ENDTAB
  0
TABLE
  2
LTYPE
  5
5
100
AcDbSymbolTable
 70
6
  0
LTYPE
  5
14
100
AcDbSymbolTableRecord
100
AcDbLinetypeTableRecord
  2
BYBLOCK
 70
0
  3

 72
65
 73
0
 40
0.0
  0
LTYPE
  5
15
100
AcDbSymbolTableRecord
100
AcDbLinetypeTableRecord
  2
BYLAYER
 70
0
  3

 72
65
 73
0
 40
0.0
  0
LTYPE
  5
16
100
AcDbSymbolTableRecord
100
AcDbLinetypeTableRecord
  2
CONTINUOUS
 70
64
  3
Solid line
 72
65
 73
0
 40
0.0
  0
LTYPE
  5
1F5
100
AcDbSymbolTableRecord
100
AcDbLinetypeTableRecord
  2
CENTER
 70
64
  3
____ _ ____ _ ____ _ ____ _ ____ _ ____ _ ____
 72
65
 73
4
 40
0.6
 49
0.375
 74
0
 49
-0.075
 74
0
 49
0.075
 74
0
 49
-0.075
 74
0
  0
LTYPE
  5
1F6
100
AcDbSymbolTableRecord
100
AcDbLinetypeTableRecord
  2
HIDDEN
 70
64
  3
- - - - - - - - - - - - - - - - - - - -
 72
65
 73
2
 40
0.2
 49
0.1
 74
0
 49
-0.1
 74
0
  0
LTYPE
  5
1F7
100
AcDbSymbolTableRecord
100
AcDbLinetypeTableRecord
  2
PHANTOM
 70
64
  3
_____ _ _ _____ _ _ _____ _ _ _____
 72
65
 73
6
 40
0.8
 49
0.45
 74
0
 49
-0.05
 74
0
 49
0.1
 74
0
 49
-0.05
 74
0
 49
0.1
 74
0
 49
-0.05
 74
0
  0
LTYPE
  5
1F8
100
AcDbSymbolTableRecord
100
AcDbLinetypeTableRecord
  2
DOT
 70
64
  3
. . . . . . . . . . . . . . . . . . . .
 72
65
 73
2
 40
0.2
 49
0.1
 74
0
 49
-0.1
 74
0
  0
LTYPE
  5
1F9
100
AcDbSymbolTableRecord
100
AcDbLinetypeTableRecord
  2
DASHED
 70
64
  3
- - - - - - - - - - - - - - - - - - - -
 72
65
 73
2
 40
0.2
 49
0.1
 74
0
 49
-0.1
 74
0
  0
ENDTAB
  0
TABLE
  2
LAYER
  5
2
100
AcDbSymbolTable
 70
36
  0
LAYER
  5
10
100
AcDbSymbolTableRecord
100
AcDbLayerTableRecord
  2
0
 70
0
 62
7
  6
CONTINUOUS
370
-3
390
F
  0
LAYER
  5
1FA
100
AcDbSymbolTableRecord
100
AcDbLayerTableRecord
  2
DEFAULT_1
 70
0
 62
7
  6
CENTER
370
-3
390
F
  0
LAYER
  5
1FB
100
AcDbSymbolTableRecord
100
AcDbLayerTableRecord
  2
DEFAULT_2
 70
0
 62
8
  6
HIDDEN
370
-3
390
F
  0
LAYER
  5
1FC
100
AcDbSymbolTableRecord
100
AcDbLayerTableRecord
  2
DEFAULT_3
 70
0
 62
7
  6
PHANTOM
370
-3
390
F
  0
LAYER
  5
1FD
100
AcDbSymbolTableRecord
100
AcDbLayerTableRecord
  2
00_COMPONENTS
 70
0
 62
7
  6
CONTINUOUS
370
-3
390
F
  0
LAYER
  5
1FE
100
AcDbSymbolTableRecord
100
AcDbLayerTableRecord
  2
01_1_DEFAULT_DATUMS
 70
0
 62
7
  6
CONTINUOUS
370
-3
390
F
  0
LAYER
  5
1FF
100
AcDbSymbolTableRecord
100
AcDbLayerTableRecord
  2
01_PLANES
 70
0
 62
7
  6
CONTINUOUS
370
-3
390
F
  0
LAYER
  5
200
100
AcDbSymbolTableRecord
100
AcDbLayerTableRecord
  2
02_COORD_SYS
 70
0
 62
7
  6
CONTINUOUS
370
-3
390
F
  0
LAYER
  5
201
100
AcDbSymbolTableRecord
100
AcDbLayerTableRecord
  2
03_AXES
 70
0
 62
7
  6
CONTINUOUS
370
-3
390
F
  0
LAYER
  5
202
100
AcDbSymbolTableRecord
100
AcDbLayerTableRecord
  2
04_POINTS
 70
0
 62
7
  6
CONTINUOUS
370
-3
390
F
  0
LAYER
  5
203
100
AcDbSymbolTableRecord
100
AcDbLayerTableRecord
  2
05_CURVES
 70
0
 62
7
  6
CONTINUOUS
370
-3
390
F
  0
LAYER
  5
204
100
AcDbSymbolTableRecord
100
AcDbLayerTableRecord
  2
06_SURFS
 70
0
 62
7
  6
CONTINUOUS
370
-3
390
F
  0
LAYER
  5
205
100
AcDbSymbolTableRecord
100
AcDbLayerTableRecord
  2
07_COSMETICS
 70
0
 62
7
  6
CONTINUOUS
370
-3
390
F
  0
LAYER
  5
206
100
AcDbSymbolTableRecord
100
AcDbLayerTableRecord
  2
10_NOTES
 70
0
 62
7
  6
CONTINUOUS
370
-3
390
F
  0
LAYER
  5
207
100
AcDbSymbolTableRecord
100
AcDbLayerTableRecord
  2
11_NOTES_PUB
 70
0
 62
7
  6
CONTINUOUS
370
-3
390
F
  0
LAYER
  5
208
100
AcDbSymbolTableRecord
100
AcDbLayerTableRecord
  2
13_REF_GTOL
 70
0
 62
7
  6
CONTINUOUS
370
-3
390
F
  0
LAYER
  5
209
100
AcDbSymbolTableRecord
100
AcDbLayerTableRecord
  2
16_MISC
 70
0
 62
7
  6
CONTINUOUS
370
-3
390
F
  0
LAYER
  5
20A
100
AcDbSymbolTableRecord
100
AcDbLayerTableRecord
  2
17_NO_PRINT
 70
0
 62
7
  6
CONTINUOUS
370
-3
390
F
  0
LAYER
  5
20B
100
AcDbSymbolTableRecord
100
AcDbLayerTableRecord
  2
18_DATUM_CAMS_JOINTS
 70
0
 62
7
  6
CONTINUOUS
370
-3
390
F
  0
LAYER
  5
20C
100
AcDbSymbolTableRecord
100
AcDbLayerTableRecord
  2
19_DATUM_FUNCTIONAL
 70
0
 62
7
  6
CONTINUOUS
370
-3
390
F
  0
LAYER
  5
20D
100
AcDbSymbolTableRecord
100
AcDbLayerTableRecord
  2
20_DATUM_KINEMATIC_SCHEME
 70
0
 62
7
  6
CONTINUOUS
370
-3
390
F
  0
LAYER
  5
20E
100
AcDbSymbolTableRecord
100
AcDbLayerTableRecord
  2
5
 70
0
 62
7
  6
CONTINUOUS
370
-3
390
F
  0
ENDTAB
  0
TABLE
  2
STYLE
  5
3
100
AcDbSymbolTable
 70
1
  0
STYLE
  5
11
100
AcDbSymbolTableRecord
100
AcDbTextStyleTableRecord
  2
STANDARD
 70
0
 40
0.0
 41
0.8
 50
0.0
 71
0
 42
0.2
  3
txt
  4

  0
STYLE
  5
20F
100
AcDbSymbolTableRecord
100
AcDbTextStyleTableRecord
  2
TEXTSTYLE_1
 70
0
 40
0.0
 41
0.8
 50
0.0
 71
0
 42
0.2
  3
gdt
  4

  0
ENDTAB
  0
TABLE
  2
VIEW
  5
6
100
AcDbSymbolTable
 70
0
  0
ENDTAB
  0
TABLE
  2
UCS
  5
7
100
AcDbSymbolTable
 70
0
  0
ENDTAB
  0
TABLE
  2
APPID
  5
9
100
AcDbSymbolTable
 70
1
  0
APPID
  5
210
100
AcDbSymbolTableRecord
100
AcDbRegAppTableRecord
  2
ACAD
 70
0
  0
ENDTAB
  0
TABLE
  2
BLOCK_RECORD
  5
1
100
AcDbSymbolTable
 70
0
  0
BLOCK_RECORD
  5
211
100
AcDbSymbolTableRecord
100
AcDbBlockTableRecord
  2
*Model_Space
  0
BLOCK_RECORD
  5
212
100
AcDbSymbolTableRecord
100
AcDbBlockTableRecord
  2
*Paper_Space
  0
BLOCK_RECORD
  5
213
100
AcDbSymbolTableRecord
100
AcDbBlockTableRecord
  2
_FILLED
  0
ENDTAB
  0
TABLE
  2
DIMSTYLE
  5
A
100
AcDbSymbolTable
 70
1
100
AcDbDimStyleTable
 71
0
  0
DIMSTYLE
105
214
100
AcDbSymbolTableRecord
100
AcDbDimStyleTableRecord
  2
STANDARD
 70
0
  3

  4

 40
1.0
 41
4.730165222
 42
1.0
 43
0.38
 44
1.0
 45
0.0
 46
0.0
 47
0.01
 48
0.01
140
6.6222313108
141
0.09
142
0.0
143
25.4
144
1.0
145
0.0
146
1.0
147
0.625
 71
1
 72
0
 73
0
 74
0
 75
0
 76
0
 77
1
 78
8
 79
2
170
0
171
1
172
0
173
0
174
0
175
0
176
0
177
0
178
0
270
2
179
2
271
2
272
2
273
2
274
2
275
0
280
0
281
0
282
0
283
1
284
8
285
0
286
0
287
3
288
0
340
11
278
46
341
213
342
213
343
213
344
213
  0
ENDTAB
  0
ENDSEC
  0
SECTION
  2
BLOCKS
  0
BLOCK
  5
20
100
AcDbEntity
  8
0
100
AcDbBlockBegin
  2
*Model_Space
 70
0
 10
0.0
 20
0.0
 30
0.0
  3
*Model_Space
  1

  0
ENDBLK
  5
21
100
AcDbEntity
  8
0
100
AcDbBlockEnd
  0
BLOCK
  5
1C
100
AcDbEntity
  8
0
100
AcDbBlockBegin
  2
*Paper_Space
 70
0
 10
0.0
 20
0.0
 30
0.0
  3
*Paper_Space
  1

  0
ENDBLK
  5
1D
100
AcDbEntity
  8
0
100
AcDbBlockEnd
  0
BLOCK
  5
215
100
AcDbEntity
  8
0
100
AcDbBlockBegin
  2
_FILLED
 70
64
 10
0.0
 20
0.0
  3
_FILLED
  1

  0
SOLID
  5
216
100
AcDbEntity
  8
0
  6
BYBLOCK
 62
0
100
AcDbTrace
 10
0.0
 20
0.0
 11
-1.0
 21
0.25
 12
-1.0
 22
-0.25
 13
-1.0
 23
-0.25
  0
ENDBLK
  5
217
100
AcDbEntity
  8
0
  6
BYBLOCK
 62
0
100
AcDbBlockEnd
  0
ENDSEC
  0
SECTION
  2
ENTITIES
  0
LINE
  5
218
100
AcDbEntity
  8
5
100
AcDbLine
 62
7
  6
CONTINUOUS
 10
175.2367497027
 20
44.3343307948
 11
62.0991936792
 21
109.652851518
  0
LINE
  5
219
100
AcDbEntity
  8
5
100
AcDbLine
 62
7
  6
CONTINUOUS
 10
228.2685659848
 20
519.943570729
 11
184.4281280776
 21
494.632433189
  0
LINE
  5
21A
100
AcDbEntity
  8
5
100
AcDbLine
 62
7
  6
CONTINUOUS
 10
185.4887926653
 20
494.0200720572
 11
228.2685748167
 21
518.7188433664
  0
LINE
  5
21B
100
AcDbEntity
  8
5
100
AcDbLine
 62
7
  6
CONTINUOUS
 10
234.8152705879
 20
507.7880064048
 11
235.2787693199
 21
508.0016732753
  0
LINE
  5
21C
100
AcDbEntity
  8
5
100
AcDbLine
 62
7
  6
CONTINUOUS
 10
150.5457639927
 20
462.8229511287
 11
163.2149835215
 21
470.1374847722
  0
LINE
  5
21D
100
AcDbEntity
  8
5
100
AcDbLine
 62
7
  6
CONTINUOUS
 10
235.6932269308
 20
509.5333009412
 11
236.7538826866
 21
510.145667172
  0
LINE
  5
21E
100
AcDbEntity
  8
5
100
AcDbLine
 62
7
  6
CONTINUOUS
 10
236.7538826866
 20
509.5292062127
 11
235.6932269308
 21
508.9168399819
  0
LINE
  5
21F
100
AcDbEntity
  8
5
100
AcDbLine
 62
7
  6
CONTINUOUS
 10
235.2790030036
 20
508.0012680987
 11
236.3396587594
 21
508.6136343295
  0
LINE
  5
220
100
AcDbEntity
  8
5
100
AcDbLine
 62
7
  6
CONTINUOUS
 10
177.3570897054
 20
474.2199433077
 11
166.7505321472
 21
468.0962809996
  0
LINE
  5
221
100
AcDbEntity
  8
5
100
AcDbLine
 62
7
  6
CONTINUOUS
 10
57.0992160636
 20
404.0889644748
 11
152.6168836285
 21
459.2357863736
  0
LINE
  5
222
100
AcDbEntity
  8
5
100
AcDbLine
 62
7
  6
CONTINUOUS
 10
178.4177542931
 20
473.6075821759
 11
228.2685748167
 21
502.3887950238
  0
LINE
  5
223
100
AcDbEntity
  8
5
100
AcDbLine
 62
7
  6
CONTINUOUS
 10
62.0991936973
 20
403.5937216742
 11
157.6168612441
 21
458.7405435835
  0
LINE
  5
224
100
AcDbEntity
  8
5
100
AcDbLine
 62
7
  6
CONTINUOUS
 10
55.0280964278
 20
220.1255240152
 11
55.0280964278
 21
121.9002832345
  0
LINE
  5
225
100
AcDbEntity
  8
5
100
AcDbLine
 62
7
  6
CONTINUOUS
 10
55.0280964278
 20
220.3296496195
 11
55.0280964278
 21
399.5111050586
  0
LINE
  5
226
100
AcDbEntity
  8
5
100
AcDbLine
 62
7
  6
CONTINUOUS
 10
124.2746122971
 20
365.3061406763
 11
123.0868994119
 21
364.1700405771
  0
LINE
  5
227
100
AcDbEntity
  8
5
100
AcDbLine
 62
7
  6
CONTINUOUS
 10
131.2663696231
 20
382.693089743
 11
114.7838065671
 21
373.1769343713
  0
LINE
  5
228
100
AcDbEntity
  8
5
100
AcDbLine
 62
7
  6
CONTINUOUS
 10
124.2746399526
 20
365.3060927954
 11
140.7572029723
 21
374.8222481879
  0
LINE
  5
229
100
AcDbEntity
  8
5
100
AcDbLine
 62
7
  6
CONTINUOUS
 10
118.1032713249
 20
359.8267946548
 11
120.2245828366
 21
361.0515271164
  0
LINE
  5
22A
100
AcDbEntity
  8
5
100
AcDbLine
 62
7
  6
CONTINUOUS
 10
55.0280964278
 20
220.1255240152
 11
182.3078469542
 21
146.6421882015
  0
LINE
  5
22B
100
AcDbEntity
  8
5
100
AcDbLine
 62
7
  6
CONTINUOUS
 10
55.0280964278
 20
220.3296496195
 11
182.3078469548
 21
146.8463138055
  0
LINE
  5
22C
100
AcDbEntity
  8
5
100
AcDbLine
 62
7
  6
CONTINUOUS
 10
271.4680080502
 20
96.5111780837
 11
275.6101967082
 21
94.1197384485
  0
LINE
  5
22D
100
AcDbEntity
  8
5
100
AcDbLine
 62
7
  6
CONTINUOUS
 10
121.0542460398
 20
360.3667600209
 11
118.9329345281
 21
359.1420275593
  0
LINE
  5
22E
100
AcDbEntity
  8
5
100
AcDbLine
 62
7
  6
CONTINUOUS
 10
129.2746175682
 20
364.8108500052
 11
145.7571806023
 21
374.3270053895
  0
LINE
  5
22F
100
AcDbEntity
  8
5
100
AcDbLine
 62
7
  6
CONTINUOUS
 10
123.5315047504
 20
360.679432328
 11
128.4327576165
 21
363.5091550985
  0
LINE
  5
230
100
AcDbEntity
  8
5
100
AcDbLine
 62
7
  6
CONTINUOUS
 10
116.8835176114
 20
356.6769607501
 11
123.0520519869
 21
360.2383444737
  0
LINE
  5
231
100
AcDbEntity
  8
5
100
AcDbLine
 62
7
  6
CONTINUOUS
 10
134.1952565973
 20
360.4752971882
 11
132.8434548345
 21
359.6948387353
  0
LINE
  5
232
100
AcDbEntity
  8
5
100
AcDbLine
 62
7
  6
CONTINUOUS
 10
140.7552501217
 20
356.6879688418
 11
139.403448359
 21
355.9075103889
  0
LINE
  5
233
100
AcDbEntity
  8
5
100
AcDbLine
 62
7
  6
CONTINUOUS
 10
143.6958228828
 20
354.9902667738
 11
141.6704007648
 21
353.820895749
  0
LINE
  5
234
100
AcDbEntity
  8
5
100
AcDbLine
 62
7
  6
CONTINUOUS
 10
333.8106321085
 20
450.6343007719
 11
334.2741308405
 21
450.8479676424
  0
LINE
  5
235
100
AcDbEntity
  8
5
100
AcDbLine
 62
7
  6
CONTINUOUS
 10
115.8395857818
 20
356.2141977738
 11
115.8395857818
 21
334.4415276148
  0
LINE
  5
236
100
AcDbEntity
  8
5
100
AcDbLine
 62
7
  6
CONTINUOUS
 10
116.688117452
 20
333.9516387094
 11
116.688117452
 21
355.5138574851
  0
LINE
  5
237
100
AcDbEntity
  8
5
100
AcDbLine
 62
7
  6
CONTINUOUS
 10
121.2515839756
 20
291.8093600229
 11
121.2515839756
 21
280.8198582815
  0
LINE
  5
238
100
AcDbEntity
  8
5
100
AcDbLine
 62
7
  6
CONTINUOUS
 10
121.3081659164
 20
280.7393625615
 11
121.3081763971
 21
291.7288582521
  0
LINE
  5
239
100
AcDbEntity
  8
5
100
AcDbLine
 62
7
  6
CONTINUOUS
 10
121.811313487
 20
291.4383784893
 11
121.811313487
 21
280.4488767479
  0
LINE
  5
23A
100
AcDbEntity
  8
5
100
AcDbLine
 62
7
  6
CONTINUOUS
 10
121.8558178736
 20
334.2504774494
 11
121.8558178736
 21
292.3011949247
  0
LINE
  5
23B
100
AcDbEntity
  8
5
100
AcDbLine
 62
7
  6
CONTINUOUS
 10
121.8558178736
 20
280.4189917905
 11
121.8558178736
 21
241.1531223515
  0
LINE
  5
23C
100
AcDbEntity
  8
5
100
AcDbLine
 62
7
  6
CONTINUOUS
 10
122.0044988677
 20
280.4189917905
 11
122.0044988677
 21
291.4084935319
  0
LINE
  5
23D
100
AcDbEntity
  8
5
100
AcDbLine
 62
7
  6
CONTINUOUS
 10
122.2035203167
 20
240.7023780611
 11
122.2035203167
 21
257.9108175436
  0
LINE
  5
23E
100
AcDbEntity
  8
5
100
AcDbLine
 62
7
  6
CONTINUOUS
 10
122.2035203167
 20
259.9429718631
 11
122.2035203167
 21
280.4189917905
  0
LINE
  5
23F
100
AcDbEntity
  8
5
100
AcDbLine
 62
7
  6
CONTINUOUS
 10
122.2035203167
 20
292.5615784571
 11
122.2035203167
 21
324.1451282372
  0
LINE
  5
240
100
AcDbEntity
  8
5
100
AcDbLine
 62
7
  6
CONTINUOUS
 10
122.2035203167
 20
326.1772825568
 11
122.2035203167
 21
333.2167104968
  0
LINE
  5
241
100
AcDbEntity
  8
5
100
AcDbLine
 62
7
  6
CONTINUOUS
 10
122.2093677948
 20
326.1772825569
 11
122.2093678427
 21
324.1451282374
  0
LINE
  5
242
100
AcDbEntity
  8
5
100
AcDbLine
 62
7
  6
CONTINUOUS
 10
122.2093693549
 20
259.9429718633
 11
122.2093694027
 21
257.9108175437
  0
LINE
  5
243
100
AcDbEntity
  8
5
100
AcDbLine
 62
7
  6
CONTINUOUS
 10
123.0520519869
 20
360.2383444737
 11
123.0520519869
 21
332.7268215914
  0
LINE
  5
244
100
AcDbEntity
  8
5
100
AcDbLine
 62
7
  6
CONTINUOUS
 10
123.5315047504
 20
360.679432328
 11
123.5315047504
 21
332.4483612831
  0
LINE
  5
245
100
AcDbEntity
  8
5
100
AcDbLine
 62
7
  6
CONTINUOUS
 10
123.5539824058
 20
291.6482000345
 11
123.5539824058
 21
280.6586982931
  0
LINE
  5
246
100
AcDbEntity
  8
5
100
AcDbLine
 62
7
  6
CONTINUOUS
 10
123.7312319812
 20
294.1177840131
 11
123.7312319812
 21
293.7374089864
  0
LINE
  5
247
100
AcDbEntity
  8
5
100
AcDbLine
 62
7
  6
CONTINUOUS
 10
123.7763354858
 20
291.8155007169
 11
123.7763354858
 21
280.8259989755
  0
LINE
  5
248
100
AcDbEntity
  8
5
100
AcDbLine
 62
7
  6
CONTINUOUS
 10
125.0878815816
 20
282.3450379791
 11
125.0878815816
 21
293.3345397205
  0
LINE
  5
249
100
AcDbEntity
  8
5
100
AcDbLine
 62
7
  6
CONTINUOUS
 10
122.9734948232
 20
324.9627539601
 11
122.2035203167
 21
324.1451282372
  0
LINE
  5
24A
100
AcDbEntity
  8
5
100
AcDbLine
 62
7
  6
CONTINUOUS
 10
122.2035203167
 20
326.1772825568
 11
122.2549201552
 21
326.207367728
  0
LINE
  5
24B
100
AcDbEntity
  8
5
100
AcDbLine
 62
7
  6
CONTINUOUS
 10
235.1810247902
 20
401.5352329935
 11
212.8902695368
 21
388.6657362681
  0
LINE
  5
24C
100
AcDbEntity
  8
5
100
AcDbLine
 62
7
  6
CONTINUOUS
 10
120.9307404753
 20
333.9515963812
 11
118.8094289636
 21
332.7268639196
  0
LINE
  5
24D
100
AcDbEntity
  8
5
100
AcDbLine
 62
7
  6
CONTINUOUS
 10
151.3872685455
 20
350.5497090088
 11
149.3618464275
 21
349.380337984
  0
LINE
  5
24E
100
AcDbEntity
  8
5
100
AcDbLine
 62
7
  6
CONTINUOUS
 10
130.6025431225
 20
336.5308028218
 11
123.5315047504
 21
332.4483612831
  0
LINE
  5
24F
100
AcDbEntity
  8
5
100
AcDbLine
 62
7
  6
CONTINUOUS
 10
210.7826921467
 20
382.0184653712
 11
187.455336557
 21
368.550490735
  0
LINE
  5
250
100
AcDbEntity
  8
5
100
AcDbLine
 62
7
  6
CONTINUOUS
 10
210.7826921467
 20
381.2019629541
 11
189.5361260383
 21
368.935325514
  0
LINE
  5
251
100
AcDbEntity
  8
5
100
AcDbLine
 62
7
  6
CONTINUOUS
 10
189.5385569411
 20
368.9311150417
 11
174.459281215
 21
360.2251431097
  0
LINE
  5
252
100
AcDbEntity
  8
5
100
AcDbLine
 62
7
  6
CONTINUOUS
 10
334.6885884513
 20
452.3795953083
 11
335.7492442072
 21
452.9919615391
  0
LINE
  5
253
100
AcDbEntity
  8
5
100
AcDbLine
 62
7
  6
CONTINUOUS
 10
335.7492442072
 20
452.3755005799
 11
334.6885884513
 21
451.7631343491
  0
LINE
  5
254
100
AcDbEntity
  8
5
100
AcDbLine
 62
7
  6
CONTINUOUS
 10
159.6803121978
 20
350.5224371944
 11
156.8518968489
 21
348.8894605789
  0
LINE
  5
255
100
AcDbEntity
  8
5
100
AcDbLine
 62
7
  6
CONTINUOUS
 10
334.2743645242
 20
450.8475624658
 11
335.33502028
 21
451.4599286966
  0
LINE
  5
256
100
AcDbEntity
  8
5
100
AcDbLine
 62
7
  6
CONTINUOUS
 10
125.7390689435
 20
329.0321472104
 11
132.8101073156
 21
333.1145887491
  0
LINE
  5
257
100
AcDbEntity
  8
5
100
AcDbLine
 62
7
  6
CONTINUOUS
 10
122.2035203167
 20
326.1772825568
 11
122.255097533
 21
326.2070604988
  0
LINE
  5
258
100
AcDbEntity
  8
5
100
AcDbLine
 62
7
  6
CONTINUOUS
 10
222.3349051635
 20
383.212996704
 11
244.6256604169
 21
396.0824934295
  0
LINE
  5
259
100
AcDbEntity
  8
5
100
AcDbLine
 62
7
  6
CONTINUOUS
 10
158.4319861405
 20
345.90585989
 11
154.4722046523
 21
343.6196926285
  0
LINE
  5
25A
100
AcDbEntity
  8
5
100
AcDbLine
 62
7
  6
CONTINUOUS
 10
180.158078305
 20
356.9350155083
 11
195.2373540311
 21
365.6409874404
  0
LINE
  5
25B
100
AcDbEntity
  8
5
100
AcDbLine
 62
7
  6
CONTINUOUS
 10
125.7390689425
 20
324.6889009056
 11
126.0926208611
 21
324.8930229825
  0
LINE
  5
25C
100
AcDbEntity
  8
5
100
AcDbLine
 62
7
  6
CONTINUOUS
 10
346.3558989163
 20
450.5426373615
 11
303.5761167648
 21
425.8438660523
  0
LINE
  5
25D
100
AcDbEntity
  8
5
100
AcDbLine
 62
7
  6
CONTINUOUS
 10
180.158078305
 20
354.2814078031
 11
195.2373540311
 21
362.9873797351
  0
LINE
  5
25E
100
AcDbEntity
  8
5
100
AcDbLine
 62
7
  6
CONTINUOUS
 10
222.3349051635
 20
378.3548073221
 11
244.6256604169
 21
391.2243040476
  0
LINE
  5
25F
100
AcDbEntity
  8
5
100
AcDbLine
 62
7
  6
CONTINUOUS
 10
196.6477629839
 20
363.2433609262
 11
219.9751185736
 21
376.7113355624
  0
LINE
  5
260
100
AcDbEntity
  8
5
100
AcDbLine
 62
7
  6
CONTINUOUS
 10
143.3632298472
 20
332.2676352518
 11
139.403448359
 21
329.9814679902
  0
LINE
  5
261
100
AcDbEntity
  8
5
100
AcDbLine
 62
7
  6
CONTINUOUS
 10
304.6367813525
 20
425.2315049205
 11
348.4772192598
 21
450.5426424605
  0
LINE
  5
262
100
AcDbEntity
  8
5
100
AcDbLine
 62
7
  6
CONTINUOUS
 10
129.6340248427
 20
227.6809474706
 11
175.2358830837
 21
201.3532979506
  0
LINE
  5
263
100
AcDbEntity
  8
5
100
AcDbLine
 62
7
  6
CONTINUOUS
 10
129.9875767689
 20
227.8850695432
 11
164.276546019
 21
208.0887717685
  0
LINE
  5
264
100
AcDbEntity
  8
5
100
AcDbLine
 62
7
  6
CONTINUOUS
 10
163.9229941004
 20
208.4511493731
 11
129.2746175682
 21
228.4549463446
  0
LINE
  5
265
100
AcDbEntity
  8
5
100
AcDbLine
 62
7
  6
CONTINUOUS
 10
166.7514094492
 20
209.5176263071
 11
178.0648400665
 21
202.9859631852
  0
LINE
  5
266
100
AcDbEntity
  8
5
100
AcDbLine
 62
7
  6
CONTINUOUS
 10
149.3074747446
 20
225.5792498349
 11
160.5450816707
 21
219.0913612267
  0
LINE
  5
267
100
AcDbEntity
  8
5
100
AcDbLine
 62
7
  6
CONTINUOUS
 10
150.0145785818
 20
225.9874939887
 11
160.5450816707
 21
219.9078427357
  0
LINE
  5
268
100
AcDbEntity
  8
5
100
AcDbLine
 62
7
  6
CONTINUOUS
 10
236.5780619336
 20
178.1790500019
 11
236.7548424197
 21
178.0769880496
  0
LINE
  5
269
100
AcDbEntity
  8
5
100
AcDbLine
 62
7
  6
CONTINUOUS
 10
123.7763023684
 20
291.815500672
 11
123.7661129104
 21
291.8603295462
  0
LINE
  5
26A
100
AcDbEntity
  8
5
100
AcDbLine
 62
7
  6
CONTINUOUS
 10
130.6025431225
 20
362.5495043552
 11
130.6025431225
 21
336.5308028218
  0
LINE
  5
26B
100
AcDbEntity
  8
5
100
AcDbLine
 62
7
  6
CONTINUOUS
 10
132.8434548345
 20
359.6948387353
 11
132.8434548345
 21
333.7687963366
  0
LINE
  5
26C
100
AcDbEntity
  8
5
100
AcDbLine
 62
7
  6
CONTINUOUS
 10
136.0351597536
 20
290.1742926714
 11
136.0351597536
 21
276.6372562538
  0
LINE
  5
26D
100
AcDbEntity
  8
5
100
AcDbLine
 62
7
  6
CONTINUOUS
 10
136.7422635908
 20
289.7660553162
 11
136.7422635908
 21
277.0455004077
  0
LINE
  5
26E
100
AcDbEntity
  8
5
100
AcDbLine
 62
7
  6
CONTINUOUS
 10
139.403448359
 20
329.9814679902
 11
139.403448359
 21
355.9075103889
  0
LINE
  5
26F
100
AcDbEntity
  8
5
100
AcDbLine
 62
7
  6
CONTINUOUS
 10
139.7182078458
 20
323.5492974535
 11
139.7182078458
 21
323.8350732989
  0
LINE
  5
270
100
AcDbEntity
  8
5
100
AcDbLine
 62
7
  6
CONTINUOUS
 10
141.6704007648
 20
353.820895749
 11
141.6704007648
 21
335.6842585597
  0
LINE
  5
271
100
AcDbEntity
  8
5
100
AcDbLine
 62
7
  6
CONTINUOUS
 10
143.3632298472
 20
332.2676352518
 11
143.3632298472
 21
334.7069253435
  0
LINE
  5
272
100
AcDbEntity
  8
5
100
AcDbLine
 62
7
  6
CONTINUOUS
 10
143.3632298472
 20
354.7982452414
 11
143.3632298472
 21
355.1822851084
  0
LINE
  5
273
100
AcDbEntity
  8
5
100
AcDbLine
 62
7
  6
CONTINUOUS
 10
147.2727666797
 20
270.1493676456
 11
147.2727666797
 21
283.6864040632
  0
LINE
  5
274
100
AcDbEntity
  8
5
100
AcDbLine
 62
7
  6
CONTINUOUS
 10
123.7736624214
 20
293.7374089864
 11
121.2931910321
 21
291.8798612028
  0
LINE
  5
275
100
AcDbEntity
  8
5
100
AcDbLine
 62
7
  6
CONTINUOUS
 10
161.8912300626
 20
339.4668482324
 11
161.778268406
 21
339.4016301789
  0
LINE
  5
276
100
AcDbEntity
  8
5
100
AcDbLine
 62
7
  6
CONTINUOUS
 10
153.3216279157
 20
333.5298680563
 11
149.3618464275
 21
331.2437007947
  0
LINE
  5
277
100
AcDbEntity
  8
5
100
AcDbLine
 62
7
  6
CONTINUOUS
 10
140.3044578267
 20
325.1308796584
 11
147.3754961989
 21
329.2133211972
  0
LINE
  5
278
100
AcDbEntity
  8
5
100
AcDbLine
 62
7
  6
CONTINUOUS
 10
141.7197487338
 20
324.9906965058
 11
148.790787106
 21
329.0731380445
  0
LINE
  5
279
100
AcDbEntity
  8
5
100
AcDbLine
 62
7
  6
CONTINUOUS
 10
139.7182272093
 20
323.5492639141
 11
137.4770903799
 21
322.255350686
  0
LINE
  5
27A
100
AcDbEntity
  8
5
100
AcDbLine
 62
7
  6
CONTINUOUS
 10
163.9229941004
 20
336.6420288624
 11
166.7514094492
 21
338.2750054779
  0
LINE
  5
27B
100
AcDbEntity
  8
5
100
AcDbLine
 62
7
  6
CONTINUOUS
 10
270.7544172677
 20
393.4220228602
 11
178.0651650516
 21
339.9081775769
  0
LINE
  5
27C
100
AcDbEntity
  8
5
100
AcDbLine
 62
7
  6
CONTINUOUS
 10
297.5657429804
 20
404.8190150392
 11
286.9591854222
 21
398.6953527311
  0
LINE
  5
27D
100
AcDbEntity
  8
5
100
AcDbLine
 62
7
  6
CONTINUOUS
 10
162.275008078
 20
324.3620294668
 11
161.778268406
 21
324.0752383953
  0
LINE
  5
27E
100
AcDbEntity
  8
5
100
AcDbLine
 62
7
  6
CONTINUOUS
 10
277.8255145191
 20
389.339615315
 11
290.4947340479
 21
396.6541489585
  0
LINE
  5
27F
100
AcDbEntity
  8
5
100
AcDbLine
 62
7
  6
CONTINUOUS
 10
243.7798319183
 20
174.4374019417
 11
244.0097277895
 21
174.3046745013
  0
LINE
  5
280
100
AcDbEntity
  8
5
100
AcDbLine
 62
7
  6
CONTINUOUS
 10
240.4485176313
 20
179.3264078229
 11
241.7547575845
 21
178.5722668952
  0
LINE
  5
281
100
AcDbEntity
  8
5
100
AcDbLine
 62
7
  6
CONTINUOUS
 10
160.5450816707
 20
232.6283976443
 11
149.3074747446
 21
239.1162862525
  0
LINE
  5
282
100
AcDbEntity
  8
5
100
AcDbLine
 62
7
  6
CONTINUOUS
 10
125.7390689424
 20
254.1430920656
 11
157.5590065741
 21
235.7722581122
  0
LINE
  5
283
100
AcDbEntity
  8
5
100
AcDbLine
 62
7
  6
CONTINUOUS
 10
126.0926208608
 20
254.3472141427
 11
157.9125584929
 21
235.976380189
  0
LINE
  5
284
100
AcDbEntity
  8
5
100
AcDbLine
 62
7
  6
CONTINUOUS
 10
157.559006574
 20
236.9459576962
 11
125.7390689425
 21
255.3167916496
  0
LINE
  5
285
100
AcDbEntity
  8
5
100
AcDbLine
 62
7
  6
CONTINUOUS
 10
343.8810148782
 20
137.6180494075
 11
339.9919113899
 21
139.8633735573
  0
LINE
  5
286
100
AcDbEntity
  8
5
100
AcDbLine
 62
7
  6
CONTINUOUS
 10
333.6279238636
 20
143.537540348
 11
329.7385148944
 21
145.7830408634
  0
LINE
  5
287
100
AcDbEntity
  8
5
100
AcDbLine
 62
7
  6
CONTINUOUS
 10
123.7661129104
 20
291.8603295462
 11
123.5419655596
 21
292.3432850162
  0
LINE
  5
288
100
AcDbEntity
  8
5
100
AcDbLine
 62
7
  6
CONTINUOUS
 10
149.3074747446
 20
239.1162862525
 11
149.3074747446
 21
225.5792498349
  0
LINE
  5
289
100
AcDbEntity
  8
5
100
AcDbLine
 62
7
  6
CONTINUOUS
 10
149.3618464275
 20
331.2437007947
 11
149.3618464275
 21
349.380337984
  0
LINE
  5
28A
100
AcDbEntity
  8
5
100
AcDbLine
 62
7
  6
CONTINUOUS
 10
150.0145785818
 20
238.7080488973
 11
150.0145785818
 21
225.9874939887
  0
LINE
  5
28B
100
AcDbEntity
  8
5
100
AcDbLine
 62
7
  6
CONTINUOUS
 10
150.5457639927
 20
462.8229511287
 11
150.5457639927
 21
458.040032032
  0
LINE
  5
28C
100
AcDbEntity
  8
5
100
AcDbLine
 62
7
  6
CONTINUOUS
 10
153.3216279157
 20
333.5298680563
 11
153.3216279157
 21
349.4329313706
  0
LINE
  5
28D
100
AcDbEntity
  8
5
100
AcDbLine
 62
7
  6
CONTINUOUS
 10
154.4722046523
 20
343.6196926285
 11
154.4722046523
 21
328.2933008449
  0
LINE
  5
28E
100
AcDbEntity
  8
5
100
AcDbLine
 62
7
  6
CONTINUOUS
 10
154.8673474423
 20
272.4017289957
 11
154.8673474423
 21
261.4122272543
  0
LINE
  5
28F
100
AcDbEntity
  8
5
100
AcDbLine
 62
7
  6
CONTINUOUS
 10
154.9259266749
 20
261.3305784235
 11
154.9259266749
 21
272.3200801649
  0
LINE
  5
290
100
AcDbEntity
  8
5
100
AcDbLine
 62
7
  6
CONTINUOUS
 10
155.4270769536
 20
272.0307474621
 11
155.4270769536
 21
261.0412457207
  0
LINE
  5
291
100
AcDbEntity
  8
5
100
AcDbLine
 62
7
  6
CONTINUOUS
 10
155.6883754537
 20
261.0304525435
 11
155.688387192
 21
272.0199595098
  0
LINE
  5
292
100
AcDbEntity
  8
5
100
AcDbLine
 62
7
  6
CONTINUOUS
 10
158.9080048945
 20
273.4530457987
 11
158.9080048945
 21
262.4635440573
  0
LINE
  5
293
100
AcDbEntity
  8
5
100
AcDbLine
 62
7
  6
CONTINUOUS
 10
159.5668435378
 20
262.4390503459
 11
159.5668435378
 21
273.4285520873
  0
LINE
  5
294
100
AcDbEntity
  8
5
100
AcDbLine
 62
7
  6
CONTINUOUS
 10
160.5450816707
 20
219.0913612267
 11
160.5450816707
 21
232.6283976443
  0
LINE
  5
295
100
AcDbEntity
  8
5
100
AcDbLine
 62
7
  6
CONTINUOUS
 10
161.4702170449
 20
299.5436893037
 11
161.4702170449
 21
239.2041606778
  0
LINE
  5
296
100
AcDbEntity
  8
5
100
AcDbLine
 62
7
  6
CONTINUOUS
 10
161.778268406
 20
324.0752383953
 11
161.778268406
 21
339.4016301789
  0
LINE
  5
297
100
AcDbEntity
  8
5
100
AcDbLine
 62
7
  6
CONTINUOUS
 10
161.8237689635
 20
299.7478113805
 11
161.8237689635
 21
239.4082827546
  0
LINE
  5
298
100
AcDbEntity
  8
5
100
AcDbLine
 62
7
  6
CONTINUOUS
 10
162.275008078
 20
315.7112077331
 11
162.275008078
 21
337.5934725116
  0
LINE
  5
299
100
AcDbEntity
  8
5
100
AcDbLine
 62
7
  6
CONTINUOUS
 10
162.4866676675
 20
238.6173259132
 11
162.4866676675
 21
298.9568545391
  0
LINE
  5
29A
100
AcDbEntity
  8
5
100
AcDbLine
 62
7
  6
CONTINUOUS
 10
163.9229941004
 20
336.6420288624
 11
163.9229941004
 21
208.4511493731
  0
LINE
  5
29B
100
AcDbEntity
  8
5
100
AcDbLine
 62
7
  6
CONTINUOUS
 10
164.276546019
 20
208.0887717685
 11
164.276546019
 21
208.65527145
  0
LINE
  5
29C
100
AcDbEntity
  8
5
100
AcDbLine
 62
7
  6
CONTINUOUS
 10
166.7514094492
 20
209.5176263071
 11
166.7514094492
 21
338.2750054779
  0
LINE
  5
29D
100
AcDbEntity
  8
5
100
AcDbLine
 62
7
  6
CONTINUOUS
 10
154.8741620616
 20
272.4316139532
 11
154.8673695245
 21
272.4017289657
  0
LINE
  5
29E
100
AcDbEntity
  8
5
100
AcDbLine
 62
7
  6
CONTINUOUS
 10
155.2893389363
 20
273.3261978978
 11
154.8741620616
 21
272.4316139532
  0
LINE
  5
29F
100
AcDbEntity
  8
5
100
AcDbLine
 62
7
  6
CONTINUOUS
 10
123.5419655596
 20
292.3432850162
 11
125.0878815816
 21
293.3345397205
  0
LINE
  5
2A0
100
AcDbEntity
  8
5
100
AcDbLine
 62
7
  6
CONTINUOUS
 10
125.0878815816
 20
282.3450379791
 11
123.7763354858
 21
281.5040632955
  0
LINE
  5
2A1
100
AcDbEntity
  8
5
100
AcDbLine
 62
7
  6
CONTINUOUS
 10
162.2750274415
 20
315.7111741937
 11
160.0338906121
 21
314.4172609656
  0
LINE
  5
2A2
100
AcDbEntity
  8
5
100
AcDbLine
 62
7
  6
CONTINUOUS
 10
188.3788894898
 20
329.5328663645
 11
277.8255145191
 21
381.1745911437
  0
LINE
  5
2A3
100
AcDbEntity
  8
5
100
AcDbLine
 62
7
  6
CONTINUOUS
 10
157.9125584927
 20
306.5221890291
 11
157.5590065741
 21
306.3180669522
  0
LINE
  5
2A4
100
AcDbEntity
  8
5
100
AcDbLine
 62
7
  6
CONTINUOUS
 10
161.4702170449
 20
299.5436893037
 11
161.8237689635
 21
299.7478113806
  0
LINE
  5
2A5
100
AcDbEntity
  8
5
100
AcDbLine
 62
7
  6
CONTINUOUS
 10
121.3081659164
 20
280.7393625615
 11
121.811313487
 21
280.4488767479
  0
LINE
  5
2A6
100
AcDbEntity
  8
5
100
AcDbLine
 62
7
  6
CONTINUOUS
 10
154.9259266749
 20
261.3305784235
 11
155.4270769536
 21
261.0412457207
  0
LINE
  5
2A7
100
AcDbEntity
  8
5
100
AcDbLine
 62
7
  6
CONTINUOUS
 10
136.0351597536
 20
276.6372562538
 11
147.2727666797
 21
270.1493676456
  0
LINE
  5
2A8
100
AcDbEntity
  8
5
100
AcDbLine
 62
7
  6
CONTINUOUS
 10
136.7422635908
 20
277.0455004077
 11
147.2727666797
 21
270.9658491547
  0
LINE
  5
2A9
100
AcDbEntity
  8
5
100
AcDbLine
 62
7
  6
CONTINUOUS
 10
174.459281215
 20
357.5715354044
 11
174.459281215
 21
360.2251431097
  0
LINE
  5
2AA
100
AcDbEntity
  8
5
100
AcDbLine
 62
7
  6
CONTINUOUS
 10
177.3570897054
 20
474.2199433077
 11
177.3570897054
 21
482.384967479
  0
LINE
  5
2AB
100
AcDbEntity
  8
5
100
AcDbLine
 62
7
  6
CONTINUOUS
 10
178.0651650516
 20
203.5522739163
 11
178.0651650516
 21
202.9857755593
  0
LINE
  5
2AC
100
AcDbEntity
  8
5
100
AcDbLine
 62
7
  6
CONTINUOUS
 10
178.4177542931
 20
473.6075821759
 11
178.4177542931
 21
481.7726063472
  0
LINE
  5
2AD
100
AcDbEntity
  8
5
100
AcDbLine
 62
7
  6
CONTINUOUS
 10
180.158078305
 20
354.2814078031
 11
180.158078305
 21
356.9350155083
  0
LINE
  5
2AE
100
AcDbEntity
  8
5
100
AcDbLine
 62
7
  6
CONTINUOUS
 10
181.8936081156
 20
336.3976062711
 11
181.8936081156
 21
202.6422399624
  0
LINE
  5
2AF
100
AcDbEntity
  8
5
100
AcDbLine
 62
7
  6
CONTINUOUS
 10
182.3078469548
 20
146.8463138055
 11
182.3078447168
 21
189.1048817457
  0
LINE
  5
2B0
100
AcDbEntity
  8
5
100
AcDbLine
 62
7
  6
CONTINUOUS
 10
182.3078469542
 20
146.6421882015
 11
182.3078469542
 21
48.4169474208
  0
LINE
  5
2B1
100
AcDbEntity
  8
5
100
AcDbLine
 62
7
  6
CONTINUOUS
 10
136.0351597536
 20
276.6372562538
 11
136.7422635908
 21
277.0455004077
  0
LINE
  5
2B2
100
AcDbEntity
  8
5
100
AcDbLine
 62
7
  6
CONTINUOUS
 10
55.2048769138
 20
220.2275876672
 11
55.0280964278
 21
220.1255240152
  0
LINE
  5
2B3
100
AcDbEntity
  8
5
100
AcDbLine
 62
7
  6
CONTINUOUS
 10
122.5570722353
 20
258.1149396205
 11
122.2035203167
 21
257.9108175436
  0
LINE
  5
2B4
100
AcDbEntity
  8
5
100
AcDbLine
 62
7
  6
CONTINUOUS
 10
121.3081763971
 20
291.7288582521
 11
121.811313487
 21
291.4383784893
  0
LINE
  5
2B5
100
AcDbEntity
  8
5
100
AcDbLine
 62
7
  6
CONTINUOUS
 10
154.9259266749
 20
272.3200801649
 11
155.4270769536
 21
272.0307474621
  0
LINE
  5
2B6
100
AcDbEntity
  8
5
100
AcDbLine
 62
7
  6
CONTINUOUS
 10
159.5668435479
 20
273.4285520804
 11
158.2101939348
 21
274.2117963812
  0
LINE
  5
2B7
100
AcDbEntity
  8
5
100
AcDbLine
 62
7
  6
CONTINUOUS
 10
125.0878815816
 20
293.3345397205
 11
123.7312319812
 21
294.1177840131
  0
LINE
  5
2B8
100
AcDbEntity
  8
5
100
AcDbLine
 62
7
  6
CONTINUOUS
 10
147.2727666797
 20
283.6864040632
 11
136.0351597536
 21
290.1742926714
  0
LINE
  5
2B9
100
AcDbEntity
  8
5
100
AcDbLine
 62
7
  6
CONTINUOUS
 10
188.3788894898
 20
329.5328663645
 11
188.3788894898
 21
209.5070110464
  0
LINE
  5
2BA
100
AcDbEntity
  8
5
100
AcDbLine
 62
7
  6
CONTINUOUS
 10
195.2373540311
 20
362.9873797351
 11
195.2373540311
 21
365.6409874404
  0
LINE
  5
2BB
100
AcDbEntity
  8
5
100
AcDbLine
 62
7
  6
CONTINUOUS
 10
125.7390689424
 20
254.1430920656
 11
126.092620861
 21
254.3472141426
  0
LINE
  5
2BC
100
AcDbEntity
  8
5
100
AcDbLine
 62
7
  6
CONTINUOUS
 10
122.2093697922
 20
241.3572444282
 11
121.8558178736
 21
241.1531223515
  0
LINE
  5
2BD
100
AcDbEntity
  8
5
100
AcDbLine
 62
7
  6
CONTINUOUS
 10
158.2101939348
 20
274.2117963812
 11
156.4932787515
 21
273.3192658555
  0
LINE
  5
2BE
100
AcDbEntity
  8
5
100
AcDbLine
 62
7
  6
CONTINUOUS
 10
155.688387192
 20
272.0199595098
 11
158.9080049003
 21
273.4530458017
  0
LINE
  5
2BF
100
AcDbEntity
  8
5
100
AcDbLine
 62
7
  6
CONTINUOUS
 10
158.9080049003
 20
262.4635440603
 11
155.6883754537
 21
261.0304525435
  0
LINE
  5
2C0
100
AcDbEntity
  8
5
100
AcDbLine
 62
7
  6
CONTINUOUS
 10
156.4932787515
 20
273.3192658555
 11
155.6567615145
 21
273.4486715173
  0
LINE
  5
2C1
100
AcDbEntity
  8
5
100
AcDbLine
 62
7
  6
CONTINUOUS
 10
125.7390689425
 20
324.6889009056
 11
157.5590065741
 21
306.3180669522
  0
LINE
  5
2C2
100
AcDbEntity
  8
5
100
AcDbLine
 62
7
  6
CONTINUOUS
 10
126.0926208611
 20
324.8930229825
 11
157.9125584927
 21
306.5221890291
  0
LINE
  5
2C3
100
AcDbEntity
  8
5
100
AcDbLine
 62
7
  6
CONTINUOUS
 10
157.5590065741
 20
307.4917665362
 11
125.7390689424
 21
325.8626004896
  0
LINE
  5
2C4
100
AcDbEntity
  8
5
100
AcDbLine
 62
7
  6
CONTINUOUS
 10
117.3094544142
 20
332.5782802659
 11
116.460922744
 21
333.0681691713
  0
LINE
  5
2C5
100
AcDbEntity
  8
5
100
AcDbLine
 62
7
  6
CONTINUOUS
 10
210.7826921467
 20
382.0184653712
 11
210.7826921467
 21
381.2019629541
  0
LINE
  5
2C6
100
AcDbEntity
  8
5
100
AcDbLine
 62
7
  6
CONTINUOUS
 10
212.8902695368
 20
383.8075468861
 11
212.8902695368
 21
388.6657362681
  0
LINE
  5
2C7
100
AcDbEntity
  8
5
100
AcDbLine
 62
7
  6
CONTINUOUS
 10
222.3349051635
 20
378.3548073221
 11
222.3349051635
 21
383.212996704
  0
LINE
  5
2C8
100
AcDbEntity
  8
5
100
AcDbLine
 62
7
  6
CONTINUOUS
 10
129.6340248427
 20
227.6809474706
 11
129.9875767689
 21
227.8850695432
  0
LINE
  5
2C9
100
AcDbEntity
  8
5
100
AcDbLine
 62
7
  6
CONTINUOUS
 10
161.8237689635
 20
239.4082827547
 11
161.4702170449
 21
239.2041606778
  0
LINE
  5
2CA
100
AcDbEntity
  8
5
100
AcDbLine
 62
7
  6
CONTINUOUS
 10
157.9125584927
 20
235.9763801891
 11
157.5590065741
 21
235.7722581122
  0
LINE
  5
2CB
100
AcDbEntity
  8
5
100
AcDbLine
 62
7
  6
CONTINUOUS
 10
123.5539824058
 20
280.6586982931
 11
122.0044988677
 21
280.4189917905
  0
LINE
  5
2CC
100
AcDbEntity
  8
5
100
AcDbLine
 62
7
  6
CONTINUOUS
 10
116.688117452
 20
333.9516387094
 11
115.8395857818
 21
334.4415276148
  0
LINE
  5
2CD
100
AcDbEntity
  8
5
100
AcDbLine
 62
7
  6
CONTINUOUS
 10
125.7390689435
 20
329.0321472104
 11
137.4770903799
 21
322.255350686
  0
LINE
  5
2CE
100
AcDbEntity
  8
5
100
AcDbLine
 62
7
  6
CONTINUOUS
 10
122.2035203167
 20
333.2167104968
 11
123.0520519869
 21
332.7268215914
  0
LINE
  5
2CF
100
AcDbEntity
  8
5
100
AcDbLine
 62
7
  6
CONTINUOUS
 10
141.7197487338
 20
324.9906965058
 11
160.0338906121
 21
314.4172609656
  0
LINE
  5
2D0
100
AcDbEntity
  8
5
100
AcDbLine
 62
7
  6
CONTINUOUS
 10
132.8101073146
 20
333.1145887497
 11
143.4715075063
 21
326.9593657289
  0
LINE
  5
2D1
100
AcDbEntity
  8
5
100
AcDbLine
 62
7
  6
CONTINUOUS
 10
132.8434548345
 20
333.7687963366
 11
139.403448359
 21
329.9814679902
  0
LINE
  5
2D2
100
AcDbEntity
  8
5
100
AcDbLine
 62
7
  6
CONTINUOUS
 10
148.7907871029
 20
329.0731380463
 11
162.275008078
 21
321.2881955555
  0
LINE
  5
2D3
100
AcDbEntity
  8
5
100
AcDbLine
 62
7
  6
CONTINUOUS
 10
141.6704007648
 20
335.6842585597
 11
149.3618464275
 21
331.2437007947
  0
LINE
  5
2D4
100
AcDbEntity
  8
5
100
AcDbLine
 62
7
  6
CONTINUOUS
 10
154.4722046523
 20
328.2933008449
 11
161.778268406
 21
324.0752383953
  0
LINE
  5
2D5
100
AcDbEntity
  8
5
100
AcDbLine
 62
7
  6
CONTINUOUS
 10
116.688117452
 20
355.5138574851
 11
115.8395857818
 21
356.2141977738
  0
LINE
  5
2D6
100
AcDbEntity
  8
5
100
AcDbLine
 62
7
  6
CONTINUOUS
 10
118.9329345281
 20
359.1420275593
 11
118.1032713249
 21
359.8267946548
  0
LINE
  5
2D7
100
AcDbEntity
  8
5
100
AcDbLine
 62
7
  6
CONTINUOUS
 10
120.2245828366
 20
361.0515271164
 11
121.0542460398
 21
360.3667600209
  0
LINE
  5
2D8
100
AcDbEntity
  8
5
100
AcDbLine
 62
7
  6
CONTINUOUS
 10
123.0868994119
 20
364.1700405771
 11
123.9590811759
 21
363.4501805531
  0
LINE
  5
2D9
100
AcDbEntity
  8
5
100
AcDbLine
 62
7
  6
CONTINUOUS
 10
228.2685748167
 20
502.3887950238
 11
228.2685748167
 21
518.7188433664
  0
LINE
  5
2DA
100
AcDbEntity
  8
5
100
AcDbLine
 62
7
  6
CONTINUOUS
 10
235.6932269308
 20
508.9168399819
 11
235.6932269308
 21
509.5333009412
  0
LINE
  5
2DB
100
AcDbEntity
  8
5
100
AcDbLine
 62
7
  6
CONTINUOUS
 10
236.7538826866
 20
509.5292062127
 11
236.7538826866
 21
510.145667172
  0
LINE
  5
2DC
100
AcDbEntity
  8
5
100
AcDbLine
 62
7
  6
CONTINUOUS
 10
239.9358852816
 20
507.083856414
 11
239.9358852816
 21
506.4673954548
  0
LINE
  5
2DD
100
AcDbEntity
  8
5
100
AcDbLine
 62
7
  6
CONTINUOUS
 10
149.3074747446
 20
225.5792498349
 11
150.0145785818
 21
225.9874939887
  0
LINE
  5
2DE
100
AcDbEntity
  8
5
100
AcDbLine
 62
7
  6
CONTINUOUS
 10
122.0044988678
 20
291.4084935319
 11
123.5539824057
 21
291.6482000345
  0
LINE
  5
2DF
100
AcDbEntity
  8
5
100
AcDbLine
 62
7
  6
CONTINUOUS
 10
161.778268406
 20
339.4016301789
 11
154.4722046523
 21
343.6196926285
  0
LINE
  5
2E0
100
AcDbEntity
  8
5
100
AcDbLine
 62
7
  6
CONTINUOUS
 10
149.3618464275
 20
349.380337984
 11
141.6704007648
 21
353.820895749
  0
LINE
  5
2E1
100
AcDbEntity
  8
5
100
AcDbLine
 62
7
  6
CONTINUOUS
 10
139.403448359
 20
355.9075103889
 11
132.8434548345
 21
359.6948387353
  0
LINE
  5
2E2
100
AcDbEntity
  8
5
100
AcDbLine
 62
7
  6
CONTINUOUS
 10
156.4983419859
 20
347.5988961385
 11
129.2746175682
 21
363.3161651872
  0
LINE
  5
2E3
100
AcDbEntity
  8
5
100
AcDbLine
 62
7
  6
CONTINUOUS
 10
114.7837142984
 20
373.1769806166
 11
62.0991937153
 21
403.5937216666
  0
LINE
  5
2E4
100
AcDbEntity
  8
5
100
AcDbLine
 62
7
  6
CONTINUOUS
 10
156.8518968489
 20
348.8894605789
 11
129.2746175682
 21
364.8108500052
  0
LINE
  5
2E5
100
AcDbEntity
  8
5
100
AcDbLine
 62
7
  6
CONTINUOUS
 10
159.6803121978
 20
350.5224371944
 11
178.0651650516
 21
339.9081775769
  0
LINE
  5
2E6
100
AcDbEntity
  8
5
100
AcDbLine
 62
7
  6
CONTINUOUS
 10
243.8258807918
 20
173.9944054171
 11
243.8258807918
 21
83.9341888077
  0
LINE
  5
2E7
100
AcDbEntity
  8
5
100
AcDbLine
 62
7
  6
CONTINUOUS
 10
244.0097277895
 20
174.3046745013
 11
244.0097277895
 21
84.0403322877
  0
LINE
  5
2E8
100
AcDbEntity
  8
5
100
AcDbLine
 62
7
  6
CONTINUOUS
 10
244.6256604169
 20
391.2243040476
 11
244.6256604169
 21
396.0824934295
  0
LINE
  5
2E9
100
AcDbEntity
  8
5
100
AcDbLine
 62
7
  6
CONTINUOUS
 10
163.9229941004
 20
208.4511493731
 11
164.276546019
 21
208.65527145
  0
LINE
  5
2EA
100
AcDbEntity
  8
5
100
AcDbLine
 62
7
  6
CONTINUOUS
 10
164.276546019
 20
208.0887717685
 11
166.7514094492
 21
209.5176263071
  0
LINE
  5
2EB
100
AcDbEntity
  8
5
100
AcDbLine
 62
7
  6
CONTINUOUS
 10
266.9178385975
 20
254.8511207759
 11
188.3788894898
 21
209.5070110464
  0
LINE
  5
2EC
100
AcDbEntity
  8
5
100
AcDbLine
 62
7
  6
CONTINUOUS
 10
178.6076624404
 20
203.2989845984
 11
175.2358830837
 21
201.3532979506
  0
LINE
  5
2ED
100
AcDbEntity
  8
5
100
AcDbLine
 62
7
  6
CONTINUOUS
 10
174.459281215
 20
357.5715354044
 11
180.158078305
 21
354.2814078031
  0
LINE
  5
2EE
100
AcDbEntity
  8
5
100
AcDbLine
 62
7
  6
CONTINUOUS
 10
145.7571806456
 20
374.3270053667
 11
131.2662773314
 21
382.6931360009
  0
LINE
  5
2EF
100
AcDbEntity
  8
5
100
AcDbLine
 62
7
  6
CONTINUOUS
 10
174.459281215
 20
360.2251431097
 11
180.158078305
 21
356.9350155083
  0
LINE
  5
2F0
100
AcDbEntity
  8
5
100
AcDbLine
 62
7
  6
CONTINUOUS
 10
338.9312468022
 20
141.7004883148
 11
339.9919113899
 21
139.8633735573
  0
LINE
  5
2F1
100
AcDbEntity
  8
5
100
AcDbLine
 62
7
  6
CONTINUOUS
 10
266.9178385975
 20
254.8511207759
 11
266.9178386367
 21
237.9545003277
  0
LINE
  5
2F2
100
AcDbEntity
  8
5
100
AcDbLine
 62
7
  6
CONTINUOUS
 10
275.6101967082
 20
94.1197384485
 11
275.6101967082
 21
102.2847626198
  0
LINE
  5
2F3
100
AcDbEntity
  8
5
100
AcDbLine
 62
7
  6
CONTINUOUS
 10
277.8255145191
 20
389.339615315
 11
277.8255145191
 21
381.1745911437
  0
LINE
  5
2F4
100
AcDbEntity
  8
5
100
AcDbLine
 62
7
  6
CONTINUOUS
 10
184.2366674637
 20
203.7334072453
 11
264.8105675292
 21
250.2524924563
  0
LINE
  5
2F5
100
AcDbEntity
  8
5
100
AcDbLine
 62
7
  6
CONTINUOUS
 10
182.3078469542
 20
189.1049196288
 11
266.9178386367
 21
237.9545003277
  0
LINE
  5
2F6
100
AcDbEntity
  8
5
100
AcDbLine
 62
7
  6
CONTINUOUS
 10
181.8936081156
 20
202.6422399624
 11
184.2365168075
 21
203.7335808222
  0
LINE
  5
2F7
100
AcDbEntity
  8
5
100
AcDbLine
 62
7
  6
CONTINUOUS
 10
187.455336557
 20
368.550490735
 11
188.167320391
 21
368.139435976
  0
LINE
  5
2F8
100
AcDbEntity
  8
5
100
AcDbLine
 62
7
  6
CONTINUOUS
 10
195.2373540311
 20
364.0576424932
 11
196.6477629839
 21
363.2433609262
  0
LINE
  5
2F9
100
AcDbEntity
  8
5
100
AcDbLine
 62
7
  6
CONTINUOUS
 10
195.2373540311
 20
365.6409874404
 11
189.5385569411
 21
368.9311150417
  0
LINE
  5
2FA
100
AcDbEntity
  8
5
100
AcDbLine
 62
7
  6
CONTINUOUS
 10
290.4947340479
 20
102.7132787919
 11
290.4947340479
 21
396.6541489585
  0
LINE
  5
2FB
100
AcDbEntity
  8
5
100
AcDbLine
 62
7
  6
CONTINUOUS
 10
296.5050783927
 20
405.431376171
 11
296.5050783927
 21
413.5964003423
  0
LINE
  5
2FC
100
AcDbEntity
  8
5
100
AcDbLine
 62
7
  6
CONTINUOUS
 10
219.2679966292
 20
376.3030809544
 11
210.7826921467
 21
381.2019629541
  0
LINE
  5
2FD
100
AcDbEntity
  8
5
100
AcDbLine
 62
7
  6
CONTINUOUS
 10
219.9751185736
 20
376.7113355624
 11
210.7826921467
 21
382.0184653712
  0
LINE
  5
2FE
100
AcDbEntity
  8
5
100
AcDbLine
 62
7
  6
CONTINUOUS
 10
212.8902695368
 20
383.8075468861
 11
222.3349051635
 21
378.3548073221
  0
LINE
  5
2FF
100
AcDbEntity
  8
5
100
AcDbLine
 62
7
  6
CONTINUOUS
 10
297.5657429804
 20
404.8190150392
 11
297.5657429804
 21
412.9840392105
  0
LINE
  5
300
100
AcDbEntity
  8
5
100
AcDbLine
 62
7
  6
CONTINUOUS
 10
236.9386894174
 20
178.3872571339
 11
182.3078469548
 21
146.8463138055
  0
LINE
  5
301
100
AcDbEntity
  8
5
100
AcDbLine
 62
7
  6
CONTINUOUS
 10
182.3078469542
 20
146.6421882015
 11
236.7548424197
 21
178.0769880496
  0
LINE
  5
302
100
AcDbEntity
  8
5
100
AcDbLine
 62
7
  6
CONTINUOUS
 10
212.8902695368
 20
388.6657362681
 11
222.3349051635
 21
383.212996704
  0
LINE
  5
303
100
AcDbEntity
  8
5
100
AcDbLine
 62
7
  6
CONTINUOUS
 10
334.6885884513
 20
148.6409501046
 11
334.6885884513
 21
144.1499328419
  0
LINE
  5
304
100
AcDbEntity
  8
5
100
AcDbLine
 62
7
  6
CONTINUOUS
 10
334.6885884513
 20
451.7631343491
 11
334.6885884513
 21
452.3795953083
  0
LINE
  5
305
100
AcDbEntity
  8
5
100
AcDbLine
 62
7
  6
CONTINUOUS
 10
244.6256604169
 20
396.0824934295
 11
235.1810247902
 21
401.5352329935
  0
LINE
  5
306
100
AcDbEntity
  8
5
100
AcDbLine
 62
7
  6
CONTINUOUS
 10
277.8255145191
 20
389.339615315
 11
270.7544172677
 21
393.4220228602
  0
LINE
  5
307
100
AcDbEntity
  8
5
100
AcDbLine
 62
7
  6
CONTINUOUS
 10
157.6168612441
 20
458.7405435835
 11
150.5457639927
 21
462.8229511287
  0
LINE
  5
308
100
AcDbEntity
  8
5
100
AcDbLine
 62
7
  6
CONTINUOUS
 10
335.7492442072
 20
149.2533163354
 11
335.7492442072
 21
144.7622990727
  0
LINE
  5
309
100
AcDbEntity
  8
5
100
AcDbLine
 62
7
  6
CONTINUOUS
 10
335.7492442072
 20
452.3755005799
 11
335.7492442072
 21
452.9919615391
  0
LINE
  5
30A
100
AcDbEntity
  8
5
100
AcDbLine
 62
7
  6
CONTINUOUS
 10
338.9312468022
 20
449.9301507812
 11
338.9312468022
 21
449.313689822
  0
LINE
  5
30B
100
AcDbEntity
  8
5
100
AcDbLine
 62
7
  6
CONTINUOUS
 10
338.9312468022
 20
141.7004883148
 11
338.9312468022
 21
147.4160052347
  0
LINE
  5
30C
100
AcDbEntity
  8
5
100
AcDbLine
 62
7
  6
CONTINUOUS
 10
346.0023440537
 20
155.1729109566
 11
346.0023440537
 21
138.8428343953
  0
LINE
  5
30D
100
AcDbEntity
  8
5
100
AcDbLine
 62
7
  6
CONTINUOUS
 10
347.0629998095
 20
155.7852771874
 11
347.0629998095
 21
139.4552006261
  0
LINE
  5
30E
100
AcDbEntity
  8
5
100
AcDbLine
 62
7
  6
CONTINUOUS
 10
348.4772192598
 20
156.6017722939
 11
348.4772192598
 21
450.5426424605
  0
LINE
  5
30F
100
AcDbEntity
  8
5
100
AcDbLine
 62
7
  6
CONTINUOUS
 10
290.4947340479
 20
396.6541489585
 11
286.9591854222
 21
398.6953527311
  0
LINE
  5
310
100
AcDbEntity
  8
5
100
AcDbLine
 62
7
  6
CONTINUOUS
 10
166.7505321472
 20
468.0962809996
 11
163.2149835215
 21
470.1374847722
  0
LINE
  5
311
100
AcDbEntity
  8
5
100
AcDbLine
 62
7
  6
CONTINUOUS
 10
177.3570897054
 20
474.2199433077
 11
178.4177542931
 21
473.6075821759
  0
LINE
  5
312
100
AcDbEntity
  8
5
100
AcDbLine
 62
7
  6
CONTINUOUS
 10
296.5050783927
 20
405.431376171
 11
297.5657429804
 21
404.8190150392
  0
LINE
  5
313
100
AcDbEntity
  8
5
100
AcDbLine
 62
7
  6
CONTINUOUS
 10
177.3570897054
 20
482.384967479
 11
178.4177542931
 21
481.7726063472
  0
LINE
  5
314
100
AcDbEntity
  8
5
100
AcDbLine
 62
7
  6
CONTINUOUS
 10
296.5050783927
 20
413.5964003423
 11
297.5657429804
 21
412.9840392105
  0
LINE
  5
315
100
AcDbEntity
  8
5
100
AcDbLine
 62
7
  6
CONTINUOUS
 10
290.4947340479
 20
123.1257686733
 11
348.4772192598
 21
156.6017722939
  0
LINE
  5
316
100
AcDbEntity
  8
5
100
AcDbLine
 62
7
  6
CONTINUOUS
 10
333.6279238636
 20
143.537540348
 11
335.7492442072
 21
144.7622990727
  0
LINE
  5
317
100
AcDbEntity
  8
5
100
AcDbLine
 62
7
  6
CONTINUOUS
 10
304.6367813525
 20
425.2315049205
 11
303.5761167648
 21
425.8438660523
  0
LINE
  5
318
100
AcDbEntity
  8
5
100
AcDbLine
 62
7
  6
CONTINUOUS
 10
185.4887926653
 20
494.0200720572
 11
184.4281280776
 21
494.632433189
  0
LINE
  5
319
100
AcDbEntity
  8
5
100
AcDbLine
 62
7
  6
CONTINUOUS
 10
275.6101967082
 20
102.2847626198
 11
244.0097277895
 21
84.0403322877
  0
LINE
  5
31A
100
AcDbEntity
  8
5
100
AcDbLine
 62
7
  6
CONTINUOUS
 10
243.8258807918
 20
83.9341888077
 11
182.3078469542
 21
48.4169474208
  0
LINE
  5
31B
100
AcDbEntity
  8
5
100
AcDbLine
 62
7
  6
CONTINUOUS
 10
180.2367273183
 20
43.8390880046
 11
241.7547611559
 21
79.3563293914
  0
LINE
  5
31C
100
AcDbEntity
  8
5
100
AcDbLine
 62
7
  6
CONTINUOUS
 10
241.9386081536
 20
79.4624728714
 11
273.5390770723
 21
97.7069032036
  0
LINE
  5
31D
100
AcDbEntity
  8
5
100
AcDbLine
 62
7
  6
CONTINUOUS
 10
347.0629998095
 20
139.4552006261
 11
346.0023440537
 21
138.8428343953
  0
LINE
  5
31E
100
AcDbEntity
  8
5
100
AcDbLine
 62
7
  6
CONTINUOUS
 10
346.4416639187
 20
138.0818428012
 11
345.3810081629
 21
137.4694765704
  0
LINE
  5
31F
100
AcDbEntity
  8
5
100
AcDbLine
 62
7
  6
CONTINUOUS
 10
275.6101967082
 20
94.1197384485
 11
290.4947340479
 21
102.7132787919
  0
LINE
  5
320
100
AcDbEntity
  8
5
100
AcDbLine
 62
7
  6
CONTINUOUS
 10
228.2685748167
 20
502.3887950238
 11
332.2134600286
 21
442.3775452017
  0
LINE
  5
321
100
AcDbEntity
  8
5
100
AcDbLine
 62
7
  6
CONTINUOUS
 10
336.1977408923
 20
440.0772716117
 11
338.1800556069
 21
438.9328075689
  0
LINE
  5
322
100
AcDbEntity
  8
5
100
AcDbLine
 62
7
  6
CONTINUOUS
 10
228.2685748167
 20
518.7188433664
 11
346.3558989163
 21
450.5426373615
  0
LINE
  5
323
100
AcDbEntity
  8
5
100
AcDbLine
 62
7
  6
CONTINUOUS
 10
348.4772192598
 20
450.5426424605
 11
228.2685659848
 21
519.943570729
  0
ARC
  5
324
100
AcDbEntity
  8
5
100
AcDbCircle
 62
7
  6
CONTINUOUS
 10
135.844115691
 20
237.9386179258
 40
11.6358733985
100
AcDbArc
 50
235.7300864082
 51
236.7760925017
  0
ARC
  5
325
100
AcDbEntity
  8
5
100
AcDbCircle
 62
7
  6
CONTINUOUS
 10
135.1049819308
 20
237.1423870797
 40
10.9293280175
100
AcDbArc
 50
236.2837130417
 51
239.961898091
  0
ARC
  5
326
100
AcDbEntity
  8
5
100
AcDbCircle
 62
7
  6
CONTINUOUS
 10
135.4141574705
 20
237.2731321838
 40
10.8435924976
100
AcDbArc
 50
236.7499247473
 51
239.9708045618
  0
ARC
  5
327
100
AcDbEntity
  8
5
100
AcDbCircle
 62
7
  6
CONTINUOUS
 10
132.551475841
 20
241.1562916398
 40
10.6956584366
100
AcDbArc
 50
180.0169776704
 51
182.442756342
  0
ARC
  5
328
100
AcDbEntity
  8
5
100
AcDbCircle
 62
7
  6
CONTINUOUS
 10
330.8288456764
 20
441.9884069278
 40
10.3692578923
100
AcDbArc
 50
28.014812523
 51
33.6403347778
  0
ARC
  5
329
100
AcDbEntity
  8
5
100
AcDbCircle
 62
7
  6
CONTINUOUS
 10
234.8131438313
 20
84.0399590626
 40
9.1965839657
100
AcDbArc
 50
358.9585803169
 51
0.0023252355
  0
ARC
  5
32A
100
AcDbEntity
  8
5
100
AcDbCircle
 62
7
  6
CONTINUOUS
 10
241.3120649711
 20
170.1862419358
 40
9.1121979575
100
AcDbArc
 50
118.0679277017
 51
120.0081580786
  0
ARC
  5
32B
100
AcDbEntity
  8
5
100
AcDbCircle
 62
7
  6
CONTINUOUS
 10
237.2195489086
 20
174.5483960622
 40
6.7744001103
100
AcDbArc
 50
10.6187205323
 51
12.0581252642
  0
ARC
  5
32C
100
AcDbEntity
  8
5
100
AcDbCircle
 62
7
  6
CONTINUOUS
 10
240.279911012
 20
172.5625818764
 40
6.5171865298
100
AcDbArc
 50
106.49310153
 51
108.4637779183
  0
ARC
  5
32D
100
AcDbEntity
  8
5
100
AcDbCircle
 62
7
  6
CONTINUOUS
 10
339.5262753223
 20
445.2475315008
 40
5.4347052663
100
AcDbArc
 50
239.3015819253
 51
243.3356990222
  0
ARC
  5
32E
100
AcDbEntity
  8
5
100
AcDbCircle
 62
7
  6
CONTINUOUS
 10
339.2810170864
 20
444.7615163926
 40
4.8903147674
100
AcDbArc
 50
243.3482360327
 51
246.6590713319
  0
ARC
  5
32F
100
AcDbEntity
  8
5
100
AcDbCircle
 62
7
  6
CONTINUOUS
 10
237.2457661849
 20
177.0041490299
 40
4.0041841932
100
AcDbArc
 50
34.7997926811
 51
35.5303768818
  0
ARC
  5
330
100
AcDbEntity
  8
5
100
AcDbCircle
 62
7
  6
CONTINUOUS
 10
338.804845364
 20
443.402006873
 40
3.4473061763
100
AcDbArc
 50
256.7421351776
 51
257.6009192109
  0
ARC
  5
331
100
AcDbEntity
  8
5
100
AcDbCircle
 62
7
  6
CONTINUOUS
 10
240.0575124534
 20
82.2887852186
 40
3.3882466834
100
AcDbArc
 50
302.5641380505
 51
311.0184554476
  0
ARC
  5
332
100
AcDbEntity
  8
5
100
AcDbCircle
 62
7
  6
CONTINUOUS
 10
240.0660859898
 20
175.6425103139
 40
3.3815068003
100
AcDbArc
 50
60.0414411329
 51
71.0179756451
  0
ARC
  5
333
100
AcDbEntity
  8
5
100
AcDbCircle
 62
7
  6
CONTINUOUS
 10
240.2478431791
 20
82.3836505156
 40
3.3752556624
100
AcDbArc
 50
302.7696153573
 51
309.110948853
  0
ARC
  5
334
100
AcDbEntity
  8
5
100
AcDbCircle
 62
7
  6
CONTINUOUS
 10
240.0839326093
 20
82.2502479379
 40
3.3415477433
100
AcDbArc
 50
300.0003548242
 51
302.5380035138
  0
ARC
  5
335
100
AcDbEntity
  8
5
100
AcDbCircle
 62
7
  6
CONTINUOUS
 10
240.2781687121
 20
82.3382761889
 40
3.3206885522
100
AcDbArc
 50
300.0013989541
 51
302.7533977547
  0
ARC
  5
336
100
AcDbEntity
  8
5
100
AcDbCircle
 62
7
  6
CONTINUOUS
 10
240.2810336651
 20
176.0115047016
 40
3.3151215817
100
AcDbArc
 50
58.7153252396
 51
61.4184870722
  0
ARC
  5
337
100
AcDbEntity
  8
5
100
AcDbCircle
 62
7
  6
CONTINUOUS
 10
240.2812823059
 20
82.3330836975
 40
3.314634925
100
AcDbArc
 50
298.8829874864
 51
299.9996693846
  0
ARC
  5
338
100
AcDbEntity
  8
5
100
AcDbCircle
 62
7
  6
CONTINUOUS
 10
336.1718478536
 20
449.2319203203
 40
2.415923348
100
AcDbArc
 50
141.4216979866
 51
148.4947657597
  0
ARC
  5
339
100
AcDbEntity
  8
5
100
AcDbCircle
 62
7
  6
CONTINUOUS
 10
237.1764863331
 20
506.3856259531
 40
2.415923348
100
AcDbArc
 50
141.4216979869
 51
148.4947657596
  0
ARC
  5
33A
100
AcDbEntity
  8
5
100
AcDbCircle
 62
7
  6
CONTINUOUS
 10
123.4225166407
 20
324.181291736
 40
2.338831957
100
AcDbArc
 50
111.7142083922
 51
119.9541939435
  0
ARC
  5
33B
100
AcDbEntity
  8
5
100
AcDbCircle
 62
7
  6
CONTINUOUS
 10
336.0410665121
 20
449.3331010393
 40
2.2505908631
100
AcDbArc
 50
138.9159401458
 51
141.3592137193
  0
ARC
  5
33C
100
AcDbEntity
  8
5
100
AcDbCircle
 62
7
  6
CONTINUOUS
 10
237.0457049917
 20
506.486806672
 40
2.2505908633
100
AcDbArc
 50
138.9159401459
 51
141.3592137194
  0
ARC
  5
33D
100
AcDbEntity
  8
5
100
AcDbCircle
 62
7
  6
CONTINUOUS
 10
335.1324860165
 20
434.7744926593
 40
1.3494693734
100
AcDbArc
 50
232.3094107184
 51
239.9422276015
  0
ARC
  5
33E
100
AcDbEntity
  8
5
100
AcDbCircle
 62
7
  6
CONTINUOUS
 10
215.9844973293
 20
503.563059796
 40
1.3494693734
100
AcDbArc
 50
232.3094107186
 51
239.9422276014
  0
ARC
  5
33F
100
AcDbEntity
  8
5
100
AcDbCircle
 62
7
  6
CONTINUOUS
 10
236.8152680091
 20
510.0380090781
 40
1.0024976858
100
AcDbArc
 50
119.9599160647
 51
123.6675873798
  0
ARC
  5
340
100
AcDbEntity
  8
5
100
AcDbCircle
 62
7
  6
CONTINUOUS
 10
335.8106295297
 20
452.8843034452
 40
1.0024976858
100
AcDbArc
 50
119.9599160647
 51
123.6675873798
  0
SPLINE
  5
341
100
AcDbEntity
  8
5
100
AcDbSpline
 62
7
  6
CONTINUOUS
 70
0
 71
3
 72
11
 73
7
 74
0
 42
0.0000001
 43
0.0000001
 44
0.0000000001
 40
0.0
 40
0.0
 40
0.0
 40
0.0
 40
0.2853953964
 40
0.5451493444
 40
0.7812600351
 40
1.0
 40
1.0
 40
1.0
 40
1.0
 10
243.8258807918
 20
83.9341888077
 30
0.0
 10
243.8258807918
 20
83.4960847966
 30
0.0
 10
243.7678774863
 20
82.6572705742
 30
0.0
 10
243.4790329105
 20
81.4858802501
 30
0.0
 10
242.9953318963
 20
80.4909503144
 30
0.0
 10
242.5346302149
 20
79.9526686666
 30
0.0
 10
242.2812258439
 20
79.7323591304
 30
0.0
  0
SPLINE
  5
342
100
AcDbEntity
  8
5
100
AcDbSpline
 62
7
  6
CONTINUOUS
 70
0
 71
3
 72
11
 73
7
 74
0
 42
0.0000001
 43
0.0000001
 44
0.0000000001
 40
0.0
 40
0.0
 40
0.0
 40
0.0
 40
0.289777178
 40
0.5490714024
 40
0.7822268829
 40
1.0
 40
1.0
 40
1.0
 40
1.0
 10
243.8258807918
 20
173.9944054171
 30
0.0
 10
243.8258807918
 20
174.5012202486
 30
0.0
 10
243.7492491017
 20
175.4648324063
 30
0.0
 10
243.3587262009
 20
176.7887072548
 30
0.0
 10
242.7018464485
 20
177.8629711633
 30
0.0
 10
242.0845753836
 20
178.3817659115
 30
0.0
 10
241.7547208312
 20
178.5722032352
 30
0.0
  0
SPLINE
  5
343
100
AcDbEntity
  8
5
100
AcDbSpline
 62
7
  6
CONTINUOUS
 70
0
 71
3
 72
11
 73
7
 74
0
 42
0.0000001
 43
0.0000001
 44
0.0000000001
 40
0.0
 40
0.0
 40
0.0
 40
0.0
 40
0.2372294888
 40
0.5000010919
 40
0.7627721007
 40
1.0
 40
1.0
 40
1.0
 40
1.0
 10
55.0280964278
 20
121.9002832345
 30
0.0
 10
55.0280964278
 20
120.7411396785
 30
0.0
 10
55.462852963
 20
118.2964666314
 30
0.0
 10
56.9783297478
 20
114.8612639807
 30
0.0
 10
59.1955732255
 20
111.8312375967
 30
0.0
 10
61.0953469617
 20
110.2324095792
 30
0.0
 10
62.0991936792
 20
109.652851518
 30
0.0
  0
SPLINE
  5
344
100
AcDbEntity
  8
5
100
AcDbSpline
 62
7
  6
CONTINUOUS
 70
0
 71
3
 72
11
 73
7
 74
0
 42
0.0000001
 43
0.0000001
 44
0.0000000001
 40
0.0
 40
0.0
 40
0.0
 40
0.0
 40
0.289775222
 40
0.5490688033
 40
0.782225076
 40
1.0
 40
1.0
 40
1.0
 40
1.0
 10
175.2367497027
 20
44.3343307948
 30
0.0
 10
175.675651483
 20
44.0809364663
 30
0.0
 10
176.5484554987
 20
43.6655175866
 30
0.0
 10
177.8901881781
 20
43.3418042873
 30
0.0
 10
179.1489352381
 20
43.3735515536
 30
0.0
 10
179.9068438586
 20
43.6487157049
 30
0.0
 10
180.2366905645
 20
43.8391516644
 30
0.0
  0
SPLINE
  5
345
100
AcDbEntity
  8
5
100
AcDbSpline
 62
7
  6
CONTINUOUS
 70
0
 71
3
 72
11
 73
7
 74
0
 42
0.0000001
 43
0.0000001
 44
0.0000000001
 40
0.0
 40
0.0
 40
0.0
 40
0.0
 40
0.2177739674
 40
0.4509298424
 40
0.7102237828
 40
1.0
 40
1.0
 40
1.0
 40
1.0
 10
180.2366905645
 20
43.8391516644
 30
0.0
 10
180.5665446396
 20
44.0295918783
 30
0.0
 10
181.1838139082
 20
44.5483900091
 30
0.0
 10
181.8406926657
 20
45.6226544242
 30
0.0
 10
182.2312151857
 20
46.9465260543
 30
0.0
 10
182.3078469542
 20
47.9101348758
 30
0.0
 10
182.3078469542
 20
48.4169474208
 30
0.0
  0
SPLINE
  5
346
100
AcDbEntity
  8
5
100
AcDbSpline
 62
7
  6
CONTINUOUS
 70
0
 71
3
 72
9
 73
5
 74
0
 42
0.0000001
 43
0.0000001
 44
0.0000000001
 40
0.0
 40
0.0
 40
0.0
 40
0.0
 40
0.4730815501
 40
1.0
 40
1.0
 40
1.0
 40
1.0
 10
241.1659937686
 20
178.8401330432
 30
0.0
 10
240.7530091822
 20
178.982315774
 30
0.0
 10
239.8175662164
 20
179.1135742359
 30
0.0
 10
238.8961677848
 20
178.9496484323
 30
0.0
 10
238.4296824094
 20
178.8116117516
 30
0.0
  0
SPLINE
  5
347
100
AcDbEntity
  8
5
100
AcDbSpline
 62
7
  6
CONTINUOUS
 70
0
 71
3
 72
9
 73
5
 74
0
 42
0.0000001
 43
0.0000001
 44
0.0000000001
 40
0.0
 40
0.0
 40
0.0
 40
0.0
 40
0.241455138
 40
1.0
 40
1.0
 40
1.0
 40
1.0
 10
238.2158850092
 20
178.7442901292
 30
0.0
 10
238.116657552
 20
178.7111762591
 30
0.0
 10
237.7089324252
 20
178.5644205234
 30
0.0
 10
237.3146131566
 20
178.3813407526
 30
0.0
 10
237.0246116143
 20
178.2267577979
 30
0.0
  0
SPLINE
  5
348
100
AcDbEntity
  8
5
100
AcDbSpline
 62
7
  6
CONTINUOUS
 70
0
 71
3
 72
8
 73
4
 74
0
 42
0.0000001
 43
0.0000001
 44
0.0000000001
 40
0.0
 40
0.0
 40
0.0
 40
0.0
 40
1.0
 40
1.0
 40
1.0
 40
1.0
 10
121.2931910321
 20
291.8798612028
 30
0.0
 10
121.2713468734
 20
291.8635027925
 30
0.0
 10
121.2515338133
 20
291.8366502619
 30
0.0
 10
121.2515683161
 20
291.8093599034
 30
0.0
  0
SPLINE
  5
349
100
AcDbEntity
  8
5
100
AcDbSpline
 62
7
  6
CONTINUOUS
 70
0
 71
3
 72
9
 73
5
 74
0
 42
0.0000001
 43
0.0000001
 44
0.0000000001
 40
0.0
 40
0.0
 40
0.0
 40
0.0
 40
0.2927405847
 40
1.0
 40
1.0
 40
1.0
 40
1.0
 10
121.3081659164
 20
280.7393625615
 30
0.0
 10
121.2997275385
 20
280.7443735587
 30
0.0
 10
121.2725218661
 20
280.763398213
 30
0.0
 10
121.2518756007
 20
280.7961487391
 30
0.0
 10
121.2516604673
 20
280.8198585371
 30
0.0
  0
SPLINE
  5
34A
100
AcDbEntity
  8
5
100
AcDbSpline
 62
7
  6
CONTINUOUS
 70
0
 71
3
 72
9
 73
5
 74
0
 42
0.0000001
 43
0.0000001
 44
0.0000000001
 40
0.0
 40
0.0
 40
0.0
 40
0.0
 40
0.7707120962
 40
1.0
 40
1.0
 40
1.0
 40
1.0
 10
122.0044988677
 20
280.4189917905
 30
0.0
 10
121.9543562309
 20
280.4112346793
 30
0.0
 10
121.8852221583
 20
280.4152818082
 30
0.0
 10
121.8243861739
 20
280.4413293993
 30
0.0
 10
121.811313487
 20
280.4488767479
 30
0.0
  0
SPLINE
  5
34B
100
AcDbEntity
  8
5
100
AcDbSpline
 62
7
  6
CONTINUOUS
 70
0
 71
3
 72
8
 73
4
 74
0
 42
0.0000001
 43
0.0000001
 44
0.0000000001
 40
0.0
 40
0.0
 40
0.0
 40
0.0
 40
1.0
 40
1.0
 40
1.0
 40
1.0
 10
123.6884684033
 20
280.7035267491
 30
0.0
 10
123.6475455756
 20
280.6799000845
 30
0.0
 10
123.600680453
 20
280.6659225232
 30
0.0
 10
123.5539824058
 20
280.6586982931
 30
0.0
  0
SPLINE
  5
34C
100
AcDbEntity
  8
5
100
AcDbSpline
 62
7
  6
CONTINUOUS
 70
0
 71
3
 72
9
 73
5
 74
0
 42
0.0000001
 43
0.0000001
 44
0.0000000001
 40
0.0
 40
0.0
 40
0.0
 40
0.0
 40
0.4491660543
 40
1.0
 40
1.0
 40
1.0
 40
1.0
 10
140.3045370175
 20
325.1307424976
 30
0.0
 10
140.1136232513
 20
325.0205189502
 30
0.0
 10
139.7837278972
 20
324.6077865272
 30
0.0
 10
139.7182078458
 20
324.1054192217
 30
0.0
 10
139.7182078458
 20
323.8350732989
 30
0.0
  0
SPLINE
  5
34D
100
AcDbEntity
  8
5
100
AcDbSpline
 62
7
  6
CONTINUOUS
 70
0
 71
3
 72
11
 73
7
 74
0
 42
0.0000001
 43
0.0000001
 44
0.0000000001
 40
0.0
 40
0.0
 40
0.0
 40
0.0
 40
0.2895391946
 40
0.5491157945
 40
0.7822541179
 40
1.0
 40
1.0
 40
1.0
 40
1.0
 10
157.559006574
 20
236.9459576962
 30
0.0
 10
157.8015705142
 20
236.8059165082
 30
0.0
 10
158.2845110154
 20
236.576479357
 30
0.0
 10
159.0264979013
 20
236.3968843783
 30
0.0
 10
159.7230577657
 20
236.4143822817
 30
0.0
 10
160.1420536976
 20
236.5669755118
 30
0.0
 10
160.3244713783
 20
236.6722938672
 30
0.0
  0
SPLINE
  5
34E
100
AcDbEntity
  8
5
100
AcDbSpline
 62
7
  6
CONTINUOUS
 70
0
 71
3
 72
9
 73
5
 74
0
 42
0.0000001
 43
0.0000001
 44
0.0000000001
 40
0.0
 40
0.0
 40
0.0
 40
0.0
 40
0.5207290856
 40
1.0
 40
1.0
 40
1.0
 40
1.0
 10
122.2035203167
 20
259.9429718631
 30
0.0
 10
122.5261060225
 20
258.9693402121
 30
0.0
 10
123.4699113104
 20
257.2032476939
 30
0.0
 10
124.9215188909
 20
255.7887937138
 30
0.0
 10
125.7390689427
 20
255.3167916494
 30
0.0
  0
SPLINE
  5
34F
100
AcDbEntity
  8
5
100
AcDbSpline
 62
7
  6
CONTINUOUS
 70
0
 71
3
 72
11
 73
7
 74
0
 42
0.0000001
 43
0.0000001
 44
0.0000000001
 40
0.0
 40
0.0
 40
0.0
 40
0.0
 40
0.217771313
 40
0.4508970092
 40
0.7103864791
 40
1.0
 40
1.0
 40
1.0
 40
1.0
 10
125.1900754252
 20
363.7205013069
 30
0.0
 10
125.4596007172
 20
363.8759508119
 30
0.0
 10
126.078469247
 20
364.1012358332
 30
0.0
 10
127.1071367427
 20
364.1270528507
 30
0.0
 10
128.203066267
 20
363.8621003488
 30
0.0
 10
128.9162672092
 20
363.523054183
 30
0.0
 10
129.2746175682
 20
363.3161651872
 30
0.0
  0
SPLINE
  5
350
100
AcDbEntity
  8
5
100
AcDbSpline
 62
7
  6
CONTINUOUS
 70
0
 71
3
 72
9
 73
5
 74
0
 42
0.0000001
 43
0.0000001
 44
0.0000000001
 40
0.0
 40
0.0
 40
0.0
 40
0.0
 40
0.4491647435
 40
1.0
 40
1.0
 40
1.0
 40
1.0
 10
116.4610066731
 20
333.0683145415
 30
0.0
 10
116.2586666284
 20
333.1851330864
 30
0.0
 10
115.9090262212
 20
333.6225673858
 30
0.0
 10
115.8395857818
 20
334.1550010292
 30
0.0
 10
115.8395857818
 20
334.4415276148
 30
0.0
  0
SPLINE
  5
351
100
AcDbEntity
  8
5
100
AcDbSpline
 62
7
  6
CONTINUOUS
 70
0
 71
3
 72
9
 73
5
 74
0
 42
0.0000001
 43
0.0000001
 44
0.0000000001
 40
0.0
 40
0.0
 40
0.0
 40
0.0
 40
0.4491668937
 40
1.0
 40
1.0
 40
1.0
 40
1.0
 10
117.3095383413
 20
332.5784256373
 30
0.0
 10
117.5118714754
 20
332.4616112259
 30
0.0
 10
118.0654976277
 20
332.3775379385
 30
0.0
 10
118.5612999989
 20
332.5836074501
 30
0.0
 10
118.8094289636
 20
332.7268639196
 30
0.0
  0
SPLINE
  5
352
100
AcDbEntity
  8
5
100
AcDbSpline
 62
7
  6
CONTINUOUS
 70
0
 71
3
 72
10
 73
6
 74
0
 42
0.0000001
 43
0.0000001
 44
0.0000000001
 40
0.0
 40
0.0
 40
0.0
 40
0.0
 40
0.2498599236
 40
0.5256810031
 40
1.0
 40
1.0
 40
1.0
 40
1.0
 10
120.2245828366
 20
361.0515271164
 30
0.0
 10
120.5320868573
 20
361.2290635858
 30
0.0
 10
121.1263426342
 20
361.6932785936
 30
0.0
 10
122.0941002808
 20
362.7371019387
 30
0.0
 10
122.7147901605
 20
363.6080077727
 30
0.0
 10
123.0868994119
 20
364.1700405771
 30
0.0
  0
SPLINE
  5
353
100
AcDbEntity
  8
5
100
AcDbSpline
 62
7
  6
CONTINUOUS
 70
0
 71
3
 72
9
 73
5
 74
0
 42
0.0000001
 43
0.0000001
 44
0.0000000001
 40
0.0
 40
0.0
 40
0.0
 40
0.0
 40
0.5131172906
 40
1.0
 40
1.0
 40
1.0
 40
1.0
 10
115.9623211696
 20
357.1248968805
 30
0.0
 10
116.1114259649
 20
357.7059223067
 30
0.0
 10
116.7181570696
 20
358.7532696292
 30
0.0
 10
117.6103435239
 20
359.542204355
 30
0.0
 10
118.1032713249
 20
359.8267946548
 30
0.0
  0
SPLINE
  5
354
100
AcDbEntity
  8
5
100
AcDbSpline
 62
7
  6
CONTINUOUS
 70
0
 71
3
 72
9
 73
5
 74
0
 42
0.0000001
 43
0.0000001
 44
0.0000000001
 40
0.0
 40
0.0
 40
0.0
 40
0.0
 40
0.2770689544
 40
1.0
 40
1.0
 40
1.0
 40
1.0
 10
122.2035203167
 20
333.2167104968
 30
0.0
 10
122.2035203167
 20
333.3130056884
 30
0.0
 10
122.1859416198
 20
333.6592238137
 30
0.0
 10
122.0891229362
 20
334.0094029886
 30
0.0
 10
121.9558003367
 20
334.2223673967
 30
0.0
  0
SPLINE
  5
355
100
AcDbEntity
  8
5
100
AcDbSpline
 62
7
  6
CONTINUOUS
 70
0
 71
3
 72
8
 73
4
 74
0
 42
0.0000001
 43
0.0000001
 44
0.0000000001
 40
0.0
 40
0.0
 40
0.0
 40
0.0
 40
1.0
 40
1.0
 40
1.0
 40
1.0
 10
121.9558003367
 20
334.2223673967
 30
0.0
 10
121.910587725
 20
334.294588289
 30
0.0
 10
121.8576785671
 20
334.3627052931
 30
0.0
 10
121.7977113663
 20
334.4232360487
 30
0.0
  0
SPLINE
  5
356
100
AcDbEntity
  8
5
100
AcDbSpline
 62
7
  6
CONTINUOUS
 70
0
 71
3
 72
11
 73
7
 74
0
 42
0.0000001
 43
0.0000001
 44
0.0000000001
 40
0.0
 40
0.0
 40
0.0
 40
0.0
 40
0.2897033281
 40
0.5490895198
 40
0.7822165953
 40
1.0
 40
1.0
 40
1.0
 40
1.0
 10
162.4866676675
 20
238.6173259131
 30
0.0
 10
162.4866676675
 20
238.2642329844
 30
0.0
 10
162.4331335846
 20
237.5927250685
 30
0.0
 10
162.1611809352
 20
236.6701083817
 30
0.0
 10
161.7033029925
 20
235.9214571157
 30
0.0
 10
161.2732166243
 20
235.5598840747
 30
0.0
 10
161.0433416564
 20
235.4271665938
 30
0.0
  0
SPLINE
  5
357
100
AcDbEntity
  8
5
100
AcDbSpline
 62
7
  6
CONTINUOUS
 70
0
 71
3
 72
11
 73
7
 74
0
 42
0.0000001
 43
0.0000001
 44
0.0000000001
 40
0.0
 40
0.0
 40
0.0
 40
0.0
 40
0.237239768
 40
0.4999988393
 40
0.7627585384
 40
1.0
 40
1.0
 40
1.0
 40
1.0
 10
157.5590065741
 20
307.4917665361
 30
0.0
 10
158.2585956267
 20
307.0878677457
 30
0.0
 10
159.5824727276
 20
305.9736578281
 30
0.0
 10
161.1276172255
 20
303.8621710772
 30
0.0
 10
162.1836595565
 20
301.4682929027
 30
0.0
 10
162.4866676675
 20
299.7646715926
 30
0.0
 10
162.4866676675
 20
298.9568545391
 30
0.0
  0
SPLINE
  5
358
100
AcDbEntity
  8
5
100
AcDbSpline
 62
7
  6
CONTINUOUS
 70
0
 71
3
 72
11
 73
7
 74
0
 42
0.0000001
 43
0.0000001
 44
0.0000000001
 40
0.0
 40
0.0
 40
0.0
 40
0.0
 40
0.2372413576
 40
0.5000010231
 40
0.762760128
 40
1.0
 40
1.0
 40
1.0
 40
1.0
 10
122.2035203167
 20
240.7023780611
 30
0.0
 10
122.2035203167
 20
239.5431769037
 30
0.0
 10
122.6383307163
 20
237.0985143274
 30
0.0
 10
124.1537302507
 20
233.6633462961
 30
0.0
 10
126.3709823657
 20
230.6334034945
 30
0.0
 10
128.2707205262
 20
229.03453346
 30
0.0
 10
129.2746175682
 20
228.4549463446
 30
0.0
  0
SPLINE
  5
359
100
AcDbEntity
  8
5
100
AcDbSpline
 62
7
  6
CONTINUOUS
 70
0
 71
3
 72
9
 73
5
 74
0
 42
0.0000001
 43
0.0000001
 44
0.0000000001
 40
0.0
 40
0.0
 40
0.0
 40
0.0
 40
0.5508341095
 40
1.0
 40
1.0
 40
1.0
 40
1.0
 10
139.7182078458
 20
323.5492974529
 30
0.0
 10
139.7182078458
 20
323.2465920948
 30
0.0
 10
139.6448452332
 20
322.6840934423
 30
0.0
 10
139.2754627598
 20
322.2219584566
 30
0.0
 10
139.0616973778
 20
322.0985417424
 30
0.0
  0
SPLINE
  5
35A
100
AcDbEntity
  8
5
100
AcDbSpline
 62
7
  6
CONTINUOUS
 70
0
 71
3
 72
9
 73
5
 74
0
 42
0.0000001
 43
0.0000001
 44
0.0000000001
 40
0.0
 40
0.0
 40
0.0
 40
0.0
 40
0.5508341095
 40
1.0
 40
1.0
 40
1.0
 40
1.0
 10
162.275008078
 20
315.7112077325
 30
0.0
 10
162.275008078
 20
315.4085023744
 30
0.0
 10
162.2016454654
 20
314.8460037219
 30
0.0
 10
161.832262992
 20
314.3838687362
 30
0.0
 10
161.61849761
 20
314.2604520219
 30
0.0
  0
SPLINE
  5
35B
100
AcDbEntity
  8
5
100
AcDbSpline
 62
7
  6
CONTINUOUS
 70
0
 71
3
 72
11
 73
7
 74
0
 42
0.0000001
 43
0.0000001
 44
0.0000000001
 40
0.0
 40
0.0
 40
0.0
 40
0.0
 40
0.237239768
 40
0.4999988393
 40
0.7627585384
 40
1.0
 40
1.0
 40
1.0
 40
1.0
 10
156.4983419863
 20
347.5988961382
 30
0.0
 10
157.3184658304
 20
347.1254081279
 30
0.0
 10
158.8704386251
 20
345.8192268527
 30
0.0
 10
160.6818017968
 20
343.3439442216
 30
0.0
 10
161.9197935762
 20
340.5376159015
 30
0.0
 10
162.275008078
 20
338.5404713601
 30
0.0
 10
162.275008078
 20
337.5934725116
 30
0.0
  0
SPLINE
  5
35C
100
AcDbEntity
  8
5
100
AcDbSpline
 62
7
  6
CONTINUOUS
 70
0
 71
3
 72
9
 73
5
 74
0
 42
0.0000001
 43
0.0000001
 44
0.0000000001
 40
0.0
 40
0.0
 40
0.0
 40
0.0
 40
0.2828561153
 40
1.0
 40
1.0
 40
1.0
 40
1.0
 10
178.0651650516
 20
203.5522739162
 30
0.0
 10
178.3897261659
 20
203.3648927087
 30
0.0
 10
179.5676559164
 20
202.7714539007
 30
0.0
 10
180.9562985784
 20
202.4864017591
 30
0.0
 10
181.8936081156
 20
202.6422399624
 30
0.0
  0
SPLINE
  5
35D
100
AcDbEntity
  8
5
100
AcDbSpline
 62
7
  6
CONTINUOUS
 70
0
 71
3
 72
9
 73
5
 74
0
 42
0.0000001
 43
0.0000001
 44
0.0000000001
 40
0.0
 40
0.0
 40
0.0
 40
0.0
 40
0.4668073701
 40
1.0
 40
1.0
 40
1.0
 40
1.0
 10
334.3074243888
 20
433.7066252049
 30
0.0
 10
334.1398281029
 20
433.8360707003
 30
0.0
 10
333.8469676465
 20
434.2029705382
 30
0.0
 10
333.7138776619
 20
434.6455081669
 30
0.0
 10
333.6729706116
 20
434.883904963
 30
0.0
  0
SPLINE
  5
35E
100
AcDbEntity
  8
5
100
AcDbSpline
 62
7
  6
CONTINUOUS
 70
0
 71
3
 72
11
 73
7
 74
0
 42
0.0000001
 43
0.0000001
 44
0.0000000001
 40
0.0
 40
0.0
 40
0.0
 40
0.0
 40
0.2253733904
 40
0.4875934999
 40
0.7566900686
 40
1.0
 40
1.0
 40
1.0
 40
1.0
 10
333.6729706116
 20
434.883904963
 30
0.0
 10
333.591510906
 20
435.3586332241
 30
0.0
 10
333.6659291034
 20
436.4262057046
 30
0.0
 10
334.2324445751
 20
437.9560428258
 30
0.0
 10
335.1658979082
 20
439.3411021682
 30
0.0
 10
336.0061198488
 20
440.0764831691
 30
0.0
 10
336.4564540272
 20
440.3364821762
 30
0.0
  0
SPLINE
  5
35F
100
AcDbEntity
  8
5
100
AcDbSpline
 62
7
  6
CONTINUOUS
 70
0
 71
3
 72
9
 73
5
 74
0
 42
0.0000001
 43
0.0000001
 44
0.0000000001
 40
0.0
 40
0.0
 40
0.0
 40
0.0
 40
0.2250591993
 40
1.0
 40
1.0
 40
1.0
 40
1.0
 10
334.0140270208
 20
434.0353672035
 30
0.0
 10
334.1222428275
 20
434.0278604877
 30
0.0
 10
334.6067213176
 20
434.0426169456
 30
0.0
 10
335.0723178604
 20
434.2300686825
 30
0.0
 10
335.3957894394
 20
434.416823971
 30
0.0
  0
SPLINE
  5
360
100
AcDbEntity
  8
5
100
AcDbSpline
 62
7
  6
CONTINUOUS
 70
0
 71
3
 72
8
 73
4
 74
0
 42
0.0000001
 43
0.0000001
 44
0.0000000001
 40
0.0
 40
0.0
 40
0.0
 40
0.0
 40
1.0
 40
1.0
 40
1.0
 40
1.0
 10
335.9404383794
 20
453.8978792724
 30
0.0
 10
335.8937964969
 20
453.8067397292
 30
0.0
 10
335.8571969193
 20
453.7100627639
 30
0.0
 10
335.8292332791
 20
453.6115746105
 30
0.0
  0
SPLINE
  5
361
100
AcDbEntity
  8
5
100
AcDbSpline
 62
7
  6
CONTINUOUS
 70
0
 71
3
 72
9
 73
5
 74
0
 42
0.0000001
 43
0.0000001
 44
0.0000000001
 40
0.0
 40
0.0
 40
0.0
 40
0.0
 40
0.2366135428
 40
1.0
 40
1.0
 40
1.0
 40
1.0
 10
335.8292332791
 20
453.6115746105
 30
0.0
 10
335.8157498696
 20
453.5640859399
 30
0.0
 10
335.767014113
 20
453.361058807
 30
0.0
 10
335.7492442072
 20
453.1512302604
 30
0.0
 10
335.7492442072
 20
452.9919615391
 30
0.0
  0
SPLINE
  5
362
100
AcDbEntity
  8
5
100
AcDbSpline
 62
7
  6
CONTINUOUS
 70
0
 71
3
 72
9
 73
5
 74
0
 42
0.0000001
 43
0.0000001
 44
0.0000000001
 40
0.0
 40
0.0
 40
0.0
 40
0.0
 40
0.4647623841
 40
1.0
 40
1.0
 40
1.0
 40
1.0
 10
335.3099881912
 20
453.7528423679
 30
0.0
 10
335.4646237488
 20
453.8419750616
 30
0.0
 10
335.8556158237
 20
453.9392881739
 30
0.0
 10
336.2406721655
 20
453.8539729694
 30
0.0
 10
336.4335015198
 20
453.7827866846
 30
0.0
  0
SPLINE
  5
363
100
AcDbEntity
  8
5
100
AcDbSpline
 62
7
  6
CONTINUOUS
 70
0
 71
3
 72
11
 73
7
 74
0
 42
0.0000001
 43
0.0000001
 44
0.0000000001
 40
0.0
 40
0.0
 40
0.0
 40
0.0
 40
0.2253715532
 40
0.4875906548
 40
0.756687809
 40
1.0
 40
1.0
 40
1.0
 40
1.0
 10
336.4335015198
 20
453.7827866846
 30
0.0
 10
336.77239288
 20
453.657679089
 30
0.0
 10
337.4378949767
 20
453.2090106236
 30
0.0
 10
338.2191088477
 20
452.2673629807
 30
0.0
 10
338.7686861718
 20
451.1416667497
 30
0.0
 10
338.9312468022
 20
450.32015455
 30
0.0
 10
338.9312468022
 20
449.9301507812
 30
0.0
  0
SPLINE
  5
364
100
AcDbEntity
  8
5
100
AcDbSpline
 62
7
  6
CONTINUOUS
 70
0
 71
3
 72
9
 73
5
 74
0
 42
0.0000001
 43
0.0000001
 44
0.0000000001
 40
0.0
 40
0.0
 40
0.0
 40
0.0
 40
0.2260684384
 40
1.0
 40
1.0
 40
1.0
 40
1.0
 10
334.1120499003
 20
450.4944249797
 30
0.0
 10
334.0305244774
 20
450.3617379843
 30
0.0
 10
333.7237386416
 20
449.7413626106
 30
0.0
 10
333.6279150317
 20
449.0343034759
 30
0.0
 10
333.6279150317
 20
448.5011668828
 30
0.0
  0
SPLINE
  5
365
100
AcDbEntity
  8
5
100
AcDbSpline
 62
7
  6
CONTINUOUS
 70
0
 71
3
 72
8
 73
4
 74
0
 42
0.0000001
 43
0.0000001
 44
0.0000000001
 40
0.0
 40
0.0
 40
0.0
 40
0.0
 40
1.0
 40
1.0
 40
1.0
 40
1.0
 10
236.9450768588
 20
511.0515849053
 30
0.0
 10
236.8984349764
 20
510.9604453621
 30
0.0
 10
236.8618353987
 20
510.8637683967
 30
0.0
 10
236.8338717585
 20
510.7652802433
 30
0.0
  0
SPLINE
  5
366
100
AcDbEntity
  8
5
100
AcDbSpline
 62
7
  6
CONTINUOUS
 70
0
 71
3
 72
9
 73
5
 74
0
 42
0.0000001
 43
0.0000001
 44
0.0000000001
 40
0.0
 40
0.0
 40
0.0
 40
0.0
 40
0.2366135428
 40
1.0
 40
1.0
 40
1.0
 40
1.0
 10
236.8338717585
 20
510.7652802433
 30
0.0
 10
236.820388349
 20
510.7177915728
 30
0.0
 10
236.7716525924
 20
510.5147644398
 30
0.0
 10
236.7538826866
 20
510.3049358932
 30
0.0
 10
236.7538826866
 20
510.145667172
 30
0.0
  0
SPLINE
  5
367
100
AcDbEntity
  8
5
100
AcDbSpline
 62
7
  6
CONTINUOUS
 70
0
 71
3
 72
9
 73
5
 74
0
 42
0.0000001
 43
0.0000001
 44
0.0000000001
 40
0.0
 40
0.0
 40
0.0
 40
0.0
 40
0.4647623841
 40
1.0
 40
1.0
 40
1.0
 40
1.0
 10
236.3146266706
 20
510.9065480007
 30
0.0
 10
236.4692622282
 20
510.9956806944
 30
0.0
 10
236.8602543031
 20
511.0929938067
 30
0.0
 10
237.2453106449
 20
511.0076786022
 30
0.0
 10
237.4381399992
 20
510.9364923175
 30
0.0
  0
SPLINE
  5
368
100
AcDbEntity
  8
5
100
AcDbSpline
 62
7
  6
CONTINUOUS
 70
0
 71
3
 72
11
 73
7
 74
0
 42
0.0000001
 43
0.0000001
 44
0.0000000001
 40
0.0
 40
0.0
 40
0.0
 40
0.0
 40
0.2253715532
 40
0.4875906548
 40
0.756687809
 40
1.0
 40
1.0
 40
1.0
 40
1.0
 10
237.4381399992
 20
510.9364923175
 30
0.0
 10
237.7770313594
 20
510.8113847219
 30
0.0
 10
238.4425334562
 20
510.3627162564
 30
0.0
 10
239.2237473271
 20
509.4210686135
 30
0.0
 10
239.7733246512
 20
508.2953723826
 30
0.0
 10
239.9358852816
 20
507.4738601828
 30
0.0
 10
239.9358852816
 20
507.083856414
 30
0.0
  0
SPLINE
  5
369
100
AcDbEntity
  8
5
100
AcDbSpline
 62
7
  6
CONTINUOUS
 70
0
 71
3
 72
9
 73
5
 74
0
 42
0.0000001
 43
0.0000001
 44
0.0000000001
 40
0.0
 40
0.0
 40
0.0
 40
0.0
 40
0.2260684384
 40
1.0
 40
1.0
 40
1.0
 40
1.0
 10
235.1166883797
 20
507.6481306125
 30
0.0
 10
235.0351629568
 20
507.5154436172
 30
0.0
 10
234.728377121
 20
506.8950682435
 30
0.0
 10
234.6325535111
 20
506.1880091088
 30
0.0
 10
234.6325535111
 20
505.6548725156
 30
0.0
  0
SPLINE
  5
36A
100
AcDbEntity
  8
5
100
AcDbSpline
 62
7
  6
CONTINUOUS
 70
0
 71
3
 72
9
 73
5
 74
0
 42
0.0000001
 43
0.0000001
 44
0.0000000001
 40
0.0
 40
0.0
 40
0.0
 40
0.0
 40
0.4668073701
 40
1.0
 40
1.0
 40
1.0
 40
1.0
 10
215.1594357015
 20
502.4951923416
 30
0.0
 10
214.9918394157
 20
502.6246378369
 30
0.0
 10
214.6989789593
 20
502.9915376749
 30
0.0
 10
214.5658889746
 20
503.4340753036
 30
0.0
 10
214.5249819244
 20
503.6724720997
 30
0.0
  0
SPLINE
  5
36B
100
AcDbEntity
  8
5
100
AcDbSpline
 62
7
  6
CONTINUOUS
 70
0
 71
3
 72
11
 73
7
 74
0
 42
0.0000001
 43
0.0000001
 44
0.0000000001
 40
0.0
 40
0.0
 40
0.0
 40
0.0
 40
0.2253733904
 40
0.4875934999
 40
0.7566900686
 40
1.0
 40
1.0
 40
1.0
 40
1.0
 10
214.5249819244
 20
503.6724720997
 30
0.0
 10
214.4435222187
 20
504.1472003608
 30
0.0
 10
214.5179404161
 20
505.2147728412
 30
0.0
 10
215.0844558879
 20
506.7446099625
 30
0.0
 10
216.0179092209
 20
508.1296693049
 30
0.0
 10
216.8581311615
 20
508.8650503058
 30
0.0
 10
217.3084653399
 20
509.1250493129
 30
0.0
  0
SPLINE
  5
36C
100
AcDbEntity
  8
5
100
AcDbSpline
 62
7
  6
CONTINUOUS
 70
0
 71
3
 72
9
 73
5
 74
0
 42
0.0000001
 43
0.0000001
 44
0.0000000001
 40
0.0
 40
0.0
 40
0.0
 40
0.0
 40
0.2250591993
 40
1.0
 40
1.0
 40
1.0
 40
1.0
 10
214.8660383335
 20
502.8239343402
 30
0.0
 10
214.9742541402
 20
502.8164276243
 30
0.0
 10
215.4587326303
 20
502.8311840822
 30
0.0
 10
215.9243291732
 20
503.0186358192
 30
0.0
 10
216.2478007522
 20
503.2053911076
 30
0.0
  0
SPLINE
  5
36D
100
AcDbEntity
  8
5
100
AcDbSpline
 62
7
  6
CONTINUOUS
 70
0
 71
3
 72
9
 73
5
 74
0
 42
0.0000001
 43
0.0000001
 44
0.0000000001
 40
0.0
 40
0.0
 40
0.0
 40
0.0
 40
0.5194600545
 40
1.0
 40
1.0
 40
1.0
 40
1.0
 10
337.6407556047
 20
150.4147563378
 30
0.0
 10
338.0331256172
 20
149.9955040571
 30
0.0
 10
338.6417867007
 20
149.0489886151
 30
0.0
 10
338.9312468022
 20
147.9472007468
 30
0.0
 10
338.9312468022
 20
147.4160052347
 30
0.0
  0
SPLINE
  5
36E
100
AcDbEntity
  8
5
100
AcDbSpline
 62
7
  6
CONTINUOUS
 70
0
 71
3
 72
11
 73
7
 74
0
 42
0.0000001
 43
0.0000001
 44
0.0000000001
 40
0.0
 40
0.0
 40
0.0
 40
0.0
 40
0.2177833598
 40
0.4509104088
 40
0.7102966711
 40
1.0
 40
1.0
 40
1.0
 40
1.0
 10
57.0992410129
 20
404.0889212613
 30
0.0
 10
56.7693750894
 20
403.8984741593
 30
0.0
 10
56.1522095047
 20
403.3796242834
 30
0.0
 10
55.4951635936
 20
402.3053243014
 30
0.0
 10
55.1049169618
 20
400.9813873306
 30
0.0
 10
55.0280964278
 20
400.0177865023
 30
0.0
 10
55.0280964278
 20
399.5111050586
 30
0.0
  0
SPLINE
  5
36F
100
AcDbEntity
  8
5
100
AcDbSpline
 62
7
  6
CONTINUOUS
 70
0
 71
3
 72
9
 73
5
 74
0
 42
0.0000001
 43
0.0000001
 44
0.0000000001
 40
0.0
 40
0.0
 40
0.0
 40
0.0
 40
0.452537086
 40
1.0
 40
1.0
 40
1.0
 40
1.0
 10
122.5572022468
 20
326.35416217
 30
0.0
 10
123.0199203016
 20
326.5386058302
 30
0.0
 10
124.1806406711
 20
326.6031893236
 30
0.0
 10
125.2171884863
 20
326.1639014951
 30
0.0
 10
125.7390689424
 20
325.8626004896
 30
0.0
  0
SPLINE
  5
370
100
AcDbEntity
  8
5
100
AcDbSpline
 62
7
  6
CONTINUOUS
 70
0
 71
3
 72
9
 73
5
 74
0
 42
0.0000001
 43
0.0000001
 44
0.0000000001
 40
0.0
 40
0.0
 40
0.0
 40
0.0
 40
0.2277503229
 40
1.0
 40
1.0
 40
1.0
 40
1.0
 10
123.8777147627
 20
293.9136611117
 30
0.0
 10
123.877713324
 20
293.8977723195
 30
0.0
 10
123.8674604973
 20
293.8276915489
 30
0.0
 10
123.8167860559
 20
293.7697029335
 30
0.0
 10
123.7736624214
 20
293.7374089864
 30
0.0
  0
SPLINE
  5
371
100
AcDbEntity
  8
5
100
AcDbSpline
 62
7
  6
CONTINUOUS
 70
0
 71
3
 72
9
 73
5
 74
0
 42
0.0000001
 43
0.0000001
 44
0.0000000001
 40
0.0
 40
0.0
 40
0.0
 40
0.0
 40
0.221067663
 40
1.0
 40
1.0
 40
1.0
 40
1.0
 10
123.7763139459
 20
280.8259989354
 30
0.0
 10
123.7763282756
 20
280.8145672576
 30
0.0
 10
123.7671355766
 20
280.7624840769
 30
0.0
 10
123.7233515867
 20
280.7236664442
 30
0.0
 10
123.6884684033
 20
280.7035267491
 30
0.0
  0
SPLINE
  5
372
100
AcDbEntity
  8
5
100
AcDbSpline
 62
7
  6
CONTINUOUS
 70
0
 71
3
 72
9
 73
5
 74
0
 42
0.0000001
 43
0.0000001
 44
0.0000000001
 40
0.0
 40
0.0
 40
0.0
 40
0.0
 40
0.7639616603
 40
1.0
 40
1.0
 40
1.0
 40
1.0
 10
155.6883754537
 20
261.0304525435
 30
0.0
 10
155.6261519823
 20
261.0035543416
 30
0.0
 10
155.5286862732
 20
260.9991985384
 30
0.0
 10
155.4452153866
 20
261.0307737284
 30
0.0
 10
155.4270769536
 20
261.0412457207
 30
0.0
  0
SPLINE
  5
373
100
AcDbEntity
  8
5
100
AcDbSpline
 62
7
  6
CONTINUOUS
 70
0
 71
3
 72
9
 73
5
 74
0
 42
0.0000001
 43
0.0000001
 44
0.0000000001
 40
0.0
 40
0.0
 40
0.0
 40
0.0
 40
0.2951766768
 40
1.0
 40
1.0
 40
1.0
 40
1.0
 10
154.9259266749
 20
261.3305784235
 30
0.0
 10
154.9171618168
 20
261.3356387022
 30
0.0
 10
154.8889949116
 20
261.3545064659
 30
0.0
 10
154.8673315132
 20
261.388060954
 30
0.0
 10
154.8673618035
 20
261.4122272275
 30
0.0
  0
SPLINE
  5
374
100
AcDbEntity
  8
5
100
AcDbSpline
 62
7
  6
CONTINUOUS
 70
0
 71
3
 72
9
 73
5
 74
0
 42
0.0000001
 43
0.0000001
 44
0.0000000001
 40
0.0
 40
0.0
 40
0.0
 40
0.0
 40
0.2363752047
 40
1.0
 40
1.0
 40
1.0
 40
1.0
 10
159.5668435427
 20
262.439050342
 30
0.0
 10
159.5210384904
 20
262.4654953039
 30
0.0
 10
159.3103767012
 20
262.5446015268
 30
0.0
 10
159.0641065902
 20
262.5330265914
 30
0.0
 10
158.9080049003
 20
262.4635440603
 30
0.0
  0
SPLINE
  5
375
100
AcDbEntity
  8
5
100
AcDbSpline
 62
7
  6
CONTINUOUS
 70
0
 71
3
 72
9
 73
5
 74
0
 42
0.0000001
 43
0.0000001
 44
0.0000000001
 40
0.0
 40
0.0
 40
0.0
 40
0.0
 40
0.262962128
 40
1.0
 40
1.0
 40
1.0
 40
1.0
 10
155.6567615145
 20
273.4486715173
 30
0.0
 10
155.6311227877
 20
273.4526377194
 30
0.0
 10
155.5329383381
 20
273.4598171209
 30
0.0
 10
155.429957851
 20
273.4402003889
 30
0.0
 10
155.3669840899
 20
273.403842688
 30
0.0
  0
SPLINE
  5
376
100
AcDbEntity
  8
5
100
AcDbSpline
 62
7
  6
CONTINUOUS
 70
0
 71
3
 72
8
 73
4
 74
0
 42
0.0000001
 43
0.0000001
 44
0.0000000001
 40
0.0
 40
0.0
 40
0.0
 40
0.0
 40
1.0
 40
1.0
 40
1.0
 40
1.0
 10
155.3669840899
 20
273.403842688
 30
0.0
 10
155.3352856156
 20
273.3855416746
 30
0.0
 10
155.3047474742
 20
273.3593987612
 30
0.0
 10
155.2893389363
 20
273.3261978978
 30
0.0
  0
SPLINE
  5
377
100
AcDbEntity
  8
5
100
AcDbSpline
 62
7
  6
CONTINUOUS
 70
0
 71
3
 72
9
 73
5
 74
0
 42
0.0000001
 43
0.0000001
 44
0.0000000001
 40
0.0
 40
0.0
 40
0.0
 40
0.0
 40
0.5508341095
 40
1.0
 40
1.0
 40
1.0
 40
1.0
 10
347.0629998095
 20
139.4552006261
 30
0.0
 10
347.0629998095
 20
139.1686749452
 30
0.0
 10
346.9935584469
 20
138.6362419867
 30
0.0
 10
346.6439195594
 20
138.1988082319
 30
0.0
 10
346.4415799906
 20
138.081988172
 30
0.0
  0
SPLINE
  5
378
100
AcDbEntity
  8
5
100
AcDbSpline
 62
7
  6
CONTINUOUS
 70
0
 71
3
 72
11
 73
7
 74
0
 42
0.0000001
 43
0.0000001
 44
0.0000000001
 40
0.0
 40
0.0
 40
0.0
 40
0.0
 40
0.2504659693
 40
0.5264586551
 40
0.787295075
 40
1.0
 40
1.0
 40
1.0
 40
1.0
 10
234.6325535111
 20
505.6548725156
 30
0.0
 10
234.6325535111
 20
504.7915625536
 30
0.0
 10
235.0266943754
 20
502.9776492767
 30
0.0
 10
236.3196282432
 20
500.5590021704
 30
0.0
 10
238.1014072627
 20
498.6532121381
 30
0.0
 10
239.6174868202
 20
497.8713213885
 30
0.0
 10
240.3423922372
 20
497.7616499587
 30
0.0
  0
SPLINE
  5
379
100
AcDbEntity
  8
5
100
AcDbSpline
 62
7
  6
CONTINUOUS
 70
0
 71
3
 72
9
 73
5
 74
0
 42
0.0000001
 43
0.0000001
 44
0.0000000001
 40
0.0
 40
0.0
 40
0.0
 40
0.0
 40
0.2609703528
 40
1.0
 40
1.0
 40
1.0
 40
1.0
 10
240.3423922372
 20
497.7616499587
 30
0.0
 10
240.4135958996
 20
497.7508775085
 30
0.0
 10
240.6876895313
 20
497.7190442884
 30
0.0
 10
240.9671300597
 20
497.7270858929
 30
0.0
 10
241.1683850157
 20
497.7600261588
 30
0.0
  0
SPLINE
  5
37A
100
AcDbEntity
  8
5
100
AcDbSpline
 62
7
  6
CONTINUOUS
 70
0
 71
3
 72
8
 73
4
 74
0
 42
0.0000001
 43
0.0000001
 44
0.0000000001
 40
0.0
 40
0.0
 40
0.0
 40
0.0
 40
1.0
 40
1.0
 40
1.0
 40
1.0
 10
241.1683850157
 20
497.7600261588
 30
0.0
 10
241.2899881522
 20
497.7799294681
 30
0.0
 10
241.4104674751
 20
497.8098210473
 30
0.0
 10
241.5268733313
 20
497.8502331886
 30
0.0
  0
SPLINE
  5
37B
100
AcDbEntity
  8
5
100
AcDbSpline
 62
7
  6
CONTINUOUS
 70
0
 71
3
 72
9
 73
5
 74
0
 42
0.0000001
 43
0.0000001
 44
0.0000000001
 40
0.0
 40
0.0
 40
0.0
 40
0.0
 40
0.5506799315
 40
1.0
 40
1.0
 40
1.0
 40
1.0
 10
236.7538826866
 20
509.5292062127
 30
0.0
 10
236.7538826866
 20
509.3382400994
 30
0.0
 10
236.7076561844
 20
508.9832347697
 30
0.0
 10
236.4745016245
 20
508.6917127513
 30
0.0
 10
236.3396146311
 20
508.6137113598
 30
0.0
  0
SPLINE
  5
37C
100
AcDbEntity
  8
5
100
AcDbSpline
 62
7
  6
CONTINUOUS
 70
0
 71
3
 72
9
 73
5
 74
0
 42
0.0000001
 43
0.0000001
 44
0.0000000001
 40
0.0
 40
0.0
 40
0.0
 40
0.0
 40
0.474654344
 40
1.0
 40
1.0
 40
1.0
 40
1.0
 10
333.6279150317
 20
448.5011668828
 30
0.0
 10
333.6279150317
 20
447.7481572639
 30
0.0
 10
333.9315871279
 20
446.1616776278
 30
0.0
 10
334.6167712209
 20
444.7139174478
 30
0.0
 10
335.058489512
 20
444.0071730992
 30
0.0
  0
SPLINE
  5
37D
100
AcDbEntity
  8
5
100
AcDbSpline
 62
7
  6
CONTINUOUS
 70
0
 71
3
 72
9
 73
5
 74
0
 42
0.0000001
 43
0.0000001
 44
0.0000000001
 40
0.0
 40
0.0
 40
0.0
 40
0.0
 40
0.5506799315
 40
1.0
 40
1.0
 40
1.0
 40
1.0
 10
335.7492442072
 20
452.3755005799
 30
0.0
 10
335.7492442072
 20
452.1845344665
 30
0.0
 10
335.703017705
 20
451.8295291368
 30
0.0
 10
335.4698631451
 20
451.5380071184
 30
0.0
 10
335.3349761517
 20
451.4600057269
 30
0.0
  0
SPLINE
  5
37E
100
AcDbEntity
  8
5
100
AcDbSpline
 62
7
  6
CONTINUOUS
 70
0
 71
3
 72
9
 73
5
 74
0
 42
0.0000001
 43
0.0000001
 44
0.0000000001
 40
0.0
 40
0.0
 40
0.0
 40
0.0
 40
0.5508326585
 40
1.0
 40
1.0
 40
1.0
 40
1.0
 10
343.8810148782
 20
137.6180494075
 30
0.0
 10
344.1291475743
 20
137.4747931695
 30
0.0
 10
344.6249576219
 20
137.2687254993
 30
0.0
 10
345.1785894317
 20
137.3528044889
 30
0.0
 10
345.3809242328
 20
137.46962194
 30
0.0
  0
SPLINE
  5
37F
100
AcDbEntity
  8
5
100
AcDbSpline
 62
7
  6
CONTINUOUS
 70
0
 71
3
 72
9
 73
5
 74
0
 42
0.0000001
 43
0.0000001
 44
0.0000000001
 40
0.0
 40
0.0
 40
0.0
 40
0.0
 40
0.286031751
 40
1.0
 40
1.0
 40
1.0
 40
1.0
 10
120.9307404753
 20
333.9515963812
 30
0.0
 10
121.0372021149
 20
334.0130616706
 30
0.0
 10
121.4194661266
 20
334.2035386442
 30
0.0
 10
121.8817503788
 20
334.2814382284
 30
0.0
 10
122.1785114036
 20
334.2033998485
 30
0.0
  0
SPLINE
  5
380
100
AcDbEntity
  8
5
100
AcDbSpline
 62
7
  6
CONTINUOUS
 70
0
 71
3
 72
8
 73
4
 74
0
 42
0.0000001
 43
0.0000001
 44
0.0000000001
 40
0.0
 40
0.0
 40
0.0
 40
0.0
 40
1.0
 40
1.0
 40
1.0
 40
1.0
 10
122.1785114036
 20
334.2033998485
 30
0.0
 10
122.2663536657
 20
334.1803002254
 30
0.0
 10
122.3519706938
 20
334.1454482836
 30
0.0
 10
122.4306310956
 20
334.1000346647
 30
0.0
  0
SPLINE
  5
381
100
AcDbEntity
  8
5
100
AcDbSpline
 62
7
  6
CONTINUOUS
 70
0
 71
3
 72
9
 73
5
 74
0
 42
0.0000001
 43
0.0000001
 44
0.0000000001
 40
0.0
 40
0.0
 40
0.0
 40
0.0
 40
0.5508439256
 40
1.0
 40
1.0
 40
1.0
 40
1.0
 10
336.4564540272
 20
440.3364821762
 30
0.0
 10
336.7873031534
 20
440.5274968681
 30
0.0
 10
337.4483070773
 20
440.8021364072
 30
0.0
 10
338.1866706736
 20
440.6903875399
 30
0.0
 10
338.4563347777
 20
440.5344461735
 30
0.0
  0
SPLINE
  5
382
100
AcDbEntity
  8
5
100
AcDbSpline
 62
7
  6
CONTINUOUS
 70
0
 71
3
 72
11
 73
7
 74
0
 42
0.0000001
 43
0.0000001
 44
0.0000000001
 40
0.0
 40
0.0
 40
0.0
 40
0.0
 40
0.2372416196
 40
0.5000015492
 40
0.7627606319
 40
1.0
 40
1.0
 40
1.0
 40
1.0
 10
296.5050783927
 20
413.5964003423
 30
0.0
 10
296.5050783927
 20
414.7556021207
 30
0.0
 10
296.9398852136
 20
417.2002657915
 30
0.0
 10
298.4552710958
 20
420.6354396498
 30
0.0
 10
300.6725033198
 20
423.6653921248
 30
0.0
 10
302.5722266058
 20
425.2642732584
 30
0.0
 10
303.5761167648
 20
425.8438660523
 30
0.0
  0
SPLINE
  5
383
100
AcDbEntity
  8
5
100
AcDbSpline
 62
7
  6
CONTINUOUS
 70
0
 71
3
 72
11
 73
7
 74
0
 42
0.0000001
 43
0.0000001
 44
0.0000000001
 40
0.0
 40
0.0
 40
0.0
 40
0.0
 40
0.2430013671
 40
0.5117760904
 40
0.7740446424
 40
1.0
 40
1.0
 40
1.0
 40
1.0
 10
335.3957894394
 20
434.416823971
 30
0.0
 10
335.8438831121
 20
434.6755294292
 30
0.0
 10
336.680475788
 20
435.4064324376
 30
0.0
 10
337.6121125445
 20
436.7835811146
 30
0.0
 10
338.180961296
 20
438.306697481
 30
0.0
 10
338.260596889
 20
439.3706421113
 30
0.0
 10
338.183266883
 20
439.8455046632
 30
0.0
  0
SPLINE
  5
384
100
AcDbEntity
  8
5
100
AcDbSpline
 62
7
  6
CONTINUOUS
 70
0
 71
3
 72
9
 73
5
 74
0
 42
0.0000001
 43
0.0000001
 44
0.0000000001
 40
0.0
 40
0.0
 40
0.0
 40
0.0
 40
0.268460404
 40
1.0
 40
1.0
 40
1.0
 40
1.0
 10
338.183266883
 20
439.8455046632
 30
0.0
 10
338.1704312507
 20
439.9243247927
 30
0.0
 10
338.110447325
 20
440.215471198
 30
0.0
 10
337.9971177038
 20
440.4981768249
 30
0.0
 10
337.8785720135
 20
440.6806621863
 30
0.0
  0
SPLINE
  5
385
100
AcDbEntity
  8
5
100
AcDbSpline
 62
7
  6
CONTINUOUS
 70
0
 71
3
 72
9
 73
5
 74
0
 42
0.0000001
 43
0.0000001
 44
0.0000000001
 40
0.0
 40
0.0
 40
0.0
 40
0.0
 40
0.275855737
 40
1.0
 40
1.0
 40
1.0
 40
1.0
 10
242.0572144571
 20
500.1436172306
 30
0.0
 10
242.0572144571
 20
499.95805848
 30
0.0
 10
242.0242362435
 20
499.287687672
 30
0.0
 10
241.84486632
 20
498.610840823
 30
0.0
 10
241.5975398206
 20
498.1911945574
 30
0.0
  0
SPLINE
  5
386
100
AcDbEntity
  8
5
100
AcDbSpline
 62
7
  6
CONTINUOUS
 70
0
 71
3
 72
8
 73
4
 74
0
 42
0.0000001
 43
0.0000001
 44
0.0000000001
 40
0.0
 40
0.0
 40
0.0
 40
0.0
 40
1.0
 40
1.0
 40
1.0
 40
1.0
 10
241.5975398206
 20
498.1911945574
 30
0.0
 10
241.5376788286
 20
498.0896266227
 30
0.0
 10
241.4707199644
 20
497.9918378733
 30
0.0
 10
241.3968066834
 20
497.8999890268
 30
0.0
  0
SPLINE
  5
387
100
AcDbEntity
  8
5
100
AcDbSpline
 62
7
  6
CONTINUOUS
 70
0
 71
3
 72
9
 73
5
 74
0
 42
0.0000001
 43
0.0000001
 44
0.0000000001
 40
0.0
 40
0.0
 40
0.0
 40
0.0
 40
0.2555538076
 40
1.0
 40
1.0
 40
1.0
 40
1.0
 10
241.3968066834
 20
497.8999890268
 30
0.0
 10
241.3555814534
 20
497.8487602114
 30
0.0
 10
241.1858479652
 20
497.6552538599
 30
0.0
 10
240.9803213887
 20
497.4928717782
 30
0.0
 10
240.8144174386
 20
497.3971195195
 30
0.0
  0
SPLINE
  5
388
100
AcDbEntity
  8
5
100
AcDbSpline
 62
7
  6
CONTINUOUS
 70
0
 71
3
 72
9
 73
5
 74
0
 42
0.0000001
 43
0.0000001
 44
0.0000000001
 40
0.0
 40
0.0
 40
0.0
 40
0.0
 40
0.5250898329
 40
1.0
 40
1.0
 40
1.0
 40
1.0
 10
240.4662175743
 20
504.8864509006
 30
0.0
 10
240.956373007
 20
504.1503157214
 30
0.0
 10
241.7162600305
 20
502.6272090478
 30
0.0
 10
242.0572144571
 20
500.9434922747
 30
0.0
 10
242.0572144571
 20
500.1436172306
 30
0.0
  0
SPLINE
  5
389
100
AcDbEntity
  8
5
100
AcDbSpline
 62
7
  6
CONTINUOUS
 70
0
 71
3
 72
9
 73
5
 74
0
 42
0.0000001
 43
0.0000001
 44
0.0000000001
 40
0.0
 40
0.0
 40
0.0
 40
0.0
 40
0.228756683
 40
1.0
 40
1.0
 40
1.0
 40
1.0
 10
239.9358852816
 20
506.4673954548
 30
0.0
 10
239.9358852816
 20
506.3392306954
 30
0.0
 10
239.9929015827
 20
505.7795096126
 30
0.0
 10
240.2267339727
 20
505.2461170235
 30
0.0
 10
240.4662175743
 20
504.8864509006
 30
0.0
  0
SPLINE
  5
38A
100
AcDbEntity
  8
5
100
AcDbSpline
 62
7
  6
CONTINUOUS
 70
0
 71
3
 72
9
 73
5
 74
0
 42
0.0000001
 43
0.0000001
 44
0.0000000001
 40
0.0
 40
0.0
 40
0.0
 40
0.0
 40
0.228756683
 40
1.0
 40
1.0
 40
1.0
 40
1.0
 10
338.9312468022
 20
449.313689822
 30
0.0
 10
338.9312468022
 20
449.1855250624
 30
0.0
 10
338.9882631034
 20
448.6258039788
 30
0.0
 10
339.2220954941
 20
448.0924113892
 30
0.0
 10
339.4615790961
 20
447.7327452659
 30
0.0
  0
SPLINE
  5
38B
100
AcDbEntity
  8
5
100
AcDbSpline
 62
7
  6
CONTINUOUS
 70
0
 71
3
 72
9
 73
5
 74
0
 42
0.0000001
 43
0.0000001
 44
0.0000000001
 40
0.0
 40
0.0
 40
0.0
 40
0.0
 40
0.5508439256
 40
1.0
 40
1.0
 40
1.0
 40
1.0
 10
217.3084653399
 20
509.1250493129
 30
0.0
 10
217.6393144661
 20
509.3160640047
 30
0.0
 10
218.30031839
 20
509.5907035438
 30
0.0
 10
219.0386819863
 20
509.4789546766
 30
0.0
 10
219.3083460905
 20
509.3230133102
 30
0.0
  0
SPLINE
  5
38C
100
AcDbEntity
  8
5
100
AcDbSpline
 62
7
  6
CONTINUOUS
 70
0
 71
3
 72
11
 73
7
 74
0
 42
0.0000001
 43
0.0000001
 44
0.0000000001
 40
0.0
 40
0.0
 40
0.0
 40
0.0
 40
0.2372416196
 40
0.5000015492
 40
0.7627606319
 40
1.0
 40
1.0
 40
1.0
 40
1.0
 10
177.3570897054
 20
482.384967479
 30
0.0
 10
177.3570897054
 20
483.5441692574
 30
0.0
 10
177.7918965264
 20
485.9888329282
 30
0.0
 10
179.3072824085
 20
489.4240067864
 30
0.0
 10
181.5245146326
 20
492.4539592614
 30
0.0
 10
183.4242379185
 20
494.0528403951
 30
0.0
 10
184.4281280776
 20
494.632433189
 30
0.0
  0
SPLINE
  5
38D
100
AcDbEntity
  8
5
100
AcDbSpline
 62
7
  6
CONTINUOUS
 70
0
 71
3
 72
11
 73
7
 74
0
 42
0.0000001
 43
0.0000001
 44
0.0000000001
 40
0.0
 40
0.0
 40
0.0
 40
0.0
 40
0.2430013671
 40
0.5117760904
 40
0.7740446424
 40
1.0
 40
1.0
 40
1.0
 40
1.0
 10
216.2478007522
 20
503.2053911076
 30
0.0
 10
216.6958944249
 20
503.4640965659
 30
0.0
 10
217.5324871007
 20
504.1949995742
 30
0.0
 10
218.4641238573
 20
505.5721482513
 30
0.0
 10
219.0329726088
 20
507.0952646177
 30
0.0
 10
219.1126082017
 20
508.159209248
 30
0.0
 10
219.0352781957
 20
508.6340717999
 30
0.0
  0
SPLINE
  5
38E
100
AcDbEntity
  8
5
100
AcDbSpline
 62
7
  6
CONTINUOUS
 70
0
 71
3
 72
9
 73
5
 74
0
 42
0.0000001
 43
0.0000001
 44
0.0000000001
 40
0.0
 40
0.0
 40
0.0
 40
0.0
 40
0.268460404
 40
1.0
 40
1.0
 40
1.0
 40
1.0
 10
219.0352781957
 20
508.6340717999
 30
0.0
 10
219.0224425634
 20
508.7128919294
 30
0.0
 10
218.9624586377
 20
509.0040383347
 30
0.0
 10
218.8491290165
 20
509.2867439615
 30
0.0
 10
218.7305833263
 20
509.469229323
 30
0.0
  0
SPLINE
  5
38F
100
AcDbEntity
  8
5
100
AcDbSpline
 62
7
  6
CONTINUOUS
 70
0
 71
3
 72
9
 73
5
 74
0
 42
0.0000001
 43
0.0000001
 44
0.0000000001
 40
0.0
 40
0.0
 40
0.0
 40
0.0
 40
0.2734358215
 40
1.0
 40
1.0
 40
1.0
 40
1.0
 10
236.9386894174
 20
178.3872571339
 30
0.0
 10
237.1829851271
 20
178.5283004858
 30
0.0
 10
238.0972291209
 20
179.0028998734
 30
0.0
 10
239.1176440124
 20
179.305715893
 30
0.0
 10
239.866180608
 20
179.34476331
 30
0.0
  0
SPLINE
  5
390
100
AcDbEntity
  8
5
100
AcDbSpline
 62
7
  6
CONTINUOUS
 70
0
 71
3
 72
8
 73
4
 74
0
 42
0.0000001
 43
0.0000001
 44
0.0000000001
 40
0.0
 40
0.0
 40
0.0
 40
0.0
 40
1.0
 40
1.0
 40
1.0
 40
1.0
 10
239.866180608
 20
179.34476331
 30
0.0
 10
240.0697781496
 20
179.3553839773
 30
0.0
 10
240.274665725
 20
179.352567353
 30
0.0
 10
240.4777128246
 20
179.3342197967
 30
0.0
  0
SPLINE
  5
391
100
AcDbEntity
  8
5
100
AcDbSpline
 62
7
  6
CONTINUOUS
 70
0
 71
3
 72
9
 73
5
 74
0
 42
0.0000001
 43
0.0000001
 44
0.0000000001
 40
0.0
 40
0.0
 40
0.0
 40
0.0
 40
0.2574529123
 40
1.0
 40
1.0
 40
1.0
 40
1.0
 10
240.4777128246
 20
179.3342197967
 30
0.0
 10
240.6020421542
 20
179.3229852635
 30
0.0
 10
241.0825712566
 20
179.2571336665
 30
0.0
 10
241.5508615998
 20
179.0948787774
 30
0.0
 10
241.8670361901
 20
178.9226251745
 30
0.0
  0
SPLINE
  5
392
100
AcDbEntity
  8
5
100
AcDbSpline
 62
7
  6
CONTINUOUS
 70
0
 71
3
 72
9
 73
5
 74
0
 42
0.0000001
 43
0.0000001
 44
0.0000000001
 40
0.0
 40
0.0
 40
0.0
 40
0.0
 40
0.4491675054
 40
1.0
 40
1.0
 40
1.0
 40
1.0
 10
147.3755753877
 20
329.2131840352
 30
0.0
 10
147.5664847729
 20
329.3234049177
 30
0.0
 10
148.0888537598
 20
329.4027361879
 30
0.0
 10
148.5566661597
 20
329.2083047784
 30
0.0
 10
148.7907871029
 20
329.0731380463
 30
0.0
  0
SPLINE
  5
393
100
AcDbEntity
  8
5
100
AcDbSpline
 62
7
  6
CONTINUOUS
 70
0
 71
3
 72
9
 73
5
 74
0
 42
0.0000001
 43
0.0000001
 44
0.0000000001
 40
0.0
 40
0.0
 40
0.0
 40
0.0
 40
0.2292879038
 40
1.0
 40
1.0
 40
1.0
 40
1.0
 10
121.811313487
 20
291.4383784893
 30
0.0
 10
121.8243861739
 20
291.4308311407
 30
0.0
 10
121.8852221583
 20
291.4047835496
 30
0.0
 10
121.9543562309
 20
291.4007364207
 30
0.0
 10
122.0044988678
 20
291.4084935319
 30
0.0
  0
SPLINE
  5
394
100
AcDbEntity
  8
5
100
AcDbSpline
 62
7
  6
CONTINUOUS
 70
0
 71
3
 72
11
 73
7
 74
0
 42
0.0000001
 43
0.0000001
 44
0.0000000001
 40
0.0
 40
0.0
 40
0.0
 40
0.0
 40
0.2895401978
 40
0.5491171512
 40
0.782255066
 40
1.0
 40
1.0
 40
1.0
 40
1.0
 10
161.8237689635
 20
239.4082827546
 30
0.0
 10
161.8237689635
 20
239.1281871682
 30
0.0
 10
161.7810009558
 20
238.5952138395
 30
0.0
 10
161.5655412516
 20
237.8628145329
 30
0.0
 10
161.2021014537
 20
237.2683077264
 30
0.0
 10
160.8604451198
 20
236.9817365614
 30
0.0
 10
160.6780233006
 20
236.8764159463
 30
0.0
  0
SPLINE
  5
395
100
AcDbEntity
  8
5
100
AcDbSpline
 62
7
  6
CONTINUOUS
 70
0
 71
3
 72
11
 73
7
 74
0
 42
0.0000001
 43
0.0000001
 44
0.0000000001
 40
0.0
 40
0.0
 40
0.0
 40
0.0
 40
0.2372523758
 40
0.4999990758
 40
0.7627462798
 40
1.0
 40
1.0
 40
1.0
 40
1.0
 10
157.9125584927
 20
306.5221890291
 30
0.0
 10
158.4678678194
 20
306.2015882928
 30
0.0
 10
159.5187416951
 20
305.3172730596
 30
0.0
 10
160.7447863403
 20
303.6411289088
 30
0.0
 10
161.5833570349
 20
301.7412712681
 30
0.0
 10
161.8237689635
 20
300.389027366
 30
0.0
 10
161.8237689635
 20
299.7478113805
 30
0.0
  0
SPLINE
  5
396
100
AcDbEntity
  8
5
100
AcDbSpline
 62
7
  6
CONTINUOUS
 70
0
 71
3
 72
9
 73
5
 74
0
 42
0.0000001
 43
0.0000001
 44
0.0000000001
 40
0.0
 40
0.0
 40
0.0
 40
0.0
 40
0.4683129394
 40
1.0
 40
1.0
 40
1.0
 40
1.0
 10
242.0025449618
 20
178.8446001741
 30
0.0
 10
242.4685433669
 20
178.5614418468
 30
0.0
 10
243.3128736341
 20
177.6910753702
 30
0.0
 10
243.7150989879
 20
176.5689965532
 30
0.0
 10
243.8444798455
 20
175.9635946121
 30
0.0
  0
SPLINE
  5
397
100
AcDbEntity
  8
5
100
AcDbSpline
 62
7
  6
CONTINUOUS
 70
0
 71
3
 72
9
 73
5
 74
0
 42
0.0000001
 43
0.0000001
 44
0.0000000001
 40
0.0
 40
0.0
 40
0.0
 40
0.0
 40
0.2406324087
 40
1.0
 40
1.0
 40
1.0
 40
1.0
 10
243.8779387268
 20
175.7967317072
 30
0.0
 10
243.9001067923
 20
175.6785491219
 30
0.0
 10
243.979417512
 20
175.1850423757
 30
0.0
 10
244.0097277895
 20
174.6841294832
 30
0.0
 10
244.0097277895
 20
174.3046745013
 30
0.0
  0
SPLINE
  5
398
100
AcDbEntity
  8
5
100
AcDbSpline
 62
7
  6
CONTINUOUS
 70
0
 71
3
 72
9
 73
5
 74
0
 42
0.0000001
 43
0.0000001
 44
0.0000000001
 40
0.0
 40
0.0
 40
0.0
 40
0.0
 40
0.2378333916
 40
1.0
 40
1.0
 40
1.0
 40
1.0
 10
242.3770357722
 20
79.764702313
 30
0.0
 10
242.5115417445
 20
79.874006315
 30
0.0
 10
243.0426312868
 20
80.37633831
 30
0.0
 10
243.4126552937
 20
81.033596466
 30
0.0
 10
243.6061036826
 20
81.5542393091
 30
0.0
  0
SPLINE
  5
399
100
AcDbEntity
  8
5
100
AcDbSpline
 62
7
  6
CONTINUOUS
 70
0
 71
3
 72
9
 73
5
 74
0
 42
0.0000001
 43
0.0000001
 44
0.0000000001
 40
0.0
 40
0.0
 40
0.0
 40
0.0
 40
0.2400967244
 40
1.0
 40
1.0
 40
1.0
 40
1.0
 10
243.6061036826
 20
81.5542393091
 30
0.0
 10
243.6430477052
 20
81.6536696587
 30
0.0
 10
243.7846186754
 20
82.0723424463
 30
0.0
 10
243.8779418501
 20
82.5066682581
 30
0.0
 10
243.9262174915
 20
82.838895545
 30
0.0
  0
SPLINE
  5
39A
100
AcDbEntity
  8
5
100
AcDbSpline
 62
7
  6
CONTINUOUS
 70
0
 71
3
 72
9
 73
5
 74
0
 42
0.0000001
 43
0.0000001
 44
0.0000000001
 40
0.0
 40
0.0
 40
0.0
 40
0.0
 40
0.2435964464
 40
1.0
 40
1.0
 40
1.0
 40
1.0
 10
243.9262174915
 20
82.838895545
 30
0.0
 10
243.9383322518
 20
82.9222679002
 30
0.0
 10
243.982229161
 20
83.2653590169
 30
0.0
 10
244.0034432887
 20
83.6112501648
 30
0.0
 10
244.0082086812
 20
83.8728092953
 30
0.0
  0
SPLINE
  5
39B
100
AcDbEntity
  8
5
100
AcDbSpline
 62
7
  6
CONTINUOUS
 70
0
 71
3
 72
11
 73
7
 74
0
 42
0.0000001
 43
0.0000001
 44
0.0000000001
 40
0.0
 40
0.0
 40
0.0
 40
0.0
 40
0.2896620171
 40
0.5491277528
 40
0.7822451717
 40
1.0
 40
1.0
 40
1.0
 40
1.0
 10
125.7390689425
 20
324.6889009056
 30
0.0
 10
125.4963975011
 20
324.829004158
 30
0.0
 10
125.0135143255
 20
325.0586502132
 30
0.0
 10
124.2714069309
 20
325.2378782115
 30
0.0
 10
123.5750299354
 20
325.2203585398
 30
0.0
 10
123.1559055868
 20
325.0681096023
 30
0.0
 10
122.9734571794
 20
324.962819171
 30
0.0
  0
SPLINE
  5
39C
100
AcDbEntity
  8
5
100
AcDbSpline
 62
7
  6
CONTINUOUS
 70
0
 71
3
 72
9
 73
5
 74
0
 42
0.0000001
 43
0.0000001
 44
0.0000000001
 40
0.0
 40
0.0
 40
0.0
 40
0.0
 40
0.7636234529
 40
1.0
 40
1.0
 40
1.0
 40
1.0
 10
158.9080049003
 20
273.4530458017
 30
0.0
 10
159.0641063068
 20
273.5225282066
 30
0.0
 10
159.3103761898
 20
273.5341027497
 30
0.0
 10
159.5210382381
 20
273.4549971909
 30
0.0
 10
159.5668435479
 20
273.4285520804
 30
0.0
  0
SPLINE
  5
39D
100
AcDbEntity
  8
5
100
AcDbSpline
 62
7
  6
CONTINUOUS
 70
0
 71
3
 72
13
 73
9
 74
0
 42
0.0000001
 43
0.0000001
 44
0.0000000001
 40
0.0
 40
0.0
 40
0.0
 40
0.0
 40
0.0871374374
 40
0.1868505237
 40
0.3045310932
 40
0.4386680684
 40
0.7300829324
 40
1.0
 40
1.0
 40
1.0
 40
1.0
 10
338.4563347777
 20
440.5344461735
 30
0.0
 10
338.6560383528
 20
440.4189615841
 30
0.0
 10
339.018972138
 20
440.049083393
 30
0.0
 10
339.2827076087
 20
439.2683205206
 30
0.0
 10
339.305121455
 20
438.3279614398
 30
0.0
 10
339.0146416946
 20
436.9098365087
 30
0.0
 10
338.1616666799
 20
435.2426538491
 30
0.0
 10
337.0753062672
 20
434.1617552138
 30
0.0
 10
336.4564540272
 20
433.8044628392
 30
0.0
  0
SPLINE
  5
39E
100
AcDbEntity
  8
5
100
AcDbSpline
 62
7
  6
CONTINUOUS
 70
0
 71
3
 72
11
 73
7
 74
0
 42
0.0000001
 43
0.0000001
 44
0.0000000001
 40
0.0
 40
0.0
 40
0.0
 40
0.0
 40
0.2372539654
 40
0.5000012591
 40
0.7627478695
 40
1.0
 40
1.0
 40
1.0
 40
1.0
 10
161.4702170449
 20
299.5436893037
 30
0.0
 10
161.4702170449
 20
300.184905952
 30
0.0
 10
161.229804723
 20
301.5371507584
 30
0.0
 10
160.3912332875
 20
303.4370087964
 30
0.0
 10
159.1651886158
 20
305.1131521069
 30
0.0
 10
158.1143153267
 20
305.9974665473
 30
0.0
 10
157.559006574
 20
306.3180669522
 30
0.0
  0
SPLINE
  5
39F
100
AcDbEntity
  8
5
100
AcDbSpline
 62
7
  6
CONTINUOUS
 70
0
 71
3
 72
9
 73
5
 74
0
 42
0.0000001
 43
0.0000001
 44
0.0000000001
 40
0.0
 40
0.0
 40
0.0
 40
0.0
 40
0.7066868007
 40
1.0
 40
1.0
 40
1.0
 40
1.0
 10
121.2515683161
 20
291.8093599034
 30
0.0
 10
121.2515982966
 20
291.7856464652
 30
0.0
 10
121.2724256226
 20
291.7527949235
 30
0.0
 10
121.2997137049
 20
291.7338836879
 30
0.0
 10
121.3081763971
 20
291.7288582521
 30
0.0
  0
SPLINE
  5
3A0
100
AcDbEntity
  8
5
100
AcDbSpline
 62
7
  6
CONTINUOUS
 70
0
 71
3
 72
9
 73
5
 74
0
 42
0.0000001
 43
0.0000001
 44
0.0000000001
 40
0.0
 40
0.0
 40
0.0
 40
0.0
 40
0.4493200685
 40
1.0
 40
1.0
 40
1.0
 40
1.0
 10
334.2743203959
 20
450.8476394961
 30
0.0
 10
334.4092073893
 20
450.9256408876
 30
0.0
 10
334.6423619491
 20
451.217162906
 30
0.0
 10
334.6885884513
 20
451.5721682357
 30
0.0
 10
334.6885884513
 20
451.7631343491
 30
0.0
  0
SPLINE
  5
3A1
100
AcDbEntity
  8
5
100
AcDbSpline
 62
7
  6
CONTINUOUS
 70
0
 71
3
 72
9
 73
5
 74
0
 42
0.0000001
 43
0.0000001
 44
0.0000000001
 40
0.0
 40
0.0
 40
0.0
 40
0.0
 40
0.4491675054
 40
1.0
 40
1.0
 40
1.0
 40
1.0
 10
139.0616973778
 20
322.0985417424
 30
0.0
 10
138.8479368891
 20
321.9751278533
 30
0.0
 10
138.2630423865
 20
321.8863009414
 30
0.0
 10
137.7392346804
 20
322.1040050274
 30
0.0
 10
137.4770903799
 20
322.255350686
 30
0.0
  0
SPLINE
  5
3A2
100
AcDbEntity
  8
5
100
AcDbSpline
 62
7
  6
CONTINUOUS
 70
0
 71
3
 72
9
 73
5
 74
0
 42
0.0000001
 43
0.0000001
 44
0.0000000001
 40
0.0
 40
0.0
 40
0.0
 40
0.0
 40
0.244610823
 40
1.0
 40
1.0
 40
1.0
 40
1.0
 10
125.7390689422
 20
254.1430920657
 30
0.0
 10
125.6916575346
 20
254.1704644354
 30
0.0
 10
125.4992555663
 20
254.2848190331
 30
0.0
 10
125.312502489
 20
254.4086134049
 30
0.0
 10
125.1746984808
 20
254.5065514647
 30
0.0
  0
SPLINE
  5
3A3
100
AcDbEntity
  8
5
100
AcDbSpline
 62
7
  6
CONTINUOUS
 70
0
 71
3
 72
9
 73
5
 74
0
 42
0.0000001
 43
0.0000001
 44
0.0000000001
 40
0.0
 40
0.0
 40
0.0
 40
0.0
 40
0.2346694209
 40
1.0
 40
1.0
 40
1.0
 40
1.0
 10
125.1746984808
 20
254.5065514647
 30
0.0
 10
124.8852984184
 20
254.7122296668
 30
0.0
 10
123.712479078
 20
255.6726388536
 30
0.0
 10
122.7738901214
 20
256.90313206
 30
0.0
 10
122.2035203167
 20
257.9108175436
 30
0.0
  0
SPLINE
  5
3A4
100
AcDbEntity
  8
5
100
AcDbSpline
 62
7
  6
CONTINUOUS
 70
0
 71
3
 72
9
 73
5
 74
0
 42
0.0000001
 43
0.0000001
 44
0.0000000001
 40
0.0
 40
0.0
 40
0.0
 40
0.0
 40
0.2414714623
 40
1.0
 40
1.0
 40
1.0
 40
1.0
 10
338.0142608437
 20
440.0465790331
 30
0.0
 10
337.9587927996
 20
440.0596466232
 30
0.0
 10
337.7304248252
 20
440.1194015691
 30
0.0
 10
337.507861348
 20
440.2005605314
 30
0.0
 10
337.3434671154
 20
440.2714074145
 30
0.0
  0
SPLINE
  5
3A5
100
AcDbEntity
  8
5
100
AcDbSpline
 62
7
  6
CONTINUOUS
 70
0
 71
3
 72
9
 73
5
 74
0
 42
0.0000001
 43
0.0000001
 44
0.0000000001
 40
0.0
 40
0.0
 40
0.0
 40
0.0
 40
0.2237299772
 40
1.0
 40
1.0
 40
1.0
 40
1.0
 10
123.9590811759
 20
363.4501805531
 30
0.0
 10
123.8072051473
 20
363.2497072351
 30
0.0
 10
123.2272208251
 20
362.277487508
 30
0.0
 10
123.0520519869
 20
361.1109924491
 30
0.0
 10
123.0520519869
 20
360.2383444737
 30
0.0
  0
SPLINE
  5
3A6
100
AcDbEntity
  8
5
100
AcDbSpline
 62
7
  6
CONTINUOUS
 70
0
 71
3
 72
11
 73
7
 74
0
 42
0.0000001
 43
0.0000001
 44
0.0000000001
 40
0.0
 40
0.0
 40
0.0
 40
0.0
 40
0.2896957383
 40
0.5491016125
 40
0.782209729
 40
1.0
 40
1.0
 40
1.0
 40
1.0
 10
129.2746175682
 20
364.8108500052
 30
0.0
 10
128.8358383411
 20
365.0641735796
 30
0.0
 10
127.9629190116
 20
365.4794456497
 30
0.0
 10
126.6212611421
 20
365.8033181665
 30
0.0
 10
125.3623926631
 20
365.7716317696
 30
0.0
 10
124.6044895691
 20
365.4965736164
 30
0.0
 10
124.2746459942
 20
365.3060823168
 30
0.0
  0
SPLINE
  5
3A7
100
AcDbEntity
  8
5
100
AcDbSpline
 62
7
  6
CONTINUOUS
 70
0
 71
3
 72
9
 73
5
 74
0
 42
0.0000001
 43
0.0000001
 44
0.0000000001
 40
0.0
 40
0.0
 40
0.0
 40
0.0
 40
0.4493200685
 40
1.0
 40
1.0
 40
1.0
 40
1.0
 10
235.2789588753
 20
508.0013451289
 30
0.0
 10
235.4138458687
 20
508.0793465204
 30
0.0
 10
235.6470004286
 20
508.3708685389
 30
0.0
 10
235.6932269308
 20
508.7258738686
 30
0.0
 10
235.6932269308
 20
508.9168399819
 30
0.0
  0
SPLINE
  5
3A8
100
AcDbEntity
  8
5
100
AcDbSpline
 62
7
  6
CONTINUOUS
 70
0
 71
3
 72
11
 73
7
 74
0
 42
0.0000001
 43
0.0000001
 44
0.0000000001
 40
0.0
 40
0.0
 40
0.0
 40
0.0
 40
0.2372413576
 40
0.5000010231
 40
0.762760128
 40
1.0
 40
1.0
 40
1.0
 40
1.0
 10
163.9229941004
 20
336.6420288624
 30
0.0
 10
163.9229941004
 20
337.8012300198
 30
0.0
 10
163.4881837008
 20
340.2458925961
 30
0.0
 10
161.9727841664
 20
343.6810606274
 30
0.0
 10
159.7555320514
 20
346.711003429
 30
0.0
 10
157.8557938909
 20
348.3098734635
 30
0.0
 10
156.8518968489
 20
348.8894605789
 30
0.0
  0
SPLINE
  5
3A9
100
AcDbEntity
  8
5
100
AcDbSpline
 62
7
  6
CONTINUOUS
 70
0
 71
3
 72
9
 73
5
 74
0
 42
0.0000001
 43
0.0000001
 44
0.0000000001
 40
0.0
 40
0.0
 40
0.0
 40
0.0
 40
0.5014200725
 40
1.0
 40
1.0
 40
1.0
 40
1.0
 10
130.6025431225
 20
336.5308028218
 30
0.0
 10
130.6897457598
 20
335.9051096246
 30
0.0
 10
131.1557375798
 20
334.6992309406
 30
0.0
 10
131.9831978269
 20
333.7043606258
 30
0.0
 10
132.4866243996
 20
333.3286617534
 30
0.0
  0
SPLINE
  5
3AA
100
AcDbEntity
  8
5
100
AcDbSpline
 62
7
  6
CONTINUOUS
 70
0
 71
3
 72
8
 73
4
 74
0
 42
0.0000001
 43
0.0000001
 44
0.0000000001
 40
0.0
 40
0.0
 40
0.0
 40
0.0
 40
1.0
 40
1.0
 40
1.0
 40
1.0
 10
132.4866243996
 20
333.3286617534
 30
0.0
 10
132.5902496725
 20
333.2513279369
 30
0.0
 10
132.6981288385
 20
333.1792380904
 30
0.0
 10
132.8101073146
 20
333.1145887497
 30
0.0
  0
SPLINE
  5
3AB
100
AcDbEntity
  8
5
100
AcDbSpline
 62
7
  6
CONTINUOUS
 70
0
 71
3
 72
13
 73
9
 74
0
 42
0.0000001
 43
0.0000001
 44
0.0000000001
 40
0.0
 40
0.0
 40
0.0
 40
0.0
 40
0.0924452139
 40
0.1906117674
 40
0.2986431453
 40
0.4185949371
 40
0.6925851987
 40
1.0
 40
1.0
 40
1.0
 40
1.0
 10
240.8144174386
 20
497.3971195195
 30
0.0
 10
240.6305825584
 20
497.2910183386
 30
0.0
 10
240.2133594246
 20
497.1328973173
 30
0.0
 10
239.5203805953
 20
497.092782193
 30
0.0
 10
238.7790650872
 20
497.2374481443
 30
0.0
 10
237.7103906962
 20
497.6852927146
 30
0.0
 10
236.40848876
 20
498.6725481261
 30
0.0
 10
235.5540870301
 20
499.712164118
 30
0.0
 10
235.1628946381
 20
500.2996726148
 30
0.0
  0
SPLINE
  5
3AC
100
AcDbEntity
  8
5
100
AcDbSpline
 62
7
  6
CONTINUOUS
 70
0
 71
3
 72
10
 73
6
 74
0
 42
0.0000001
 43
0.0000001
 44
0.0000000001
 40
0.0
 40
0.0
 40
0.0
 40
0.0
 40
0.5391290047
 40
0.7756170766
 40
1.0
 40
1.0
 40
1.0
 40
1.0
 10
123.5315047504
 20
360.679432328
 30
0.0
 10
123.5949789845
 20
361.3198444229
 30
0.0
 10
123.8256589884
 20
362.252490467
 30
0.0
 10
124.5206234498
 20
363.2377509098
 30
0.0
 10
124.9580570683
 20
363.586684037
 30
0.0
 10
125.1900754252
 20
363.7205013069
 30
0.0
  0
SPLINE
  5
3AD
100
AcDbEntity
  8
5
100
AcDbSpline
 62
7
  6
CONTINUOUS
 70
0
 71
3
 72
9
 73
5
 74
0
 42
0.0000001
 43
0.0000001
 44
0.0000000001
 40
0.0
 40
0.0
 40
0.0
 40
0.0
 40
0.489929392
 40
1.0
 40
1.0
 40
1.0
 40
1.0
 10
125.7390689425
 20
329.032147211
 30
0.0
 10
125.1510914813
 20
329.3716084765
 30
0.0
 10
124.1740380353
 20
330.4298351007
 30
0.0
 10
123.6290744968
 20
331.7482823809
 30
0.0
 10
123.5315047504
 20
332.4483612831
 30
0.0
  0
SPLINE
  5
3AE
100
AcDbEntity
  8
5
100
AcDbSpline
 62
7
  6
CONTINUOUS
 70
0
 71
3
 72
13
 73
9
 74
0
 42
0.0000001
 43
0.0000001
 44
0.0000000001
 40
0.0
 40
0.0
 40
0.0
 40
0.0
 40
0.0871374374
 40
0.1868505237
 40
0.3045310932
 40
0.4386680684
 40
0.7300829324
 40
1.0
 40
1.0
 40
1.0
 40
1.0
 10
219.3083460905
 20
509.3230133102
 30
0.0
 10
219.5080496655
 20
509.2075287208
 30
0.0
 10
219.8709834508
 20
508.8376505297
 30
0.0
 10
220.1347189214
 20
508.0568876573
 30
0.0
 10
220.1571327677
 20
507.1165285764
 30
0.0
 10
219.8666530073
 20
505.6984036454
 30
0.0
 10
219.0136779927
 20
504.0312209858
 30
0.0
 10
217.9273175799
 20
502.9503223505
 30
0.0
 10
217.3084653399
 20
502.5930299758
 30
0.0
  0
SPLINE
  5
3AF
100
AcDbEntity
  8
5
100
AcDbSpline
 62
7
  6
CONTINUOUS
 70
0
 71
3
 72
9
 73
5
 74
0
 42
0.0000001
 43
0.0000001
 44
0.0000000001
 40
0.0
 40
0.0
 40
0.0
 40
0.0
 40
0.4740699876
 40
1.0
 40
1.0
 40
1.0
 40
1.0
 10
345.3809242328
 20
137.46962194
 30
0.0
 10
345.5073410681
 20
137.5426083586
 30
0.0
 10
345.7405471969
 20
137.7595666951
 30
0.0
 10
345.8699290187
 20
138.046414427
 30
0.0
 10
345.9161555067
 20
138.2016184514
 30
0.0
  0
SPLINE
  5
3B0
100
AcDbEntity
  8
5
100
AcDbSpline
 62
7
  6
CONTINUOUS
 70
0
 71
3
 72
9
 73
5
 74
0
 42
0.0000001
 43
0.0000001
 44
0.0000000001
 40
0.0
 40
0.0
 40
0.0
 40
0.0
 40
0.2358883574
 40
1.0
 40
1.0
 40
1.0
 40
1.0
 10
345.9161555067
 20
138.2016184514
 30
0.0
 10
345.9307062189
 20
138.2504720242
 30
0.0
 10
345.9833696676
 20
138.4602476967
 30
0.0
 10
346.0023440537
 20
138.6777131786
 30
0.0
 10
346.0023440537
 20
138.8428343953
 30
0.0
  0
SPLINE
  5
3B1
100
AcDbEntity
  8
5
100
AcDbSpline
 62
7
  6
CONTINUOUS
 70
0
 71
3
 72
9
 73
5
 74
0
 42
0.0000001
 43
0.0000001
 44
0.0000000001
 40
0.0
 40
0.0
 40
0.0
 40
0.0
 40
0.5508326585
 40
1.0
 40
1.0
 40
1.0
 40
1.0
 10
141.7197487307
 20
324.9906965077
 30
0.0
 10
141.4856277176
 20
325.1258632801
 30
0.0
 10
141.0178153226
 20
325.3202946161
 30
0.0
 10
140.4954462745
 20
325.2409634417
 30
0.0
 10
140.3045370175
 20
325.1307424976
 30
0.0
  0
SPLINE
  5
3B2
100
AcDbEntity
  8
5
100
AcDbSpline
 62
7
  6
CONTINUOUS
 70
0
 71
3
 72
9
 73
5
 74
0
 42
0.0000001
 43
0.0000001
 44
0.0000000001
 40
0.0
 40
0.0
 40
0.0
 40
0.0
 40
0.2943278442
 40
1.0
 40
1.0
 40
1.0
 40
1.0
 10
123.7312319812
 20
294.1177840131
 30
0.0
 10
123.7530792385
 20
294.1051707785
 30
0.0
 10
123.8233700066
 20
294.0578450058
 30
0.0
 10
123.8777202394
 20
293.9741444099
 30
0.0
 10
123.8777147627
 20
293.9136611117
 30
0.0
  0
SPLINE
  5
3B3
100
AcDbEntity
  8
5
100
AcDbSpline
 62
7
  6
CONTINUOUS
 70
0
 71
3
 72
9
 73
5
 74
0
 42
0.0000001
 43
0.0000001
 44
0.0000000001
 40
0.0
 40
0.0
 40
0.0
 40
0.0
 40
0.7048233232
 40
1.0
 40
1.0
 40
1.0
 40
1.0
 10
154.8673618035
 20
272.4017289689
 30
0.0
 10
154.8673315132
 20
272.3775626954
 30
0.0
 10
154.8889949116
 20
272.3440082073
 30
0.0
 10
154.9171618168
 20
272.3251404436
 30
0.0
 10
154.9259266749
 20
272.3200801649
 30
0.0
  0
SPLINE
  5
3B4
100
AcDbEntity
  8
5
100
AcDbSpline
 62
7
  6
CONTINUOUS
 70
0
 71
3
 72
10
 73
6
 74
0
 42
0.0000001
 43
0.0000001
 44
0.0000000001
 40
0.0
 40
0.0
 40
0.0
 40
0.0
 40
0.4726383237
 40
0.7493406648
 40
1.0
 40
1.0
 40
1.0
 40
1.0
 10
123.9590811759
 20
363.4501805531
 30
0.0
 10
123.5536705988
 20
362.9150467056
 30
0.0
 10
122.9281045039
 20
362.0516189447
 30
0.0
 10
121.9578000125
 20
361.0109761988
 30
0.0
 10
121.3625950234
 20
360.544784327
 30
0.0
 10
121.0542460398
 20
360.3667600209
 30
0.0
  0
SPLINE
  5
3B5
100
AcDbEntity
  8
5
100
AcDbSpline
 62
7
  6
CONTINUOUS
 70
0
 71
3
 72
9
 73
5
 74
0
 42
0.0000001
 43
0.0000001
 44
0.0000000001
 40
0.0
 40
0.0
 40
0.0
 40
0.0
 40
0.5167349384
 40
1.0
 40
1.0
 40
1.0
 40
1.0
 10
116.8835176114
 20
356.6769607501
 30
0.0
 10
117.0538434549
 20
357.2109540103
 30
0.0
 10
117.6433494025
 20
358.159939153
 30
0.0
 10
118.4789677366
 20
358.8799312745
 30
0.0
 10
118.9329345281
 20
359.1420275593
 30
0.0
  0
SPLINE
  5
3B6
100
AcDbEntity
  8
5
100
AcDbSpline
 62
7
  6
CONTINUOUS
 70
0
 71
3
 72
11
 73
7
 74
0
 42
0.0000001
 43
0.0000001
 44
0.0000000001
 40
0.0
 40
0.0
 40
0.0
 40
0.0
 40
0.2177843137
 40
0.4509117637
 40
0.7102976701
 40
1.0
 40
1.0
 40
1.0
 40
1.0
 10
152.6169085777
 20
459.23574316
 30
0.0
 10
152.9467672168
 20
459.4261858516
 30
0.0
 10
153.7046687223
 20
459.7012345152
 30
0.0
 10
154.9635302076
 20
459.733108645
 30
0.0
 10
156.3051815232
 20
459.4091237706
 30
0.0
 10
157.1780730038
 20
458.9938723618
 30
0.0
 10
157.6168612441
 20
458.7405435835
 30
0.0
  0
SPLINE
  5
3B7
100
AcDbEntity
  8
5
100
AcDbSpline
 62
7
  6
CONTINUOUS
 70
0
 71
3
 72
9
 73
5
 74
0
 42
0.0000001
 43
0.0000001
 44
0.0000000001
 40
0.0
 40
0.0
 40
0.0
 40
0.0
 40
0.2702059432
 40
1.0
 40
1.0
 40
1.0
 40
1.0
 10
116.688117452
 20
333.9516387094
 30
0.0
 10
116.688117452
 20
333.8761969102
 30
0.0
 10
116.6994185293
 20
333.5974903907
 30
0.0
 10
116.758459526
 20
333.3179087169
 30
0.0
 10
116.8392526719
 20
333.1308517091
 30
0.0
  0
SPLINE
  5
3B8
100
AcDbEntity
  8
5
100
AcDbSpline
 62
7
  6
CONTINUOUS
 70
0
 71
3
 72
9
 73
5
 74
0
 42
0.0000001
 43
0.0000001
 44
0.0000000001
 40
0.0
 40
0.0
 40
0.0
 40
0.0
 40
0.2671330116
 40
1.0
 40
1.0
 40
1.0
 40
1.0
 10
116.8392526719
 20
333.1308517091
 30
0.0
 10
116.8651124211
 20
333.0709797081
 30
0.0
 10
116.9755615251
 20
332.8533520906
 30
0.0
 10
117.1545860609
 20
332.6678853271
 30
0.0
 10
117.3095383413
 20
332.5784256373
 30
0.0
  0
SPLINE
  5
3B9
100
AcDbEntity
  8
5
100
AcDbSpline
 62
7
  6
CONTINUOUS
 70
0
 71
3
 72
9
 73
5
 74
0
 42
0.0000001
 43
0.0000001
 44
0.0000000001
 40
0.0
 40
0.0
 40
0.0
 40
0.0
 40
0.2395096752
 40
1.0
 40
1.0
 40
1.0
 40
1.0
 10
122.4306310956
 20
334.1000346647
 30
0.0
 10
122.4833554844
 20
334.069594885
 30
0.0
 10
122.6923080671
 20
333.922662398
 30
0.0
 10
122.8394992656
 20
333.6987488033
 30
0.0
 10
122.9126010544
 20
333.519796287
 30
0.0
  0
SPLINE
  5
3BA
100
AcDbEntity
  8
5
100
AcDbSpline
 62
7
  6
CONTINUOUS
 70
0
 71
3
 72
9
 73
5
 74
0
 42
0.0000001
 43
0.0000001
 44
0.0000000001
 40
0.0
 40
0.0
 40
0.0
 40
0.0
 40
0.2316917215
 40
1.0
 40
1.0
 40
1.0
 40
1.0
 10
122.9126010544
 20
333.519796287
 30
0.0
 10
122.9362017522
 20
333.4620219929
 30
0.0
 10
123.0227074512
 20
333.2063890924
 30
0.0
 10
123.0520519869
 20
332.9337742613
 30
0.0
 10
123.0520519869
 20
332.7268215914
 30
0.0
  0
SPLINE
  5
3BB
100
AcDbEntity
  8
5
100
AcDbSpline
 62
7
  6
CONTINUOUS
 70
0
 71
3
 72
9
 73
5
 74
0
 42
0.0000001
 43
0.0000001
 44
0.0000000001
 40
0.0
 40
0.0
 40
0.0
 40
0.0
 40
0.2951760994
 40
1.0
 40
1.0
 40
1.0
 40
1.0
 10
123.6884684033
 20
291.6930284905
 30
0.0
 10
123.7016154445
 20
291.700618893
 30
0.0
 10
123.7438650773
 20
291.7289205039
 30
0.0
 10
123.7763593844
 20
291.779251693
 30
0.0
 10
123.7763139459
 20
291.8155006768
 30
0.0
  0
SPLINE
  5
3BC
100
AcDbEntity
  8
5
100
AcDbSpline
 62
7
  6
CONTINUOUS
 70
0
 71
3
 72
8
 73
4
 74
0
 42
0.0000001
 43
0.0000001
 44
0.0000000001
 40
0.0
 40
0.0
 40
0.0
 40
0.0
 40
1.0
 40
1.0
 40
1.0
 40
1.0
 10
123.5539824057
 20
291.6482000345
 30
0.0
 10
123.6006804529
 20
291.6554242646
 30
0.0
 10
123.6475455756
 20
291.6694018259
 30
0.0
 10
123.6884684033
 20
291.6930284905
 30
0.0
  0
SPLINE
  5
3BD
100
AcDbEntity
  8
5
100
AcDbSpline
 62
7
  6
CONTINUOUS
 70
0
 71
3
 72
11
 73
7
 74
0
 42
0.0000001
 43
0.0000001
 44
0.0000000001
 40
0.0
 40
0.0
 40
0.0
 40
0.0
 40
0.2659749835
 40
0.5214632665
 40
0.7651339155
 40
1.0
 40
1.0
 40
1.0
 40
1.0
 10
184.2366742209
 20
203.7333990595
 30
0.0
 10
184.8063270792
 20
204.0622984514
 30
0.0
 10
185.8788855992
 20
204.7906854753
 30
0.0
 10
187.223514649
 20
206.1432874489
 30
0.0
 10
188.149989979
 20
207.7337982301
 30
0.0
 10
188.3788831435
 20
208.9261630169
 30
0.0
 10
188.3788894898
 20
209.5070110464
 30
0.0
  0
SPLINE
  5
3BE
100
AcDbEntity
  8
5
100
AcDbSpline
 62
7
  6
CONTINUOUS
 70
0
 71
3
 72
11
 73
7
 74
0
 42
0.0000001
 43
0.0000001
 44
0.0000000001
 40
0.0
 40
0.0
 40
0.0
 40
0.0
 40
0.2372392641
 40
0.4999983132
 40
0.7627582764
 40
1.0
 40
1.0
 40
1.0
 40
1.0
 10
304.6367813525
 20
425.2315049205
 30
0.0
 10
303.6328916336
 20
424.6519123807
 30
0.0
 10
301.733168772
 20
423.0530318511
 30
0.0
 10
299.5159365419
 20
420.0230800048
 30
0.0
 10
298.0005501122
 20
416.5879058374
 30
0.0
 10
297.5657429804
 20
414.1432414971
 30
0.0
 10
297.5657429804
 20
412.9840392105
 30
0.0
  0
SPLINE
  5
3BF
100
AcDbEntity
  8
5
100
AcDbSpline
 62
7
  6
CONTINUOUS
 70
0
 71
3
 72
9
 73
5
 74
0
 42
0.0000001
 43
0.0000001
 44
0.0000000001
 40
0.0
 40
0.0
 40
0.0
 40
0.0
 40
0.5469158989
 40
1.0
 40
1.0
 40
1.0
 40
1.0
 10
157.9125584929
 20
235.976380189
 30
0.0
 10
158.4252607815
 20
235.6803780811
 30
0.0
 10
159.4427654435
 20
235.2477532096
 30
0.0
 10
160.5817420794
 20
235.2935237753
 30
0.0
 10
161.0414800667
 20
235.4643377862
 30
0.0
  0
SPLINE
  5
3C0
100
AcDbEntity
  8
5
100
AcDbSpline
 62
7
  6
CONTINUOUS
 70
0
 71
3
 72
9
 73
5
 74
0
 42
0.0000001
 43
0.0000001
 44
0.0000000001
 40
0.0
 40
0.0
 40
0.0
 40
0.0
 40
0.5508439256
 40
1.0
 40
1.0
 40
1.0
 40
1.0
 10
336.4564540272
 20
433.8044628392
 30
0.0
 10
336.125604901
 20
433.6134481473
 30
0.0
 10
335.4646009771
 20
433.3388086082
 30
0.0
 10
334.7262373808
 20
433.4505574755
 30
0.0
 10
334.4565732766
 20
433.6064988419
 30
0.0
  0
SPLINE
  5
3C1
100
AcDbEntity
  8
5
100
AcDbSpline
 62
7
  6
CONTINUOUS
 70
0
 71
3
 72
11
 73
7
 74
0
 42
0.0000001
 43
0.0000001
 44
0.0000000001
 40
0.0
 40
0.0
 40
0.0
 40
0.0
 40
0.2177843137
 40
0.4509117637
 40
0.7102976701
 40
1.0
 40
1.0
 40
1.0
 40
1.0
 10
161.0433416564
 20
235.4271665938
 30
0.0
 10
160.8134718746
 20
235.2944521072
 30
0.0
 10
160.2853103138
 20
235.1027779512
 30
0.0
 10
159.4080429616
 20
235.0805657109
 30
0.0
 10
158.4730815613
 20
235.3063422213
 30
0.0
 10
157.8647865211
 20
235.5957199712
 30
0.0
 10
157.5590065743
 20
235.772258112
 30
0.0
  0
SPLINE
  5
3C2
100
AcDbEntity
  8
5
100
AcDbSpline
 62
7
  6
CONTINUOUS
 70
0
 71
3
 72
11
 73
7
 74
0
 42
0.0000001
 43
0.0000001
 44
0.0000000001
 40
0.0
 40
0.0
 40
0.0
 40
0.0
 40
0.2177843133
 40
0.4509117631
 40
0.7102976698
 40
1.0
 40
1.0
 40
1.0
 40
1.0
 10
140.7572279214
 20
374.8222049743
 30
0.0
 10
141.087086564
 20
375.0126476679
 30
0.0
 10
141.844988079
 20
375.2876963328
 30
0.0
 10
143.1038495798
 20
375.3195704583
 30
0.0
 10
144.4455009106
 20
374.9955855688
 30
0.0
 10
145.3183923993
 20
374.5803341482
 30
0.0
 10
145.7571806456
 20
374.3270053667
 30
0.0
  0
SPLINE
  5
3C3
100
AcDbEntity
  8
5
100
AcDbSpline
 62
7
  6
CONTINUOUS
 70
0
 71
3
 72
11
 73
7
 74
0
 42
0.0000001
 43
0.0000001
 44
0.0000000001
 40
0.0
 40
0.0
 40
0.0
 40
0.0
 40
0.217745073
 40
0.4508830113
 40
0.7104597664
 40
1.0
 40
1.0
 40
1.0
 40
1.0
 10
160.3244713783
 20
236.6722938672
 30
0.0
 10
160.5068932606
 20
236.7776146484
 30
0.0
 10
160.84854983
 20
237.0641857884
 30
0.0
 10
161.2119893253
 20
237.6586927639
 30
0.0
 10
161.4274493711
 20
238.391091817
 30
0.0
 10
161.4702170449
 20
238.9240650523
 30
0.0
 10
161.4702170449
 20
239.2041606778
 30
0.0
  0
SPLINE
  5
3C4
100
AcDbEntity
  8
5
100
AcDbSpline
 62
7
  6
CONTINUOUS
 70
0
 71
3
 72
9
 73
5
 74
0
 42
0.0000001
 43
0.0000001
 44
0.0000000001
 40
0.0
 40
0.0
 40
0.0
 40
0.0
 40
0.5495299013
 40
1.0
 40
1.0
 40
1.0
 40
1.0
 10
235.6932269308
 20
509.5333009412
 30
0.0
 10
235.6932269308
 20
509.8077909237
 30
0.0
 10
235.7582598057
 20
510.3167953852
 30
0.0
 10
236.072242263
 20
510.7476149063
 30
0.0
 10
236.2595096614
 20
510.87235569
 30
0.0
  0
SPLINE
  5
3C5
100
AcDbEntity
  8
5
100
AcDbSpline
 62
7
  6
CONTINUOUS
 70
0
 71
3
 72
9
 73
5
 74
0
 42
0.0000001
 43
0.0000001
 44
0.0000000001
 40
0.0
 40
0.0
 40
0.0
 40
0.0
 40
0.4618205043
 40
1.0
 40
1.0
 40
1.0
 40
1.0
 10
123.327009098
 20
325.1669412479
 30
0.0
 10
123.6271449013
 20
325.3401487241
 30
0.0
 10
124.397553629
 20
325.518429854
 30
0.0
 10
125.144881354
 20
325.3271172479
 30
0.0
 10
125.5190309757
 20
325.1751734839
 30
0.0
  0
SPLINE
  5
3C6
100
AcDbEntity
  8
5
100
AcDbSpline
 62
7
  6
CONTINUOUS
 70
0
 71
3
 72
9
 73
5
 74
0
 42
0.0000001
 43
0.0000001
 44
0.0000000001
 40
0.0
 40
0.0
 40
0.0
 40
0.0
 40
0.2430522572
 40
1.0
 40
1.0
 40
1.0
 40
1.0
 10
125.5190309757
 20
325.1751734839
 30
0.0
 10
125.5670355976
 20
325.1556786013
 30
0.0
 10
125.7630318825
 20
325.0717731778
 30
0.0
 10
125.952877701
 20
324.9737019084
 30
0.0
 10
126.0926208611
 20
324.8930229825
 30
0.0
  0
SPLINE
  5
3C7
100
AcDbEntity
  8
5
100
AcDbSpline
 62
7
  6
CONTINUOUS
 70
0
 71
3
 72
9
 73
5
 74
0
 42
0.0000001
 43
0.0000001
 44
0.0000000001
 40
0.0
 40
0.0
 40
0.0
 40
0.0
 40
0.2653460914
 40
1.0
 40
1.0
 40
1.0
 40
1.0
 10
233.5718977553
 20
505.0425062848
 30
0.0
 10
233.5718977553
 20
505.161773609
 30
0.0
 10
233.5863464615
 20
505.610876014
 30
0.0
 10
233.6605266466
 20
506.0600132515
 30
0.0
 10
233.7595699713
 20
506.3750207805
 30
0.0
  0
SPLINE
  5
3C8
100
AcDbEntity
  8
5
100
AcDbSpline
 62
7
  6
CONTINUOUS
 70
0
 71
3
 72
9
 73
5
 74
0
 42
0.0000001
 43
0.0000001
 44
0.0000000001
 40
0.0
 40
0.0
 40
0.0
 40
0.0
 40
0.5245477981
 40
1.0
 40
1.0
 40
1.0
 40
1.0
 10
233.7595699713
 20
506.3750207805
 30
0.0
 10
233.8537552642
 20
506.674577328
 30
0.0
 10
234.1128891375
 20
507.2283647078
 30
0.0
 10
234.5683088737
 20
507.6465086065
 30
0.0
 10
234.8147019216
 20
507.7889908437
 30
0.0
  0
SPLINE
  5
3C9
100
AcDbEntity
  8
5
100
AcDbSpline
 62
7
  6
CONTINUOUS
 70
0
 71
3
 72
9
 73
5
 74
0
 42
0.0000001
 43
0.0000001
 44
0.0000000001
 40
0.0
 40
0.0
 40
0.0
 40
0.0
 40
0.5250898329
 40
1.0
 40
1.0
 40
1.0
 40
1.0
 10
235.1628946381
 20
500.2996726148
 30
0.0
 10
234.6727392053
 20
501.0358077939
 30
0.0
 10
233.9128521819
 20
502.5589144676
 30
0.0
 10
233.5718977553
 20
504.2426312407
 30
0.0
 10
233.5718977553
 20
505.0425062848
 30
0.0
  0
SPLINE
  5
3CA
100
AcDbEntity
  8
5
100
AcDbSpline
 62
7
  6
CONTINUOUS
 70
0
 71
3
 72
11
 73
7
 74
0
 42
0.0000001
 43
0.0000001
 44
0.0000000001
 40
0.0
 40
0.0
 40
0.0
 40
0.0
 40
0.237239768
 40
0.4999988393
 40
0.7627585384
 40
1.0
 40
1.0
 40
1.0
 40
1.0
 10
159.6803121978
 20
350.5224371944
 30
0.0
 10
160.6842087997
 20
349.9428503331
 30
0.0
 10
162.5839465357
 20
348.3439809026
 30
0.0
 10
164.8011986569
 20
345.3140387297
 30
0.0
 10
166.3165987388
 20
341.8788703893
 30
0.0
 10
166.7514094492
 20
339.4342071435
 30
0.0
 10
166.7514094492
 20
338.2750054779
 30
0.0
  0
SPLINE
  5
3CB
100
AcDbEntity
  8
5
100
AcDbSpline
 62
7
  6
CONTINUOUS
 70
0
 71
3
 72
9
 73
5
 74
0
 42
0.0000001
 43
0.0000001
 44
0.0000000001
 40
0.0
 40
0.0
 40
0.0
 40
0.0
 40
0.2668259708
 40
1.0
 40
1.0
 40
1.0
 40
1.0
 10
181.8936081156
 20
336.3976062711
 30
0.0
 10
181.6137931404
 20
336.7672238362
 30
0.0
 10
180.5084198639
 20
338.1059370479
 30
0.0
 10
179.1683389466
 20
339.2712742403
 30
0.0
 10
178.0651650516
 20
339.9081775769
 30
0.0
  0
SPLINE
  5
3CC
100
AcDbEntity
  8
5
100
AcDbSpline
 62
7
  6
CONTINUOUS
 70
0
 71
3
 72
9
 73
5
 74
0
 42
0.0000001
 43
0.0000001
 44
0.0000000001
 40
0.0
 40
0.0
 40
0.0
 40
0.0
 40
0.5495299013
 40
1.0
 40
1.0
 40
1.0
 40
1.0
 10
334.6885884513
 20
452.3795953083
 30
0.0
 10
334.6885884513
 20
452.6540852909
 30
0.0
 10
334.7536213263
 20
453.1630897524
 30
0.0
 10
335.0676037836
 20
453.5939092735
 30
0.0
 10
335.2548711819
 20
453.7186500572
 30
0.0
  0
SPLINE
  5
3CD
100
AcDbEntity
  8
5
100
AcDbSpline
 62
7
  6
CONTINUOUS
 70
0
 71
3
 72
9
 73
5
 74
0
 42
0.0000001
 43
0.0000001
 44
0.0000000001
 40
0.0
 40
0.0
 40
0.0
 40
0.0
 40
0.2571281135
 40
1.0
 40
1.0
 40
1.0
 40
1.0
 10
122.5570722353
 20
258.1149396205
 30
0.0
 10
122.709290569
 20
257.8460119811
 30
0.0
 10
123.3413837018
 20
256.8239101753
 30
0.0
 10
124.1277877721
 20
255.8926900599
 30
0.0
 10
124.7938832591
 20
255.2982242836
 30
0.0
  0
SPLINE
  5
3CE
100
AcDbEntity
  8
5
100
AcDbSpline
 62
7
  6
CONTINUOUS
 70
0
 71
3
 72
9
 73
5
 74
0
 42
0.0000001
 43
0.0000001
 44
0.0000000001
 40
0.0
 40
0.0
 40
0.0
 40
0.0
 40
0.2543933704
 40
1.0
 40
1.0
 40
1.0
 40
1.0
 10
124.7938832591
 20
255.2982242836
 30
0.0
 10
124.8429198801
 20
255.254460899
 30
0.0
 10
125.0375209262
 20
255.0845106656
 30
0.0
 10
125.2395083371
 20
254.9229787776
 30
0.0
 10
125.3941554694
 20
254.8081187946
 30
0.0
  0
SPLINE
  5
3CF
100
AcDbEntity
  8
5
100
AcDbSpline
 62
7
  6
CONTINUOUS
 70
0
 71
3
 72
9
 73
5
 74
0
 42
0.0000001
 43
0.0000001
 44
0.0000000001
 40
0.0
 40
0.0
 40
0.0
 40
0.0
 40
0.2564600579
 40
1.0
 40
1.0
 40
1.0
 40
1.0
 10
125.3941554694
 20
254.8081187946
 30
0.0
 10
125.4516032828
 20
254.765450982
 30
0.0
 10
125.6778074974
 20
254.6020802493
 30
0.0
 10
125.9129464264
 20
254.450946879
 30
0.0
 10
126.0926208608
 20
254.3472141427
 30
0.0
  0
SPLINE
  5
3D0
100
AcDbEntity
  8
5
100
AcDbSpline
 62
7
  6
CONTINUOUS
 70
0
 71
3
 72
9
 73
5
 74
0
 42
0.0000001
 43
0.0000001
 44
0.0000000001
 40
0.0
 40
0.0
 40
0.0
 40
0.0
 40
0.2653460914
 40
1.0
 40
1.0
 40
1.0
 40
1.0
 10
332.5672592759
 20
447.888800652
 30
0.0
 10
332.5672592759
 20
448.0080679761
 30
0.0
 10
332.5817079821
 20
448.4571703811
 30
0.0
 10
332.6558881672
 20
448.9063076186
 30
0.0
 10
332.7549314919
 20
449.2213151477
 30
0.0
  0
SPLINE
  5
3D1
100
AcDbEntity
  8
5
100
AcDbSpline
 62
7
  6
CONTINUOUS
 70
0
 71
3
 72
9
 73
5
 74
0
 42
0.0000001
 43
0.0000001
 44
0.0000000001
 40
0.0
 40
0.0
 40
0.0
 40
0.0
 40
0.5245477981
 40
1.0
 40
1.0
 40
1.0
 40
1.0
 10
332.7549314919
 20
449.2213151477
 30
0.0
 10
332.8491167848
 20
449.5208716951
 30
0.0
 10
333.108250658
 20
450.0746590749
 30
0.0
 10
333.5636703943
 20
450.4928029736
 30
0.0
 10
333.8100634422
 20
450.6352852109
 30
0.0
  0
SPLINE
  5
3D2
100
AcDbEntity
  8
5
100
AcDbSpline
 62
7
  6
CONTINUOUS
 70
0
 71
3
 72
9
 73
5
 74
0
 42
0.0000001
 43
0.0000001
 44
0.0000000001
 40
0.0
 40
0.0
 40
0.0
 40
0.0
 40
0.525507435
 40
1.0
 40
1.0
 40
1.0
 40
1.0
 10
333.9930065132
 20
443.4023918129
 30
0.0
 10
333.5526999622
 20
444.1084840725
 30
0.0
 10
332.8696244694
 20
445.5538863527
 30
0.0
 10
332.5672592759
 20
447.1374539066
 30
0.0
 10
332.5672592759
 20
447.888800652
 30
0.0
  0
SPLINE
  5
3D3
100
AcDbEntity
  8
5
100
AcDbSpline
 62
7
  6
CONTINUOUS
 70
0
 71
3
 72
11
 73
7
 74
0
 42
0.0000001
 43
0.0000001
 44
0.0000000001
 40
0.0
 40
0.0
 40
0.0
 40
0.0
 40
0.2372392641
 40
0.4999983132
 40
0.7627582764
 40
1.0
 40
1.0
 40
1.0
 40
1.0
 10
185.4887926653
 20
494.0200720572
 30
0.0
 10
184.4849029463
 20
493.4404795174
 30
0.0
 10
182.5851800848
 20
491.8415989877
 30
0.0
 10
180.3679478546
 20
488.8116471414
 30
0.0
 10
178.852561425
 20
485.3764729741
 30
0.0
 10
178.4177542931
 20
482.9318086337
 30
0.0
 10
178.4177542931
 20
481.7726063472
 30
0.0
  0
SPLINE
  5
3D4
100
AcDbEntity
  8
5
100
AcDbSpline
 62
7
  6
CONTINUOUS
 70
0
 71
3
 72
9
 73
5
 74
0
 42
0.0000001
 43
0.0000001
 44
0.0000000001
 40
0.0
 40
0.0
 40
0.0
 40
0.0
 40
0.5508439256
 40
1.0
 40
1.0
 40
1.0
 40
1.0
 10
217.3084653399
 20
502.5930299758
 30
0.0
 10
216.9776162137
 20
502.402015284
 30
0.0
 10
216.3166122898
 20
502.1273757449
 30
0.0
 10
215.5782486935
 20
502.2391246121
 30
0.0
 10
215.3085845893
 20
502.3950659785
 30
0.0
  0
SPLINE
  5
3D5
100
AcDbEntity
  8
5
100
AcDbSpline
 62
7
  6
CONTINUOUS
 70
0
 71
3
 72
11
 73
7
 74
0
 42
0.0000001
 43
0.0000001
 44
0.0000000001
 40
0.0
 40
0.0
 40
0.0
 40
0.0
 40
0.23724357
 40
0.5000086992
 40
0.7627694538
 40
1.0
 40
1.0
 40
1.0
 40
1.0
 10
182.3078447168
 20
189.1048817457
 30
0.0
 10
182.3078685275
 20
190.2642452561
 30
0.0
 10
181.8730411952
 20
192.7092822357
 30
0.0
 10
180.3573293252
 20
196.1449017245
 30
0.0
 10
178.1396860034
 20
199.1751834948
 30
0.0
 10
176.2395080065
 20
200.7739778484
 30
0.0
 10
175.2354723712
 20
201.3535368375
 30
0.0
  0
SPLINE
  5
3D6
100
AcDbEntity
  8
5
100
AcDbSpline
 62
7
  6
CONTINUOUS
 70
0
 71
3
 72
9
 73
5
 74
0
 42
0.0000001
 43
0.0000001
 44
0.0000000001
 40
0.0
 40
0.0
 40
0.0
 40
0.0
 40
0.4491675054
 40
1.0
 40
1.0
 40
1.0
 40
1.0
 10
161.61849761
 20
314.2604520219
 30
0.0
 10
161.4047371213
 20
314.1370381329
 30
0.0
 10
160.8198426187
 20
314.048211221
 30
0.0
 10
160.2960349126
 20
314.265915307
 30
0.0
 10
160.0338906121
 20
314.4172609656
 30
0.0
  0
SPLINE
  5
3D7
100
AcDbEntity
  8
5
100
AcDbSpline
 62
7
  6
CONTINUOUS
 70
0
 71
3
 72
11
 73
7
 74
0
 42
0.0000001
 43
0.0000001
 44
0.0000000001
 40
0.0
 40
0.0
 40
0.0
 40
0.0
 40
0.2897033281
 40
0.5490895198
 40
0.7822165953
 40
1.0
 40
1.0
 40
1.0
 40
1.0
 10
275.6101967082
 20
102.2847626198
 30
0.0
 10
275.6101967082
 20
101.7780811759
 30
0.0
 10
275.5333763467
 20
100.8144804558
 30
0.0
 10
275.1431296159
 20
99.4905435627
 30
0.0
 10
274.4860837273
 20
98.4162436445
 30
0.0
 10
273.8689182043
 20
97.8973934055
 30
0.0
 10
273.5390521232
 20
97.7069464172
 30
0.0
  0
SPLINE
  5
3D8
100
AcDbEntity
  8
5
100
AcDbSpline
 62
7
  6
CONTINUOUS
 70
0
 71
3
 72
11
 73
7
 74
0
 42
0.0000001
 43
0.0000001
 44
0.0000000001
 40
0.0
 40
0.0
 40
0.0
 40
0.0
 40
0.2897023292
 40
0.5490881652
 40
0.7822156417
 40
1.0
 40
1.0
 40
1.0
 40
1.0
 10
62.0991937153
 20
403.5937216666
 30
0.0
 10
61.6604054713
 20
403.847050447
 30
0.0
 10
60.7875141652
 20
404.2623019575
 30
0.0
 10
59.445862858
 20
404.5862867161
 30
0.0
 10
58.1870014296
 20
404.554412577
 30
0.0
 10
57.4290996344
 20
404.2793641475
 30
0.0
 10
57.0992410129
 20
404.0889212613
 30
0.0
  0
SPLINE
  5
3D9
100
AcDbEntity
  8
5
100
AcDbSpline
 62
7
  6
CONTINUOUS
 70
0
 71
3
 72
11
 73
7
 74
0
 42
0.0000001
 43
0.0000001
 44
0.0000000001
 40
0.0
 40
0.0
 40
0.0
 40
0.0
 40
0.2455540607
 40
0.5082881331
 40
0.7665764825
 40
1.0
 40
1.0
 40
1.0
 40
1.0
 10
121.7840322166
 20
362.1292682552
 30
0.0
 10
121.6571393395
 20
363.2242900672
 30
0.0
 10
121.0762096313
 20
365.4574664247
 30
0.0
 10
119.5250287792
 20
368.5535994124
 30
0.0
 10
117.4262353569
 20
371.2392567734
 30
0.0
 10
115.6912761133
 20
372.6531383548
 30
0.0
 10
114.7837142984
 20
373.1769806166
 30
0.0
  0
SPLINE
  5
3DA
100
AcDbEntity
  8
5
100
AcDbSpline
 62
7
  6
CONTINUOUS
 70
0
 71
3
 72
11
 73
7
 74
0
 42
0.0000001
 43
0.0000001
 44
0.0000000001
 40
0.0
 40
0.0
 40
0.0
 40
0.0
 40
0.2879908006
 40
0.5467055412
 40
0.7804250188
 40
1.0
 40
1.0
 40
1.0
 40
1.0
 10
266.9178383954
 20
254.8511206551
 30
0.0
 10
266.9178355763
 20
254.3439319474
 30
0.0
 10
266.8392126966
 20
253.3777527567
 30
0.0
 10
266.4411462029
 20
252.049187794
 30
0.0
 10
265.7715888018
 20
250.9687176452
 30
0.0
 10
265.1453953831
 20
250.4459509653
 30
0.0
 10
264.8105167643
 20
250.2525783855
 30
0.0
  0
SPLINE
  5
3DB
100
AcDbEntity
  8
5
100
AcDbSpline
 62
7
  6
CONTINUOUS
 70
0
 71
3
 72
11
 73
7
 74
0
 42
0.0000001
 43
0.0000001
 44
0.0000000001
 40
0.0
 40
0.0
 40
0.0
 40
0.0
 40
0.2531509223
 40
0.5155366481
 40
0.7696628511
 40
1.0
 40
1.0
 40
1.0
 40
1.0
 10
261.7480074669
 20
248.6720539039
 30
0.0
 10
262.516691586
 20
247.9876973972
 30
0.0
 10
263.9271337737
 20
246.4145451475
 30
0.0
 10
265.5551350013
 20
243.7225531567
 30
0.0
 10
266.62589574
 20
240.862904232
 30
0.0
 10
266.9178556888
 20
238.891091515
 30
0.0
 10
266.9178361208
 20
237.9546570806
 30
0.0
  0
SPLINE
  5
3DC
100
AcDbEntity
  8
5
100
AcDbSpline
 62
7
  6
CONTINUOUS
 70
0
 71
3
 72
11
 73
7
 74
0
 42
0.0000001
 43
0.0000001
 44
0.0000000001
 40
0.0
 40
0.0
 40
0.0
 40
0.0
 40
0.2403874047
 40
0.5015772299
 40
0.7619194268
 40
1.0
 40
1.0
 40
1.0
 40
1.0
 10
129.0383207293
 20
228.0514117316
 30
0.0
 10
128.0393711044
 20
228.717088698
 30
0.0
 10
126.1616628582
 20
230.421895682
 30
0.0
 10
123.9487313106
 20
233.5469637487
 30
0.0
 10
122.4063957953
 20
237.0392592551
 30
0.0
 10
121.9158628934
 20
239.512587368
 30
0.0
 10
121.8655365207
 20
240.7004295604
 30
0.0
  0
SPLINE
  5
3DD
100
AcDbEntity
  8
5
100
AcDbSpline
 62
7
  6
CONTINUOUS
 70
0
 71
3
 72
9
 73
5
 74
0
 42
0.0000001
 43
0.0000001
 44
0.0000000001
 40
0.0
 40
0.0
 40
0.0
 40
0.0
 40
0.236098914
 40
1.0
 40
1.0
 40
1.0
 40
1.0
 10
155.4270769536
 20
272.0307474621
 30
0.0
 10
155.4452200971
 20
272.0202727503
 30
0.0
 10
155.5287197385
 20
271.9887713477
 30
0.0
 10
155.6261684636
 20
271.9930633582
 30
0.0
 10
155.688387192
 20
272.0199595098
 30
0.0
  0
SPLINE
  5
3DE
100
AcDbEntity
  8
5
100
AcDbSpline
 62
7
  6
CONTINUOUS
 70
0
 71
3
 72
11
 73
7
 74
0
 42
0.0000001
 43
0.0000001
 44
0.0000000001
 40
0.0
 40
0.0
 40
0.0
 40
0.0
 40
0.237239768
 40
0.4999988393
 40
0.7627585384
 40
1.0
 40
1.0
 40
1.0
 40
1.0
 10
270.7544172677
 20
393.4220228602
 30
0.0
 10
271.7583138695
 20
392.8424359989
 30
0.0
 10
273.6580516056
 20
391.2435665684
 30
0.0
 10
275.8753037268
 20
388.2136243955
 30
0.0
 10
277.3907038087
 20
384.7784560552
 30
0.0
 10
277.8255145191
 20
382.3337928093
 30
0.0
 10
277.8255145191
 20
381.1745911437
 30
0.0
  0
SPLINE
  5
3DF
100
AcDbEntity
  8
5
100
AcDbSpline
 62
7
  6
CONTINUOUS
 70
0
 71
3
 72
11
 73
7
 74
0
 42
0.0000001
 43
0.0000001
 44
0.0000000001
 40
0.0
 40
0.0
 40
0.0
 40
0.0
 40
0.2303111716
 40
0.4843722465
 40
0.7467212403
 40
1.0
 40
1.0
 40
1.0
 40
1.0
 10
131.2662773314
 20
382.6931360009
 30
0.0
 10
132.0667076853
 20
382.2311297329
 30
0.0
 10
133.6124288327
 20
381.0167352877
 30
0.0
 10
135.5527785324
 20
378.7123814887
 30
0.0
 10
137.0943998055
 20
376.0178669851
 30
0.0
 10
137.7863381732
 20
374.0512364333
 30
0.0
 10
138.0176203097
 20
373.0615405493
 30
0.0
  0
ELLIPSE
  5
3E0
100
AcDbEntity
  8
5
100
AcDbEllipse
 62
7
  6
CONTINUOUS
 10
117.9608972934
 20
357.4389302354
 30
0.0
 11
1.4657896307
 21
2.6573315668
 31
0.0
 40
0.5770582587
 41
-4.2913744932
 42
-3.9495413207
  0
ELLIPSE
  5
3E1
100
AcDbEntity
  8
5
100
AcDbEllipse
 62
7
  6
CONTINUOUS
 10
118.8094289636
 20
356.7385899467
 30
0.0
 11
1.4657896307
 21
2.6573315668
 31
0.0
 40
0.5770582587
 41
-4.3821215616
 42
-3.9495413207
  0
ELLIPSE
  5
3E2
100
AcDbEntity
  8
5
100
AcDbEllipse
 62
7
  6
CONTINUOUS
 10
174.2367538661
 20
329.5328323709
 30
0.0
 11
14.1421356236
 21
0.0000509906
 31
0.0
 40
0.577354396
 41
-0.0000020817
 42
0.9986674756
  0
ENDSEC
  0
SECTION
  2
OBJECTS
  0
DICTIONARY
  5
C
100
AcDbDictionary
280
0
281
1
  3
ACAD_GROUP
350
D
  3
ACAD_MLINESTYLE
350
17
  3
ACAD_LAYOUT
350
1A
  3
ACAD_PLOTSETTINGS
350
19
  3
ACAD_PLOTSTYLENAME
350
E
  0
DICTIONARY
  5
D
102
{ACAD_REACTORS
330
C
102
}
100
AcDbDictionary
280
0
281
1
  0
ACDBDICTIONARYWDFLT
  5
E
102
{ACAD_REACTORS
330
C
102
}
100
AcDbDictionary
281
1
  3
Normal
350
F
100
AcDbDictionaryWithDefault
340
F
  0
DICTIONARY
  5
17
102
{ACAD_REACTORS
330
C
102
}
100
AcDbDictionary
280
0
281
1
  3
Standard
350
18
  0
DICTIONARY
  5
19
102
{ACAD_REACTORS
330
C
102
}
100
AcDbDictionary
281
1
  0
DICTIONARY
  5
1A
102
{ACAD_REACTORS
330
C
102
}
100
AcDbDictionary
281
1
  3
Model
350
3E3
  3
Layout1
350
3E4
  0
ACDBPLACEHOLDER
  5
F
102
{ACAD_REACTORS
330
E
102
}
  0
MLINESTYLE
  5
18
102
{ACAD_REACTORS
330
17
102
}
100
AcDbMlineStyle
  2
STANDARD
 70
0
  3

 62
256
 51
90.0
 52
90.0
 71
2
 49
0.5
 62
256
  6
BYLAYER
 49
-0.5
 62
256
  6
BYLAYER
  0
LAYOUT
  5
3E3
102
{ACAD_REACTORS
330
1A
102
}
100
AcDbPlotSettings
  1

  2
none_device
  4

  6

 40
0.0
 41
0.0
 42
0.0
 43
0.0
 44
210.0
 45
297.0
 46
0.0
 47
0.0
 48
0.0
 49
0.0
140
0.0
141
0.0
142
1.0
143
1.0
 70
1024
 72
1
 73
0
 74
0
  7

 75
0
147
1.0
148
0.0
149
0.0
100
AcDbLayout
  1
Model
 70
0
 71
0
 10
0.0
 20
0.0
 11
210.0
 21
297.0
 12
0.0
 22
0.0
 32
0.0
 14
0.0
 24
0.0
 34
0.0
 15
0.0
 25
0.0
 35
0.0
146
0.0
 13
0.0
 23
0.0
 33
0.0
 16
1.0
 26
0.0
 36
0.0
 17
0.0
 27
1.0
 37
0.0
 76
0
330
211
345
0
346
0
  0
LAYOUT
  5
3E4
102
{ACAD_REACTORS
330
1A
102
}
100
AcDbPlotSettings
  1

  2
none_device
  4

  6

 40
0.0
 41
0.0
 42
0.0
 43
0.0
 44
210.0
 45
297.0
 46
0.0
 47
0.0
 48
0.0
 49
0.0
140
0.0
141
0.0
142
1.0
143
1.0
 70
0
 72
1
 73
0
 74
0
  7

 75
0
147
1.0
148
0.0
149
0.0
100
AcDbLayout
  1
Layout1
 70
0
 71
1
 10
0.0
 20
0.0
 11
210.0
 21
297.0
 12
0.0
 22
0.0
 32
0.0
 14
0.0
 24
0.0
 34
0.0
 15
0.0
 25
0.0
 35
0.0
146
0.0
 13
0.0
 23
0.0
 33
0.0
 16
1.0
 26
0.0
 36
0.0
 17
0.0
 27
1.0
 37
0.0
 76
0
330
212
345
0
346
0
  0
ENDSEC
  0
EOF
