999
DXF file: C:\Users\sesa63760\Dev\_Creo\CAD\MCADUE0002364_3D-CAD\drw0001_3.dxf
999
Pro/ENGINEER 2019471 by Parametric Technology Corporation
  0
SECTION
  2
HEADER
  9
$ACADVER
  1
AC1024
  9
$DWGCODEPAGE
  3
ANSI_1252
  9
$EXTMAX
 10
73.1933807256
 20
103.5163527404
 30
0.0
  9
$EXTMIN
 10
0.0
 20
0.0
 30
0.0
  9
$LIMMIN
 10
0.0
 20
0.0
  9
$LIMMAX
 10
73.1933807256
 20
103.5163527404
  9
$VIEWCTR
 10
36.5966903628
 20
51.7581763702
  9
$VIEWSIZE
 40
103.5163527404
  9
$CLAYER
  8
0
  9
$LTSCALE
 40
6.7477326231
  9
$CELTYPE
  6
BYLAYER
  9
$DIMSCALE
 40
1.0
  9
$DIMASZ
 40
0.8713497705
  9
$DIMEXO
 40
1.0
  9
$DIMDLI
 40
4.6620698123
  9
$DIMEXE
 40
1.0
  9
$DIMCEN
 40
1.1041744292
  9
$DIMLFAC
 40
1.0
  9
$DIMBLK
  1
_FILLED
  9
$DIMALT
 70
0
  9
$DIMALTF
 40
0.0393700787
  9
$DIMTXT
 40
1.2198896788
  9
$DIMTOL
 70
1
  9
$DIMLIM
 70
0
  9
$DIMTFAC
 40
1.0
  9
$DIMTP
 40
0.01
  9
$DIMTM
 40
0.01
  9
$DIMGAP
 40
0.625
  9
$DIMDSEP
 70
46
  9
$AUNITS
 70
0
  9
$PDMODE
 70
3
  9
$PDSIZE
 40
0.3125
  9
$HANDSEED
  5
2BD
  9
$TILEMODE
 70
1
  9
$MEASUREMENT
 70
1
  9
$INSUNITS
 70
4
  0
ENDSEC
  0
SECTION
  2
CLASSES
  0
CLASS
  1
ACDBDICTIONARYWDFLT
  2
AcDbDictionaryWithDefault
  3
AutoCAD 2000
 90
0
 91
1
280
0
281
0
  0
CLASS
  1
ACDBPLACEHOLDER
  2
AcDbPlaceHolder
  3
AutoCAD 2000
 90
0
 91
1
280
0
281
0
  0
CLASS
  1
LAYOUT
  2
AcDbLayout
  3
AutoCAD 2000
 90
0
 91
0
280
0
281
0
  0
ENDSEC
  0
SECTION
  2
TABLES
  0
TABLE
  2
VPORT
  5
8
100
AcDbSymbolTable
 70
2
  0
VPORT
  5
1F4
100
AcDbSymbolTableRecord
100
AcDbViewportTableRecord
  2
*ACTIVE
 70
0
 10
0.0
 20
0.0
 11
1.0
 21
1.0
 12
36.5966903628
 22
51.7581763702
 13
0.0
 23
0.0
 14
1.0
 24
1.0
 15
0.0
 25
0.0
 16
0.0
 26
0.0
 36
1.0
 17
0.0
 27
0.0
 37
0.0
 40
103.5163527404
 41
0.7070707071
 42
50.0
 43
0.0
 44
0.0
 50
0.0
 51
0.0
 71
0
 72
100
 73
1
 74
1
 75
0
 76
0
 77
0
 78
0
  0
ENDTAB
  0
TABLE
  2
LTYPE
  5
5
100
AcDbSymbolTable
 70
6
  0
LTYPE
  5
14
100
AcDbSymbolTableRecord
100
AcDbLinetypeTableRecord
  2
BYBLOCK
 70
0
  3

 72
65
 73
0
 40
0.0
  0
LTYPE
  5
15
100
AcDbSymbolTableRecord
100
AcDbLinetypeTableRecord
  2
BYLAYER
 70
0
  3

 72
65
 73
0
 40
0.0
  0
LTYPE
  5
16
100
AcDbSymbolTableRecord
100
AcDbLinetypeTableRecord
  2
CONTINUOUS
 70
64
  3
Solid line
 72
65
 73
0
 40
0.0
  0
LTYPE
  5
1F5
100
AcDbSymbolTableRecord
100
AcDbLinetypeTableRecord
  2
CENTER
 70
64
  3
____ _ ____ _ ____ _ ____ _ ____ _ ____ _ ____
 72
65
 73
4
 40
0.6
 49
0.375
 74
0
 49
-0.075
 74
0
 49
0.075
 74
0
 49
-0.075
 74
0
  0
LTYPE
  5
1F6
100
AcDbSymbolTableRecord
100
AcDbLinetypeTableRecord
  2
HIDDEN
 70
64
  3
- - - - - - - - - - - - - - - - - - - -
 72
65
 73
2
 40
0.2
 49
0.1
 74
0
 49
-0.1
 74
0
  0
LTYPE
  5
1F7
100
AcDbSymbolTableRecord
100
AcDbLinetypeTableRecord
  2
PHANTOM
 70
64
  3
_____ _ _ _____ _ _ _____ _ _ _____
 72
65
 73
6
 40
0.8
 49
0.45
 74
0
 49
-0.05
 74
0
 49
0.1
 74
0
 49
-0.05
 74
0
 49
0.1
 74
0
 49
-0.05
 74
0
  0
LTYPE
  5
1F8
100
AcDbSymbolTableRecord
100
AcDbLinetypeTableRecord
  2
DOT
 70
64
  3
. . . . . . . . . . . . . . . . . . . .
 72
65
 73
2
 40
0.2
 49
0.1
 74
0
 49
-0.1
 74
0
  0
LTYPE
  5
1F9
100
AcDbSymbolTableRecord
100
AcDbLinetypeTableRecord
  2
DASHED
 70
64
  3
- - - - - - - - - - - - - - - - - - - -
 72
65
 73
2
 40
0.2
 49
0.1
 74
0
 49
-0.1
 74
0
  0
ENDTAB
  0
TABLE
  2
LAYER
  5
2
100
AcDbSymbolTable
 70
36
  0
LAYER
  5
10
100
AcDbSymbolTableRecord
100
AcDbLayerTableRecord
  2
0
 70
0
 62
7
  6
CONTINUOUS
370
-3
390
F
  0
LAYER
  5
1FA
100
AcDbSymbolTableRecord
100
AcDbLayerTableRecord
  2
DEFAULT_1
 70
0
 62
7
  6
CENTER
370
-3
390
F
  0
LAYER
  5
1FB
100
AcDbSymbolTableRecord
100
AcDbLayerTableRecord
  2
DEFAULT_2
 70
0
 62
8
  6
HIDDEN
370
-3
390
F
  0
LAYER
  5
1FC
100
AcDbSymbolTableRecord
100
AcDbLayerTableRecord
  2
DEFAULT_3
 70
0
 62
7
  6
PHANTOM
370
-3
390
F
  0
LAYER
  5
1FD
100
AcDbSymbolTableRecord
100
AcDbLayerTableRecord
  2
00_COMPONENTS
 70
0
 62
7
  6
CONTINUOUS
370
-3
390
F
  0
LAYER
  5
1FE
100
AcDbSymbolTableRecord
100
AcDbLayerTableRecord
  2
01_1_DEFAULT_DATUMS
 70
0
 62
7
  6
CONTINUOUS
370
-3
390
F
  0
LAYER
  5
1FF
100
AcDbSymbolTableRecord
100
AcDbLayerTableRecord
  2
01_PLANES
 70
0
 62
7
  6
CONTINUOUS
370
-3
390
F
  0
LAYER
  5
200
100
AcDbSymbolTableRecord
100
AcDbLayerTableRecord
  2
02_COORD_SYS
 70
0
 62
7
  6
CONTINUOUS
370
-3
390
F
  0
LAYER
  5
201
100
AcDbSymbolTableRecord
100
AcDbLayerTableRecord
  2
03_AXES
 70
0
 62
7
  6
CONTINUOUS
370
-3
390
F
  0
LAYER
  5
202
100
AcDbSymbolTableRecord
100
AcDbLayerTableRecord
  2
04_POINTS
 70
0
 62
7
  6
CONTINUOUS
370
-3
390
F
  0
LAYER
  5
203
100
AcDbSymbolTableRecord
100
AcDbLayerTableRecord
  2
05_CURVES
 70
0
 62
7
  6
CONTINUOUS
370
-3
390
F
  0
LAYER
  5
204
100
AcDbSymbolTableRecord
100
AcDbLayerTableRecord
  2
06_SURFS
 70
0
 62
7
  6
CONTINUOUS
370
-3
390
F
  0
LAYER
  5
205
100
AcDbSymbolTableRecord
100
AcDbLayerTableRecord
  2
07_COSMETICS
 70
0
 62
7
  6
CONTINUOUS
370
-3
390
F
  0
LAYER
  5
206
100
AcDbSymbolTableRecord
100
AcDbLayerTableRecord
  2
10_NOTES
 70
0
 62
7
  6
CONTINUOUS
370
-3
390
F
  0
LAYER
  5
207
100
AcDbSymbolTableRecord
100
AcDbLayerTableRecord
  2
11_NOTES_PUB
 70
0
 62
7
  6
CONTINUOUS
370
-3
390
F
  0
LAYER
  5
208
100
AcDbSymbolTableRecord
100
AcDbLayerTableRecord
  2
13_REF_GTOL
 70
0
 62
7
  6
CONTINUOUS
370
-3
390
F
  0
LAYER
  5
209
100
AcDbSymbolTableRecord
100
AcDbLayerTableRecord
  2
16_MISC
 70
0
 62
7
  6
CONTINUOUS
370
-3
390
F
  0
LAYER
  5
20A
100
AcDbSymbolTableRecord
100
AcDbLayerTableRecord
  2
17_NO_PRINT
 70
0
 62
7
  6
CONTINUOUS
370
-3
390
F
  0
LAYER
  5
20B
100
AcDbSymbolTableRecord
100
AcDbLayerTableRecord
  2
18_DATUM_CAMS_JOINTS
 70
0
 62
7
  6
CONTINUOUS
370
-3
390
F
  0
LAYER
  5
20C
100
AcDbSymbolTableRecord
100
AcDbLayerTableRecord
  2
19_DATUM_FUNCTIONAL
 70
0
 62
7
  6
CONTINUOUS
370
-3
390
F
  0
LAYER
  5
20D
100
AcDbSymbolTableRecord
100
AcDbLayerTableRecord
  2
20_DATUM_KINEMATIC_SCHEME
 70
0
 62
7
  6
CONTINUOUS
370
-3
390
F
  0
ENDTAB
  0
TABLE
  2
STYLE
  5
3
100
AcDbSymbolTable
 70
1
  0
STYLE
  5
11
100
AcDbSymbolTableRecord
100
AcDbTextStyleTableRecord
  2
STANDARD
 70
0
 40
0.0
 41
0.8
 50
0.0
 71
0
 42
0.2
  3
txt
  4

  0
STYLE
  5
20E
100
AcDbSymbolTableRecord
100
AcDbTextStyleTableRecord
  2
TEXTSTYLE_1
 70
0
 40
0.0
 41
0.8
 50
0.0
 71
0
 42
0.2
  3
gdt
  4

  0
ENDTAB
  0
TABLE
  2
VIEW
  5
6
100
AcDbSymbolTable
 70
0
  0
ENDTAB
  0
TABLE
  2
UCS
  5
7
100
AcDbSymbolTable
 70
0
  0
ENDTAB
  0
TABLE
  2
APPID
  5
9
100
AcDbSymbolTable
 70
1
  0
APPID
  5
20F
100
AcDbSymbolTableRecord
100
AcDbRegAppTableRecord
  2
ACAD
 70
0
  0
ENDTAB
  0
TABLE
  2
BLOCK_RECORD
  5
1
100
AcDbSymbolTable
 70
0
  0
BLOCK_RECORD
  5
210
100
AcDbSymbolTableRecord
100
AcDbBlockTableRecord
  2
*Model_Space
  0
BLOCK_RECORD
  5
211
100
AcDbSymbolTableRecord
100
AcDbBlockTableRecord
  2
*Paper_Space
  0
BLOCK_RECORD
  5
212
100
AcDbSymbolTableRecord
100
AcDbBlockTableRecord
  2
_FILLED
  0
ENDTAB
  0
TABLE
  2
DIMSTYLE
  5
A
100
AcDbSymbolTable
 70
1
100
AcDbDimStyleTable
 71
0
  0
DIMSTYLE
105
213
100
AcDbSymbolTableRecord
100
AcDbDimStyleTableRecord
  2
STANDARD
 70
0
  3

  4

 40
1.0
 41
0.8713497705
 42
1.0
 43
0.38
 44
1.0
 45
0.0
 46
0.0
 47
0.01
 48
0.01
140
1.2198896788
141
0.09
142
0.0
143
25.4
144
1.0
145
0.0
146
1.0
147
0.625
 71
1
 72
0
 73
0
 74
0
 75
0
 76
0
 77
1
 78
8
 79
2
170
0
171
1
172
0
173
0
174
0
175
0
176
0
177
0
178
0
270
2
179
2
271
2
272
2
273
2
274
2
275
0
280
0
281
0
282
0
283
1
284
8
285
0
286
0
287
3
288
0
340
11
278
46
341
212
342
212
343
212
344
212
  0
ENDTAB
  0
ENDSEC
  0
SECTION
  2
BLOCKS
  0
BLOCK
  5
20
100
AcDbEntity
  8
0
100
AcDbBlockBegin
  2
*Model_Space
 70
0
 10
0.0
 20
0.0
 30
0.0
  3
*Model_Space
  1

  0
ENDBLK
  5
21
100
AcDbEntity
  8
0
100
AcDbBlockEnd
  0
BLOCK
  5
1C
100
AcDbEntity
  8
0
100
AcDbBlockBegin
  2
*Paper_Space
 70
0
 10
0.0
 20
0.0
 30
0.0
  3
*Paper_Space
  1

  0
ENDBLK
  5
1D
100
AcDbEntity
  8
0
100
AcDbBlockEnd
  0
BLOCK
  5
214
100
AcDbEntity
  8
0
100
AcDbBlockBegin
  2
_FILLED
 70
64
 10
0.0
 20
0.0
  3
_FILLED
  1

  0
SOLID
  5
215
100
AcDbEntity
  8
0
  6
BYBLOCK
 62
0
100
AcDbTrace
 10
0.0
 20
0.0
 11
-1.0
 21
0.25
 12
-1.0
 22
-0.25
 13
-1.0
 23
-0.25
  0
ENDBLK
  5
216
100
AcDbEntity
  8
0
  6
BYBLOCK
 62
0
100
AcDbBlockEnd
  0
ENDSEC
  0
SECTION
  2
ENTITIES
  0
LINE
  5
217
100
AcDbEntity
  8
0
100
AcDbLine
 62
7
  6
CONTINUOUS
 10
8.6103143798
 20
59.5127721349
 11
8.6103143798
 21
61.0127721349
  0
LINE
  5
218
100
AcDbEntity
  8
0
100
AcDbLine
 62
7
  6
CONTINUOUS
 10
9.0446006657
 20
61.0127721349
 11
9.0446006657
 21
67.0127721349
  0
LINE
  5
219
100
AcDbEntity
  8
0
100
AcDbLine
 62
7
  6
CONTINUOUS
 10
12.9636271554
 20
36.1341088641
 11
13.7919857304
 21
35.5127721349
  0
LINE
  5
21A
100
AcDbEntity
  8
0
100
AcDbLine
 62
7
  6
CONTINUOUS
 10
12.9624738519
 20
42.134158952
 11
12.9622188547
 21
42.1404871621
  0
LINE
  5
21B
100
AcDbEntity
  8
0
100
AcDbLine
 62
7
  6
CONTINUOUS
 10
12.9624738519
 20
48.134158952
 11
12.9622188547
 21
48.1404871621
  0
LINE
  5
21C
100
AcDbEntity
  8
0
100
AcDbLine
 62
7
  6
CONTINUOUS
 10
12.9624738519
 20
54.134158952
 11
12.9622188547
 21
54.1404871621
  0
LINE
  5
21D
100
AcDbEntity
  8
0
100
AcDbLine
 62
7
  6
CONTINUOUS
 10
12.9624461133
 20
45.1344349921
 11
12.9623126818
 21
45.1406080276
  0
LINE
  5
21E
100
AcDbEntity
  8
0
100
AcDbLine
 62
7
  6
CONTINUOUS
 10
12.9624461133
 20
51.1344349921
 11
12.9623126818
 21
51.1406080276
  0
LINE
  5
21F
100
AcDbEntity
  8
0
100
AcDbLine
 62
7
  6
CONTINUOUS
 10
12.9623469938
 20
39.1345083176
 11
12.9623125851
 21
39.1406079551
  0
LINE
  5
220
100
AcDbEntity
  8
0
100
AcDbLine
 62
7
  6
CONTINUOUS
 10
12.9636309288
 20
40.6341855777
 11
12.9636229591
 21
40.640399596
  0
LINE
  5
221
100
AcDbEntity
  8
0
100
AcDbLine
 62
7
  6
CONTINUOUS
 10
12.9636309288
 20
46.6341855777
 11
12.9636229591
 21
46.640399596
  0
LINE
  5
222
100
AcDbEntity
  8
0
100
AcDbLine
 62
7
  6
CONTINUOUS
 10
12.9636309288
 20
52.6341855777
 11
12.9636229591
 21
52.640399596
  0
LINE
  5
223
100
AcDbEntity
  8
0
100
AcDbLine
 62
7
  6
CONTINUOUS
 10
11.5612402671
 20
61.0127721349
 11
11.5612402671
 21
67.0127721349
  0
LINE
  5
224
100
AcDbEntity
  8
0
100
AcDbLine
 62
7
  6
CONTINUOUS
 10
12.9630286676
 20
36.1336600114
 11
12.9630366228
 21
36.1393073593
  0
LINE
  5
225
100
AcDbEntity
  8
0
100
AcDbLine
 62
7
  6
CONTINUOUS
 10
12.9638872714
 20
37.6328320735
 11
12.9639431358
 21
37.6395563728
  0
LINE
  5
226
100
AcDbEntity
  8
0
100
AcDbLine
 62
7
  6
CONTINUOUS
 10
12.9623288154
 20
55.6343545111
 11
12.9626759516
 21
55.6402555096
  0
LINE
  5
227
100
AcDbEntity
  8
0
100
AcDbLine
 62
7
  6
CONTINUOUS
 10
12.9623288154
 20
49.6343545111
 11
12.9626759516
 21
49.6402555096
  0
LINE
  5
228
100
AcDbEntity
  8
0
100
AcDbLine
 62
7
  6
CONTINUOUS
 10
12.96257672
 20
39.1346805942
 11
13.9646417377
 21
38.3830580602
  0
LINE
  5
229
100
AcDbEntity
  8
0
100
AcDbLine
 62
7
  6
CONTINUOUS
 10
12.9645980889
 20
37.63336522
 11
13.9634951676
 21
36.8841156883
  0
LINE
  5
22A
100
AcDbEntity
  8
0
100
AcDbLine
 62
7
  6
CONTINUOUS
 10
12.9623288154
 20
43.6343545111
 11
12.9626759516
 21
43.6402555096
  0
LINE
  5
22B
100
AcDbEntity
  8
0
100
AcDbLine
 62
7
  6
CONTINUOUS
 10
12.9633637531
 20
40.6339852028
 11
13.9625770004
 21
39.8845062863
  0
LINE
  5
22C
100
AcDbEntity
  8
0
100
AcDbLine
 62
7
  6
CONTINUOUS
 10
12.9636699227
 20
42.1350559471
 11
13.9642350102
 21
41.3845104848
  0
LINE
  5
22D
100
AcDbEntity
  8
0
100
AcDbLine
 62
7
  6
CONTINUOUS
 10
17.4390927901
 20
61.0127721349
 11
17.4390927901
 21
67.0127721349
  0
LINE
  5
22E
100
AcDbEntity
  8
0
100
AcDbLine
 62
7
  6
CONTINUOUS
 10
12.9629071225
 20
43.634788204
 11
13.9629298623
 21
42.8846909465
  0
LINE
  5
22F
100
AcDbEntity
  8
0
100
AcDbLine
 62
7
  6
CONTINUOUS
 10
12.9629538665
 20
45.1348157677
 11
13.9633488905
 21
44.3844259732
  0
LINE
  5
230
100
AcDbEntity
  8
0
100
AcDbLine
 62
7
  6
CONTINUOUS
 10
13.9633531469
 20
56.3908570852
 11
12.9629220823
 21
55.64044013
  0
LINE
  5
231
100
AcDbEntity
  8
0
100
AcDbLine
 62
7
  6
CONTINUOUS
 10
12.9633637531
 20
46.6339852028
 11
13.9625770004
 21
45.8845062863
  0
LINE
  5
232
100
AcDbEntity
  8
0
100
AcDbLine
 62
7
  6
CONTINUOUS
 10
12.9636699227
 20
48.1350559471
 11
13.9642350102
 21
47.3845104848
  0
LINE
  5
233
100
AcDbEntity
  8
0
100
AcDbLine
 62
7
  6
CONTINUOUS
 10
13.962924462
 20
54.8910964621
 11
12.9636226591
 21
54.1415401241
  0
LINE
  5
234
100
AcDbEntity
  8
0
100
AcDbLine
 62
7
  6
CONTINUOUS
 10
13.9642356306
 20
53.3909807705
 11
12.9634315644
 21
52.6402560273
  0
LINE
  5
235
100
AcDbEntity
  8
0
100
AcDbLine
 62
7
  6
CONTINUOUS
 10
13.7921925557
 20
35.5127721349
 11
62.0898215921
 21
35.5127721349
  0
LINE
  5
236
100
AcDbEntity
  8
0
100
AcDbLine
 62
7
  6
CONTINUOUS
 10
12.9629071225
 20
49.634788204
 11
13.9629298623
 21
48.8846909465
  0
LINE
  5
237
100
AcDbEntity
  8
0
100
AcDbLine
 62
7
  6
CONTINUOUS
 10
12.9629538665
 20
51.1348157677
 11
13.9633488905
 21
50.3844259732
  0
LINE
  5
238
100
AcDbEntity
  8
0
100
AcDbLine
 62
7
  6
CONTINUOUS
 10
24.0277408042
 20
61.0127721349
 11
24.0277408042
 21
67.0127721349
  0
LINE
  5
239
100
AcDbEntity
  8
0
100
AcDbLine
 62
7
  6
CONTINUOUS
 10
13.9625834932
 20
51.890880381
 11
12.9629208138
 21
51.1410641671
  0
LINE
  5
23A
100
AcDbEntity
  8
0
100
AcDbLine
 62
7
  6
CONTINUOUS
 10
12.9633637531
 20
52.6339852028
 11
13.9625770004
 21
51.8845062863
  0
LINE
  5
23B
100
AcDbEntity
  8
0
100
AcDbLine
 62
7
  6
CONTINUOUS
 10
12.9636699227
 20
54.1350559471
 11
13.9642350102
 21
53.3845104848
  0
LINE
  5
23C
100
AcDbEntity
  8
0
100
AcDbLine
 62
7
  6
CONTINUOUS
 10
13.9633531469
 20
50.3908570852
 11
12.9629220823
 21
49.64044013
  0
LINE
  5
23D
100
AcDbEntity
  8
0
100
AcDbLine
 62
7
  6
CONTINUOUS
 10
13.962924462
 20
48.8910964621
 11
12.9636226591
 21
48.1415401241
  0
LINE
  5
23E
100
AcDbEntity
  8
0
100
AcDbLine
 62
7
  6
CONTINUOUS
 10
12.9629071225
 20
55.634788204
 11
13.9629298623
 21
54.8846909465
  0
LINE
  5
23F
100
AcDbEntity
  8
0
100
AcDbLine
 62
7
  6
CONTINUOUS
 10
13.9642356306
 20
47.3909807705
 11
12.9634315644
 21
46.6402560273
  0
LINE
  5
240
100
AcDbEntity
  8
0
100
AcDbLine
 62
7
  6
CONTINUOUS
 10
13.9625834932
 20
45.890880381
 11
12.9629208138
 21
45.1410641671
  0
LINE
  5
241
100
AcDbEntity
  8
0
100
AcDbLine
 62
7
  6
CONTINUOUS
 10
13.7922424472
 20
56.5127721349
 11
13.9633488905
 21
56.3844259732
  0
LINE
  5
242
100
AcDbEntity
  8
0
100
AcDbLine
 62
7
  6
CONTINUOUS
 10
13.9633531469
 20
44.3908570852
 11
12.9629220823
 21
43.64044013
  0
LINE
  5
243
100
AcDbEntity
  8
0
100
AcDbLine
 62
7
  6
CONTINUOUS
 10
13.962924462
 20
42.8910964621
 11
12.9636226591
 21
42.1415401241
  0
LINE
  5
244
100
AcDbEntity
  8
0
100
AcDbLine
 62
7
  6
CONTINUOUS
 10
13.9642356306
 20
41.3909807705
 11
12.9634315644
 21
40.6402560273
  0
LINE
  5
245
100
AcDbEntity
  8
0
100
AcDbLine
 62
7
  6
CONTINUOUS
 10
13.9625834932
 20
39.890880381
 11
12.9625499846
 21
39.1407860205
  0
LINE
  5
246
100
AcDbEntity
  8
0
100
AcDbLine
 62
7
  6
CONTINUOUS
 10
33.5383059672
 20
61.0127721349
 11
33.5383059672
 21
67.0127721349
  0
LINE
  5
247
100
AcDbEntity
  8
0
100
AcDbLine
 62
7
  6
CONTINUOUS
 10
13.964665008
 20
38.3902765498
 11
12.9646103818
 21
37.6400569247
  0
LINE
  5
248
100
AcDbEntity
  8
0
100
AcDbLine
 62
7
  6
CONTINUOUS
 10
13.9634850275
 20
36.8897788791
 11
12.9636115892
 21
36.1397386602
  0
LINE
  5
249
100
AcDbEntity
  8
0
100
AcDbLine
 62
7
  6
CONTINUOUS
 10
62.0898261124
 20
35.5127721349
 11
61.2554154883
 21
36.1387823564
  0
LINE
  5
24A
100
AcDbEntity
  8
0
100
AcDbLine
 62
7
  6
CONTINUOUS
 10
41.6823227925
 20
61.0127721349
 11
41.6823227925
 21
67.0127721349
  0
LINE
  5
24B
100
AcDbEntity
  8
0
100
AcDbLine
 62
7
  6
CONTINUOUS
 10
11.4603143798
 20
56.5127721349
 11
63.7603143798
 21
56.5127721349
  0
LINE
  5
24C
100
AcDbEntity
  8
0
100
AcDbLine
 62
7
  6
CONTINUOUS
 10
62.2581496234
 20
36.8909214829
 11
61.2577591283
 21
37.6412820443
  0
LINE
  5
24D
100
AcDbEntity
  8
0
100
AcDbLine
 62
7
  6
CONTINUOUS
 10
62.2548136933
 20
38.3888884708
 11
61.2551968467
 21
39.1388524336
  0
LWPOLYLINE
  5
24E
100
AcDbEntity
  8
0
100
AcDbPolyline
 62
7
  6
CONTINUOUS
 90
3
 70
0
 10
17.2721539844
 20
56.5127721349
 10
14.8463509714
 20
56.4528887509
 10
13.9627530407
 20
56.3904069477
  0
LINE
  5
24F
100
AcDbEntity
  8
0
100
AcDbLine
 62
7
  6
CONTINUOUS
 10
62.2576889556
 20
39.8907179541
 11
61.2572798692
 21
40.6411182967
  0
LINE
  5
250
100
AcDbEntity
  8
0
100
AcDbLine
 62
7
  6
CONTINUOUS
 10
62.2577216372
 20
41.3907560659
 11
61.2576988974
 21
42.1408533234
  0
LINE
  5
251
100
AcDbEntity
  8
0
100
AcDbLine
 62
7
  6
CONTINUOUS
 10
66.6100618653
 20
59.5127721349
 11
8.6105668944
 21
59.5127721349
  0
LINE
  5
252
100
AcDbEntity
  8
0
100
AcDbLine
 62
7
  6
CONTINUOUS
 10
8.6104417318
 20
61.0127721349
 11
9.0446006657
 21
61.0127721349
  0
LINE
  5
253
100
AcDbEntity
  8
0
100
AcDbLine
 62
7
  6
CONTINUOUS
 10
11.5612402671
 20
61.0127721349
 11
17.4390927901
 21
61.0127721349
  0
LINE
  5
254
100
AcDbEntity
  8
0
100
AcDbLine
 62
7
  6
CONTINUOUS
 10
24.0277408042
 20
61.0127721349
 11
33.5383059672
 21
61.0127721349
  0
LINE
  5
255
100
AcDbEntity
  8
0
100
AcDbLine
 62
7
  6
CONTINUOUS
 10
41.6823227925
 20
61.0127721349
 11
51.1928879554
 21
61.0127721349
  0
LINE
  5
256
100
AcDbEntity
  8
0
100
AcDbLine
 62
7
  6
CONTINUOUS
 10
57.7815359696
 20
61.0127721349
 11
63.6593884925
 21
61.0127721349
  0
LINE
  5
257
100
AcDbEntity
  8
0
100
AcDbLine
 62
7
  6
CONTINUOUS
 10
66.176028094
 20
61.0127721349
 11
66.6101870278
 21
61.0127721349
  0
LINE
  5
258
100
AcDbEntity
  8
0
100
AcDbLine
 62
7
  6
CONTINUOUS
 10
62.2572650065
 20
44.3915590671
 11
61.2580517593
 21
45.1410379836
  0
LINE
  5
259
100
AcDbEntity
  8
0
100
AcDbLine
 62
7
  6
CONTINUOUS
 10
62.256958837
 20
42.8904883228
 11
61.2563937495
 21
43.6410337851
  0
LINE
  5
25A
100
AcDbEntity
  8
0
100
AcDbLine
 62
7
  6
CONTINUOUS
 10
61.256393129
 20
55.6345634993
 11
62.2571971952
 21
56.3852882426
  0
LINE
  5
25B
100
AcDbEntity
  8
0
100
AcDbLine
 62
7
  6
CONTINUOUS
 10
62.2576748932
 20
45.8907285022
 11
61.2572798692
 21
46.6411182967
  0
LINE
  5
25C
100
AcDbEntity
  8
0
100
AcDbLine
 62
7
  6
CONTINUOUS
 10
62.2577216372
 20
47.3907560659
 11
61.2576988974
 21
48.1408533234
  0
LINE
  5
25D
100
AcDbEntity
  8
0
100
AcDbLine
 62
7
  6
CONTINUOUS
 10
51.1928879554
 20
61.0127721349
 11
51.1928879554
 21
67.0127721349
  0
LINE
  5
25E
100
AcDbEntity
  8
0
100
AcDbLine
 62
7
  6
CONTINUOUS
 10
61.2577042977
 20
54.1344478078
 11
62.2570061006
 21
54.8840041458
  0
LINE
  5
25F
100
AcDbEntity
  8
0
100
AcDbLine
 62
7
  6
CONTINUOUS
 10
62.2572650065
 20
50.3915590671
 11
61.2580517593
 21
51.1410379836
  0
LINE
  5
260
100
AcDbEntity
  8
0
100
AcDbLine
 62
7
  6
CONTINUOUS
 10
62.256958837
 20
48.8904883228
 11
61.2563937495
 21
49.6410337851
  0
LINE
  5
261
100
AcDbEntity
  8
0
100
AcDbLine
 62
7
  6
CONTINUOUS
 10
61.2572756128
 20
52.6346871847
 11
62.2577066774
 21
53.3851041398
  0
LINE
  5
262
100
AcDbEntity
  8
0
100
AcDbLine
 62
7
  6
CONTINUOUS
 10
61.2580452665
 20
51.1346638888
 11
62.2577079458
 21
51.8844801028
  0
LINE
  5
263
100
AcDbEntity
  8
0
100
AcDbLine
 62
7
  6
CONTINUOUS
 10
9.0446006657
 20
67.0127721349
 11
66.176028094
 21
67.0127721349
  0
LINE
  5
264
100
AcDbEntity
  8
0
100
AcDbLine
 62
7
  6
CONTINUOUS
 10
62.2576748932
 20
51.8907285022
 11
61.2572798692
 21
52.6411182967
  0
LINE
  5
265
100
AcDbEntity
  8
0
100
AcDbLine
 62
7
  6
CONTINUOUS
 10
61.256393129
 20
49.6345634993
 11
62.2571971952
 21
50.3852882426
  0
LINE
  5
266
100
AcDbEntity
  8
0
100
AcDbLine
 62
7
  6
CONTINUOUS
 10
61.2577042977
 20
48.1344478078
 11
62.2570061006
 21
48.8840041458
  0
LINE
  5
267
100
AcDbEntity
  8
0
100
AcDbLine
 62
7
  6
CONTINUOUS
 10
10.5743750717
 20
68.5127721349
 11
64.646253688
 21
68.5127721349
  0
LINE
  5
268
100
AcDbEntity
  8
0
100
AcDbLine
 62
7
  6
CONTINUOUS
 10
62.2577216372
 20
53.3907560658
 11
61.2576988974
 21
54.1408533233
  0
LINE
  5
269
100
AcDbEntity
  8
0
100
AcDbLine
 62
7
  6
CONTINUOUS
 10
62.256958837
 20
54.8904883228
 11
61.2563937495
 21
55.6410337851
  0
LINE
  5
26A
100
AcDbEntity
  8
0
100
AcDbLine
 62
7
  6
CONTINUOUS
 10
57.7815359696
 20
61.0127721349
 11
57.7815359696
 21
67.0127721349
  0
LINE
  5
26B
100
AcDbEntity
  8
0
100
AcDbLine
 62
7
  6
CONTINUOUS
 10
61.2572756128
 20
46.6346871847
 11
62.2577066774
 21
47.3851041399
  0
LINE
  5
26C
100
AcDbEntity
  8
0
100
AcDbLine
 62
7
  6
CONTINUOUS
 10
61.2580452665
 20
45.1346638888
 11
62.2577079458
 21
45.8844801028
  0
LINE
  5
26D
100
AcDbEntity
  8
0
100
AcDbLine
 62
7
  6
CONTINUOUS
 10
62.2572650065
 20
56.3915590671
 11
62.0956620569
 21
56.5127721349
  0
LINE
  5
26E
100
AcDbEntity
  8
0
100
AcDbLine
 62
7
  6
CONTINUOUS
 10
61.256393129
 20
43.6345634993
 11
62.2571971952
 21
44.3852882426
  0
LINE
  5
26F
100
AcDbEntity
  8
0
100
AcDbLine
 62
7
  6
CONTINUOUS
 10
61.2577042977
 20
42.1344478078
 11
62.2570061006
 21
42.8840041458
  0
LINE
  5
270
100
AcDbEntity
  8
0
100
AcDbLine
 62
7
  6
CONTINUOUS
 10
62.2587228789
 20
41.3843420661
 11
62.2584050277
 21
41.39024347
  0
LINE
  5
271
100
AcDbEntity
  8
0
100
AcDbLine
 62
7
  6
CONTINUOUS
 10
62.2587228789
 20
47.3843420661
 11
62.2584050277
 21
47.39024347
  0
LINE
  5
272
100
AcDbEntity
  8
0
100
AcDbLine
 62
7
  6
CONTINUOUS
 10
62.2587228789
 20
53.3843420661
 11
62.2584050277
 21
53.39024347
  0
LINE
  5
273
100
AcDbEntity
  8
0
100
AcDbLine
 62
7
  6
CONTINUOUS
 10
62.2560180393
 20
38.3817804898
 11
62.2559907936
 21
38.3880053527
  0
LINE
  5
274
100
AcDbEntity
  8
0
100
AcDbLine
 62
7
  6
CONTINUOUS
 10
62.2579192128
 20
51.8843216608
 11
62.2579568166
 21
51.890517034
  0
LINE
  5
275
100
AcDbEntity
  8
0
100
AcDbLine
 62
7
  6
CONTINUOUS
 10
62.2579192128
 20
45.8843216608
 11
62.2579568166
 21
45.890517034
  0
LINE
  5
276
100
AcDbEntity
  8
0
100
AcDbLine
 62
7
  6
CONTINUOUS
 10
62.2586391339
 20
56.3842068801
 11
62.2587802151
 21
56.39042256
  0
LINE
  5
277
100
AcDbEntity
  8
0
100
AcDbLine
 62
7
  6
CONTINUOUS
 10
62.2586391339
 20
50.3842068801
 11
62.2587802151
 21
50.39042256
  0
LINE
  5
278
100
AcDbEntity
  8
0
100
AcDbLine
 62
7
  6
CONTINUOUS
 10
62.2568438581
 20
54.8841258245
 11
62.2570063322
 21
54.8904526957
  0
LINE
  5
279
100
AcDbEntity
  8
0
100
AcDbLine
 62
7
  6
CONTINUOUS
 10
62.2568438581
 20
48.8841258245
 11
62.2570063322
 21
48.8904526957
  0
LINE
  5
27A
100
AcDbEntity
  8
0
100
AcDbLine
 62
7
  6
CONTINUOUS
 10
61.2572756128
 20
40.6346871847
 11
62.2577066774
 21
41.3851041399
  0
LINE
  5
27B
100
AcDbEntity
  8
0
100
AcDbLine
 62
7
  6
CONTINUOUS
 10
61.2552703473
 20
39.1324877571
 11
62.2577074535
 21
39.8843829918
  0
LINE
  5
27C
100
AcDbEntity
  8
0
100
AcDbLine
 62
7
  6
CONTINUOUS
 10
63.6593884925
 20
61.0127721349
 11
63.6593884925
 21
67.0127721349
  0
LINE
  5
27D
100
AcDbEntity
  8
0
100
AcDbLine
 62
7
  6
CONTINUOUS
 10
62.2578537127
 20
39.8842733029
 11
62.2579568201
 21
39.8905170314
  0
LINE
  5
27E
100
AcDbEntity
  8
0
100
AcDbLine
 62
7
  6
CONTINUOUS
 10
62.2586391339
 20
44.3842068802
 11
62.2587802151
 21
44.39042256
  0
LINE
  5
27F
100
AcDbEntity
  8
0
100
AcDbLine
 62
7
  6
CONTINUOUS
 10
62.2568438581
 20
42.8841258245
 11
62.2570063322
 21
42.8904526957
  0
LINE
  5
280
100
AcDbEntity
  8
0
100
AcDbLine
 62
7
  6
CONTINUOUS
 10
62.2581261283
 20
36.884535302
 11
62.2582890803
 21
36.8908168812
  0
LINE
  5
281
100
AcDbEntity
  8
0
100
AcDbLine
 62
7
  6
CONTINUOUS
 10
61.2576454328
 20
37.6346652199
 11
62.2548506448
 21
38.3826561637
  0
LINE
  5
282
100
AcDbEntity
  8
0
100
AcDbLine
 62
7
  6
CONTINUOUS
 10
61.2554975594
 20
36.132552823
 11
62.2580898503
 21
36.884562508
  0
LINE
  5
283
100
AcDbEntity
  8
0
100
AcDbLine
 62
7
  6
CONTINUOUS
 10
66.176028094
 20
61.0127721349
 11
66.176028094
 21
67.0127721349
  0
LINE
  5
284
100
AcDbEntity
  8
0
100
AcDbLine
 62
7
  6
CONTINUOUS
 10
66.6103143798
 20
59.5127721349
 11
66.6103143798
 21
61.0127721349
  0
ARC
  5
285
100
AcDbEntity
  8
0
100
AcDbCircle
 62
7
  6
CONTINUOUS
 10
11.4603143798
 20
58.0127721349
 40
1.5
100
AcDbArc
 50
90.0
 51
270.0
  0
ARC
  5
286
100
AcDbEntity
  8
0
100
AcDbCircle
 62
7
  6
CONTINUOUS
 10
63.7603143798
 20
58.0127721349
 40
1.5
100
AcDbArc
 50
270.0
 51
90.0
  0
SPLINE
  5
287
100
AcDbEntity
  8
0
100
AcDbSpline
 62
7
  6
CONTINUOUS
 70
0
 71
3
 72
15
 73
11
 74
0
 42
0.0000001
 43
0.0000001
 44
0.0000000001
 40
0.0
 40
0.0
 40
0.0
 40
0.0
 40
0.1249622091
 40
0.2500222493
 40
0.3749935765
 40
0.4999927916
 40
0.6249974594
 40
0.7499749194
 40
0.8750304898
 40
1.0
 40
1.0
 40
1.0
 40
1.0
 10
10.5743750717
 20
68.5127721349
 30
0.0
 10
10.4754135142
 20
68.5127721349
 30
0.0
 10
10.2769033347
 20
68.4937706049
 30
0.0
 10
9.9903375124
 20
68.4094759987
 30
0.0
 10
9.7250498029
 20
68.2718328004
 30
0.0
 10
9.4912478429
 20
68.085708303
 30
0.0
 10
9.2982582949
 20
67.8574754614
 30
0.0
 10
9.1539397494
 20
67.595603902
 30
0.0
 10
9.0647831181
 20
67.3103140327
 30
0.0
 10
9.0446006657
 20
67.1117394743
 30
0.0
 10
9.0446006657
 20
67.0127721349
 30
0.0
  0
SPLINE
  5
288
100
AcDbEntity
  8
0
100
AcDbSpline
 62
7
  6
CONTINUOUS
 70
0
 71
3
 72
15
 73
11
 74
0
 42
0.0000001
 43
0.0000001
 44
0.0000000001
 40
0.0
 40
0.0
 40
0.0
 40
0.0
 40
0.1249693665
 40
0.2500247876
 40
0.3750023072
 40
0.5000070794
 40
0.6250064087
 40
0.7499778278
 40
0.8750378472
 40
1.0
 40
1.0
 40
1.0
 40
1.0
 10
66.176028094
 20
67.0127721349
 30
0.0
 10
66.176028094
 20
67.1117393608
 30
0.0
 10
66.1558458155
 20
67.3103137054
 30
0.0
 10
66.0666891591
 20
67.5956033757
 30
0.0
 10
65.9223707677
 20
67.8574750217
 30
0.0
 10
65.7293811474
 20
68.0857081045
 30
0.0
 10
65.4955790091
 20
68.2718327859
 30
0.0
 10
65.2302911475
 20
68.409476008
 30
0.0
 10
64.9437253276
 20
68.4937706719
 30
0.0
 10
64.7452152011
 20
68.5127721349
 30
0.0
 10
64.646253688
 20
68.5127721349
 30
0.0
  0
SPLINE
  5
289
100
AcDbEntity
  8
0
100
AcDbSpline
 62
7
  6
CONTINUOUS
 70
0
 71
3
 72
34
 73
30
 74
0
 42
0.0000001
 43
0.0000001
 44
0.0000000001
 40
0.0
 40
0.0
 40
0.0
 40
0.0
 40
0.0002566765
 40
0.0006518324
 40
0.0011907534
 40
0.0018751794
 40
0.0036825686
 40
0.0060752158
 40
0.0090518493
 40
0.0126105119
 40
0.0167496133
 40
0.0214679045
 40
0.0326366797
 40
0.0461053793
 40
0.0618473286
 40
0.079816129
 40
0.0999639423
 40
0.1222407808
 40
0.1465942403
 40
0.1729712695
 40
0.2315408121
 40
0.2973909914
 40
0.3699035357
 40
0.4483930363
 40
0.5321005008
 40
0.6202425726
 40
0.7119893283
 40
0.8064610938
 40
1.0
 40
1.0
 40
1.0
 40
1.0
 10
12.9622582901
 20
45.1405987833
 30
0.0
 10
12.9639402108
 20
45.1418717615
 30
0.0
 10
12.9689383993
 20
45.144033984
 30
0.0
 10
12.9783080889
 20
45.1467651004
 30
0.0
 10
12.9913422233
 20
45.1495303242
 30
0.0
 10
13.0159008649
 20
45.1536519945
 30
0.0
 10
13.0557653188
 20
45.1585204513
 30
0.0
 10
13.114478583
 20
45.1640787875
 30
0.0
 10
13.1876384195
 20
45.1696776002
 30
0.0
 10
13.2751779581
 20
45.175329888
 30
0.0
 10
13.3770542688
 20
45.1810219673
 30
0.0
 10
13.5414283227
 20
45.1891306966
 30
0.0
 10
13.7824668795
 20
45.1991357942
 30
0.0
 10
14.1140953081
 20
45.2108546195
 30
0.0
 10
14.5016305325
 20
45.2227460795
 30
0.0
 10
14.9440790561
 20
45.2345416514
 30
0.0
 10
15.4402568913
 20
45.2459389658
 30
0.0
 10
15.9889224467
 20
45.2569853965
 30
0.0
 10
16.588787484
 20
45.2680755869
 30
0.0
 10
17.4868638242
 20
45.2839987633
 30
0.0
 10
18.7259247904
 20
45.3047378308
 30
0.0
 10
20.3441305306
 20
45.3279662355
 30
0.0
 10
22.1260610283
 20
45.3504156768
 30
0.0
 10
24.0547523051
 20
45.3727847016
 30
0.0
 10
26.1118762341
 20
45.3967000602
 30
0.0
 10
28.2779571147
 20
45.4203636826
 30
0.0
 10
30.5325140225
 20
45.4429455775
 30
0.0
 10
33.6531757932
 20
45.4734839644
 30
0.0
 10
36.0199090971
 20
45.4964743922
 30
0.0
 10
37.6103150974
 20
45.5123000197
 30
0.0
  0
SPLINE
  5
28A
100
AcDbEntity
  8
0
100
AcDbSpline
 62
7
  6
CONTINUOUS
 70
0
 71
3
 72
34
 73
30
 74
0
 42
0.0000001
 43
0.0000001
 44
0.0000000001
 40
0.0
 40
0.0
 40
0.0
 40
0.0
 40
0.0971933332
 40
0.1934994424
 40
0.2879413591
 40
0.3796493207
 40
0.4677687605
 40
0.5514782621
 40
0.6299821037
 40
0.7024952855
 40
0.7683250245
 40
0.8268720222
 40
0.8532504388
 40
0.877617179
 40
0.8999160075
 40
0.9200910694
 40
0.9380893626
 40
0.9538604389
 40
0.9673552061
 40
0.9785432431
 40
0.9832671851
 40
0.9874085274
 40
0.9909654847
 40
0.9939370071
 40
0.9963232078
 40
0.9981250115
 40
0.9993455135
 40
0.9997412477
 40
1.0
 40
1.0
 40
1.0
 40
1.0
 10
37.610341251
 20
38.0101583018
 30
0.0
 10
38.4089465949
 20
38.0180814041
 30
0.0
 10
39.9988578357
 20
38.0347871779
 30
0.0
 10
42.3647672467
 20
38.0591670023
 30
0.0
 10
44.685619758
 20
38.081646255
 30
0.0
 10
46.9392100561
 20
38.1029330562
 30
0.0
 10
49.1045979134
 20
38.1251900669
 30
0.0
 10
51.1614622774
 20
38.1491046943
 30
0.0
 10
53.0900637901
 20
38.1742205622
 30
0.0
 10
54.8717548077
 20
38.1976852425
 30
0.0
 10
56.4894675016
 20
38.2194123774
 30
0.0
 10
57.7280986488
 20
38.2377846015
 30
0.0
 10
58.6260251547
 20
38.2533910166
 30
0.0
 10
59.2261187872
 20
38.2651185816
 30
0.0
 10
59.775221784
 20
38.2771553244
 30
0.0
 10
60.2719745911
 20
38.2894554982
 30
0.0
 10
60.7150681478
 20
38.3018207373
 30
0.0
 10
61.1032523044
 20
38.3139510141
 30
0.0
 10
61.4354646189
 20
38.325501368
 30
0.0
 10
61.6769142209
 20
38.3350781891
 30
0.0
 10
61.8415156747
 20
38.3427615851
 30
0.0
 10
61.9434480615
 20
38.3481455471
 30
0.0
 10
62.0309630487
 20
38.3534981882
 30
0.0
 10
62.1040152536
 20
38.3588529737
 30
0.0
 10
62.1626286606
 20
38.3641540422
 30
0.0
 10
62.2067163033
 20
38.3694930193
 30
0.0
 10
62.2345148576
 20
38.3741277608
 30
0.0
 10
62.2492981796
 20
38.3783559602
 30
0.0
 10
62.2543186268
 20
38.3805096531
 30
0.0
 10
62.256027458
 20
38.381774787
 30
0.0
  0
SPLINE
  5
28B
100
AcDbEntity
  8
0
100
AcDbSpline
 62
7
  6
CONTINUOUS
 70
0
 71
3
 72
33
 73
29
 74
0
 42
0.0000001
 43
0.0000001
 44
0.0000000001
 40
0.0
 40
0.0
 40
0.0
 40
0.0
 40
0.1934700546
 40
0.2879097965
 40
0.3796415269
 40
0.4677758882
 40
0.5514594322
 40
0.6299004219
 40
0.7023876694
 40
0.7682558867
 40
0.8268680836
 40
0.8532595315
 40
0.8776168527
 40
0.899886859
 40
0.920017443
 40
0.9379657966
 40
0.9536977149
 40
0.9671798203
 40
0.9783835735
 40
0.9831233906
 40
0.9872845058
 40
0.9908640621
 40
0.9938596872
 40
0.9962697997
 40
0.9980936044
 40
0.9993324842
 40
0.9997355218
 40
1.0
 40
1.0
 40
1.0
 40
1.0
 10
37.6103164447
 20
36.5125438411
 30
0.0
 10
39.2001714689
 20
36.527596658
 30
0.0
 10
41.5661127335
 20
36.5478169398
 30
0.0
 10
44.6858278638
 20
36.5792933245
 30
0.0
 10
46.9399210045
 20
36.604167394
 30
0.0
 10
49.1056215961
 20
36.6284237493
 30
0.0
 10
51.1621103707
 20
36.6511026873
 30
0.0
 10
53.0900212613
 20
36.6722510912
 30
0.0
 10
54.8715058234
 20
36.6944142884
 30
0.0
 10
56.4900020105
 20
36.718221214
 30
0.0
 10
57.7296742162
 20
36.7396660317
 30
0.0
 10
58.6282433334
 20
36.7562650091
 30
0.0
 10
59.228197395
 20
36.7677706609
 30
0.0
 10
59.7766970958
 20
36.7789199432
 30
0.0
 10
60.2725225292
 20
36.7897926505
 30
0.0
 10
60.7146068636
 20
36.8005505823
 30
0.0
 10
61.1020345265
 20
36.8113903863
 30
0.0
 10
61.434000053
 20
36.8225520145
 30
0.0
 10
61.6756138189
 20
36.8326131854
 30
0.0
 10
61.8406192455
 20
36.8410464062
 30
0.0
 10
61.943006192
 20
36.8470782038
 30
0.0
 10
62.031031434
 20
36.8531541631
 30
0.0
 10
62.1046151643
 20
36.8592651999
 30
0.0
 10
62.1637429517
 20
36.8653000885
 30
0.0
 10
62.2082858476
 20
36.8712929482
 30
0.0
 10
62.2364012736
 20
36.8764128577
 30
0.0
 10
62.2513679517
 20
36.8809436805
 30
0.0
 10
62.2564530239
 20
36.8832158084
 30
0.0
 10
62.258185849
 20
36.8845277831
 30
0.0
  0
SPLINE
  5
28C
100
AcDbEntity
  8
0
100
AcDbSpline
 62
7
  6
CONTINUOUS
 70
0
 71
3
 72
14
 73
10
 74
0
 42
0.0000001
 43
0.0000001
 44
0.0000000001
 40
0.0
 40
0.0
 40
0.0
 40
0.0
 40
0.1114294486
 40
0.2249671533
 40
0.3423074106
 40
0.4647470373
 40
0.5926464661
 40
0.7255028935
 40
1.0
 40
1.0
 40
1.0
 40
1.0
 10
12.7808062261
 20
68.5127721349
 30
0.0
 10
12.7014336165
 20
68.5127721349
 30
0.0
 10
12.5405604193
 20
68.4933653376
 30
0.0
 10
12.3100827432
 20
68.4076323961
 30
0.0
 10
12.0980494819
 20
68.2683557713
 30
0.0
 10
11.912444235
 20
68.081128922
 30
0.0
 10
11.7601379078
 20
67.8526248423
 30
0.0
 10
11.6075820805
 20
67.5016832518
 30
0.0
 10
11.5612402671
 20
67.2082999056
 30
0.0
 10
11.5612402671
 20
67.0127721349
 30
0.0
  0
SPLINE
  5
28D
100
AcDbEntity
  8
0
100
AcDbSpline
 62
7
  6
CONTINUOUS
 70
0
 71
3
 72
59
 73
55
 74
0
 42
0.0000001
 43
0.0000001
 44
0.0000000001
 40
0.0
 40
0.0
 40
0.0
 40
0.0
 40
0.0001327764
 40
0.0003343711
 40
0.000953551
 40
0.0018652821
 40
0.0030700373
 40
0.0045670513
 40
0.0063551615
 40
0.0084330326
 40
0.0107992429
 40
0.016391919
 40
0.0231257357
 40
0.0309936191
 40
0.0399839792
 40
0.0500702739
 40
0.0612227855
 40
0.0734114883
 40
0.0866052435
 40
0.1158820141
 40
0.148795631
 40
0.1850626668
 40
0.2243093802
 40
0.2661494262
 40
0.3102059019
 40
0.3560678685
 40
0.4032972711
 40
0.500033471
 40
0.5967672915
 40
0.643990234
 40
0.6898565902
 40
0.7339138402
 40
0.7757484406
 40
0.8149784616
 40
0.85124411
 40
0.8841745443
 40
0.9134401969
 40
0.9266240536
 40
0.9388037473
 40
0.9499500108
 40
0.9600336231
 40
0.9690274609
 40
0.9769070099
 40
0.9836481676
 40
0.989235499
 40
0.9915953638
 40
0.9936656429
 40
0.9954461065
 40
0.9969365589
 40
0.9981364834
 40
0.999045487
 40
0.9996643155
 40
0.9998664491
 40
1.0
 40
1.0
 40
1.0
 40
1.0
 10
61.2584291394
 20
51.1342138448
 30
0.0
 10
61.2567640969
 20
51.1329443795
 30
0.0
 10
61.2518793824
 20
51.1307497831
 30
0.0
 10
61.2375084491
 20
51.1264185948
 30
0.0
 10
61.2105222703
 20
51.1215910692
 30
0.0
 10
61.1677793073
 20
51.1159864444
 30
0.0
 10
61.1110534946
 20
51.1103616499
 30
0.0
 10
61.0404863435
 20
51.1046496314
 30
0.0
 10
60.9561066296
 20
51.0989187941
 30
0.0
 10
60.8579983316
 20
51.0931634867
 30
0.0
 10
60.6999353248
 20
51.0850130913
 30
0.0
 10
60.468453859
 20
51.075052226
 30
0.0
 10
60.1502094247
 20
51.0635910862
 30
0.0
 10
59.7783577911
 20
51.0520945645
 30
0.0
 10
59.3536192957
 20
51.0405756203
 30
0.0
 10
58.8770685717
 20
51.0290349092
 30
0.0
 10
58.3500696538
 20
51.0174790191
 30
0.0
 10
57.7740580819
 20
51.0059125677
 30
0.0
 10
56.9122736373
 20
50.9899193045
 30
0.0
 10
55.7236887286
 20
50.9701656836
 30
0.0
 10
54.1712636378
 20
50.9471420698
 30
0.0
 10
52.46160506
 20
50.9241066734
 30
0.0
 10
50.6111726305
 20
50.90103495
 30
0.0
 10
48.6378983768
 20
50.877935242
 30
0.0
 10
46.5603002776
 20
50.854820643
 30
0.0
 10
44.3977113795
 20
50.8316980974
 30
0.0
 10
41.4044428545
 20
50.8006201936
 30
0.0
 10
37.608997658
 20
50.7623107282
 30
0.0
 10
33.8136543787
 20
50.7239971435
 30
0.0
 10
30.8204560756
 20
50.692914774
 30
0.0
 10
28.6578875349
 20
50.6698001618
 30
0.0
 10
26.580293875
 20
50.6466856702
 30
0.0
 10
24.6073565455
 20
50.6235848805
 30
0.0
 10
22.7572951913
 20
50.6005073478
 30
0.0
 10
21.0476565766
 20
50.5774688469
 30
0.0
 10
19.4951631516
 20
50.554467143
 30
0.0
 10
18.3066446334
 20
50.5347024642
 30
0.0
 10
17.4453338397
 20
50.5187044882
 30
0.0
 10
16.8697190448
 20
50.5071375176
 30
0.0
 10
16.3430030654
 20
50.4955827824
 30
0.0
 10
15.8665383565
 20
50.4840419017
 30
0.0
 10
15.4416034143
 20
50.4725189892
 30
0.0
 10
15.06939682
 20
50.461030574
 30
0.0
 10
14.750936449
 20
50.4495790011
 30
0.0
 10
14.5195236952
 20
50.4396143347
 30
0.0
 10
14.3617654504
 20
50.4314580399
 30
0.0
 10
14.2639981272
 20
50.425701615
 30
0.0
 10
14.1799631515
 20
50.4199691456
 30
0.0
 10
14.1096970777
 20
50.4142560426
 30
0.0
 10
14.0531957484
 20
50.4086296016
 30
0.0
 10
14.0105775409
 20
50.4030231769
 30
0.0
 10
13.9836349543
 20
50.3981932659
 30
0.0
 10
13.9692453583
 20
50.3938667019
 30
0.0
 10
13.9643395298
 20
50.3916740522
 30
0.0
 10
13.9626572573
 20
50.3904071033
 30
0.0
  0
SPLINE
  5
28E
100
AcDbEntity
  8
0
100
AcDbSpline
 62
7
  6
CONTINUOUS
 70
0
 71
3
 72
14
 73
10
 74
0
 42
0.0000001
 43
0.0000001
 44
0.0000000001
 40
0.0
 40
0.0
 40
0.0
 40
0.0
 40
0.1114326813
 40
0.2249717479
 40
0.3423099228
 40
0.4647481087
 40
0.5926473334
 40
0.7255035355
 40
1.0
 40
1.0
 40
1.0
 40
1.0
 10
62.4398225335
 20
68.5127721349
 30
0.0
 10
62.5191975828
 20
68.5127721349
 30
0.0
 10
62.6800742371
 20
68.4933656309
 30
0.0
 10
62.9105552823
 20
68.407634612
 30
0.0
 10
63.1225858779
 20
68.2683553692
 30
0.0
 10
63.3081869429
 20
68.0811278626
 30
0.0
 10
63.4604931642
 20
67.8526249381
 30
0.0
 10
63.613049464
 20
67.5016834208
 30
0.0
 10
63.6593884925
 20
67.2082997859
 30
0.0
 10
63.6593884925
 20
67.0127721349
 30
0.0
  0
SPLINE
  5
28F
100
AcDbEntity
  8
0
100
AcDbSpline
 62
7
  6
CONTINUOUS
 70
0
 71
3
 72
35
 73
31
 74
0
 42
0.0000001
 43
0.0000001
 44
0.0000000001
 40
0.0
 40
0.0
 40
0.0
 40
0.0
 40
0.0002465094
 40
0.0006314288
 40
0.0011600177
 40
0.0018340389
 40
0.0036207032
 40
0.0059933904
 40
0.0089517447
 40
0.0124946848
 40
0.0166202113
 40
0.0213257381
 40
0.0324660832
 40
0.0458939806
 40
0.0615835778
 40
0.079503749
 40
0.0996225458
 40
0.1218940428
 40
0.1462559912
 40
0.1726449492
 40
0.2312301652
 40
0.2970774743
 40
0.3695754022
 40
0.4480654247
 40
0.5318244148
 40
0.6200331874
 40
0.711829672
 40
0.8063448372
 40
0.9027240934
 40
1.0
 40
1.0
 40
1.0
 40
1.0
 10
12.9629307755
 20
36.139258218
 30
0.0
 10
12.9645454981
 20
36.1404814308
 30
0.0
 10
12.9694126349
 20
36.1425302131
 30
0.0
 10
12.97855493
 20
36.1451228693
 30
0.0
 10
12.9913581368
 20
36.1477525685
 30
0.0
 10
13.0155989618
 20
36.151694973
 30
0.0
 10
13.0550612132
 20
36.1563761897
 30
0.0
 10
13.1133001499
 20
36.1617761267
 30
0.0
 10
13.1860193744
 20
36.167286884
 30
0.0
 10
13.2731641132
 20
36.1729399379
 30
0.0
 10
13.3746862356
 20
36.1787159883
 30
0.0
 10
13.5385938979
 20
36.1870367275
 30
0.0
 10
13.7789338922
 20
36.1974337554
 30
0.0
 10
14.1095345872
 20
36.2096502575
 30
0.0
 10
14.495878003
 20
36.2220019573
 30
0.0
 10
14.9372342178
 20
36.2341773731
 30
0.0
 10
15.4327090088
 20
36.2458305586
 30
0.0
 10
15.9811445325
 20
36.2569182292
 30
0.0
 10
16.5811200234
 20
36.2677485661
 30
0.0
 10
17.479482646
 20
36.2826851483
 30
0.0
 10
18.7187384931
 20
36.3015437792
 30
0.0
 10
20.3368715048
 20
36.3252481104
 30
0.0
 10
22.118577708
 20
36.349967484
 30
0.0
 10
24.0474944913
 20
36.3743253599
 30
0.0
 10
26.1055562022
 20
36.396079929
 30
0.0
 10
28.2729744457
 20
36.4174457207
 30
0.0
 10
30.5287746096
 20
36.4401437474
 30
0.0
 10
32.8517021043
 20
36.4646240333
 30
0.0
 10
35.2196580737
 20
36.4892958308
 30
0.0
 10
36.8109723875
 20
36.5049756166
 30
0.0
 10
37.6103164447
 20
36.5125438411
 30
0.0
  0
SPLINE
  5
290
100
AcDbEntity
  8
0
100
AcDbSpline
 62
7
  6
CONTINUOUS
 70
0
 71
3
 72
33
 73
29
 74
0
 42
0.0000001
 43
0.0000001
 44
0.0000000001
 40
0.0
 40
0.0
 40
0.0
 40
0.0
 40
0.0002586051
 40
0.0006536071
 40
0.0018714068
 40
0.0036698329
 40
0.0060531421
 40
0.0090234167
 40
0.0125818541
 40
0.0167273779
 40
0.0214572997
 40
0.032658992
 40
0.0461636384
 40
0.0619358624
 40
0.0799237261
 40
0.1000741315
 40
0.1223394082
 40
0.1466781907
 40
0.173048629
 40
0.2316367048
 40
0.2975203183
 40
0.3700271308
 40
0.4484723507
 40
0.5321756416
 40
0.6203259452
 40
0.7120567896
 40
0.8064969601
 40
1.0
 40
1.0
 40
1.0
 40
1.0
 10
12.9636192908
 20
40.6403995339
 30
0.0
 10
12.9653180469
 20
40.6416763258
 30
0.0
 10
12.9703135036
 20
40.64386855
 30
0.0
 10
12.9850368925
 20
40.6482035558
 30
0.0
 10
13.0127481448
 20
40.6530264212
 30
0.0
 10
13.0567307784
 20
40.6586344641
 30
0.0
 10
13.1152551823
 20
40.664258667
 30
0.0
 10
13.1882621257
 20
40.6699722147
 30
0.0
 10
13.2757940577
 20
40.6757026312
 30
0.0
 10
13.377807187
 20
40.6814578707
 30
0.0
 10
13.5425901671
 20
40.689614338
 30
0.0
 10
13.7842801294
 20
40.6995747599
 30
0.0
 10
14.1167159602
 20
40.7110274476
 30
0.0
 10
14.5049440938
 20
40.7225140394
 30
0.0
 10
14.9478031144
 20
40.734034964
 30
0.0
 10
15.4440340695
 20
40.7455781412
 30
0.0
 10
15.9924658074
 20
40.7571383148
 30
0.0
 10
16.5920205924
 20
40.7687104256
 30
0.0
 10
17.4900261926
 20
40.784713501
 30
0.0
 10
18.7294114676
 20
40.8044629195
 30
0.0
 10
20.34791468
 20
40.8274630134
 30
0.0
 10
22.129607733
 20
40.8505106491
 30
0.0
 10
24.0577442105
 20
40.873600909
 30
0.0
 10
26.114439307
 20
40.8966878929
 30
0.0
 10
28.2803148083
 20
40.9198077619
 30
0.0
 10
30.5344248545
 20
40.9429608552
 30
0.0
 10
33.6542348896
 20
40.9737995003
 30
0.0
 10
36.0202836005
 20
40.9974251114
 30
0.0
 10
37.6103204009
 20
41.0123244479
 30
0.0
  0
SPLINE
  5
291
100
AcDbEntity
  8
0
100
AcDbSpline
 62
7
  6
CONTINUOUS
 70
0
 71
3
 72
59
 73
55
 74
0
 42
0.0000001
 43
0.0000001
 44
0.0000000001
 40
0.0
 40
0.0
 40
0.0
 40
0.0
 40
0.0001331953
 40
0.0003343974
 40
0.0009503017
 40
0.0018561666
 40
0.0030541785
 40
0.0045453783
 40
0.0063300992
 40
0.0084074863
 40
0.0107763901
 40
0.0163839057
 40
0.0231424325
 40
0.0310336585
 40
0.0400313138
 40
0.0501088273
 40
0.0612424038
 40
0.0734113638
 40
0.0865949788
 40
0.1158841145
 40
0.1488138732
 40
0.1850523483
 40
0.2242558733
 40
0.2660837136
 40
0.3101355199
 40
0.3559738549
 40
0.4031702958
 40
0.4998630444
 40
0.596563388
 40
0.6437728597
 40
0.6896125539
 40
0.7336569157
 40
0.7755061672
 40
0.8147464783
 40
0.8509943913
 40
0.8839134065
 40
0.9132221676
 40
0.9264342192
 40
0.9386335854
 40
0.9497843538
 40
0.9598640023
 40
0.9688542072
 40
0.976737154
 40
0.983497703
 40
0.9891217165
 40
0.9915031668
 40
0.9935952711
 40
0.9953963382
 40
0.9969047626
 40
0.9981191101
 40
0.99903834
 40
0.9996626352
 40
0.9998659389
 40
1.0
 40
1.0
 40
1.0
 40
1.0
 10
61.2570152054
 20
49.6341134851
 30
0.0
 10
61.2553373769
 20
49.6328500369
 30
0.0
 10
61.2504553249
 20
49.6306573271
 30
0.0
 10
61.2361339025
 20
49.6263314225
 30
0.0
 10
61.2093050387
 20
49.6214995537
 30
0.0
 10
61.166813913
 20
49.6158946837
 30
0.0
 10
61.110381987
 20
49.6102696128
 30
0.0
 10
61.0400683064
 20
49.6045591341
 30
0.0
 10
60.9558434867
 20
49.5988310611
 30
0.0
 10
60.8577558945
 20
49.5930779275
 30
0.0
 10
60.699427347
 20
49.5849263069
 30
0.0
 10
60.467284161
 20
49.5749700771
 30
0.0
 10
60.1480540781
 20
49.5635238605
 30
0.0
 10
59.7753372827
 20
49.5520427382
 30
0.0
 10
59.3502636145
 20
49.5405273334
 30
0.0
 10
58.8740457869
 20
49.5289895982
 30
0.0
 10
58.3478073986
 20
49.5174349529
 30
0.0
 10
57.7725788964
 20
49.5058683853
 30
0.0
 10
56.9110903809
 20
49.4898731595
 30
0.0
 10
55.7222425648
 20
49.4701360906
 30
0.0
 10
54.1698532059
 20
49.4471438876
 30
0.0
 10
52.4611104696
 20
49.4241101114
 30
0.0
 10
50.6120441834
 20
49.4010330401
 30
0.0
 10
48.639761855
 20
49.3779477719
 30
0.0
 10
46.562849598
 20
49.3548527767
 30
0.0
 10
44.4012758596
 20
49.3317443108
 30
0.0
 10
41.4096530788
 20
49.3006704043
 30
0.0
 10
37.6160270387
 20
49.2623743034
 30
0.0
 10
33.8221953721
 20
49.2240915537
 30
0.0
 10
30.8302258625
 20
49.1930207227
 30
0.0
 10
28.6685426499
 20
49.169906967
 30
0.0
 10
26.5913888069
 20
49.1468032338
 30
0.0
 10
24.6183060234
 20
49.1237259762
 30
0.0
 10
22.7681729549
 20
49.1006623958
 30
0.0
 10
21.0588707659
 20
49.077621474
 30
0.0
 10
19.5061927629
 20
49.0546109629
 30
0.0
 10
18.3167563943
 20
49.0348759017
 30
0.0
 10
17.4540300695
 20
49.0188942213
 30
0.0
 10
16.877602191
 20
49.0073352726
 30
0.0
 10
16.350579366
 20
48.9957807768
 30
0.0
 10
15.8741742915
 20
48.9842390816
 30
0.0
 10
15.4493152179
 20
48.972717836
 30
0.0
 10
15.0768149664
 20
48.9612275724
 30
0.0
 10
14.7574235333
 20
48.9497755337
 30
0.0
 10
14.5247898756
 20
48.9398253519
 30
0.0
 10
14.3657699978
 20
48.9316811322
 30
0.0
 10
14.2669936079
 20
48.925927768
 30
0.0
 10
14.1820056938
 20
48.9201986786
 30
0.0
 10
14.1109026799
 20
48.9144883947
 30
0.0
 10
14.0537267616
 20
48.908865424
 30
0.0
 10
14.0106306458
 20
48.903263217
 30
0.0
 10
13.9834169832
 20
48.8984379494
 30
0.0
 10
13.9689115755
 20
48.894107103
 30
0.0
 10
13.9639767868
 20
48.8919141206
 30
0.0
 10
13.9622852182
 20
48.8906462305
 30
0.0
  0
SPLINE
  5
292
100
AcDbEntity
  8
0
100
AcDbSpline
 62
7
  6
CONTINUOUS
 70
0
 71
3
 72
34
 73
30
 74
0
 42
0.0000001
 43
0.0000001
 44
0.0000000001
 40
0.0
 40
0.0
 40
0.0
 40
0.0
 40
0.0002722317
 40
0.0006812292
 40
0.0019283975
 40
0.003758311
 40
0.0061751367
 40
0.0091807086
 40
0.012775814
 40
0.0169583815
 40
0.0217246199
 40
0.0329921817
 40
0.0465459685
 40
0.0623490597
 40
0.0803595143
 40
0.1005348224
 40
0.1228284367
 40
0.1471894783
 40
0.1735665237
 40
0.2321310195
 40
0.2979992715
 40
0.370515188
 40
0.4489577864
 40
0.5325882694
 40
0.6206388923
 40
0.7122898912
 40
0.8066678337
 40
0.9028940569
 40
1.0
 40
1.0
 40
1.0
 40
1.0
 10
12.9640242119
 20
37.6396203189
 30
0.0
 10
12.9658131339
 20
37.6409634818
 30
0.0
 10
12.9709858537
 20
37.6433071427
 30
0.0
 10
12.9861192806
 20
37.6479272223
 30
0.0
 10
13.0143951131
 20
37.6530830166
 30
0.0
 10
13.0591216823
 20
37.6590075073
 30
0.0
 10
13.118450539
 20
37.664870799
 30
0.0
 10
13.1923178053
 20
37.6707052033
 30
0.0
 10
13.280749278
 20
37.6763996409
 30
0.0
 10
13.3836769034
 20
37.681979197
 30
0.0
 10
13.5496231446
 20
37.6897338144
 30
0.0
 10
13.7925825534
 20
37.6990050649
 30
0.0
 10
14.1262398344
 20
37.7096782903
 30
0.0
 10
14.5153242404
 20
37.7205731073
 30
0.0
 10
14.9588308715
 20
37.7317747885
 30
0.0
 10
15.455677793
 20
37.7434109277
 30
0.0
 10
16.0047141809
 20
37.7554526095
 30
0.0
 10
16.6047195704
 20
37.7677110377
 30
0.0
 10
17.5027407812
 20
37.7847447737
 30
0.0
 10
18.7418342198
 20
37.8054356925
 30
0.0
 10
20.3600964934
 20
37.8270645427
 30
0.0
 10
22.1417208145
 20
37.8483232401
 30
0.0
 10
24.0692977848
 20
37.8710175896
 30
0.0
 10
26.1245177873
 20
37.8954606979
 30
0.0
 10
28.2882817358
 20
37.9200951066
 30
0.0
 10
30.5403806833
 20
37.9435155826
 30
0.0
 10
32.8596857178
 20
37.964774683
 30
0.0
 10
35.2238125857
 20
37.9866099528
 30
0.0
 10
36.8124225999
 20
38.0022420123
 30
0.0
 10
37.610341251
 20
38.0101583018
 30
0.0
  0
SPLINE
  5
293
100
AcDbEntity
  8
0
100
AcDbSpline
 62
7
  6
CONTINUOUS
 70
0
 71
3
 72
34
 73
30
 74
0
 42
0.0000001
 43
0.0000001
 44
0.0000000001
 40
0.0
 40
0.0
 40
0.0
 40
0.0
 40
0.0002566732
 40
0.0006518256
 40
0.0011907432
 40
0.0018751658
 40
0.0036825483
 40
0.0060751889
 40
0.0090518162
 40
0.0126104728
 40
0.0167495684
 40
0.0214678541
 40
0.032636619
 40
0.0461053092
 40
0.0618472502
 40
0.0798160435
 40
0.0999638506
 40
0.1222406841
 40
0.1465941396
 40
0.1729711659
 40
0.2315407056
 40
0.2973908858
 40
0.3699034347
 40
0.4483929431
 40
0.5321004184
 40
0.6202425036
 40
0.7119892747
 40
0.8064610572
 40
1.0
 40
1.0
 40
1.0
 40
1.0
 10
12.9622581945
 20
39.140598711
 30
0.0
 10
12.9639400787
 20
39.1418716927
 30
0.0
 10
12.9689382104
 20
39.1440339174
 30
0.0
 10
12.978307811
 20
39.1467650325
 30
0.0
 10
12.9913418596
 20
39.149530256
 30
0.0
 10
13.0159003868
 20
39.1536519283
 30
0.0
 10
13.0557647034
 20
39.1585203855
 30
0.0
 10
13.1144778069
 20
39.1640787221
 30
0.0
 10
13.1876374893
 20
39.1696775352
 30
0.0
 10
13.27517688
 20
39.1753298234
 30
0.0
 10
13.3770530489
 20
39.1810219033
 30
0.0
 10
13.5414269257
 20
39.1891306339
 30
0.0
 10
13.7824652764
 20
39.1991357329
 30
0.0
 10
14.1140934767
 20
39.2108545596
 30
0.0
 10
14.501628499
 20
39.2227460229
 30
0.0
 10
14.9440768477
 20
39.2345415981
 30
0.0
 10
15.440254535
 20
39.2459389141
 30
0.0
 10
15.9889199688
 20
39.2569853435
 30
0.0
 10
16.5887849101
 20
39.2680755356
 30
0.0
 10
17.4868611732
 20
39.2839987278
 30
0.0
 10
18.7259221041
 20
39.304737834
 30
0.0
 10
20.3441278759
 20
39.3279660668
 30
0.0
 10
22.1260584892
 20
39.3504157256
 30
0.0
 10
24.0547499603
 20
39.3727852552
 30
0.0
 10
26.1118741907
 20
39.3966982278
 30
0.0
 10
28.2779553746
 20
39.4203645115
 30
0.0
 10
30.5325125722
 20
39.4429565209
 30
0.0
 10
33.6531756039
 20
39.4734259919
 30
0.0
 10
36.0199074548
 20
39.4966089904
 30
0.0
 10
37.6103150974
 20
39.5123000197
 30
0.0
  0
SPLINE
  5
294
100
AcDbEntity
  8
0
100
AcDbSpline
 62
7
  6
CONTINUOUS
 70
0
 71
3
 72
61
 73
57
 74
0
 42
0.0000001
 43
0.0000001
 44
0.0000000001
 40
0.0
 40
0.0
 40
0.0
 40
0.0
 40
0.0001315661
 40
0.0003311851
 40
0.000944151
 40
0.0018471187
 40
0.0030418556
 40
0.0045288896
 40
0.0063079752
 40
0.0083785719
 40
0.010740049
 40
0.0163329411
 40
0.0230787242
 40
0.0309588092
 40
0.0399506174
 40
0.0500298763
 40
0.0611697314
 40
0.0733426574
 40
0.0865205876
 40
0.115766642
 40
0.1486482463
 40
0.1848720539
 40
0.2240849969
 40
0.2659000671
 40
0.3099190181
 40
0.3557321826
 40
0.4029147961
 40
0.451020864
 40
0.4995886188
 40
0.5481590205
 40
0.59627637
 40
0.6434858382
 40
0.6893321471
 40
0.7333787539
 40
0.7752198558
 40
0.8144686269
 40
0.8507539415
 40
0.8837189612
 40
0.9130326996
 40
0.9262360496
 40
0.9384324594
 40
0.9495948469
 40
0.9596979604
 40
0.9687190919
 40
0.9766357432
 40
0.9834273399
 40
0.9890763232
 40
0.991466725
 40
0.9935647884
 40
0.9953693342
 40
0.9968799535
 40
0.9980964873
 40
0.9990195536
 40
0.9996512184
 40
0.9998597746
 40
1.0
 40
1.0
 40
1.0
 40
1.0
 10
61.256138876
 20
39.1318360216
 30
0.0
 10
61.2544873647
 20
39.1305805592
 30
0.0
 10
61.2496430995
 20
39.1284191561
 30
0.0
 10
61.2353990065
 20
39.1241845085
 30
0.0
 10
61.2086567121
 20
39.1195252312
 30
0.0
 10
61.1662821131
 20
39.1141730469
 30
0.0
 10
61.1099858785
 20
39.1088639864
 30
0.0
 10
61.0398545928
 20
39.1035194794
 30
0.0
 10
60.9558712754
 20
39.0981788357
 30
0.0
 10
60.858081188
 20
39.0928081371
 30
0.0
 10
60.7001923943
 20
39.0851490253
 30
0.0
 10
60.4685968478
 20
39.0755695857
 30
0.0
 10
60.1499994718
 20
39.0639432881
 30
0.0
 10
59.7777924062
 20
39.0518417009
 30
0.0
 10
59.3530057017
 20
39.0395075012
 30
0.0
 10
58.8767968505
 20
39.0272843121
 30
0.0
 10
58.35040887
 20
39.0152623247
 30
0.0
 10
57.77514331
 20
39.0035412654
 30
0.0
 10
56.9144023745
 20
38.987904536
 30
0.0
 10
55.7271290089
 20
38.9693833568
 30
0.0
 10
54.1764732752
 20
38.9480184456
 30
0.0
 10
52.4686788355
 20
38.9242036693
 30
0.0
 10
50.6200229281
 20
38.8993160241
 30
0.0
 10
48.6484295193
 20
38.875487271
 30
0.0
 10
46.5727411067
 20
38.853090235
 30
0.0
 10
44.412402799
 20
38.8317130264
 30
0.0
 10
42.187622833
 20
38.8096100386
 30
0.0
 10
39.9194334607
 20
38.7848922552
 30
0.0
 10
37.6293595531
 20
38.7602496162
 30
0.0
 10
35.3390939144
 20
38.7369117699
 30
0.0
 10
33.0702330597
 20
38.7149699398
 30
0.0
 10
30.844321015
 20
38.6937000799
 30
0.0
 10
28.6826185838
 20
38.6705000635
 30
0.0
 10
26.6055902942
 20
38.6455453607
 30
0.0
 10
24.6325904067
 20
38.6213601228
 30
0.0
 10
22.7819614703
 20
38.5986349438
 30
0.0
 10
21.0712860067
 20
38.5771525564
 30
0.0
 10
19.5172768589
 20
38.5557067484
 30
0.0
 10
18.3272549637
 20
38.5349814556
 30
0.0
 10
17.4647029743
 20
38.5179070992
 30
0.0
 10
16.8883222982
 20
38.5056472745
 30
0.0
 10
16.3608320067
 20
38.493656332
 30
0.0
 10
15.8834140868
 20
38.4820504939
 30
0.0
 10
15.4571822748
 20
38.4707957529
 30
0.0
 10
15.0831767417
 20
38.459875018
 30
0.0
 10
14.7623613248
 20
38.4491968963
 30
0.0
 10
14.5286873068
 20
38.4399235811
 30
0.0
 10
14.3690273188
 20
38.4321633892
 30
0.0
 10
14.269956895
 20
38.426562186
 30
0.0
 10
14.1847883134
 20
38.4208515572
 30
0.0
 10
14.1135721998
 20
38.4150370093
 30
0.0
 10
14.0562923934
 20
38.4091811851
 30
0.0
 10
14.0130244907
 20
38.4032533431
 30
0.0
 10
13.9856134749
 20
38.3980832508
 30
0.0
 10
13.9708763798
 20
38.3934751984
 30
0.0
 10
13.9658152893
 20
38.3911372754
 30
0.0
 10
13.964046814
 20
38.3898101268
 30
0.0
  0
SPLINE
  5
295
100
AcDbEntity
  8
0
100
AcDbSpline
 62
7
  6
CONTINUOUS
 70
0
 71
3
 72
59
 73
55
 74
0
 42
0.0000001
 43
0.0000001
 44
0.0000000001
 40
0.0
 40
0.0
 40
0.0
 40
0.0
 40
0.0001327764
 40
0.0003343711
 40
0.000953551
 40
0.0018652821
 40
0.0030700373
 40
0.0045670513
 40
0.0063551615
 40
0.0084330326
 40
0.0107992429
 40
0.016391919
 40
0.0231257357
 40
0.0309936191
 40
0.0399839792
 40
0.0500702739
 40
0.0612227855
 40
0.0734114883
 40
0.0866052435
 40
0.1158820141
 40
0.148795631
 40
0.1850626668
 40
0.2243093802
 40
0.2661494262
 40
0.3102059019
 40
0.3560678685
 40
0.4032972711
 40
0.500033471
 40
0.5967672915
 40
0.643990234
 40
0.6898565902
 40
0.7339138402
 40
0.7757484406
 40
0.8149784616
 40
0.85124411
 40
0.8841745443
 40
0.9134401969
 40
0.9266240536
 40
0.9388037473
 40
0.9499500108
 40
0.9600336231
 40
0.9690274609
 40
0.9769070099
 40
0.9836481676
 40
0.989235499
 40
0.9915953638
 40
0.9936656429
 40
0.9954461065
 40
0.9969365589
 40
0.9981364834
 40
0.999045487
 40
0.9996643155
 40
0.9998664491
 40
1.0
 40
1.0
 40
1.0
 40
1.0
 10
61.2584291394
 20
45.1342138448
 30
0.0
 10
61.2567640969
 20
45.1329443795
 30
0.0
 10
61.2518793824
 20
45.1307497831
 30
0.0
 10
61.2375084491
 20
45.1264185948
 30
0.0
 10
61.2105222703
 20
45.1215910692
 30
0.0
 10
61.1677793073
 20
45.1159864444
 30
0.0
 10
61.1110534946
 20
45.1103616499
 30
0.0
 10
61.0404863435
 20
45.1046496314
 30
0.0
 10
60.9561066296
 20
45.098918794
 30
0.0
 10
60.8579983316
 20
45.0931634867
 30
0.0
 10
60.6999353248
 20
45.0850130913
 30
0.0
 10
60.468453859
 20
45.075052226
 30
0.0
 10
60.1502094248
 20
45.0635910862
 30
0.0
 10
59.7783577911
 20
45.0520945645
 30
0.0
 10
59.3536192957
 20
45.0405756203
 30
0.0
 10
58.8770685717
 20
45.0290349092
 30
0.0
 10
58.3500696538
 20
45.0174790191
 30
0.0
 10
57.7740580819
 20
45.0059125677
 30
0.0
 10
56.9122736373
 20
44.9899193045
 30
0.0
 10
55.7236887286
 20
44.9701656835
 30
0.0
 10
54.1712636378
 20
44.9471420698
 30
0.0
 10
52.46160506
 20
44.9241066734
 30
0.0
 10
50.6111726305
 20
44.90103495
 30
0.0
 10
48.6378983768
 20
44.8779352419
 30
0.0
 10
46.5603002776
 20
44.854820643
 30
0.0
 10
44.3977113795
 20
44.8316980974
 30
0.0
 10
41.4044428545
 20
44.8006201935
 30
0.0
 10
37.608997658
 20
44.7623107282
 30
0.0
 10
33.8136543787
 20
44.7239971435
 30
0.0
 10
30.8204560756
 20
44.692914774
 30
0.0
 10
28.6578875349
 20
44.6698001617
 30
0.0
 10
26.580293875
 20
44.6466856702
 30
0.0
 10
24.6073565455
 20
44.6235848805
 30
0.0
 10
22.7572951913
 20
44.6005073478
 30
0.0
 10
21.0476565767
 20
44.5774688469
 30
0.0
 10
19.4951631516
 20
44.554467143
 30
0.0
 10
18.3066446334
 20
44.5347024642
 30
0.0
 10
17.4453338397
 20
44.5187044882
 30
0.0
 10
16.8697190448
 20
44.5071375176
 30
0.0
 10
16.3430030654
 20
44.4955827824
 30
0.0
 10
15.8665383565
 20
44.4840419017
 30
0.0
 10
15.4416034143
 20
44.4725189892
 30
0.0
 10
15.06939682
 20
44.4610305739
 30
0.0
 10
14.750936449
 20
44.4495790011
 30
0.0
 10
14.5195236952
 20
44.4396143347
 30
0.0
 10
14.3617654504
 20
44.4314580399
 30
0.0
 10
14.2639981272
 20
44.425701615
 30
0.0
 10
14.1799631515
 20
44.4199691456
 30
0.0
 10
14.1096970777
 20
44.4142560426
 30
0.0
 10
14.0531957484
 20
44.4086296016
 30
0.0
 10
14.0105775409
 20
44.4030231768
 30
0.0
 10
13.9836349543
 20
44.3981932659
 30
0.0
 10
13.9692453583
 20
44.3938667019
 30
0.0
 10
13.9643395297
 20
44.3916740522
 30
0.0
 10
13.9626572573
 20
44.3904071033
 30
0.0
  0
SPLINE
  5
296
100
AcDbEntity
  8
0
100
AcDbSpline
 62
7
  6
CONTINUOUS
 70
0
 71
3
 72
59
 73
55
 74
0
 42
0.0000001
 43
0.0000001
 44
0.0000000001
 40
0.0
 40
0.0
 40
0.0
 40
0.0
 40
0.0001340446
 40
0.000337324
 40
0.0009615538
 40
0.0018807416
 40
0.0030950737
 40
0.0046035013
 40
0.0064045819
 40
0.008496702
 40
0.0108781621
 40
0.0165021579
 40
0.0232626307
 40
0.0311454333
 40
0.040135433
 40
0.0502149061
 40
0.0613656409
 40
0.0735650162
 40
0.0867770248
 40
0.1160857331
 40
0.1490049524
 40
0.1852530274
 40
0.2244933096
 40
0.2663423435
 40
0.3103863615
 40
0.3562258817
 40
0.4034353069
 40
0.5001363501
 40
0.5968296223
 40
0.6440261885
 40
0.6898645045
 40
0.7339161383
 40
0.7757437219
 40
0.8149469611
 40
0.8511851965
 40
0.8841149705
 40
0.9134044012
 40
0.9265879869
 40
0.9387569884
 40
0.949890678
 40
0.959968329
 40
0.9689660558
 40
0.9768572915
 40
0.9836158077
 40
0.989223411
 40
0.9915923757
 40
0.9936698187
 40
0.9954545784
 40
0.9969457993
 40
0.9981438252
 40
0.9990496979
 40
0.9996656045
 40
0.9998668061
 40
1.0
 40
1.0
 40
1.0
 40
1.0
 10
61.2583413581
 20
48.1339977579
 30
0.0
 10
61.2566501132
 20
48.1327298711
 30
0.0
 10
61.2517160172
 20
48.1305368756
 30
0.0
 10
61.2372123722
 20
48.1262060064
 30
0.0
 10
61.2100008224
 20
48.1213805913
 30
0.0
 10
61.16690665
 20
48.1157785201
 30
0.0
 10
61.109731586
 20
48.1101555895
 30
0.0
 10
61.0386285513
 20
48.1044453576
 30
0.0
 10
60.9536401244
 20
48.0987163034
 30
0.0
 10
60.8548631183
 20
48.0929629752
 30
0.0
 10
60.6958431183
 20
48.0848188179
 30
0.0
 10
60.4632107932
 20
48.0748686985
 30
0.0
 10
60.1438231238
 20
48.0634167274
 30
0.0
 10
59.7713295962
 20
48.0519265334
 30
0.0
 10
59.3464788125
 20
48.0404053212
 30
0.0
 10
58.8700802853
 20
48.0288636562
 30
0.0
 10
58.3430606255
 20
48.0173093045
 30
0.0
 10
57.766633829
 20
48.0057504192
 30
0.0
 10
56.9039089005
 20
47.9897686641
 30
0.0
 10
55.7144708665
 20
47.9700334199
 30
0.0
 10
54.1617879722
 20
47.9470228711
 30
0.0
 10
52.4524805228
 20
47.9239818305
 30
0.0
 10
50.6023488453
 20
47.9009182287
 30
0.0
 10
48.6292754338
 20
47.8778410757
 30
0.0
 10
46.5521332526
 20
47.8547374358
 30
0.0
 10
44.3904590075
 20
47.8316237906
 30
0.0
 10
41.3984820395
 20
47.800552803
 30
0.0
 10
37.6046319393
 20
47.7622699104
 30
0.0
 10
33.8109847563
 20
47.7239735863
 30
0.0
 10
30.8193521385
 20
47.6928995747
 30
0.0
 10
28.6577795118
 20
47.6697911266
 30
0.0
 10
26.5808743888
 20
47.6466962102
 30
0.0
 10
24.6086033986
 20
47.6236110783
 30
0.0
 10
22.7595495061
 20
47.6005341901
 30
0.0
 10
21.0508148685
 20
47.5775005602
 30
0.0
 10
19.4984244453
 20
47.5545082822
 30
0.0
 10
18.3095722294
 20
47.5347715279
 30
0.0
 10
17.4480788992
 20
47.5187760829
 30
0.0
 10
16.872848441
 20
47.5072094703
 30
0.0
 10
16.3466054642
 20
47.4956547789
 30
0.0
 10
15.8703825729
 20
47.4841170628
 30
0.0
 10
15.4453054695
 20
47.4726016207
 30
0.0
 10
15.0725875734
 20
47.461120465
 30
0.0
 10
14.7533561368
 20
47.4496740553
 30
0.0
 10
14.5212107799
 20
47.4397178432
 30
0.0
 10
14.3628790068
 20
47.431566236
 30
0.0
 10
14.2647889601
 20
47.4258130984
 30
0.0
 10
14.1805623129
 20
47.4200850142
 30
0.0
 10
14.1102474693
 20
47.4143744934
 30
0.0
 10
14.0538148668
 20
47.408749402
 30
0.0
 10
14.0113233657
 20
47.4031445063
 30
0.0
 10
13.9844943463
 20
47.3983126198
 30
0.0
 10
13.9701729297
 20
47.3939866874
 30
0.0
 10
13.9652909106
 20
47.3917939635
 30
0.0
 10
13.9636131194
 20
47.3905305024
 30
0.0
  0
SPLINE
  5
297
100
AcDbEntity
  8
0
100
AcDbSpline
 62
7
  6
CONTINUOUS
 70
0
 71
3
 72
61
 73
57
 74
0
 42
0.0000001
 43
0.0000001
 44
0.0000000001
 40
0.0
 40
0.0
 40
0.0
 40
0.0
 40
0.0001371064
 40
0.0003431376
 40
0.000970922
 40
0.0018907121
 40
0.0031034935
 40
0.0046090769
 40
0.0064066373
 40
0.0084949739
 40
0.0108727785
 40
0.0164909107
 40
0.0232484754
 40
0.0311305615
 40
0.0401204328
 40
0.050199778
 40
0.0613488697
 40
0.0735443686
 40
0.0867568719
 40
0.1160908775
 40
0.1490509574
 40
0.1853206702
 40
0.224564521
 40
0.2664256311
 40
0.3105129729
 40
0.3563943295
 40
0.40362993
 40
0.4517755476
 40
0.5003794097
 40
0.5489806058
 40
0.5971147798
 40
0.6443288407
 40
0.6901814698
 40
0.734239504
 40
0.7760769486
 40
0.8152832806
 40
0.8514969332
 40
0.8843908164
 40
0.913659732
 40
0.9268446505
 40
0.9390182376
 40
0.9501474443
 40
0.9602024787
 40
0.9691614338
 40
0.9770067148
 40
0.9837233449
 40
0.9892980608
 40
0.9916536082
 40
0.9937195908
 40
0.9954948988
 40
0.9969786509
 40
0.9981701301
 40
0.9990691324
 40
0.9996767361
 40
0.9998728219
 40
1.0
 40
1.0
 40
1.0
 40
1.0
 10
61.2580110276
 20
37.6343854825
 30
0.0
 10
61.2562857589
 20
37.6330824798
 30
0.0
 10
61.2512948698
 20
37.6307990542
 30
0.0
 10
61.2366949639
 20
37.6262651621
 30
0.0
 10
61.209430051
 20
37.6211330192
 30
0.0
 10
61.1663418546
 20
37.6151553682
 30
0.0
 10
61.1092660199
 20
37.6091428005
 30
0.0
 10
61.0383170003
 20
37.6030683316
 30
0.0
 10
60.9535101723
 20
37.5970187852
 30
0.0
 10
60.8549208822
 20
37.5910009846
 30
0.0
 10
60.6961235226
 20
37.5825830432
 30
0.0
 10
60.4636884893
 20
37.5725292775
 30
0.0
 10
60.1444381956
 20
37.5613316901
 30
0.0
 10
59.7719835661
 20
37.5503996019
 30
0.0
 10
59.3471249477
 20
37.5396201017
 30
0.0
 10
58.8707338716
 20
37.528870043
 30
0.0
 10
58.3437882886
 20
37.5178145942
 30
0.0
 10
57.7674369389
 20
37.5062073318
 30
0.0
 10
56.9043746149
 20
37.4894074489
 30
0.0
 10
55.713900928
 20
37.4681585131
 30
0.0
 10
54.1598297151
 20
37.444424901
 30
0.0
 10
52.449454818
 20
37.4221430273
 30
0.0
 10
50.598698161
 20
37.4008310384
 30
0.0
 10
48.6246679673
 20
37.378612385
 30
0.0
 10
46.5459935518
 20
37.3538408841
 30
0.0
 10
44.3825607589
 20
37.329266238
 30
0.0
 10
42.1551155162
 20
37.3059392778
 30
0.0
 10
39.8847227355
 20
37.2840486875
 30
0.0
 10
37.5927892804
 20
37.262760142
 30
0.0
 10
35.3010566354
 20
37.2393522349
 30
0.0
 10
33.0312579133
 20
37.2143805504
 30
0.0
 10
30.8047951479
 20
37.1902117928
 30
0.0
 10
28.6425972552
 20
37.1674740499
 30
0.0
 10
26.5651748611
 20
37.1459965977
 30
0.0
 10
24.5925647976
 20
37.1243190823
 30
0.0
 10
22.7436935698
 20
37.0999724854
 30
0.0
 10
21.0358726322
 20
37.0752650144
 30
0.0
 10
19.4847551629
 20
37.0516925277
 30
0.0
 10
18.2967489328
 20
37.0327529014
 30
0.0
 10
17.4354590752
 20
37.0178358948
 30
0.0
 10
16.8601859773
 20
37.0070399831
 30
0.0
 10
16.3342835686
 20
36.9959282086
 30
0.0
 10
15.8590992591
 20
36.984212996
 30
0.0
 10
15.4357286899
 20
36.9720721097
 30
0.0
 10
15.0650311598
 20
36.959770185
 30
0.0
 10
14.747728633
 20
36.9476067844
 30
0.0
 10
14.5169922227
 20
36.9372333953
 30
0.0
 10
14.3595792514
 20
36.9289308544
 30
0.0
 10
14.2620320169
 20
36.9231586115
 30
0.0
 10
14.1782485908
 20
36.9175015651
 30
0.0
 10
14.1082929268
 20
36.9119447452
 30
0.0
 10
14.0521679053
 20
36.9065514359
 30
0.0
 10
14.0099878632
 20
36.9012367807
 30
0.0
 10
13.9834275492
 20
36.8967143754
 30
0.0
 10
13.9693550569
 20
36.8926559743
 30
0.0
 10
13.9645947302
 20
36.8906118266
 30
0.0
 10
13.9629897898
 20
36.8894092982
 30
0.0
  0
SPLINE
  5
298
100
AcDbEntity
  8
0
100
AcDbSpline
 62
7
  6
CONTINUOUS
 70
0
 71
3
 72
59
 73
55
 74
0
 42
0.0000001
 43
0.0000001
 44
0.0000000001
 40
0.0
 40
0.0
 40
0.0
 40
0.0
 40
0.0001331953
 40
0.0003343974
 40
0.0009503017
 40
0.0018561666
 40
0.0030541785
 40
0.0045453783
 40
0.0063300992
 40
0.0084074863
 40
0.0107763901
 40
0.0163839057
 40
0.0231424325
 40
0.0310336585
 40
0.0400313138
 40
0.0501088273
 40
0.0612424038
 40
0.0734113638
 40
0.0865949788
 40
0.1158841145
 40
0.1488138732
 40
0.1850523483
 40
0.2242558733
 40
0.2660837136
 40
0.3101355199
 40
0.3559738549
 40
0.4031702958
 40
0.4998630444
 40
0.596563388
 40
0.6437728597
 40
0.6896125539
 40
0.7336569157
 40
0.7755061672
 40
0.8147464783
 40
0.8509943913
 40
0.8839134065
 40
0.9132221676
 40
0.9264342192
 40
0.9386335854
 40
0.9497843538
 40
0.9598640023
 40
0.9688542072
 40
0.976737154
 40
0.983497703
 40
0.9891217165
 40
0.9915031668
 40
0.9935952711
 40
0.9953963382
 40
0.9969047626
 40
0.9981191101
 40
0.99903834
 40
0.9996626352
 40
0.9998659389
 40
1.0
 40
1.0
 40
1.0
 40
1.0
 10
61.2570152054
 20
43.6341134851
 30
0.0
 10
61.2553373769
 20
43.6328500369
 30
0.0
 10
61.2504553249
 20
43.630657327
 30
0.0
 10
61.2361339025
 20
43.6263314224
 30
0.0
 10
61.2093050387
 20
43.6214995537
 30
0.0
 10
61.166813913
 20
43.6158946837
 30
0.0
 10
61.110381987
 20
43.6102696128
 30
0.0
 10
61.0400683063
 20
43.6045591341
 30
0.0
 10
60.9558434867
 20
43.5988310611
 30
0.0
 10
60.8577558945
 20
43.5930779275
 30
0.0
 10
60.699427347
 20
43.5849263069
 30
0.0
 10
60.467284161
 20
43.5749700771
 30
0.0
 10
60.1480540781
 20
43.5635238605
 30
0.0
 10
59.7753372827
 20
43.5520427382
 30
0.0
 10
59.3502636145
 20
43.5405273334
 30
0.0
 10
58.8740457869
 20
43.5289895982
 30
0.0
 10
58.3478073986
 20
43.5174349529
 30
0.0
 10
57.7725788964
 20
43.5058683853
 30
0.0
 10
56.9110903809
 20
43.4898731594
 30
0.0
 10
55.7222425648
 20
43.4701360906
 30
0.0
 10
54.1698532059
 20
43.4471438876
 30
0.0
 10
52.4611104696
 20
43.4241101114
 30
0.0
 10
50.6120441834
 20
43.4010330401
 30
0.0
 10
48.639761855
 20
43.3779477719
 30
0.0
 10
46.562849598
 20
43.3548527767
 30
0.0
 10
44.4012758596
 20
43.3317443108
 30
0.0
 10
41.4096530788
 20
43.3006704043
 30
0.0
 10
37.6160270387
 20
43.2623743034
 30
0.0
 10
33.8221953721
 20
43.2240915537
 30
0.0
 10
30.8302258625
 20
43.1930207227
 30
0.0
 10
28.6685426499
 20
43.169906967
 30
0.0
 10
26.5913888069
 20
43.1468032338
 30
0.0
 10
24.6183060234
 20
43.1237259762
 30
0.0
 10
22.7681729549
 20
43.1006623958
 30
0.0
 10
21.0588707659
 20
43.077621474
 30
0.0
 10
19.5061927629
 20
43.0546109629
 30
0.0
 10
18.3167563943
 20
43.0348759017
 30
0.0
 10
17.4540300695
 20
43.0188942213
 30
0.0
 10
16.877602191
 20
43.0073352726
 30
0.0
 10
16.350579366
 20
42.9957807768
 30
0.0
 10
15.8741742915
 20
42.9842390816
 30
0.0
 10
15.4493152179
 20
42.972717836
 30
0.0
 10
15.0768149664
 20
42.9612275724
 30
0.0
 10
14.7574235333
 20
42.9497755337
 30
0.0
 10
14.5247898756
 20
42.9398253519
 30
0.0
 10
14.3657699978
 20
42.9316811322
 30
0.0
 10
14.2669936079
 20
42.925927768
 30
0.0
 10
14.1820056938
 20
42.9201986786
 30
0.0
 10
14.1109026799
 20
42.9144883947
 30
0.0
 10
14.0537267616
 20
42.908865424
 30
0.0
 10
14.0106306458
 20
42.903263217
 30
0.0
 10
13.9834169832
 20
42.8984379494
 30
0.0
 10
13.9689115755
 20
42.894107103
 30
0.0
 10
13.9639767868
 20
42.8919141206
 30
0.0
 10
13.9622852182
 20
42.8906462305
 30
0.0
  0
SPLINE
  5
299
100
AcDbEntity
  8
0
100
AcDbSpline
 62
7
  6
CONTINUOUS
 70
0
 71
3
 72
59
 73
55
 74
0
 42
0.0000001
 43
0.0000001
 44
0.0000000001
 40
0.0
 40
0.0
 40
0.0
 40
0.0
 40
0.0001335658
 40
0.0003357117
 40
0.0009545541
 40
0.0018635567
 40
0.0030634655
 40
0.0045538893
 40
0.0063343349
 40
0.008404615
 40
0.0107645002
 40
0.0163519309
 40
0.0230932334
 40
0.0309728639
 40
0.0399667466
 40
0.0500504076
 40
0.0611967455
 40
0.0733765327
 40
0.0865604917
 40
0.1158262485
 40
0.14875658
 40
0.1850220831
 40
0.2242518095
 40
0.2660860073
 40
0.3101430993
 40
0.3560095385
 40
0.403232559
 40
0.4999667481
 40
0.5967032991
 40
0.6439328988
 40
0.6897950217
 40
0.7338516405
 40
0.7756917398
 40
0.8149383447
 40
0.8512052672
 40
0.8841186971
 40
0.9133952156
 40
0.9265888771
 40
0.9387775307
 40
0.9499300439
 40
0.9600163329
 40
0.9690065988
 40
0.9768743609
 40
0.9836081468
 40
0.989200842
 40
0.9915670606
 40
0.9936449216
 40
0.9954330082
 40
0.9969299905
 40
0.9981347112
 40
0.9990464105
 40
0.9996655826
 40
0.9998671959
 40
1.0
 40
1.0
 40
1.0
 40
1.0
 10
61.2579725933
 20
46.6342368817
 30
0.0
 10
61.2562899897
 20
46.6329699812
 30
0.0
 10
61.2513837271
 20
46.6307773533
 30
0.0
 10
61.2369934152
 20
46.626450826
 30
0.0
 10
61.2100504746
 20
46.6216208701
 30
0.0
 10
61.1674322961
 20
46.6160144298
 30
0.0
 10
61.1109317005
 20
46.610387954
 30
0.0
 10
61.040666618
 20
46.6046747781
 30
0.0
 10
60.9566323688
 20
46.5989422807
 30
0.0
 10
60.8588649982
 20
46.5931858264
 30
0.0
 10
60.7011048598
 20
46.5850294537
 30
0.0
 10
60.4696879457
 20
46.5750647334
 30
0.0
 10
60.1512224526
 20
46.5636131654
 30
0.0
 10
59.7790116011
 20
46.5521246129
 30
0.0
 10
59.3540739189
 20
46.5406016028
 30
0.0
 10
58.8776065837
 20
46.5290606451
 30
0.0
 10
58.3508872147
 20
46.5175058691
 30
0.0
 10
57.7752681871
 20
46.5059388691
 30
0.0
 10
56.9139527024
 20
46.4899409142
 30
0.0
 10
55.7254326053
 20
46.4701762709
 30
0.0
 10
54.1729415244
 20
46.4471745657
 30
0.0
 10
52.4633115485
 20
46.4241362877
 30
0.0
 10
50.613263567
 20
46.4010589517
 30
0.0
 10
48.6403398171
 20
46.3779582201
 30
0.0
 10
46.5627537871
 20
46.3548438763
 30
0.0
 10
44.4001853037
 20
46.331729277
 30
0.0
 10
41.4069787944
 20
46.3006467752
 30
0.0
 10
37.6116231187
 20
46.2623330944
 30
0.0
 10
33.8161636484
 20
46.2240234789
 30
0.0
 10
30.8228841582
 20
46.1929454568
 30
0.0
 10
28.6602875347
 20
46.169822799
 30
0.0
 10
26.5826839736
 20
46.1467081206
 30
0.0
 10
24.609408429
 20
46.1236083896
 30
0.0
 10
22.7589787462
 20
46.1005366154
 30
0.0
 10
21.0493266963
 20
46.0775012922
 30
0.0
 10
19.4969103906
 20
46.0544777836
 30
0.0
 10
18.3083339407
 20
46.0347241987
 30
0.0
 10
17.4465557673
 20
46.0187310017
 30
0.0
 10
16.8705464508
 20
46.0071645846
 30
0.0
 10
16.3435483979
 20
45.9956087628
 30
0.0
 10
15.8669992445
 20
45.9840681593
 30
0.0
 10
15.4422642588
 20
45.9725492376
 30
0.0
 10
15.0704165314
 20
45.9610526374
 30
0.0
 10
14.7521742089
 20
45.9495915455
 30
0.0
 10
14.5206928042
 20
45.9396307482
 30
0.0
 10
14.3626295289
 20
45.9314804194
 30
0.0
 10
14.2645216341
 20
45.9257251352
 30
0.0
 10
14.1801429592
 20
45.9199943167
 30
0.0
 10
14.1095772218
 20
45.914282328
 30
0.0
 10
14.0528529871
 20
45.9086575178
 30
0.0
 10
14.0101111488
 20
45.903052937
 30
0.0
 10
13.9831254422
 20
45.8982251307
 30
0.0
 10
13.9687537832
 20
45.8938940582
 30
0.0
 10
13.9638683392
 20
45.8916995145
 30
0.0
 10
13.9622026755
 20
45.8904301435
 30
0.0
  0
SPLINE
  5
29A
100
AcDbEntity
  8
0
100
AcDbSpline
 62
7
  6
CONTINUOUS
 70
0
 71
3
 72
14
 73
10
 74
0
 42
0.0000001
 43
0.0000001
 44
0.0000000001
 40
0.0
 40
0.0
 40
0.0
 40
0.0
 40
0.1125641967
 40
0.2273243864
 40
0.3456593343
 40
0.4686053428
 40
0.5963723957
 40
0.7284494241
 40
1.0
 40
1.0
 40
1.0
 40
1.0
 10
18.6947538151
 20
68.5127721349
 30
0.0
 10
18.613622366
 20
68.5127721349
 30
0.0
 10
18.4491736654
 20
68.4933303383
 30
0.0
 10
18.2130520665
 20
68.4077499821
 30
0.0
 10
17.9950168098
 20
68.2687092061
 30
0.0
 10
17.8034510825
 20
68.0816777153
 30
0.0
 10
17.6457458602
 20
67.8532211583
 30
0.0
 10
17.4876259092
 20
67.5027859491
 30
0.0
 10
17.4390927901
 20
67.208494153
 30
0.0
 10
17.4390927901
 20
67.0127721349
 30
0.0
  0
SPLINE
  5
29B
100
AcDbEntity
  8
0
100
AcDbSpline
 62
7
  6
CONTINUOUS
 70
0
 71
3
 72
18
 73
14
 74
0
 42
0.0000001
 43
0.0000001
 44
0.0000000001
 40
0.0
 40
0.0
 40
0.0
 40
0.0
 40
0.0269923889
 40
0.0563369711
 40
0.0898409425
 40
0.1286525077
 40
0.1733655025
 40
0.2242371096
 40
0.3441105321
 40
0.4862640647
 40
0.6466240931
 40
0.820026226
 40
1.0
 40
1.0
 40
1.0
 40
1.0
 10
24.4712655714
 20
68.5127721349
 30
0.0
 10
24.4564922283
 20
68.5127721349
 30
0.0
 10
24.4254818967
 20
68.5074957109
 30
0.0
 10
24.3811764246
 20
68.4848997687
 30
0.0
 10
24.3385893304
 20
68.4484922512
 30
0.0
 10
24.2978135182
 20
68.3987900248
 30
0.0
 10
24.2588456689
 20
68.3362180131
 30
0.0
 10
24.2068329821
 20
68.230218326
 30
0.0
 10
24.1503928679
 20
68.0679410629
 30
0.0
 10
24.0972767035
 20
67.8426961332
 30
0.0
 10
24.0576582307
 20
67.585007902
 30
0.0
 10
24.0332309292
 20
67.3047317808
 30
0.0
 10
24.0277408042
 20
67.1112745059
 30
0.0
 10
24.0277408042
 20
67.0127721349
 30
0.0
  0
SPLINE
  5
29C
100
AcDbEntity
  8
0
100
AcDbSpline
 62
7
  6
CONTINUOUS
 70
0
 71
3
 72
34
 73
30
 74
0
 42
0.0000001
 43
0.0000001
 44
0.0000000001
 40
0.0
 40
0.0
 40
0.0
 40
0.0
 40
0.0972169535
 40
0.1935386258
 40
0.2880095636
 40
0.3797741363
 40
0.4679190292
 40
0.5516091136
 40
0.630089458
 40
0.7026326029
 40
0.7685018589
 40
0.827033089
 40
0.8533974017
 40
0.8777520758
 40
0.9000389565
 40
0.9201999926
 40
0.9381804105
 40
0.9539285969
 40
0.9673948072
 40
0.9785535248
 40
0.9832654095
 40
0.9873979839
 40
0.9909506012
 40
0.9939222717
 40
0.9963116349
 40
0.998118021
 40
0.9993429223
 40
0.9997402813
 40
1.0
 40
1.0
 40
1.0
 40
1.0
 10
37.6103150974
 20
51.5123000197
 30
0.0
 10
38.4091836268
 20
51.520249308
 30
0.0
 10
39.9995689602
 20
51.5355529661
 30
0.0
 10
42.3662587091
 20
51.558485219
 30
0.0
 10
44.6881365943
 20
51.581744239
 30
0.0
 10
46.9428176222
 20
51.6048438221
 30
0.0
 10
49.1088990183
 20
51.6279538227
 30
0.0
 10
51.1658068883
 20
51.6510721237
 30
0.0
 10
53.0944948091
 20
51.6741541708
 30
0.0
 10
54.8767242653
 20
51.6972005155
 30
0.0
 10
56.4950017542
 20
51.7202090784
 30
0.0
 10
57.7337978198
 20
51.7399799792
 30
0.0
 10
58.6314502787
 20
51.7559837443
 30
0.0
 10
59.2312855168
 20
51.7675543219
 30
0.0
 10
59.7801335359
 20
51.7791127215
 30
0.0
 10
60.2765869383
 20
51.7906569895
 30
0.0
 10
60.7192911254
 20
51.8021823761
 30
0.0
 10
61.1069589752
 20
51.8136723945
 30
0.0
 10
61.4385401535
 20
51.8251295904
 30
0.0
 10
61.6794210097
 20
51.835097642
 30
0.0
 10
61.843601523
 20
51.8432569582
 30
0.0
 10
61.9453153889
 20
51.8490150576
 30
0.0
 10
62.0327073393
 20
51.8547481217
 30
0.0
 10
62.1057303722
 20
51.8604623034
 30
0.0
 10
62.1643841568
 20
51.8660868674
 30
0.0
 10
62.2085429065
 20
51.8716954527
 30
0.0
 10
62.2364013897
 20
51.8765155671
 30
0.0
 10
62.2512147696
 20
51.880850349
 30
0.0
 10
62.2562429979
 20
51.8830416625
 30
0.0
 10
62.2579509215
 20
51.8843216188
 30
0.0
  0
SPLINE
  5
29D
100
AcDbEntity
  8
0
100
AcDbSpline
 62
7
  6
CONTINUOUS
 70
0
 71
3
 72
17
 73
13
 74
0
 42
0.0000001
 43
0.0000001
 44
0.0000000001
 40
0.0
 40
0.0
 40
0.0
 40
0.0
 40
0.1770888772
 40
0.3479314834
 40
0.5063680512
 40
0.6475032454
 40
0.7675014355
 40
0.8644341383
 40
0.9045414957
 40
0.9397024075
 40
0.9709844338
 40
1.0
 40
1.0
 40
1.0
 40
1.0
 10
41.6823227925
 20
67.0127721349
 30
0.0
 10
41.6823227925
 20
67.1112898752
 30
0.0
 10
41.6758595556
 20
67.3049147389
 30
0.0
 10
41.6471990915
 20
67.5853903821
 30
0.0
 10
41.6009571822
 20
67.8432476864
 30
0.0
 10
41.5394349763
 20
68.0688584423
 30
0.0
 10
41.4653396496
 20
68.2542101173
 30
0.0
 10
41.3913548828
 20
68.378017016
 30
0.0
 10
41.3263145173
 20
68.4488334046
 30
0.0
 10
41.2789642668
 20
68.4851343409
 30
0.0
 10
41.2302434387
 20
68.5075461313
 30
0.0
 10
41.196536865
 20
68.5127721349
 30
0.0
 10
41.1803949816
 20
68.5127721349
 30
0.0
  0
SPLINE
  5
29E
100
AcDbEntity
  8
0
100
AcDbSpline
 62
7
  6
CONTINUOUS
 70
0
 71
3
 72
59
 73
55
 74
0
 42
0.0000001
 43
0.0000001
 44
0.0000000001
 40
0.0
 40
0.0
 40
0.0
 40
0.0
 40
0.0001340446
 40
0.000337324
 40
0.0009615538
 40
0.0018807416
 40
0.0030950737
 40
0.0046035013
 40
0.0064045819
 40
0.008496702
 40
0.0108781621
 40
0.0165021579
 40
0.0232626307
 40
0.0311454333
 40
0.040135433
 40
0.0502149061
 40
0.0613656409
 40
0.0735650162
 40
0.0867770248
 40
0.1160857331
 40
0.1490049524
 40
0.1852530274
 40
0.2244933096
 40
0.2663423435
 40
0.3103863615
 40
0.3562258817
 40
0.4034353069
 40
0.5001363501
 40
0.5968296223
 40
0.6440261885
 40
0.6898645045
 40
0.7339161383
 40
0.7757437219
 40
0.8149469611
 40
0.8511851965
 40
0.8841149705
 40
0.9134044012
 40
0.9265879869
 40
0.9387569884
 40
0.949890678
 40
0.959968329
 40
0.9689660558
 40
0.9768572915
 40
0.9836158077
 40
0.989223411
 40
0.9915923757
 40
0.9936698187
 40
0.9954545784
 40
0.9969457993
 40
0.9981438252
 40
0.9990496979
 40
0.9996656045
 40
0.9998668061
 40
1.0
 40
1.0
 40
1.0
 40
1.0
 10
61.2583413581
 20
42.1339977579
 30
0.0
 10
61.2566501132
 20
42.1327298711
 30
0.0
 10
61.2517160172
 20
42.1305368756
 30
0.0
 10
61.2372123722
 20
42.1262060064
 30
0.0
 10
61.2100008224
 20
42.1213805913
 30
0.0
 10
61.16690665
 20
42.1157785201
 30
0.0
 10
61.109731586
 20
42.1101555895
 30
0.0
 10
61.0386285513
 20
42.1044453576
 30
0.0
 10
60.9536401244
 20
42.0987163034
 30
0.0
 10
60.8548631183
 20
42.0929629752
 30
0.0
 10
60.6958431183
 20
42.0848188178
 30
0.0
 10
60.4632107932
 20
42.0748686985
 30
0.0
 10
60.1438231238
 20
42.0634167274
 30
0.0
 10
59.7713295962
 20
42.0519265334
 30
0.0
 10
59.3464788125
 20
42.0404053212
 30
0.0
 10
58.8700802853
 20
42.0288636562
 30
0.0
 10
58.3430606255
 20
42.0173093045
 30
0.0
 10
57.766633829
 20
42.0057504192
 30
0.0
 10
56.9039089005
 20
41.9897686641
 30
0.0
 10
55.7144708665
 20
41.9700334199
 30
0.0
 10
54.1617879722
 20
41.9470228711
 30
0.0
 10
52.4524805228
 20
41.9239818305
 30
0.0
 10
50.6023488453
 20
41.9009182287
 30
0.0
 10
48.6292754338
 20
41.8778410757
 30
0.0
 10
46.5521332526
 20
41.8547374358
 30
0.0
 10
44.3904590075
 20
41.8316237906
 30
0.0
 10
41.3984820395
 20
41.800552803
 30
0.0
 10
37.6046319393
 20
41.7622699104
 30
0.0
 10
33.8109847563
 20
41.7239735863
 30
0.0
 10
30.8193521385
 20
41.6928995747
 30
0.0
 10
28.6577795118
 20
41.6697911266
 30
0.0
 10
26.5808743888
 20
41.6466962102
 30
0.0
 10
24.6086033986
 20
41.6236110783
 30
0.0
 10
22.7595495061
 20
41.6005341901
 30
0.0
 10
21.0508148685
 20
41.5775005602
 30
0.0
 10
19.4984244453
 20
41.5545082822
 30
0.0
 10
18.3095722294
 20
41.5347715279
 30
0.0
 10
17.4480788992
 20
41.5187760829
 30
0.0
 10
16.872848441
 20
41.5072094703
 30
0.0
 10
16.3466054642
 20
41.4956547789
 30
0.0
 10
15.8703825729
 20
41.4841170628
 30
0.0
 10
15.4453054695
 20
41.4726016207
 30
0.0
 10
15.0725875734
 20
41.461120465
 30
0.0
 10
14.7533561368
 20
41.4496740553
 30
0.0
 10
14.5212107799
 20
41.4397178432
 30
0.0
 10
14.3628790068
 20
41.431566236
 30
0.0
 10
14.2647889601
 20
41.4258130984
 30
0.0
 10
14.1805623129
 20
41.4200850142
 30
0.0
 10
14.1102474693
 20
41.4143744934
 30
0.0
 10
14.0538148668
 20
41.408749402
 30
0.0
 10
14.0113233657
 20
41.4031445063
 30
0.0
 10
13.9844943463
 20
41.3983126198
 30
0.0
 10
13.9701729297
 20
41.3939866874
 30
0.0
 10
13.9652909106
 20
41.3917939635
 30
0.0
 10
13.9636131194
 20
41.3905305024
 30
0.0
  0
SPLINE
  5
29F
100
AcDbEntity
  8
0
100
AcDbSpline
 62
7
  6
CONTINUOUS
 70
0
 71
3
 72
33
 73
29
 74
0
 42
0.0000001
 43
0.0000001
 44
0.0000000001
 40
0.0
 40
0.0
 40
0.0
 40
0.0
 40
0.1934837273
 40
0.2879345609
 40
0.3796648672
 40
0.4677757424
 40
0.5514551616
 40
0.6299475454
 40
0.7024693573
 40
0.7683055761
 40
0.8268468807
 40
0.8532316579
 40
0.8776106004
 40
0.8999148398
 40
0.9200759075
 40
0.9380416854
 40
0.9537763343
 40
0.9672454698
 40
0.9784258053
 40
0.9831533252
 40
0.9873035501
 40
0.9908749349
 40
0.9938656034
 40
0.9962731573
 40
0.9980958449
 40
0.9993340376
 40
0.9997365099
 40
1.0
 40
1.0
 40
1.0
 40
1.0
 10
37.6103150457
 20
56.0122866085
 30
0.0
 10
39.2002979947
 20
56.0271854279
 30
0.0
 10
41.5664316415
 20
56.050812965
 30
0.0
 10
44.6863720517
 20
56.0816385582
 30
0.0
 10
46.9403898681
 20
56.104797766
 30
0.0
 10
49.1058834953
 20
56.1279235726
 30
0.0
 10
51.1625815436
 20
56.151016657
 30
0.0
 10
53.0911601319
 20
56.1740866115
 30
0.0
 10
54.8730920951
 20
56.1971333916
 30
0.0
 10
56.491051225
 20
56.2201469136
 30
0.0
 10
57.7298619526
 20
56.2399073082
 30
0.0
 10
58.6279904474
 20
56.255901873
 30
0.0
 10
59.2283531116
 20
56.2674676147
 30
0.0
 10
59.7775592052
 20
56.2790205621
 30
0.0
 10
60.2740493318
 20
56.290562284
 30
0.0
 10
60.7165346278
 20
56.3020895467
 30
0.0
 10
61.1040057155
 20
56.3135833494
 30
0.0
 10
61.4356867509
 20
56.3250405663
 30
0.0
 10
61.6769051202
 20
56.3350016556
 30
0.0
 10
61.8415423492
 20
56.3431541231
 30
0.0
 10
61.9436876685
 20
56.3489104297
 30
0.0
 10
62.0315384604
 20
56.3546421623
 30
0.0
 10
62.1050250847
 20
56.3603551761
 30
0.0
 10
62.1641215306
 20
56.3659792392
 30
0.0
 10
62.2086785202
 20
56.3715872449
 30
0.0
 10
62.2368247686
 20
56.3764066874
 30
0.0
 10
62.2518302851
 20
56.3807388969
 30
0.0
 10
62.2569368014
 20
56.3829274513
 30
0.0
 10
62.2586837882
 20
56.3842068446
 30
0.0
  0
SPLINE
  5
2A0
100
AcDbEntity
  8
0
100
AcDbSpline
 62
7
  6
CONTINUOUS
 70
0
 71
3
 72
33
 73
29
 74
0
 42
0.0000001
 43
0.0000001
 44
0.0000000001
 40
0.0
 40
0.0
 40
0.0
 40
0.0
 40
0.0002585978
 40
0.0006547744
 40
0.0018773083
 40
0.0036813882
 40
0.0060685226
 40
0.0090380466
 40
0.0125886001
 40
0.016719191
 40
0.0214291728
 40
0.0325843268
 40
0.0460473031
 40
0.061792633
 40
0.079770578
 40
0.0999295193
 40
0.1222146811
 40
0.146568001
 40
0.1729313115
 40
0.2314615358
 40
0.2973310956
 40
0.3698758394
 40
0.4483589142
 40
0.5320527228
 40
0.620202187
 40
0.7119720589
 40
0.806448845
 40
1.0
 40
1.0
 40
1.0
 40
1.0
 10
12.9626444977
 20
55.6402555513
 30
0.0
 10
12.964340021
 20
55.641536672
 30
0.0
 10
12.9693487144
 20
55.6437287028
 30
0.0
 10
12.9841209355
 20
55.6480645397
 30
0.0
 10
13.0119320416
 20
55.652883828
 30
0.0
 10
13.0560330472
 20
55.6584925511
 30
0.0
 10
13.1146320832
 20
55.6641169979
 30
0.0
 10
13.187602041
 20
55.669831459
 30
0.0
 10
13.2749431594
 20
55.6755647765
 30
0.0
 10
13.3766081952
 20
55.6813232062
 30
0.0
 10
13.5407276652
 20
55.6894832545
 30
0.0
 10
13.7815373502
 20
55.6994520068
 30
0.0
 10
14.1130396977
 20
55.7109098878
 30
0.0
 10
14.5006377942
 20
55.7224006049
 30
0.0
 10
14.9432816971
 20
55.7339267193
 30
0.0
 10
15.4396842649
 20
55.7454717138
 30
0.0
 10
15.9884907388
 20
55.7570308419
 30
0.0
 10
16.5882935019
 20
55.7686021861
 30
0.0
 10
17.4859198541
 20
55.7846072359
 30
0.0
 10
18.7247040276
 20
55.8043797462
 30
0.0
 10
20.3429916781
 20
55.8273886155
 30
0.0
 10
22.125262248
 20
55.8504380035
 30
0.0
 10
24.0540196318
 20
55.8735248609
 30
0.0
 10
26.1110218392
 20
55.8966281063
 30
0.0
 10
28.2772184472
 20
55.9197599995
 30
0.0
 10
30.5320319759
 20
55.9429196576
 30
0.0
 10
33.6529818802
 20
55.9737681939
 30
0.0
 10
36.0198202335
 20
55.9973829928
 30
0.0
 10
37.6103150457
 20
56.0122866085
 30
0.0
  0
SPLINE
  5
2A1
100
AcDbEntity
  8
0
100
AcDbSpline
 62
7
  6
CONTINUOUS
 70
0
 71
3
 72
42
 73
38
 74
0
 42
0.0000001
 43
0.0000001
 44
0.0000000001
 40
0.0
 40
0.0
 40
0.0
 40
0.0
 40
0.0002754633
 40
0.000762183
 40
0.0014662818
 40
0.0023893598
 40
0.0035318696
 40
0.0048938894
 40
0.006475374
 40
0.0082762735
 40
0.0125358616
 40
0.0176681697
 40
0.0236630908
 40
0.0305085836
 40
0.0381911543
 40
0.0466958395
 40
0.0560069151
 40
0.0661087275
 40
0.0886174761
 40
0.114077286
 40
0.1423327335
 40
0.1732091827
 40
0.2064975281
 40
0.2419634235
 40
0.279366807
 40
0.3184614586
 40
0.4007007209
 40
0.4865310733
 40
0.5736626747
 40
0.6169993362
 40
0.659801214
 40
0.7017806297
 40
0.7426544543
 40
0.8200333264
 40
0.8899303136
 40
0.9504649481
 40
1.0
 40
1.0
 40
1.0
 40
1.0
 10
61.2562320903
 20
36.132002942
 30
0.0
 10
61.2529744498
 20
36.1295926856
 30
0.0
 10
61.2419219202
 20
36.1262810708
 30
0.0
 10
61.2209998851
 20
36.1218575641
 30
0.0
 10
61.1900906721
 20
36.117553888
 30
0.0
 10
61.1496275031
 20
36.1131012379
 30
0.0
 10
61.0993816622
 20
36.108662286
 30
0.0
 10
61.039443486
 20
36.1041828814
 30
0.0
 10
60.9697916161
 20
36.0996722899
 30
0.0
 10
60.8575556893
 20
36.0932192567
 30
0.0
 10
60.6930938965
 20
36.085133192
 30
0.0
 10
60.4669442229
 20
36.0754554373
 30
0.0
 10
60.2027370645
 20
36.0654017253
 30
0.0
 10
59.9009976784
 20
36.0551020313
 30
0.0
 10
59.5623174577
 20
36.044815155
 30
0.0
 10
59.1873484002
 20
36.0346252467
 30
0.0
 10
58.7767741766
 20
36.0245843957
 30
0.0
 10
58.1602121916
 20
36.0110098779
 30
0.0
 10
57.3060846088
 20
35.9950016385
 30
0.0
 10
56.1848935624
 20
35.9770340805
 30
0.0
 10
54.940592043
 20
35.9590055859
 30
0.0
 10
53.5811362817
 20
35.9393536919
 30
0.0
 10
52.1156124886
 20
35.9185679381
 30
0.0
 10
50.554056454
 20
35.8981565346
 30
0.0
 10
48.9070662424
 20
35.8786072225
 30
0.0
 10
46.5720102191
 20
35.8534971626
 30
0.0
 10
43.5245503268
 20
35.8240218321
 30
0.0
 10
39.7705076564
 20
35.7821786991
 30
0.0
 10
36.5886983994
 20
35.7494110247
 30
0.0
 10
34.039831722
 20
35.7249572534
 30
0.0
 10
32.1551685832
 20
35.7070384797
 30
0.0
 10
30.3067474305
 20
35.6881304686
 30
0.0
 10
27.9497208969
 20
35.6611241499
 30
0.0
 10
25.1820459329
 20
35.6275930566
 30
0.0
 10
22.1251504701
 20
35.5916782589
 30
0.0
 10
19.4778805036
 20
35.5563627533
 30
0.0
 10
17.8589282912
 20
35.5254693227
 30
0.0
 10
17.1303721525
 20
35.510392614
 30
0.0
  0
SPLINE
  5
2A2
100
AcDbEntity
  8
0
100
AcDbSpline
 62
7
  6
CONTINUOUS
 70
0
 71
3
 72
34
 73
30
 74
0
 42
0.0000001
 43
0.0000001
 44
0.0000000001
 40
0.0
 40
0.0
 40
0.0
 40
0.0
 40
0.0971694354
 40
0.1934433984
 40
0.2878559153
 40
0.3795616412
 40
0.4676902103
 40
0.5513759496
 40
0.6298083465
 40
0.7023075883
 40
0.7681896159
 40
0.8267825446
 40
0.8531579248
 40
0.8775032439
 40
0.8997766631
 40
0.919936868
 40
0.9379362975
 40
0.9537219129
 40
0.9672417788
 40
0.9784603727
 40
0.9831993736
 40
0.9873543964
 40
0.990922748
 40
0.9939032999
 40
0.9962972271
 40
0.9981065877
 40
0.9993355593
 40
0.9997361235
 40
1.0
 40
1.0
 40
1.0
 40
1.0
 10
37.610320899
 20
54.5123203003
 30
0.0
 10
38.4087612439
 20
54.5203441188
 30
0.0
 10
39.9982909218
 20
54.5356044701
 30
0.0
 10
42.3636094992
 20
54.5584404092
 30
0.0
 10
44.6840238957
 20
54.5817365737
 30
0.0
 10
46.9375029891
 20
54.6048191171
 30
0.0
 10
49.1028310259
 20
54.627904489
 30
0.0
 10
51.1590800967
 20
54.6510044452
 30
0.0
 10
53.0868883215
 20
54.6740836174
 30
0.0
 10
54.8683855707
 20
54.6971222415
 30
0.0
 10
56.4868396032
 20
54.7201166647
 30
0.0
 10
57.7262818099
 20
54.7398592625
 30
0.0
 10
58.6244140279
 20
54.7558565675
 30
0.0
 10
59.2241249986
 20
54.7674250599
 30
0.0
 10
59.7727532977
 20
54.7789816889
 30
0.0
 10
60.2692226146
 20
54.7905213932
 30
0.0
 10
60.7123636258
 20
54.8020388812
 30
0.0
 10
61.1009188103
 20
54.8135221877
 30
0.0
 10
61.4337261009
 20
54.8249716706
 30
0.0
 10
61.6757529588
 20
54.8349287793
 30
0.0
 10
61.8408265691
 20
54.8430817546
 30
0.0
 10
61.9430734611
 20
54.8488354479
 30
0.0
 10
62.0308490307
 20
54.8545646162
 30
0.0
 10
62.1041098475
 20
54.8602768259
 30
0.0
 10
62.1628951337
 20
54.8659015482
 30
0.0
 10
62.2071512864
 20
54.8715089318
 30
0.0
 10
62.2350867888
 20
54.8763355828
 30
0.0
 10
62.2500036673
 20
54.8806655667
 30
0.0
 10
62.2550913143
 20
54.8828544898
 30
0.0
 10
62.2568478496
 20
54.8841258892
 30
0.0
  0
SPLINE
  5
2A3
100
AcDbEntity
  8
0
100
AcDbSpline
 62
7
  6
CONTINUOUS
 70
0
 71
3
 72
34
 73
30
 74
0
 42
0.0000001
 43
0.0000001
 44
0.0000000001
 40
0.0
 40
0.0
 40
0.0
 40
0.0
 40
0.1935589003
 40
0.288038041
 40
0.3797701295
 40
0.4679081229
 40
0.5516345461
 40
0.6301444948
 40
0.7026368909
 40
0.7684605875
 40
0.8270464066
 40
0.8534410072
 40
0.8778098269
 40
0.9000890393
 40
0.9202161513
 40
0.9381487401
 40
0.9538621382
 40
0.9673319602
 40
0.9785276309
 40
0.9832617065
 40
0.987414147
 40
0.9909807383
 40
0.9939585948
 40
0.9963470003
 40
0.9981461644
 40
0.9988254734
 40
0.9993588964
 40
0.9997484615
 40
1.0
 40
1.0
 40
1.0
 40
1.0
 10
37.6103204009
 20
53.0123244479
 30
0.0
 10
39.2009242221
 20
53.0272290976
 30
0.0
 10
41.5679133955
 20
53.0508125135
 30
0.0
 10
44.6887246961
 20
53.0816720839
 30
0.0
 10
46.9432169912
 20
53.1048418546
 30
0.0
 10
49.1093386668
 20
53.1279703352
 30
0.0
 10
51.1667942942
 20
53.1510635412
 30
0.0
 10
53.0956654847
 20
53.1741421817
 30
0.0
 10
54.8774004238
 20
53.1972058986
 30
0.0
 10
56.4953836648
 20
53.2202354436
 30
0.0
 10
57.7345407042
 20
53.2399837969
 30
0.0
 10
58.6330342871
 20
53.2559841969
 30
0.0
 10
59.2331898367
 20
53.2675566911
 30
0.0
 10
59.7818288436
 20
53.2791160102
 30
0.0
 10
60.2775621297
 20
53.2906641457
 30
0.0
 10
60.7193214441
 20
53.3021973205
 30
0.0
 10
61.1063511588
 20
53.3136986692
 30
0.0
 10
61.4379895783
 20
53.3251591211
 30
0.0
 10
61.6793946044
 20
53.3351148575
 30
0.0
 10
61.8442299883
 20
53.3432685252
 30
0.0
 10
61.9464094891
 20
53.3490226765
 30
0.0
 10
62.034130197
 20
53.3547591259
 30
0.0
 10
62.1073243129
 20
53.3604581711
 30
0.0
 10
62.1659352988
 20
53.366122518
 30
0.0
 10
62.2056448059
 20
53.3710840975
 30
0.0
 10
62.230033265
 20
53.3752810724
 30
0.0
 10
62.2429241677
 20
53.3780900965
 30
0.0
 10
62.2521409174
 20
53.3808574322
 30
0.0
 10
62.2570372882
 20
53.3830517777
 30
0.0
 10
62.2586523387
 20
53.384342021
 30
0.0
  0
SPLINE
  5
2A4
100
AcDbEntity
  8
0
100
AcDbSpline
 62
7
  6
CONTINUOUS
 70
0
 71
3
 72
34
 73
30
 74
0
 42
0.0000001
 43
0.0000001
 44
0.0000000001
 40
0.0
 40
0.0
 40
0.0
 40
0.0
 40
0.0002624783
 40
0.0006636122
 40
0.0018991885
 40
0.0037209802
 40
0.0061312832
 40
0.0091302599
 40
0.0127171478
 40
0.0168889723
 40
0.0216415173
 40
0.0328714081
 40
0.0463718914
 40
0.0621125946
 40
0.0800692111
 40
0.1002170566
 40
0.1225133474
 40
0.1468956182
 40
0.1733001415
 40
0.231895438
 40
0.2977157769
 40
0.3701931665
 40
0.4486768504
 40
0.5323670463
 40
0.6204604504
 40
0.7121411001
 40
0.8065635413
 40
0.902842101
 40
1.0
 40
1.0
 40
1.0
 40
1.0
 10
12.9622954646
 20
54.1404872098
 30
0.0
 10
12.9640324802
 20
54.1417660831
 30
0.0
 10
12.9691181369
 20
54.1439551827
 30
0.0
 10
12.9840805515
 20
54.1482884217
 30
0.0
 10
13.0121866609
 20
54.1531080705
 30
0.0
 10
13.0567364661
 20
54.1587155966
 30
0.0
 10
13.1159163107
 20
54.1643386982
 30
0.0
 10
13.189620844
 20
54.1700507937
 30
0.0
 10
13.2778446492
 20
54.1757791516
 30
0.0
 10
13.3805000793
 20
54.1815319768
 30
0.0
 10
13.5459266894
 20
54.1896777068
 30
0.0
 10
13.7880133279
 20
54.1996271433
 30
0.0
 10
14.1204048117
 20
54.2110810761
 30
0.0
 10
14.5081026073
 20
54.2225757085
 30
0.0
 10
14.9504474965
 20
54.2341017811
 30
0.0
 10
15.4466813588
 20
54.2456426077
 30
0.0
 10
15.9957331265
 20
54.2571946568
 30
0.0
 10
16.5962117291
 20
54.2687597486
 30
0.0
 10
17.4949611862
 20
54.2847484975
 30
0.0
 10
18.734230507
 20
54.304483248
 30
0.0
 10
20.3521150703
 20
54.327499596
 30
0.0
 10
22.1334549958
 20
54.3505469912
 30
0.0
 10
24.0616587
 20
54.3736068462
 30
0.0
 10
26.118201409
 20
54.3967034517
 30
0.0
 10
28.2832020057
 20
54.419794945
 30
0.0
 10
30.5364039128
 20
54.4428860081
 30
0.0
 10
32.8568721838
 20
54.4661672332
 30
0.0
 10
35.2223583379
 20
54.489017609
 30
0.0
 10
36.8119270233
 20
54.5042969487
 30
0.0
 10
37.610320899
 20
54.5123203003
 30
0.0
  0
SPLINE
  5
2A5
100
AcDbEntity
  8
0
100
AcDbSpline
 62
7
  6
CONTINUOUS
 70
0
 71
3
 72
17
 73
13
 74
0
 42
0.0000001
 43
0.0000001
 44
0.0000000001
 40
0.0
 40
0.0
 40
0.0
 40
0.0
 40
0.0290155762
 40
0.060297626
 40
0.0954585513
 40
0.135565906
 40
0.2324985465
 40
0.3524966136
 40
0.4936316567
 40
0.6520681171
 40
0.8229109243
 40
1.0
 40
1.0
 40
1.0
 40
1.0
 10
34.0402337781
 20
68.5127721349
 30
0.0
 10
34.0240918891
 20
68.5127721349
 30
0.0
 10
33.9903852979
 20
68.5075461084
 30
0.0
 10
33.9416644591
 20
68.4851342872
 30
0.0
 10
33.8943141785
 20
68.4488333599
 30
0.0
 10
33.829273844
 20
68.378016979
 30
0.0
 10
33.7552891423
 20
68.2542101686
 30
0.0
 10
33.6811938789
 20
68.0688586715
 30
0.0
 10
33.6196716803
 20
67.843248137
 30
0.0
 10
33.5734297056
 20
67.5853908759
 30
0.0
 10
33.5447692574
 20
67.3049150683
 30
0.0
 10
33.5383059672
 20
67.1112899852
 30
0.0
 10
33.5383059672
 20
67.0127721349
 30
0.0
  0
SPLINE
  5
2A6
100
AcDbEntity
  8
0
100
AcDbSpline
 62
7
  6
CONTINUOUS
 70
0
 71
3
 72
34
 73
30
 74
0
 42
0.0000001
 43
0.0000001
 44
0.0000000001
 40
0.0
 40
0.0
 40
0.0
 40
0.0
 40
0.0972169535
 40
0.1935386258
 40
0.2880095636
 40
0.3797741363
 40
0.4679190292
 40
0.5516091136
 40
0.630089458
 40
0.7026326029
 40
0.7685018589
 40
0.827033089
 40
0.8533974017
 40
0.8777520758
 40
0.9000389565
 40
0.9201999926
 40
0.9381804105
 40
0.9539285969
 40
0.9673948072
 40
0.9785535248
 40
0.9832654095
 40
0.9873979839
 40
0.9909506012
 40
0.9939222717
 40
0.9963116349
 40
0.998118021
 40
0.9993429223
 40
0.9997402813
 40
1.0
 40
1.0
 40
1.0
 40
1.0
 10
37.6103150974
 20
45.5123000197
 30
0.0
 10
38.4091836268
 20
45.520249308
 30
0.0
 10
39.9995689602
 20
45.5355529661
 30
0.0
 10
42.3662587091
 20
45.558485219
 30
0.0
 10
44.6881365943
 20
45.581744239
 30
0.0
 10
46.9428176222
 20
45.6048438221
 30
0.0
 10
49.1088990183
 20
45.6279538227
 30
0.0
 10
51.1658068883
 20
45.6510721237
 30
0.0
 10
53.0944948091
 20
45.6741541708
 30
0.0
 10
54.8767242653
 20
45.6972005155
 30
0.0
 10
56.4950017542
 20
45.7202090785
 30
0.0
 10
57.7337978198
 20
45.7399799792
 30
0.0
 10
58.6314502787
 20
45.7559837443
 30
0.0
 10
59.2312855168
 20
45.7675543219
 30
0.0
 10
59.7801335359
 20
45.7791127215
 30
0.0
 10
60.2765869383
 20
45.7906569895
 30
0.0
 10
60.7192911254
 20
45.8021823761
 30
0.0
 10
61.1069589752
 20
45.8136723946
 30
0.0
 10
61.4385401535
 20
45.8251295904
 30
0.0
 10
61.6794210098
 20
45.835097642
 30
0.0
 10
61.843601523
 20
45.8432569582
 30
0.0
 10
61.9453153889
 20
45.8490150576
 30
0.0
 10
62.0327073393
 20
45.8547481217
 30
0.0
 10
62.1057303722
 20
45.8604623034
 30
0.0
 10
62.1643841568
 20
45.8660868674
 30
0.0
 10
62.2085429066
 20
45.8716954527
 30
0.0
 10
62.2364013897
 20
45.8765155671
 30
0.0
 10
62.2512147696
 20
45.880850349
 30
0.0
 10
62.2562429979
 20
45.8830416625
 30
0.0
 10
62.2579509215
 20
45.8843216188
 30
0.0
  0
SPLINE
  5
2A7
100
AcDbEntity
  8
0
100
AcDbSpline
 62
7
  6
CONTINUOUS
 70
0
 71
3
 72
59
 73
55
 74
0
 42
0.0000001
 43
0.0000001
 44
0.0000000001
 40
0.0
 40
0.0
 40
0.0
 40
0.0
 40
0.0001335658
 40
0.0003357117
 40
0.0009545541
 40
0.0018635567
 40
0.0030634655
 40
0.0045538893
 40
0.0063343349
 40
0.008404615
 40
0.0107645002
 40
0.0163519309
 40
0.0230932334
 40
0.0309728639
 40
0.0399667466
 40
0.0500504076
 40
0.0611967455
 40
0.0733765327
 40
0.0865604917
 40
0.1158262485
 40
0.14875658
 40
0.1850220831
 40
0.2242518095
 40
0.2660860073
 40
0.3101430993
 40
0.3560095385
 40
0.403232559
 40
0.4999667481
 40
0.5967032991
 40
0.6439328988
 40
0.6897950217
 40
0.7338516405
 40
0.7756917398
 40
0.8149383447
 40
0.8512052672
 40
0.8841186971
 40
0.9133952156
 40
0.9265888771
 40
0.9387775307
 40
0.9499300439
 40
0.9600163329
 40
0.9690065988
 40
0.9768743609
 40
0.9836081468
 40
0.989200842
 40
0.9915670606
 40
0.9936449216
 40
0.9954330082
 40
0.9969299905
 40
0.9981347112
 40
0.9990464105
 40
0.9996655826
 40
0.9998671959
 40
1.0
 40
1.0
 40
1.0
 40
1.0
 10
61.2579725933
 20
40.6342368817
 30
0.0
 10
61.2562899897
 20
40.6329699812
 30
0.0
 10
61.2513837271
 20
40.6307773533
 30
0.0
 10
61.2369934152
 20
40.626450826
 30
0.0
 10
61.2100504746
 20
40.6216208701
 30
0.0
 10
61.1674322961
 20
40.6160144298
 30
0.0
 10
61.1109317005
 20
40.610387954
 30
0.0
 10
61.040666618
 20
40.6046747781
 30
0.0
 10
60.9566323688
 20
40.5989422807
 30
0.0
 10
60.8588649982
 20
40.5931858264
 30
0.0
 10
60.7011048598
 20
40.5850294537
 30
0.0
 10
60.4696879457
 20
40.5750647334
 30
0.0
 10
60.1512224526
 20
40.5636131654
 30
0.0
 10
59.7790116011
 20
40.5521246129
 30
0.0
 10
59.3540739189
 20
40.5406016028
 30
0.0
 10
58.8776065837
 20
40.5290606451
 30
0.0
 10
58.3508872147
 20
40.5175058691
 30
0.0
 10
57.7752681871
 20
40.5059388691
 30
0.0
 10
56.9139527024
 20
40.4899409142
 30
0.0
 10
55.7254326053
 20
40.4701762709
 30
0.0
 10
54.1729415244
 20
40.4471745657
 30
0.0
 10
52.4633115485
 20
40.4241362877
 30
0.0
 10
50.613263567
 20
40.4010589517
 30
0.0
 10
48.6403398171
 20
40.3779582201
 30
0.0
 10
46.5627537871
 20
40.3548438763
 30
0.0
 10
44.4001853037
 20
40.331729277
 30
0.0
 10
41.4069787944
 20
40.3006467752
 30
0.0
 10
37.6116231187
 20
40.2623330944
 30
0.0
 10
33.8161636484
 20
40.2240234789
 30
0.0
 10
30.8228841582
 20
40.1929454568
 30
0.0
 10
28.6602875347
 20
40.169822799
 30
0.0
 10
26.5826839736
 20
40.1467081206
 30
0.0
 10
24.609408429
 20
40.1236083896
 30
0.0
 10
22.7589787462
 20
40.1005366154
 30
0.0
 10
21.0493266963
 20
40.0775012922
 30
0.0
 10
19.4969103906
 20
40.0544777836
 30
0.0
 10
18.3083339407
 20
40.0347241987
 30
0.0
 10
17.4465557673
 20
40.0187310017
 30
0.0
 10
16.8705464508
 20
40.0071645846
 30
0.0
 10
16.3435483979
 20
39.9956087628
 30
0.0
 10
15.8669992445
 20
39.9840681593
 30
0.0
 10
15.4422642588
 20
39.9725492376
 30
0.0
 10
15.0704165314
 20
39.9610526374
 30
0.0
 10
14.7521742089
 20
39.9495915455
 30
0.0
 10
14.5206928042
 20
39.9396307482
 30
0.0
 10
14.3626295289
 20
39.9314804194
 30
0.0
 10
14.2645216341
 20
39.9257251352
 30
0.0
 10
14.1801429592
 20
39.9199943167
 30
0.0
 10
14.1095772218
 20
39.914282328
 30
0.0
 10
14.0528529871
 20
39.9086575178
 30
0.0
 10
14.0101111488
 20
39.903052937
 30
0.0
 10
13.9831254422
 20
39.8982251307
 30
0.0
 10
13.9687537832
 20
39.8938940582
 30
0.0
 10
13.9638683392
 20
39.8916995145
 30
0.0
 10
13.9622026755
 20
39.8904301435
 30
0.0
  0
SPLINE
  5
2A8
100
AcDbEntity
  8
0
100
AcDbSpline
 62
7
  6
CONTINUOUS
 70
0
 71
3
 72
33
 73
29
 74
0
 42
0.0000001
 43
0.0000001
 44
0.0000000001
 40
0.0
 40
0.0
 40
0.0
 40
0.0
 40
0.0002586051
 40
0.0006536071
 40
0.0018714068
 40
0.0036698329
 40
0.0060531421
 40
0.0090234167
 40
0.0125818541
 40
0.0167273779
 40
0.0214572997
 40
0.032658992
 40
0.0461636384
 40
0.0619358624
 40
0.0799237261
 40
0.1000741315
 40
0.1223394082
 40
0.1466781907
 40
0.173048629
 40
0.2316367048
 40
0.2975203183
 40
0.3700271308
 40
0.4484723507
 40
0.5321756416
 40
0.6203259452
 40
0.7120567896
 40
0.8064969601
 40
1.0
 40
1.0
 40
1.0
 40
1.0
 10
12.9636192908
 20
52.6403995339
 30
0.0
 10
12.9653180469
 20
52.6416763258
 30
0.0
 10
12.9703135036
 20
52.64386855
 30
0.0
 10
12.9850368925
 20
52.6482035558
 30
0.0
 10
13.0127481448
 20
52.6530264212
 30
0.0
 10
13.0567307784
 20
52.6586344641
 30
0.0
 10
13.1152551823
 20
52.664258667
 30
0.0
 10
13.1882621257
 20
52.6699722146
 30
0.0
 10
13.2757940577
 20
52.6757026312
 30
0.0
 10
13.377807187
 20
52.6814578707
 30
0.0
 10
13.5425901671
 20
52.689614338
 30
0.0
 10
13.7842801294
 20
52.6995747599
 30
0.0
 10
14.1167159603
 20
52.7110274476
 30
0.0
 10
14.5049440938
 20
52.7225140394
 30
0.0
 10
14.9478031144
 20
52.734034964
 30
0.0
 10
15.4440340695
 20
52.7455781412
 30
0.0
 10
15.9924658074
 20
52.7571383148
 30
0.0
 10
16.5920205924
 20
52.7687104256
 30
0.0
 10
17.4900261926
 20
52.784713501
 30
0.0
 10
18.7294114676
 20
52.8044629195
 30
0.0
 10
20.34791468
 20
52.8274630134
 30
0.0
 10
22.129607733
 20
52.8505106491
 30
0.0
 10
24.0577442105
 20
52.873600909
 30
0.0
 10
26.114439307
 20
52.8966878929
 30
0.0
 10
28.2803148083
 20
52.9198077619
 30
0.0
 10
30.5344248545
 20
52.9429608552
 30
0.0
 10
33.6542348896
 20
52.9737995003
 30
0.0
 10
36.0202836005
 20
52.9974251114
 30
0.0
 10
37.6103204009
 20
53.0123244479
 30
0.0
  0
SPLINE
  5
2A9
100
AcDbEntity
  8
0
100
AcDbSpline
 62
7
  6
CONTINUOUS
 70
0
 71
3
 72
14
 73
10
 74
0
 42
0.0000001
 43
0.0000001
 44
0.0000000001
 40
0.0
 40
0.0
 40
0.0
 40
0.0
 40
0.2715502582
 40
0.4036273573
 40
0.5313945247
 40
0.6543406499
 40
0.7726756837
 40
0.8874358548
 40
1.0
 40
1.0
 40
1.0
 40
1.0
 10
57.7815359696
 20
67.0127721349
 30
0.0
 10
57.7815359696
 20
67.2084939242
 30
0.0
 10
57.7330029098
 20
67.5027855252
 30
0.0
 10
57.5748831439
 20
67.8532207125
 30
0.0
 10
57.4171778801
 20
68.0816775099
 30
0.0
 10
57.2256120004
 20
68.2687091854
 30
0.0
 10
57.0075766095
 20
68.4077499923
 30
0.0
 10
56.7714550156
 20
68.4933304046
 30
0.0
 10
56.6070063566
 20
68.5127721349
 30
0.0
 10
56.5258749445
 20
68.5127721349
 30
0.0
  0
SPLINE
  5
2AA
100
AcDbEntity
  8
0
100
AcDbSpline
 62
7
  6
CONTINUOUS
 70
0
 71
3
 72
33
 73
29
 74
0
 42
0.0000001
 43
0.0000001
 44
0.0000000001
 40
0.0
 40
0.0
 40
0.0
 40
0.0
 40
0.1934837273
 40
0.2879345609
 40
0.3796648672
 40
0.4677757424
 40
0.5514551616
 40
0.6299475454
 40
0.7024693573
 40
0.7683055761
 40
0.8268468807
 40
0.8532316579
 40
0.8776106004
 40
0.8999148398
 40
0.9200759075
 40
0.9380416854
 40
0.9537763343
 40
0.9672454698
 40
0.9784258053
 40
0.9831533252
 40
0.9873035501
 40
0.9908749349
 40
0.9938656034
 40
0.9962731573
 40
0.9980958449
 40
0.9993340376
 40
0.9997365099
 40
1.0
 40
1.0
 40
1.0
 40
1.0
 10
37.6103150457
 20
50.0122866085
 30
0.0
 10
39.2002979947
 20
50.0271854279
 30
0.0
 10
41.5664316415
 20
50.050812965
 30
0.0
 10
44.6863720517
 20
50.0816385582
 30
0.0
 10
46.9403898681
 20
50.104797766
 30
0.0
 10
49.1058834953
 20
50.1279235726
 30
0.0
 10
51.1625815436
 20
50.151016657
 30
0.0
 10
53.0911601319
 20
50.1740866115
 30
0.0
 10
54.8730920952
 20
50.1971333916
 30
0.0
 10
56.491051225
 20
50.2201469136
 30
0.0
 10
57.7298619526
 20
50.2399073082
 30
0.0
 10
58.6279904474
 20
50.255901873
 30
0.0
 10
59.2283531116
 20
50.2674676147
 30
0.0
 10
59.7775592052
 20
50.2790205621
 30
0.0
 10
60.2740493318
 20
50.290562284
 30
0.0
 10
60.7165346278
 20
50.3020895467
 30
0.0
 10
61.1040057155
 20
50.3135833494
 30
0.0
 10
61.4356867509
 20
50.3250405663
 30
0.0
 10
61.6769051202
 20
50.3350016556
 30
0.0
 10
61.8415423492
 20
50.3431541231
 30
0.0
 10
61.9436876685
 20
50.3489104297
 30
0.0
 10
62.0315384604
 20
50.3546421623
 30
0.0
 10
62.1050250847
 20
50.3603551761
 30
0.0
 10
62.1641215306
 20
50.3659792392
 30
0.0
 10
62.2086785202
 20
50.3715872449
 30
0.0
 10
62.2368247686
 20
50.3764066874
 30
0.0
 10
62.2518302851
 20
50.3807388969
 30
0.0
 10
62.2569368014
 20
50.3829274513
 30
0.0
 10
62.2586837882
 20
50.3842068446
 30
0.0
  0
SPLINE
  5
2AB
100
AcDbEntity
  8
0
100
AcDbSpline
 62
7
  6
CONTINUOUS
 70
0
 71
3
 72
33
 73
29
 74
0
 42
0.0000001
 43
0.0000001
 44
0.0000000001
 40
0.0
 40
0.0
 40
0.0
 40
0.0
 40
0.0002585978
 40
0.0006547744
 40
0.0018773083
 40
0.0036813882
 40
0.0060685226
 40
0.0090380466
 40
0.0125886001
 40
0.016719191
 40
0.0214291728
 40
0.0325843268
 40
0.0460473031
 40
0.061792633
 40
0.079770578
 40
0.0999295193
 40
0.1222146811
 40
0.146568001
 40
0.1729313115
 40
0.2314615358
 40
0.2973310956
 40
0.3698758394
 40
0.4483589142
 40
0.5320527228
 40
0.620202187
 40
0.7119720589
 40
0.806448845
 40
1.0
 40
1.0
 40
1.0
 40
1.0
 10
12.9626444977
 20
43.6402555513
 30
0.0
 10
12.964340021
 20
43.6415366721
 30
0.0
 10
12.9693487144
 20
43.6437287028
 30
0.0
 10
12.9841209355
 20
43.6480645397
 30
0.0
 10
13.0119320416
 20
43.652883828
 30
0.0
 10
13.0560330472
 20
43.6584925511
 30
0.0
 10
13.1146320832
 20
43.6641169979
 30
0.0
 10
13.187602041
 20
43.669831459
 30
0.0
 10
13.2749431594
 20
43.6755647765
 30
0.0
 10
13.3766081952
 20
43.6813232062
 30
0.0
 10
13.5407276652
 20
43.6894832545
 30
0.0
 10
13.7815373502
 20
43.6994520068
 30
0.0
 10
14.1130396977
 20
43.7109098878
 30
0.0
 10
14.5006377942
 20
43.7224006049
 30
0.0
 10
14.9432816971
 20
43.7339267193
 30
0.0
 10
15.4396842649
 20
43.7454717138
 30
0.0
 10
15.9884907388
 20
43.7570308419
 30
0.0
 10
16.5882935019
 20
43.7686021861
 30
0.0
 10
17.4859198541
 20
43.7846072359
 30
0.0
 10
18.7247040276
 20
43.8043797462
 30
0.0
 10
20.3429916781
 20
43.8273886155
 30
0.0
 10
22.125262248
 20
43.8504380036
 30
0.0
 10
24.0540196318
 20
43.8735248609
 30
0.0
 10
26.1110218392
 20
43.8966281063
 30
0.0
 10
28.2772184472
 20
43.9197599995
 30
0.0
 10
30.5320319759
 20
43.9429196576
 30
0.0
 10
33.6529818802
 20
43.973768194
 30
0.0
 10
36.0198202335
 20
43.9973829928
 30
0.0
 10
37.6103150457
 20
44.0122866085
 30
0.0
  0
SPLINE
  5
2AC
100
AcDbEntity
  8
0
100
AcDbSpline
 62
7
  6
CONTINUOUS
 70
0
 71
3
 72
34
 73
30
 74
0
 42
0.0000001
 43
0.0000001
 44
0.0000000001
 40
0.0
 40
0.0
 40
0.0
 40
0.0
 40
0.0971694354
 40
0.1934433984
 40
0.2878559153
 40
0.3795616412
 40
0.4676902103
 40
0.5513759496
 40
0.6298083465
 40
0.7023075883
 40
0.7681896159
 40
0.8267825446
 40
0.8531579248
 40
0.8775032439
 40
0.8997766631
 40
0.919936868
 40
0.9379362975
 40
0.9537219129
 40
0.9672417788
 40
0.9784603727
 40
0.9831993736
 40
0.9873543964
 40
0.990922748
 40
0.9939032999
 40
0.9962972271
 40
0.9981065877
 40
0.9993355593
 40
0.9997361235
 40
1.0
 40
1.0
 40
1.0
 40
1.0
 10
37.610320899
 20
48.5123203003
 30
0.0
 10
38.4087612439
 20
48.5203441188
 30
0.0
 10
39.9982909218
 20
48.5356044701
 30
0.0
 10
42.3636094992
 20
48.5584404092
 30
0.0
 10
44.6840238957
 20
48.5817365737
 30
0.0
 10
46.9375029891
 20
48.6048191171
 30
0.0
 10
49.1028310259
 20
48.627904489
 30
0.0
 10
51.1590800967
 20
48.6510044452
 30
0.0
 10
53.0868883215
 20
48.6740836174
 30
0.0
 10
54.8683855707
 20
48.6971222415
 30
0.0
 10
56.4868396032
 20
48.7201166647
 30
0.0
 10
57.7262818099
 20
48.7398592625
 30
0.0
 10
58.6244140279
 20
48.7558565675
 30
0.0
 10
59.2241249986
 20
48.7674250599
 30
0.0
 10
59.7727532977
 20
48.7789816889
 30
0.0
 10
60.2692226146
 20
48.7905213932
 30
0.0
 10
60.7123636258
 20
48.8020388812
 30
0.0
 10
61.1009188103
 20
48.8135221877
 30
0.0
 10
61.4337261009
 20
48.8249716707
 30
0.0
 10
61.6757529587
 20
48.8349287794
 30
0.0
 10
61.8408265691
 20
48.8430817546
 30
0.0
 10
61.9430734611
 20
48.8488354479
 30
0.0
 10
62.0308490307
 20
48.8545646162
 30
0.0
 10
62.1041098475
 20
48.8602768259
 30
0.0
 10
62.1628951337
 20
48.8659015482
 30
0.0
 10
62.2071512864
 20
48.8715089318
 30
0.0
 10
62.2350867888
 20
48.8763355828
 30
0.0
 10
62.2500036673
 20
48.8806655667
 30
0.0
 10
62.2550913143
 20
48.8828544898
 30
0.0
 10
62.2568478496
 20
48.8841258892
 30
0.0
  0
SPLINE
  5
2AD
100
AcDbEntity
  8
0
100
AcDbSpline
 62
7
  6
CONTINUOUS
 70
0
 71
3
 72
34
 73
30
 74
0
 42
0.0000001
 43
0.0000001
 44
0.0000000001
 40
0.0
 40
0.0
 40
0.0
 40
0.0
 40
0.0002566765
 40
0.0006518324
 40
0.0011907534
 40
0.0018751794
 40
0.0036825686
 40
0.0060752158
 40
0.0090518493
 40
0.0126105119
 40
0.0167496133
 40
0.0214679045
 40
0.0326366797
 40
0.0461053793
 40
0.0618473286
 40
0.079816129
 40
0.0999639423
 40
0.1222407808
 40
0.1465942403
 40
0.1729712695
 40
0.2315408121
 40
0.2973909914
 40
0.3699035357
 40
0.4483930363
 40
0.5321005008
 40
0.6202425726
 40
0.7119893283
 40
0.8064610938
 40
1.0
 40
1.0
 40
1.0
 40
1.0
 10
12.9622582901
 20
51.1405987833
 30
0.0
 10
12.9639402108
 20
51.1418717615
 30
0.0
 10
12.9689383993
 20
51.144033984
 30
0.0
 10
12.9783080889
 20
51.1467651004
 30
0.0
 10
12.9913422233
 20
51.1495303242
 30
0.0
 10
13.0159008649
 20
51.1536519945
 30
0.0
 10
13.0557653188
 20
51.1585204512
 30
0.0
 10
13.114478583
 20
51.1640787875
 30
0.0
 10
13.1876384195
 20
51.1696776002
 30
0.0
 10
13.2751779581
 20
51.175329888
 30
0.0
 10
13.3770542688
 20
51.1810219673
 30
0.0
 10
13.5414283227
 20
51.1891306965
 30
0.0
 10
13.7824668795
 20
51.1991357942
 30
0.0
 10
14.1140953081
 20
51.2108546195
 30
0.0
 10
14.5016305325
 20
51.2227460795
 30
0.0
 10
14.9440790561
 20
51.2345416514
 30
0.0
 10
15.4402568913
 20
51.2459389658
 30
0.0
 10
15.9889224467
 20
51.2569853965
 30
0.0
 10
16.588787484
 20
51.2680755869
 30
0.0
 10
17.4868638242
 20
51.2839987633
 30
0.0
 10
18.7259247904
 20
51.3047378308
 30
0.0
 10
20.3441305306
 20
51.3279662355
 30
0.0
 10
22.1260610283
 20
51.3504156768
 30
0.0
 10
24.0547523051
 20
51.3727847016
 30
0.0
 10
26.1118762341
 20
51.3967000602
 30
0.0
 10
28.2779571148
 20
51.4203636826
 30
0.0
 10
30.5325140225
 20
51.4429455775
 30
0.0
 10
33.6531757932
 20
51.4734839644
 30
0.0
 10
36.0199090971
 20
51.4964743922
 30
0.0
 10
37.6103150974
 20
51.5123000197
 30
0.0
  0
SPLINE
  5
2AE
100
AcDbEntity
  8
0
100
AcDbSpline
 62
7
  6
CONTINUOUS
 70
0
 71
3
 72
59
 73
55
 74
0
 42
0.0000001
 43
0.0000001
 44
0.0000000001
 40
0.0
 40
0.0
 40
0.0
 40
0.0
 40
0.0001335658
 40
0.0003357117
 40
0.0009545541
 40
0.0018635567
 40
0.0030634655
 40
0.0045538893
 40
0.0063343349
 40
0.008404615
 40
0.0107645002
 40
0.0163519309
 40
0.0230932334
 40
0.0309728639
 40
0.0399667466
 40
0.0500504076
 40
0.0611967455
 40
0.0733765327
 40
0.0865604917
 40
0.1158262485
 40
0.14875658
 40
0.1850220831
 40
0.2242518095
 40
0.2660860073
 40
0.3101430993
 40
0.3560095385
 40
0.403232559
 40
0.4999667481
 40
0.5967032991
 40
0.6439328988
 40
0.6897950217
 40
0.7338516405
 40
0.7756917398
 40
0.8149383447
 40
0.8512052672
 40
0.8841186971
 40
0.9133952156
 40
0.9265888771
 40
0.9387775307
 40
0.9499300439
 40
0.9600163329
 40
0.9690065988
 40
0.9768743609
 40
0.9836081468
 40
0.989200842
 40
0.9915670606
 40
0.9936449216
 40
0.9954330082
 40
0.9969299905
 40
0.9981347112
 40
0.9990464105
 40
0.9996655826
 40
0.9998671959
 40
1.0
 40
1.0
 40
1.0
 40
1.0
 10
61.2579725933
 20
52.6342368817
 30
0.0
 10
61.2562899897
 20
52.6329699812
 30
0.0
 10
61.2513837271
 20
52.6307773533
 30
0.0
 10
61.2369934152
 20
52.626450826
 30
0.0
 10
61.2100504746
 20
52.6216208701
 30
0.0
 10
61.1674322961
 20
52.6160144298
 30
0.0
 10
61.1109317005
 20
52.610387954
 30
0.0
 10
61.040666618
 20
52.6046747781
 30
0.0
 10
60.9566323688
 20
52.5989422807
 30
0.0
 10
60.8588649982
 20
52.5931858264
 30
0.0
 10
60.7011048598
 20
52.5850294537
 30
0.0
 10
60.4696879457
 20
52.5750647334
 30
0.0
 10
60.1512224526
 20
52.5636131654
 30
0.0
 10
59.7790116011
 20
52.5521246129
 30
0.0
 10
59.3540739189
 20
52.5406016028
 30
0.0
 10
58.8776065837
 20
52.5290606451
 30
0.0
 10
58.3508872147
 20
52.5175058691
 30
0.0
 10
57.7752681871
 20
52.5059388691
 30
0.0
 10
56.9139527024
 20
52.4899409142
 30
0.0
 10
55.7254326053
 20
52.4701762709
 30
0.0
 10
54.1729415244
 20
52.4471745657
 30
0.0
 10
52.4633115485
 20
52.4241362877
 30
0.0
 10
50.613263567
 20
52.4010589517
 30
0.0
 10
48.6403398171
 20
52.3779582201
 30
0.0
 10
46.5627537871
 20
52.3548438763
 30
0.0
 10
44.4001853037
 20
52.331729277
 30
0.0
 10
41.4069787944
 20
52.3006467752
 30
0.0
 10
37.6116231187
 20
52.2623330944
 30
0.0
 10
33.8161636484
 20
52.2240234789
 30
0.0
 10
30.8228841582
 20
52.1929454568
 30
0.0
 10
28.6602875347
 20
52.169822799
 30
0.0
 10
26.5826839736
 20
52.1467081206
 30
0.0
 10
24.609408429
 20
52.1236083896
 30
0.0
 10
22.7589787462
 20
52.1005366154
 30
0.0
 10
21.0493266963
 20
52.0775012922
 30
0.0
 10
19.4969103906
 20
52.0544777836
 30
0.0
 10
18.3083339407
 20
52.0347241987
 30
0.0
 10
17.4465557673
 20
52.0187310017
 30
0.0
 10
16.8705464508
 20
52.0071645846
 30
0.0
 10
16.3435483979
 20
51.9956087628
 30
0.0
 10
15.8669992445
 20
51.9840681593
 30
0.0
 10
15.4422642588
 20
51.9725492376
 30
0.0
 10
15.0704165314
 20
51.9610526374
 30
0.0
 10
14.7521742089
 20
51.9495915455
 30
0.0
 10
14.5206928042
 20
51.9396307482
 30
0.0
 10
14.3626295289
 20
51.9314804194
 30
0.0
 10
14.2645216341
 20
51.9257251352
 30
0.0
 10
14.1801429592
 20
51.9199943167
 30
0.0
 10
14.1095772218
 20
51.914282328
 30
0.0
 10
14.0528529871
 20
51.9086575178
 30
0.0
 10
14.0101111488
 20
51.903052937
 30
0.0
 10
13.9831254422
 20
51.8982251307
 30
0.0
 10
13.9687537832
 20
51.8938940582
 30
0.0
 10
13.9638683392
 20
51.8916995145
 30
0.0
 10
13.9622026755
 20
51.8904301435
 30
0.0
  0
SPLINE
  5
2AF
100
AcDbEntity
  8
0
100
AcDbSpline
 62
7
  6
CONTINUOUS
 70
0
 71
3
 72
34
 73
30
 74
0
 42
0.0000001
 43
0.0000001
 44
0.0000000001
 40
0.0
 40
0.0
 40
0.0
 40
0.0
 40
0.1935589003
 40
0.288038041
 40
0.3797701295
 40
0.4679081229
 40
0.5516345461
 40
0.6301444948
 40
0.7026368909
 40
0.7684605875
 40
0.8270464066
 40
0.8534410072
 40
0.8778098269
 40
0.9000890393
 40
0.9202161513
 40
0.9381487401
 40
0.9538621382
 40
0.9673319602
 40
0.9785276309
 40
0.9832617065
 40
0.987414147
 40
0.9909807383
 40
0.9939585948
 40
0.9963470003
 40
0.9981461644
 40
0.9988254734
 40
0.9993588964
 40
0.9997484615
 40
1.0
 40
1.0
 40
1.0
 40
1.0
 10
37.6103204009
 20
47.0123244479
 30
0.0
 10
39.2009242221
 20
47.0272290976
 30
0.0
 10
41.5679133955
 20
47.0508125135
 30
0.0
 10
44.6887246961
 20
47.0816720839
 30
0.0
 10
46.9432169912
 20
47.1048418546
 30
0.0
 10
49.1093386668
 20
47.1279703352
 30
0.0
 10
51.1667942942
 20
47.1510635412
 30
0.0
 10
53.0956654847
 20
47.1741421817
 30
0.0
 10
54.8774004238
 20
47.1972058986
 30
0.0
 10
56.4953836648
 20
47.2202354437
 30
0.0
 10
57.7345407042
 20
47.2399837969
 30
0.0
 10
58.6330342871
 20
47.2559841969
 30
0.0
 10
59.2331898367
 20
47.2675566911
 30
0.0
 10
59.7818288436
 20
47.2791160102
 30
0.0
 10
60.2775621297
 20
47.2906641457
 30
0.0
 10
60.7193214441
 20
47.3021973205
 30
0.0
 10
61.1063511588
 20
47.3136986692
 30
0.0
 10
61.4379895783
 20
47.3251591211
 30
0.0
 10
61.6793946044
 20
47.3351148575
 30
0.0
 10
61.8442299883
 20
47.3432685252
 30
0.0
 10
61.9464094891
 20
47.3490226765
 30
0.0
 10
62.034130197
 20
47.3547591259
 30
0.0
 10
62.1073243129
 20
47.3604581711
 30
0.0
 10
62.1659352988
 20
47.3661225181
 30
0.0
 10
62.2056448059
 20
47.3710840975
 30
0.0
 10
62.230033265
 20
47.3752810724
 30
0.0
 10
62.2429241677
 20
47.3780900965
 30
0.0
 10
62.2521409174
 20
47.3808574322
 30
0.0
 10
62.2570372882
 20
47.3830517777
 30
0.0
 10
62.2586523387
 20
47.384342021
 30
0.0
  0
SPLINE
  5
2B0
100
AcDbEntity
  8
0
100
AcDbSpline
 62
7
  6
CONTINUOUS
 70
0
 71
3
 72
33
 73
29
 74
0
 42
0.0000001
 43
0.0000001
 44
0.0000000001
 40
0.0
 40
0.0
 40
0.0
 40
0.0
 40
0.0002585978
 40
0.0006547744
 40
0.0018773083
 40
0.0036813882
 40
0.0060685226
 40
0.0090380466
 40
0.0125886001
 40
0.016719191
 40
0.0214291728
 40
0.0325843268
 40
0.0460473031
 40
0.061792633
 40
0.079770578
 40
0.0999295193
 40
0.1222146811
 40
0.146568001
 40
0.1729313115
 40
0.2314615358
 40
0.2973310956
 40
0.3698758394
 40
0.4483589142
 40
0.5320527228
 40
0.620202187
 40
0.7119720589
 40
0.806448845
 40
1.0
 40
1.0
 40
1.0
 40
1.0
 10
12.9626444977
 20
49.6402555513
 30
0.0
 10
12.964340021
 20
49.6415366721
 30
0.0
 10
12.9693487144
 20
49.6437287028
 30
0.0
 10
12.9841209355
 20
49.6480645397
 30
0.0
 10
13.0119320417
 20
49.652883828
 30
0.0
 10
13.0560330472
 20
49.6584925511
 30
0.0
 10
13.1146320832
 20
49.6641169979
 30
0.0
 10
13.187602041
 20
49.669831459
 30
0.0
 10
13.2749431594
 20
49.6755647765
 30
0.0
 10
13.3766081952
 20
49.6813232062
 30
0.0
 10
13.5407276652
 20
49.6894832545
 30
0.0
 10
13.7815373502
 20
49.6994520068
 30
0.0
 10
14.1130396977
 20
49.7109098878
 30
0.0
 10
14.5006377942
 20
49.7224006049
 30
0.0
 10
14.9432816971
 20
49.7339267193
 30
0.0
 10
15.4396842649
 20
49.7454717138
 30
0.0
 10
15.9884907388
 20
49.7570308419
 30
0.0
 10
16.5882935019
 20
49.7686021861
 30
0.0
 10
17.4859198541
 20
49.7846072359
 30
0.0
 10
18.7247040276
 20
49.8043797462
 30
0.0
 10
20.3429916781
 20
49.8273886155
 30
0.0
 10
22.125262248
 20
49.8504380036
 30
0.0
 10
24.0540196318
 20
49.8735248609
 30
0.0
 10
26.1110218392
 20
49.8966281063
 30
0.0
 10
28.2772184472
 20
49.9197599995
 30
0.0
 10
30.5320319759
 20
49.9429196576
 30
0.0
 10
33.6529818802
 20
49.973768194
 30
0.0
 10
36.0198202335
 20
49.9973829928
 30
0.0
 10
37.6103150457
 20
50.0122866085
 30
0.0
  0
SPLINE
  5
2B1
100
AcDbEntity
  8
0
100
AcDbSpline
 62
7
  6
CONTINUOUS
 70
0
 71
3
 72
34
 73
30
 74
0
 42
0.0000001
 43
0.0000001
 44
0.0000000001
 40
0.0
 40
0.0
 40
0.0
 40
0.0
 40
0.0972046678
 40
0.1935144182
 40
0.28797413
 40
0.3797285202
 40
0.4678646265
 40
0.551547571
 40
0.6300226869
 40
0.7025627891
 40
0.7684314848
 40
0.826964671
 40
0.8533309207
 40
0.8776882056
 40
0.8999783944
 40
0.9201434555
 40
0.9381286212
 40
0.9538822957
 40
0.9673547252
 40
0.9785202896
 40
0.9832358288
 40
0.9873722115
 40
0.9909287908
 40
0.9939045831
 40
0.9962982265
 40
0.9981090424
 40
0.9993384921
 40
0.9997381238
 40
1.0
 40
1.0
 40
1.0
 40
1.0
 10
37.6103150974
 20
39.5123000197
 30
0.0
 10
38.4090807392
 20
39.5201806754
 30
0.0
 10
39.9992616376
 20
39.5355148449
 30
0.0
 10
42.3656518666
 20
39.5585104806
 30
0.0
 10
44.6872486955
 20
39.5817267022
 30
0.0
 10
46.9416741929
 20
39.6048304627
 30
0.0
 10
49.107533956
 20
39.6279409251
 30
0.0
 10
51.1642613302
 20
39.6510536978
 30
0.0
 10
53.0928163441
 20
39.6741333272
 30
0.0
 10
54.8749674481
 20
39.6971769969
 30
0.0
 10
56.4932261739
 20
39.7201824767
 30
0.0
 10
57.732045636
 20
39.7399507457
 30
0.0
 10
58.6297486664
 20
39.7559522707
 30
0.0
 10
59.2296465483
 20
39.7675213872
 30
0.0
 10
59.7785745438
 20
39.7790783353
 30
0.0
 10
60.2751256663
 20
39.7906211684
 30
0.0
 10
60.7179456779
 20
39.8021451607
 30
0.0
 10
61.1057475853
 20
39.8136338569
 30
0.0
 10
61.4374802872
 20
39.8250897417
 30
0.0
 10
61.6784979327
 20
39.8350564474
 30
0.0
 10
61.8427957031
 20
39.8432143565
 30
0.0
 10
61.9446033303
 20
39.8489718189
 30
0.0
 10
62.0320928837
 20
39.8547043946
 30
0.0
 10
62.1052178266
 20
39.8604180378
 30
0.0
 10
62.1639767711
 20
39.8660428241
 30
0.0
 10
62.2082464066
 20
39.8716511379
 30
0.0
 10
62.2361959718
 20
39.8764728373
 30
0.0
 10
62.2510883914
 20
39.8808055757
 30
0.0
 10
62.2561542101
 20
39.8829955473
 30
0.0
 10
62.2578858876
 20
39.8842732602
 30
0.0
  0
SPLINE
  5
2B2
100
AcDbEntity
  8
0
100
AcDbSpline
 62
7
  6
CONTINUOUS
 70
0
 71
3
 72
59
 73
55
 74
0
 42
0.0000001
 43
0.0000001
 44
0.0000000001
 40
0.0
 40
0.0
 40
0.0
 40
0.0
 40
0.0001340446
 40
0.000337324
 40
0.0009615538
 40
0.0018807416
 40
0.0030950737
 40
0.0046035013
 40
0.0064045819
 40
0.008496702
 40
0.0108781621
 40
0.0165021579
 40
0.0232626307
 40
0.0311454333
 40
0.040135433
 40
0.0502149061
 40
0.0613656409
 40
0.0735650162
 40
0.0867770248
 40
0.1160857331
 40
0.1490049524
 40
0.1852530274
 40
0.2244933096
 40
0.2663423435
 40
0.3103863615
 40
0.3562258817
 40
0.4034353069
 40
0.5001363501
 40
0.5968296223
 40
0.6440261885
 40
0.6898645045
 40
0.7339161383
 40
0.7757437219
 40
0.8149469611
 40
0.8511851965
 40
0.8841149705
 40
0.9134044012
 40
0.9265879869
 40
0.9387569884
 40
0.949890678
 40
0.959968329
 40
0.9689660558
 40
0.9768572915
 40
0.9836158077
 40
0.989223411
 40
0.9915923757
 40
0.9936698187
 40
0.9954545784
 40
0.9969457993
 40
0.9981438252
 40
0.9990496979
 40
0.9996656045
 40
0.9998668061
 40
1.0
 40
1.0
 40
1.0
 40
1.0
 10
61.2583413581
 20
54.1339977579
 30
0.0
 10
61.2566501132
 20
54.132729871
 30
0.0
 10
61.2517160172
 20
54.1305368756
 30
0.0
 10
61.2372123722
 20
54.1262060064
 30
0.0
 10
61.2100008224
 20
54.1213805913
 30
0.0
 10
61.16690665
 20
54.1157785201
 30
0.0
 10
61.109731586
 20
54.1101555895
 30
0.0
 10
61.0386285513
 20
54.1044453576
 30
0.0
 10
60.9536401244
 20
54.0987163034
 30
0.0
 10
60.8548631183
 20
54.0929629751
 30
0.0
 10
60.6958431183
 20
54.0848188178
 30
0.0
 10
60.4632107932
 20
54.0748686985
 30
0.0
 10
60.1438231238
 20
54.0634167274
 30
0.0
 10
59.7713295962
 20
54.0519265334
 30
0.0
 10
59.3464788125
 20
54.0404053212
 30
0.0
 10
58.8700802853
 20
54.0288636562
 30
0.0
 10
58.3430606255
 20
54.0173093045
 30
0.0
 10
57.766633829
 20
54.0057504192
 30
0.0
 10
56.9039089005
 20
53.9897686641
 30
0.0
 10
55.7144708665
 20
53.9700334199
 30
0.0
 10
54.1617879722
 20
53.9470228711
 30
0.0
 10
52.4524805228
 20
53.9239818305
 30
0.0
 10
50.6023488453
 20
53.9009182287
 30
0.0
 10
48.6292754338
 20
53.8778410757
 30
0.0
 10
46.5521332526
 20
53.8547374357
 30
0.0
 10
44.3904590075
 20
53.8316237906
 30
0.0
 10
41.3984820395
 20
53.8005528029
 30
0.0
 10
37.6046319393
 20
53.7622699104
 30
0.0
 10
33.8109847563
 20
53.7239735862
 30
0.0
 10
30.8193521385
 20
53.6928995747
 30
0.0
 10
28.6577795118
 20
53.6697911266
 30
0.0
 10
26.5808743888
 20
53.6466962102
 30
0.0
 10
24.6086033986
 20
53.6236110783
 30
0.0
 10
22.7595495061
 20
53.6005341901
 30
0.0
 10
21.0508148685
 20
53.5775005602
 30
0.0
 10
19.4984244453
 20
53.5545082822
 30
0.0
 10
18.3095722294
 20
53.5347715279
 30
0.0
 10
17.4480788992
 20
53.5187760829
 30
0.0
 10
16.872848441
 20
53.5072094703
 30
0.0
 10
16.3466054642
 20
53.4956547789
 30
0.0
 10
15.8703825729
 20
53.4841170628
 30
0.0
 10
15.4453054695
 20
53.4726016207
 30
0.0
 10
15.0725875734
 20
53.461120465
 30
0.0
 10
14.7533561368
 20
53.4496740552
 30
0.0
 10
14.5212107799
 20
53.4397178432
 30
0.0
 10
14.3628790068
 20
53.431566236
 30
0.0
 10
14.2647889601
 20
53.4258130984
 30
0.0
 10
14.1805623129
 20
53.4200850142
 30
0.0
 10
14.1102474693
 20
53.4143744934
 30
0.0
 10
14.0538148668
 20
53.408749402
 30
0.0
 10
14.0113233657
 20
53.4031445063
 30
0.0
 10
13.9844943463
 20
53.3983126198
 30
0.0
 10
13.9701729297
 20
53.3939866874
 30
0.0
 10
13.9652909106
 20
53.3917939635
 30
0.0
 10
13.9636131194
 20
53.3905305024
 30
0.0
  0
SPLINE
  5
2B3
100
AcDbEntity
  8
0
100
AcDbSpline
 62
7
  6
CONTINUOUS
 70
0
 71
3
 72
34
 73
30
 74
0
 42
0.0000001
 43
0.0000001
 44
0.0000000001
 40
0.0
 40
0.0
 40
0.0
 40
0.0
 40
0.0002624783
 40
0.0006636122
 40
0.0018991885
 40
0.0037209802
 40
0.0061312832
 40
0.0091302599
 40
0.0127171478
 40
0.0168889723
 40
0.0216415173
 40
0.0328714081
 40
0.0463718914
 40
0.0621125946
 40
0.0800692111
 40
0.1002170566
 40
0.1225133474
 40
0.1468956182
 40
0.1733001415
 40
0.231895438
 40
0.2977157769
 40
0.3701931665
 40
0.4486768504
 40
0.5323670463
 40
0.6204604504
 40
0.7121411001
 40
0.8065635413
 40
0.902842101
 40
1.0
 40
1.0
 40
1.0
 40
1.0
 10
12.9622954646
 20
48.1404872098
 30
0.0
 10
12.9640324802
 20
48.1417660831
 30
0.0
 10
12.9691181369
 20
48.1439551827
 30
0.0
 10
12.9840805515
 20
48.1482884217
 30
0.0
 10
13.0121866609
 20
48.1531080705
 30
0.0
 10
13.0567364661
 20
48.1587155966
 30
0.0
 10
13.1159163107
 20
48.1643386982
 30
0.0
 10
13.189620844
 20
48.1700507937
 30
0.0
 10
13.2778446492
 20
48.1757791516
 30
0.0
 10
13.3805000793
 20
48.1815319768
 30
0.0
 10
13.5459266894
 20
48.1896777068
 30
0.0
 10
13.7880133279
 20
48.1996271433
 30
0.0
 10
14.1204048117
 20
48.2110810761
 30
0.0
 10
14.5081026073
 20
48.2225757085
 30
0.0
 10
14.9504474965
 20
48.2341017811
 30
0.0
 10
15.4466813588
 20
48.2456426078
 30
0.0
 10
15.9957331265
 20
48.2571946568
 30
0.0
 10
16.5962117291
 20
48.2687597486
 30
0.0
 10
17.4949611862
 20
48.2847484975
 30
0.0
 10
18.734230507
 20
48.304483248
 30
0.0
 10
20.3521150703
 20
48.3274995961
 30
0.0
 10
22.1334549958
 20
48.3505469912
 30
0.0
 10
24.0616587
 20
48.3736068462
 30
0.0
 10
26.118201409
 20
48.3967034517
 30
0.0
 10
28.2832020057
 20
48.419794945
 30
0.0
 10
30.5364039128
 20
48.4428860081
 30
0.0
 10
32.8568721838
 20
48.4661672332
 30
0.0
 10
35.2223583379
 20
48.489017609
 30
0.0
 10
36.8119270233
 20
48.5042969488
 30
0.0
 10
37.610320899
 20
48.5123203003
 30
0.0
  0
SPLINE
  5
2B4
100
AcDbEntity
  8
0
100
AcDbSpline
 62
7
  6
CONTINUOUS
 70
0
 71
3
 72
33
 73
29
 74
0
 42
0.0000001
 43
0.0000001
 44
0.0000000001
 40
0.0
 40
0.0
 40
0.0
 40
0.0
 40
0.1934837273
 40
0.2879345609
 40
0.3796648672
 40
0.4677757424
 40
0.5514551616
 40
0.6299475454
 40
0.7024693573
 40
0.7683055761
 40
0.8268468807
 40
0.8532316579
 40
0.8776106004
 40
0.8999148398
 40
0.9200759075
 40
0.9380416854
 40
0.9537763344
 40
0.9672454698
 40
0.9784258053
 40
0.9831533252
 40
0.9873035501
 40
0.9908749349
 40
0.9938656034
 40
0.9962731573
 40
0.9980958449
 40
0.9993340376
 40
0.9997365099
 40
1.0
 40
1.0
 40
1.0
 40
1.0
 10
37.6103150457
 20
44.0122866085
 30
0.0
 10
39.2002979947
 20
44.0271854279
 30
0.0
 10
41.5664316415
 20
44.050812965
 30
0.0
 10
44.6863720517
 20
44.0816385582
 30
0.0
 10
46.9403898681
 20
44.104797766
 30
0.0
 10
49.1058834954
 20
44.1279235726
 30
0.0
 10
51.1625815436
 20
44.151016657
 30
0.0
 10
53.0911601319
 20
44.1740866115
 30
0.0
 10
54.8730920952
 20
44.1971333916
 30
0.0
 10
56.491051225
 20
44.2201469136
 30
0.0
 10
57.7298619526
 20
44.2399073082
 30
0.0
 10
58.6279904475
 20
44.255901873
 30
0.0
 10
59.2283531116
 20
44.2674676147
 30
0.0
 10
59.7775592052
 20
44.2790205621
 30
0.0
 10
60.2740493318
 20
44.290562284
 30
0.0
 10
60.7165346278
 20
44.3020895467
 30
0.0
 10
61.1040057156
 20
44.3135833494
 30
0.0
 10
61.4356867509
 20
44.3250405663
 30
0.0
 10
61.6769051202
 20
44.3350016556
 30
0.0
 10
61.8415423492
 20
44.3431541231
 30
0.0
 10
61.9436876685
 20
44.3489104297
 30
0.0
 10
62.0315384604
 20
44.3546421623
 30
0.0
 10
62.1050250847
 20
44.3603551761
 30
0.0
 10
62.1641215306
 20
44.3659792392
 30
0.0
 10
62.2086785202
 20
44.3715872449
 30
0.0
 10
62.2368247686
 20
44.3764066874
 30
0.0
 10
62.2518302851
 20
44.3807388969
 30
0.0
 10
62.2569368014
 20
44.3829274513
 30
0.0
 10
62.2586837882
 20
44.3842068446
 30
0.0
  0
SPLINE
  5
2B5
100
AcDbEntity
  8
0
100
AcDbSpline
 62
7
  6
CONTINUOUS
 70
0
 71
3
 72
18
 73
14
 74
0
 42
0.0000001
 43
0.0000001
 44
0.0000000001
 40
0.0
 40
0.0
 40
0.0
 40
0.0
 40
0.0269945941
 40
0.0563432329
 40
0.0898495735
 40
0.1286609309
 40
0.1733725752
 40
0.224242743
 40
0.344114318
 40
0.4862671235
 40
0.646626253
 40
0.8200272666
 40
1.0
 40
1.0
 40
1.0
 40
1.0
 10
50.7493631883
 20
68.5127721349
 30
0.0
 10
50.7641378224
 20
68.5127721349
 30
0.0
 10
50.7951515349
 20
68.5074950763
 30
0.0
 10
50.8394632946
 20
68.4849008448
 30
0.0
 10
50.8820563086
 20
68.4484940788
 30
0.0
 10
50.922832467
 20
68.3987907894
 30
0.0
 10
50.9617969684
 20
68.3362181036
 30
0.0
 10
51.0138037897
 20
68.2302176308
 30
0.0
 10
51.0702385288
 20
68.0679400986
 30
0.0
 10
51.1233563963
 20
67.8426962978
 30
0.0
 10
51.1629752949
 20
67.5850080349
 30
0.0
 10
51.1873996663
 20
67.3047316952
 30
0.0
 10
51.1928879554
 20
67.1112744972
 30
0.0
 10
51.1928879554
 20
67.0127721349
 30
0.0
  0
SPLINE
  5
2B6
100
AcDbEntity
  8
0
100
AcDbSpline
 62
7
  6
CONTINUOUS
 70
0
 71
3
 72
34
 73
30
 74
0
 42
0.0000001
 43
0.0000001
 44
0.0000000001
 40
0.0
 40
0.0
 40
0.0
 40
0.0
 40
0.0971694354
 40
0.1934433984
 40
0.2878559153
 40
0.3795616412
 40
0.4676902103
 40
0.5513759496
 40
0.6298083465
 40
0.7023075883
 40
0.7681896159
 40
0.8267825446
 40
0.8531579248
 40
0.8775032439
 40
0.8997766631
 40
0.919936868
 40
0.9379362975
 40
0.9537219129
 40
0.9672417788
 40
0.9784603727
 40
0.9831993736
 40
0.9873543964
 40
0.990922748
 40
0.9939032999
 40
0.9962972271
 40
0.9981065877
 40
0.9993355593
 40
0.9997361235
 40
1.0
 40
1.0
 40
1.0
 40
1.0
 10
37.610320899
 20
42.5123203003
 30
0.0
 10
38.4087612439
 20
42.5203441188
 30
0.0
 10
39.9982909218
 20
42.5356044701
 30
0.0
 10
42.3636094992
 20
42.5584404092
 30
0.0
 10
44.6840238957
 20
42.5817365737
 30
0.0
 10
46.9375029891
 20
42.6048191171
 30
0.0
 10
49.1028310259
 20
42.627904489
 30
0.0
 10
51.1590800967
 20
42.6510044452
 30
0.0
 10
53.0868883215
 20
42.6740836174
 30
0.0
 10
54.8683855708
 20
42.6971222415
 30
0.0
 10
56.4868396032
 20
42.7201166647
 30
0.0
 10
57.7262818099
 20
42.7398592625
 30
0.0
 10
58.6244140279
 20
42.7558565675
 30
0.0
 10
59.2241249986
 20
42.7674250599
 30
0.0
 10
59.7727532977
 20
42.7789816889
 30
0.0
 10
60.2692226146
 20
42.7905213932
 30
0.0
 10
60.7123636258
 20
42.8020388812
 30
0.0
 10
61.1009188103
 20
42.8135221877
 30
0.0
 10
61.4337261009
 20
42.8249716707
 30
0.0
 10
61.6757529587
 20
42.8349287794
 30
0.0
 10
61.8408265691
 20
42.8430817546
 30
0.0
 10
61.9430734611
 20
42.8488354479
 30
0.0
 10
62.0308490307
 20
42.8545646162
 30
0.0
 10
62.1041098475
 20
42.8602768259
 30
0.0
 10
62.1628951337
 20
42.8659015482
 30
0.0
 10
62.2071512864
 20
42.8715089318
 30
0.0
 10
62.2350867888
 20
42.8763355828
 30
0.0
 10
62.2500036673
 20
42.8806655667
 30
0.0
 10
62.2550913143
 20
42.8828544898
 30
0.0
 10
62.2568478496
 20
42.8841258892
 30
0.0
  0
SPLINE
  5
2B7
100
AcDbEntity
  8
0
100
AcDbSpline
 62
7
  6
CONTINUOUS
 70
0
 71
3
 72
59
 73
55
 74
0
 42
0.0000001
 43
0.0000001
 44
0.0000000001
 40
0.0
 40
0.0
 40
0.0
 40
0.0
 40
0.0001331953
 40
0.0003343974
 40
0.0009503017
 40
0.0018561666
 40
0.0030541785
 40
0.0045453783
 40
0.0063300992
 40
0.0084074863
 40
0.0107763901
 40
0.0163839057
 40
0.0231424325
 40
0.0310336585
 40
0.0400313138
 40
0.0501088273
 40
0.0612424038
 40
0.0734113638
 40
0.0865949788
 40
0.1158841145
 40
0.1488138732
 40
0.1850523483
 40
0.2242558733
 40
0.2660837136
 40
0.3101355199
 40
0.3559738549
 40
0.4031702958
 40
0.4998630444
 40
0.596563388
 40
0.6437728597
 40
0.6896125539
 40
0.7336569157
 40
0.7755061672
 40
0.8147464783
 40
0.8509943913
 40
0.8839134065
 40
0.9132221676
 40
0.9264342192
 40
0.9386335854
 40
0.9497843538
 40
0.9598640023
 40
0.9688542072
 40
0.976737154
 40
0.983497703
 40
0.9891217165
 40
0.9915031668
 40
0.9935952711
 40
0.9953963382
 40
0.9969047626
 40
0.9981191101
 40
0.99903834
 40
0.9996626352
 40
0.9998659389
 40
1.0
 40
1.0
 40
1.0
 40
1.0
 10
61.2570152054
 20
55.6341134851
 30
0.0
 10
61.2553373769
 20
55.6328500369
 30
0.0
 10
61.2504553249
 20
55.630657327
 30
0.0
 10
61.2361339025
 20
55.6263314224
 30
0.0
 10
61.2093050387
 20
55.6214995537
 30
0.0
 10
61.166813913
 20
55.6158946837
 30
0.0
 10
61.110381987
 20
55.6102696128
 30
0.0
 10
61.0400683063
 20
55.6045591341
 30
0.0
 10
60.9558434867
 20
55.5988310611
 30
0.0
 10
60.8577558945
 20
55.5930779275
 30
0.0
 10
60.699427347
 20
55.5849263069
 30
0.0
 10
60.467284161
 20
55.5749700771
 30
0.0
 10
60.1480540781
 20
55.5635238605
 30
0.0
 10
59.7753372827
 20
55.5520427382
 30
0.0
 10
59.3502636145
 20
55.5405273334
 30
0.0
 10
58.8740457869
 20
55.5289895982
 30
0.0
 10
58.3478073986
 20
55.5174349529
 30
0.0
 10
57.7725788964
 20
55.5058683853
 30
0.0
 10
56.9110903809
 20
55.4898731595
 30
0.0
 10
55.7222425648
 20
55.4701360906
 30
0.0
 10
54.1698532059
 20
55.4471438876
 30
0.0
 10
52.4611104696
 20
55.4241101114
 30
0.0
 10
50.6120441834
 20
55.4010330401
 30
0.0
 10
48.639761855
 20
55.3779477719
 30
0.0
 10
46.5628495979
 20
55.3548527767
 30
0.0
 10
44.4012758596
 20
55.3317443108
 30
0.0
 10
41.4096530788
 20
55.3006704043
 30
0.0
 10
37.6160270387
 20
55.2623743034
 30
0.0
 10
33.8221953721
 20
55.2240915537
 30
0.0
 10
30.8302258625
 20
55.1930207227
 30
0.0
 10
28.6685426499
 20
55.169906967
 30
0.0
 10
26.5913888069
 20
55.1468032338
 30
0.0
 10
24.6183060234
 20
55.1237259762
 30
0.0
 10
22.7681729549
 20
55.1006623958
 30
0.0
 10
21.0588707659
 20
55.077621474
 30
0.0
 10
19.5061927629
 20
55.0546109629
 30
0.0
 10
18.3167563943
 20
55.0348759017
 30
0.0
 10
17.4540300695
 20
55.0188942213
 30
0.0
 10
16.877602191
 20
55.0073352726
 30
0.0
 10
16.350579366
 20
54.9957807768
 30
0.0
 10
15.8741742915
 20
54.9842390816
 30
0.0
 10
15.4493152179
 20
54.972717836
 30
0.0
 10
15.0768149664
 20
54.9612275724
 30
0.0
 10
14.7574235333
 20
54.9497755337
 30
0.0
 10
14.5247898756
 20
54.9398253519
 30
0.0
 10
14.3657699978
 20
54.9316811322
 30
0.0
 10
14.2669936079
 20
54.925927768
 30
0.0
 10
14.1820056938
 20
54.9201986786
 30
0.0
 10
14.1109026799
 20
54.9144883947
 30
0.0
 10
14.0537267616
 20
54.908865424
 30
0.0
 10
14.0106306458
 20
54.903263217
 30
0.0
 10
13.9834169832
 20
54.8984379494
 30
0.0
 10
13.9689115755
 20
54.894107103
 30
0.0
 10
13.9639767868
 20
54.8919141206
 30
0.0
 10
13.9622852182
 20
54.8906462305
 30
0.0
  0
SPLINE
  5
2B8
100
AcDbEntity
  8
0
100
AcDbSpline
 62
7
  6
CONTINUOUS
 70
0
 71
3
 72
33
 73
29
 74
0
 42
0.0000001
 43
0.0000001
 44
0.0000000001
 40
0.0
 40
0.0
 40
0.0
 40
0.0
 40
0.0002586051
 40
0.0006536071
 40
0.0018714068
 40
0.0036698329
 40
0.0060531421
 40
0.0090234167
 40
0.0125818541
 40
0.0167273779
 40
0.0214572997
 40
0.032658992
 40
0.0461636384
 40
0.0619358624
 40
0.0799237261
 40
0.1000741315
 40
0.1223394082
 40
0.1466781907
 40
0.173048629
 40
0.2316367048
 40
0.2975203183
 40
0.3700271308
 40
0.4484723507
 40
0.5321756416
 40
0.6203259452
 40
0.7120567896
 40
0.8064969601
 40
1.0
 40
1.0
 40
1.0
 40
1.0
 10
12.9636192908
 20
46.6403995339
 30
0.0
 10
12.9653180469
 20
46.6416763258
 30
0.0
 10
12.9703135036
 20
46.64386855
 30
0.0
 10
12.9850368925
 20
46.6482035558
 30
0.0
 10
13.0127481448
 20
46.6530264212
 30
0.0
 10
13.0567307784
 20
46.6586344641
 30
0.0
 10
13.1152551823
 20
46.664258667
 30
0.0
 10
13.1882621257
 20
46.6699722146
 30
0.0
 10
13.2757940577
 20
46.6757026312
 30
0.0
 10
13.377807187
 20
46.6814578707
 30
0.0
 10
13.5425901671
 20
46.689614338
 30
0.0
 10
13.7842801294
 20
46.6995747599
 30
0.0
 10
14.1167159603
 20
46.7110274476
 30
0.0
 10
14.5049440938
 20
46.7225140394
 30
0.0
 10
14.9478031144
 20
46.734034964
 30
0.0
 10
15.4440340695
 20
46.7455781412
 30
0.0
 10
15.9924658074
 20
46.7571383148
 30
0.0
 10
16.5920205924
 20
46.7687104256
 30
0.0
 10
17.4900261926
 20
46.784713501
 30
0.0
 10
18.7294114676
 20
46.8044629195
 30
0.0
 10
20.34791468
 20
46.8274630134
 30
0.0
 10
22.129607733
 20
46.8505106491
 30
0.0
 10
24.0577442105
 20
46.873600909
 30
0.0
 10
26.114439307
 20
46.8966878929
 30
0.0
 10
28.2803148083
 20
46.9198077619
 30
0.0
 10
30.5344248545
 20
46.9429608552
 30
0.0
 10
33.6542348896
 20
46.9737995003
 30
0.0
 10
36.0202836005
 20
46.9974251114
 30
0.0
 10
37.6103204009
 20
47.0123244479
 30
0.0
  0
SPLINE
  5
2B9
100
AcDbEntity
  8
0
100
AcDbSpline
 62
7
  6
CONTINUOUS
 70
0
 71
3
 72
34
 73
30
 74
0
 42
0.0000001
 43
0.0000001
 44
0.0000000001
 40
0.0
 40
0.0
 40
0.0
 40
0.0
 40
0.1935589003
 40
0.288038041
 40
0.3797701295
 40
0.4679081229
 40
0.5516345461
 40
0.6301444948
 40
0.7026368909
 40
0.7684605875
 40
0.8270464066
 40
0.8534410072
 40
0.8778098269
 40
0.9000890393
 40
0.9202161513
 40
0.9381487401
 40
0.9538621382
 40
0.9673319602
 40
0.9785276309
 40
0.9832617065
 40
0.987414147
 40
0.9909807383
 40
0.9939585948
 40
0.9963470003
 40
0.9981461644
 40
0.9988254734
 40
0.9993588964
 40
0.9997484615
 40
1.0
 40
1.0
 40
1.0
 40
1.0
 10
37.6103204009
 20
41.0123244479
 30
0.0
 10
39.2009242221
 20
41.0272290976
 30
0.0
 10
41.5679133955
 20
41.0508125135
 30
0.0
 10
44.6887246961
 20
41.0816720839
 30
0.0
 10
46.9432169912
 20
41.1048418546
 30
0.0
 10
49.1093386668
 20
41.1279703352
 30
0.0
 10
51.1667942942
 20
41.1510635412
 30
0.0
 10
53.0956654847
 20
41.1741421817
 30
0.0
 10
54.8774004238
 20
41.1972058986
 30
0.0
 10
56.4953836648
 20
41.2202354437
 30
0.0
 10
57.7345407042
 20
41.2399837969
 30
0.0
 10
58.6330342871
 20
41.2559841969
 30
0.0
 10
59.2331898367
 20
41.2675566911
 30
0.0
 10
59.7818288436
 20
41.2791160102
 30
0.0
 10
60.2775621297
 20
41.2906641457
 30
0.0
 10
60.7193214441
 20
41.3021973205
 30
0.0
 10
61.1063511588
 20
41.3136986692
 30
0.0
 10
61.4379895783
 20
41.3251591211
 30
0.0
 10
61.6793946044
 20
41.3351148575
 30
0.0
 10
61.8442299883
 20
41.3432685252
 30
0.0
 10
61.9464094891
 20
41.3490226765
 30
0.0
 10
62.034130197
 20
41.3547591259
 30
0.0
 10
62.1073243129
 20
41.3604581711
 30
0.0
 10
62.1659352988
 20
41.3661225181
 30
0.0
 10
62.2056448059
 20
41.3710840975
 30
0.0
 10
62.230033265
 20
41.3752810724
 30
0.0
 10
62.2429241677
 20
41.3780900965
 30
0.0
 10
62.2521409174
 20
41.3808574322
 30
0.0
 10
62.2570372882
 20
41.3830517777
 30
0.0
 10
62.2586523387
 20
41.384342021
 30
0.0
  0
SPLINE
  5
2BA
100
AcDbEntity
  8
0
100
AcDbSpline
 62
7
  6
CONTINUOUS
 70
0
 71
3
 72
34
 73
30
 74
0
 42
0.0000001
 43
0.0000001
 44
0.0000000001
 40
0.0
 40
0.0
 40
0.0
 40
0.0
 40
0.0002624783
 40
0.0006636122
 40
0.0018991885
 40
0.0037209802
 40
0.0061312832
 40
0.0091302599
 40
0.0127171478
 40
0.0168889723
 40
0.0216415173
 40
0.0328714081
 40
0.0463718914
 40
0.0621125946
 40
0.0800692111
 40
0.1002170566
 40
0.1225133474
 40
0.1468956182
 40
0.1733001415
 40
0.231895438
 40
0.2977157769
 40
0.3701931665
 40
0.4486768504
 40
0.5323670463
 40
0.6204604504
 40
0.7121411001
 40
0.8065635413
 40
0.902842101
 40
1.0
 40
1.0
 40
1.0
 40
1.0
 10
12.9622954646
 20
42.1404872098
 30
0.0
 10
12.9640324802
 20
42.1417660831
 30
0.0
 10
12.9691181369
 20
42.1439551827
 30
0.0
 10
12.9840805515
 20
42.1482884217
 30
0.0
 10
13.0121866609
 20
42.1531080705
 30
0.0
 10
13.0567364661
 20
42.1587155966
 30
0.0
 10
13.1159163107
 20
42.1643386982
 30
0.0
 10
13.189620844
 20
42.1700507937
 30
0.0
 10
13.2778446492
 20
42.1757791516
 30
0.0
 10
13.3805000793
 20
42.1815319768
 30
0.0
 10
13.5459266894
 20
42.1896777068
 30
0.0
 10
13.7880133279
 20
42.1996271433
 30
0.0
 10
14.1204048117
 20
42.2110810761
 30
0.0
 10
14.5081026073
 20
42.2225757085
 30
0.0
 10
14.9504474965
 20
42.2341017811
 30
0.0
 10
15.4466813588
 20
42.2456426078
 30
0.0
 10
15.9957331265
 20
42.2571946568
 30
0.0
 10
16.5962117291
 20
42.2687597486
 30
0.0
 10
17.4949611862
 20
42.2847484975
 30
0.0
 10
18.734230507
 20
42.304483248
 30
0.0
 10
20.3521150703
 20
42.3274995961
 30
0.0
 10
22.1334549958
 20
42.3505469912
 30
0.0
 10
24.0616587
 20
42.3736068462
 30
0.0
 10
26.118201409
 20
42.3967034517
 30
0.0
 10
28.2832020057
 20
42.419794945
 30
0.0
 10
30.5364039128
 20
42.4428860081
 30
0.0
 10
32.8568721838
 20
42.4661672332
 30
0.0
 10
35.2223583379
 20
42.489017609
 30
0.0
 10
36.8119270233
 20
42.5042969488
 30
0.0
 10
37.610320899
 20
42.5123203003
 30
0.0
  0
ENDSEC
  0
SECTION
  2
OBJECTS
  0
DICTIONARY
  5
C
100
AcDbDictionary
280
0
281
1
  3
ACAD_GROUP
350
D
  3
ACAD_MLINESTYLE
350
17
  3
ACAD_LAYOUT
350
1A
  3
ACAD_PLOTSETTINGS
350
19
  3
ACAD_PLOTSTYLENAME
350
E
  0
DICTIONARY
  5
D
102
{ACAD_REACTORS
330
C
102
}
100
AcDbDictionary
280
0
281
1
  0
ACDBDICTIONARYWDFLT
  5
E
102
{ACAD_REACTORS
330
C
102
}
100
AcDbDictionary
281
1
  3
Normal
350
F
100
AcDbDictionaryWithDefault
340
F
  0
DICTIONARY
  5
17
102
{ACAD_REACTORS
330
C
102
}
100
AcDbDictionary
280
0
281
1
  3
Standard
350
18
  0
DICTIONARY
  5
19
102
{ACAD_REACTORS
330
C
102
}
100
AcDbDictionary
281
1
  0
DICTIONARY
  5
1A
102
{ACAD_REACTORS
330
C
102
}
100
AcDbDictionary
281
1
  3
Model
350
2BB
  3
Layout1
350
2BC
  0
ACDBPLACEHOLDER
  5
F
102
{ACAD_REACTORS
330
E
102
}
  0
MLINESTYLE
  5
18
102
{ACAD_REACTORS
330
17
102
}
100
AcDbMlineStyle
  2
STANDARD
 70
0
  3

 62
256
 51
90.0
 52
90.0
 71
2
 49
0.5
 62
256
  6
BYLAYER
 49
-0.5
 62
256
  6
BYLAYER
  0
LAYOUT
  5
2BB
102
{ACAD_REACTORS
330
1A
102
}
100
AcDbPlotSettings
  1

  2
none_device
  4

  6

 40
0.0
 41
0.0
 42
0.0
 43
0.0
 44
210.0
 45
297.0
 46
0.0
 47
0.0
 48
0.0
 49
0.0
140
0.0
141
0.0
142
1.0
143
1.0
 70
1024
 72
1
 73
0
 74
0
  7

 75
0
147
1.0
148
0.0
149
0.0
100
AcDbLayout
  1
Model
 70
0
 71
0
 10
0.0
 20
0.0
 11
210.0
 21
297.0
 12
0.0
 22
0.0
 32
0.0
 14
0.0
 24
0.0
 34
0.0
 15
0.0
 25
0.0
 35
0.0
146
0.0
 13
0.0
 23
0.0
 33
0.0
 16
1.0
 26
0.0
 36
0.0
 17
0.0
 27
1.0
 37
0.0
 76
0
330
210
345
0
346
0
  0
LAYOUT
  5
2BC
102
{ACAD_REACTORS
330
1A
102
}
100
AcDbPlotSettings
  1

  2
none_device
  4

  6

 40
0.0
 41
0.0
 42
0.0
 43
0.0
 44
210.0
 45
297.0
 46
0.0
 47
0.0
 48
0.0
 49
0.0
140
0.0
141
0.0
142
1.0
143
1.0
 70
0
 72
1
 73
0
 74
0
  7

 75
0
147
1.0
148
0.0
149
0.0
100
AcDbLayout
  1
Layout1
 70
0
 71
1
 10
0.0
 20
0.0
 11
210.0
 21
297.0
 12
0.0
 22
0.0
 32
0.0
 14
0.0
 24
0.0
 34
0.0
 15
0.0
 25
0.0
 35
0.0
146
0.0
 13
0.0
 23
0.0
 33
0.0
 16
1.0
 26
0.0
 36
0.0
 17
0.0
 27
1.0
 37
0.0
 76
0
330
211
345
0
346
0
  0
ENDSEC
  0
EOF
